  0
SECTION
  2
HEADER
  9
$ACADVER
  1
AC1018
  9
$ACADMAINTVER
 70
     0
  9
$DWGCODEPAGE
  3
ANSI_1252
  9
$INSBASE
 10
0.0
 20
0.0
 30
0.0
  9
$EXTMIN
 10
-39.41874269934067
 20
-0.0000000004328911
 30
0.0
  9
$EXTMAX
 10
119.5217617550869
 20
120.228434693909
 30
0.0
  9
$LIMMIN
 10
0.0
 20
0.0
  9
$LIMMAX
 10
12.0
 20
9.0
  9
$ORTHOMODE
 70
     0
  9
$REGENMODE
 70
     1
  9
$FILLMODE
 70
     1
  9
$QTEXTMODE
 70
     0
  9
$MIRRTEXT
 70
     1
  9
$LTSCALE
 40
0.0393700787401575
  9
$ATTMODE
 70
     1
  9
$TEXTSIZE
 40
0.2
  9
$TRACEWID
 40
0.05
  9
$TEXTSTYLE
  7
Standard
  9
$CLAYER
  8
Default
  9
$CELTYPE
  6
ByLayer
  9
$CECOLOR
 62
   256
  9
$CELTSCALE
 40
1.0
  9
$DISPSILH
 70
     0
  9
$DIMSCALE
 40
1.0
  9
$DIMASZ
 40
0.18
  9
$DIMEXO
 40
0.0625
  9
$DIMDLI
 40
0.38
  9
$DIMRND
 40
0.0
  9
$DIMDLE
 40
0.0
  9
$DIMEXE
 40
0.18
  9
$DIMTP
 40
0.0
  9
$DIMTM
 40
0.0
  9
$DIMTXT
 40
0.18
  9
$DIMCEN
 40
0.09
  9
$DIMTSZ
 40
0.0
  9
$DIMTOL
 70
     0
  9
$DIMLIM
 70
     0
  9
$DIMTIH
 70
     1
  9
$DIMTOH
 70
     1
  9
$DIMSE1
 70
     0
  9
$DIMSE2
 70
     0
  9
$DIMTAD
 70
     0
  9
$DIMZIN
 70
     0
  9
$DIMBLK
  1

  9
$DIMASO
 70
     1
  9
$DIMSHO
 70
     1
  9
$DIMPOST
  1

  9
$DIMAPOST
  1

  9
$DIMALT
 70
     0
  9
$DIMALTD
 70
     2
  9
$DIMALTF
 40
25.4
  9
$DIMLFAC
 40
1.0
  9
$DIMTOFL
 70
     0
  9
$DIMTVP
 40
0.0
  9
$DIMTIX
 70
     0
  9
$DIMSOXD
 70
     0
  9
$DIMSAH
 70
     0
  9
$DIMBLK1
  1

  9
$DIMBLK2
  1

  9
$DIMSTYLE
  2
Standard
  9
$DIMCLRD
 70
     0
  9
$DIMCLRE
 70
     0
  9
$DIMCLRT
 70
     0
  9
$DIMTFAC
 40
1.0
  9
$DIMGAP
 40
0.09
  9
$DIMJUST
 70
     0
  9
$DIMSD1
 70
     0
  9
$DIMSD2
 70
     0
  9
$DIMTOLJ
 70
     1
  9
$DIMTZIN
 70
     0
  9
$DIMALTZ
 70
     0
  9
$DIMALTTZ
 70
     0
  9
$DIMUPT
 70
     0
  9
$DIMDEC
 70
     4
  9
$DIMTDEC
 70
     4
  9
$DIMALTU
 70
     2
  9
$DIMALTTD
 70
     2
  9
$DIMTXSTY
  7
Standard
  9
$DIMAUNIT
 70
     0
  9
$DIMADEC
 70
     0
  9
$DIMALTRND
 40
0.0
  9
$DIMAZIN
 70
     0
  9
$DIMDSEP
 70
    46
  9
$DIMATFIT
 70
     3
  9
$DIMFRAC
 70
     0
  9
$DIMLDRBLK
  1

  9
$DIMLUNIT
 70
     2
  9
$DIMLWD
 70
    -2
  9
$DIMLWE
 70
    -2
  9
$DIMTMOVE
 70
     2
  9
$LUNITS
 70
     2
  9
$LUPREC
 70
     3
  9
$SKETCHINC
 40
0.1
  9
$FILLETRAD
 40
0.5
  9
$AUNITS
 70
     0
  9
$AUPREC
 70
     0
  9
$MENU
  1
.
  9
$ELEVATION
 40
0.0
  9
$PELEVATION
 40
0.0
  9
$THICKNESS
 40
0.0
  9
$LIMCHECK
 70
     0
  9
$CHAMFERA
 40
0.5
  9
$CHAMFERB
 40
0.5
  9
$CHAMFERC
 40
1.0
  9
$CHAMFERD
 40
0.0
  9
$SKPOLY
 70
     0
  9
$TDCREATE
 40
2458179.478958484
  9
$TDUCREATE
 40
2458179.687291817
  9
$TDUPDATE
 40
2458179.478958495
  9
$TDUUPDATE
 40
2458179.687291829
  9
$TDINDWG
 40
0.0000000116
  9
$TDUSRTIMER
 40
0.0000000116
  9
$USRTIMER
 70
     1
  9
$ANGBASE
 50
0.0
  9
$ANGDIR
 70
     0
  9
$PDMODE
 70
     0
  9
$PDSIZE
 40
0.0
  9
$PLINEWID
 40
0.0
  9
$SPLFRAME
 70
     0
  9
$SPLINETYPE
 70
     6
  9
$SPLINESEGS
 70
     8
  9
$HANDSEED
  5
E1
  9
$SURFTAB1
 70
     6
  9
$SURFTAB2
 70
     6
  9
$SURFTYPE
 70
     6
  9
$SURFU
 70
     6
  9
$SURFV
 70
     6
  9
$UCSBASE
  2

  9
$UCSNAME
  2

  9
$UCSORG
 10
0.0
 20
0.0
 30
0.0
  9
$UCSXDIR
 10
1.0
 20
0.0
 30
0.0
  9
$UCSYDIR
 10
0.0
 20
1.0
 30
0.0
  9
$UCSORTHOREF
  2

  9
$UCSORTHOVIEW
 70
     0
  9
$UCSORGTOP
 10
0.0
 20
0.0
 30
0.0
  9
$UCSORGBOTTOM
 10
0.0
 20
0.0
 30
0.0
  9
$UCSORGLEFT
 10
0.0
 20
0.0
 30
0.0
  9
$UCSORGRIGHT
 10
0.0
 20
0.0
 30
0.0
  9
$UCSORGFRONT
 10
0.0
 20
0.0
 30
0.0
  9
$UCSORGBACK
 10
0.0
 20
0.0
 30
0.0
  9
$PUCSBASE
  2

  9
$PUCSNAME
  2

  9
$PUCSORG
 10
0.0
 20
0.0
 30
0.0
  9
$PUCSXDIR
 10
1.0
 20
0.0
 30
0.0
  9
$PUCSYDIR
 10
0.0
 20
1.0
 30
0.0
  9
$PUCSORTHOREF
  2

  9
$PUCSORTHOVIEW
 70
     0
  9
$PUCSORGTOP
 10
0.0
 20
0.0
 30
0.0
  9
$PUCSORGBOTTOM
 10
0.0
 20
0.0
 30
0.0
  9
$PUCSORGLEFT
 10
0.0
 20
0.0
 30
0.0
  9
$PUCSORGRIGHT
 10
0.0
 20
0.0
 30
0.0
  9
$PUCSORGFRONT
 10
0.0
 20
0.0
 30
0.0
  9
$PUCSORGBACK
 10
0.0
 20
0.0
 30
0.0
  9
$USERI1
 70
     0
  9
$USERI2
 70
     0
  9
$USERI3
 70
     0
  9
$USERI4
 70
     0
  9
$USERI5
 70
     0
  9
$USERR1
 40
0.0
  9
$USERR2
 40
0.0
  9
$USERR3
 40
0.0
  9
$USERR4
 40
0.0
  9
$USERR5
 40
0.0
  9
$WORLDVIEW
 70
     1
  9
$SHADEDGE
 70
     3
  9
$SHADEDIF
 70
    70
  9
$TILEMODE
 70
     1
  9
$MAXACTVP
 70
    64
  9
$PINSBASE
 10
0.0
 20
0.0
 30
0.0
  9
$PLIMCHECK
 70
     0
  9
$PEXTMIN
 10
1.000000000000000E+20
 20
1.000000000000000E+20
 30
1.000000000000000E+20
  9
$PEXTMAX
 10
-1.000000000000000E+20
 20
-1.000000000000000E+20
 30
-1.000000000000000E+20
  9
$PLIMMIN
 10
0.0
 20
0.0
  9
$PLIMMAX
 10
12.0
 20
9.0
  9
$UNITMODE
 70
     0
  9
$VISRETAIN
 70
     1
  9
$PLINEGEN
 70
     0
  9
$PSLTSCALE
 70
     1
  9
$TREEDEPTH
 70
  3020
  9
$CMLSTYLE
  2
Standard
  9
$CMLJUST
 70
     0
  9
$CMLSCALE
 40
1.0
  9
$PROXYGRAPHICS
 70
     1
  9
$MEASUREMENT
 70
     0
  9
$CELWEIGHT
370
    -1
  9
$ENDCAPS
280
     0
  9
$JOINSTYLE
280
     0
  9
$LWDISPLAY
290
     0
  9
$INSUNITS
 70
     1
  9
$HYPERLINKBASE
  1

  9
$STYLESHEET
  1

  9
$XEDIT
290
     1
  9
$CEPSNTYPE
380
     0
  9
$PSTYLEMODE
290
     1
  9
$FINGERPRINTGUID
  2
{FD78E495-3988-447F-9B0A-2EF2B5612D29}
  9
$VERSIONGUID
  2
{FAEB1C32-E019-11D5-929B-00C0DF256EC4}
  9
$EXTNAMES
290
     1
  9
$PSVPSCALE
 40
0.0
  9
$OLESTARTUP
290
     0
  9
$SORTENTS
280
   127
  9
$INDEXCTL
280
     0
  9
$HIDETEXT
280
     1
  9
$XCLIPFRAME
290
     0
  9
$HALOGAP
280
     0
  9
$OBSCOLOR
 70
   257
  9
$OBSLTYPE
280
     0
  9
$INTERSECTIONDISPLAY
280
     0
  9
$INTERSECTIONCOLOR
 70
   257
  9
$DIMASSOC
280
     2
  9
$PROJECTNAME
  1

  0
ENDSEC
  0
SECTION
  2
CLASSES
  0
CLASS
  1
ACDBDICTIONARYWDFLT
  2
AcDbDictionaryWithDefault
  3
ObjectDBX Classes
 90
        0
 91
        4
280
     0
281
     0
  0
CLASS
  1
VISUALSTYLE
  2
AcDbVisualStyle
  3
ObjectDBX Classes
 90
     4095
 91
        4
280
     0
281
     0
  0
ENDSEC
  0
SECTION
  2
TABLES
  0
TABLE
  2
VPORT
  5
8
330
0
100
AcDbSymbolTable
 70
     1
  0
VPORT
  5
29
330
8
100
AcDbSymbolTableRecord
100
AcDbViewportTableRecord
  2
*Active
 70
     0
 10
0.0
 20
0.0
 11
1.0
 21
1.0
 12
40.05150952787312
 22
60.11421734673806
 13
0.0
 23
0.0
 14
0.5
 24
0.5
 15
0.5
 25
0.5
 16
0.0
 26
0.0
 36
1.0
 17
0.0
 27
0.0
 37
0.0
 40
122.6330033882287
 41
1.321987638435981
 42
50.0
 43
0.0
 44
0.0
 50
0.0
 51
0.0
 71
     0
 72
   100
 73
     1
 74
     3
 75
     0
 76
     0
 77
     0
 78
     0
281
     0
 65
     1
110
0.0
120
0.0
130
0.0
111
1.0
121
0.0
131
0.0
112
0.0
122
1.0
132
0.0
 79
     0
146
0.0
  0
ENDTAB
  0
TABLE
  2
LTYPE
  5
5
330
0
100
AcDbSymbolTable
 70
     1
  0
LTYPE
  5
14
330
5
100
AcDbSymbolTableRecord
100
AcDbLinetypeTableRecord
  2
ByBlock
 70
     0
  3

 72
    65
 73
     0
 40
0.0
  0
LTYPE
  5
15
330
5
100
AcDbSymbolTableRecord
100
AcDbLinetypeTableRecord
  2
ByLayer
 70
     0
  3

 72
    65
 73
     0
 40
0.0
  0
LTYPE
  5
16
330
5
100
AcDbSymbolTableRecord
100
AcDbLinetypeTableRecord
  2
Continuous
 70
     0
  3
Solid line
 72
    65
 73
     0
 40
0.0
  0
ENDTAB
  0
TABLE
  2
LAYER
  5
2
330
0
100
AcDbSymbolTable
 70
     2
  0
LAYER
  5
10
330
2
100
AcDbSymbolTableRecord
100
AcDbLayerTableRecord
  2
0
 70
     0
 62
     7
  6
Continuous
370
    -3
390
F
  0
LAYER
  5
3B
330
2
100
AcDbSymbolTableRecord
100
AcDbLayerTableRecord
  2
Default
 70
     0
 62
     7
  6
Continuous
370
    -3
390
F
  0
ENDTAB
  0
TABLE
  2
STYLE
  5
3
330
0
100
AcDbSymbolTable
 70
     1
  0
STYLE
  5
11
330
3
100
AcDbSymbolTableRecord
100
AcDbTextStyleTableRecord
  2
Standard
 70
     0
 40
0.0
 41
1.0
 50
0.0
 71
     0
 42
0.2
  3
txt
  4

  0
ENDTAB
  0
TABLE
  2
VIEW
  5
6
330
0
100
AcDbSymbolTable
 70
     0
  0
ENDTAB
  0
TABLE
  2
UCS
  5
7
330
0
100
AcDbSymbolTable
 70
     0
  0
ENDTAB
  0
TABLE
  2
APPID
  5
9
330
0
100
AcDbSymbolTable
 70
     1
  0
APPID
  5
12
330
9
100
AcDbSymbolTableRecord
100
AcDbRegAppTableRecord
  2
ACAD
 70
     0
  0
ENDTAB
  0
TABLE
  2
DIMSTYLE
  5
A
330
0
100
AcDbSymbolTable
 70
     1
100
AcDbDimStyleTable
  0
DIMSTYLE
105
27
330
A
100
AcDbSymbolTableRecord
100
AcDbDimStyleTableRecord
  2
Standard
 70
     0
340
11
  0
ENDTAB
  0
TABLE
  2
BLOCK_RECORD
  5
1
330
0
100
AcDbSymbolTable
 70
     1
  0
BLOCK_RECORD
  5
1F
330
1
100
AcDbSymbolTableRecord
100
AcDbBlockTableRecord
  2
*Model_Space
340
22
  0
BLOCK_RECORD
  5
1B
330
1
100
AcDbSymbolTableRecord
100
AcDbBlockTableRecord
  2
*Paper_Space
340
1E
  0
BLOCK_RECORD
  5
23
330
1
100
AcDbSymbolTableRecord
100
AcDbBlockTableRecord
  2
*Paper_Space0
340
26
  0
ENDTAB
  0
ENDSEC
  0
SECTION
  2
BLOCKS
  0
BLOCK
  5
20
330
1F
100
AcDbEntity
  8
0
100
AcDbBlockBegin
  2
*Model_Space
 70
     0
 10
0.0
 20
0.0
 30
0.0
  3
*Model_Space
  1

  0
ENDBLK
  5
21
330
1F
100
AcDbEntity
  8
0
100
AcDbBlockEnd
  0
BLOCK
  5
1C
330
1B
100
AcDbEntity
 67
     1
  8
0
100
AcDbBlockBegin
  2
*Paper_Space
 70
     0
 10
0.0
 20
0.0
 30
0.0
  3
*Paper_Space
  1

  0
ENDBLK
  5
1D
330
1B
100
AcDbEntity
 67
     1
  8
0
100
AcDbBlockEnd
  0
BLOCK
  5
24
330
23
100
AcDbEntity
  8
0
100
AcDbBlockBegin
  2
*Paper_Space0
 70
     0
 10
0.0
 20
0.0
 30
0.0
  3
*Paper_Space0
  1

  0
ENDBLK
  5
25
330
23
100
AcDbEntity
  8
0
100
AcDbBlockEnd
  0
ENDSEC
  0
SECTION
  2
ENTITIES
  0
LINE
  5
3C
330
1F
100
AcDbEntity
  8
Default
100
AcDbLine
 10
92.12678958480518
 20
16.37034626254911
 30
0.0
 11
92.12678958480521
 21
29.80303740087457
 31
0.0
  0
ARC
  5
3D
330
1F
100
AcDbEntity
  8
Default
100
AcDbCircle
 10
91.99678974187789
 20
29.80303755794531
 30
0.0
 40
0.1299998429274071
100
AcDbArc
 50
359.9999307730648
 51
89.99935621883448
  0
LINE
  5
3E
330
1F
100
AcDbEntity
  8
Default
100
AcDbLine
 10
91.99679120256926
 20
29.93303740086451
 30
0.0
 11
87.85685341741667
 21
29.93308391762345
 31
0.0
  0
ARC
  5
3F
330
1F
100
AcDbEntity
  8
Default
100
AcDbCircle
 10
87.86040375182895
 20
28.99878835187803
 30
0.0
 40
0.9343023113778528
100
AcDbArc
 50
90.21772360484177
 51
168.7819384620729
  0
SPLINE
  5
40
330
1F
100
AcDbEntity
  8
Default
100
AcDbSpline
210
0.0
220
0.0
230
1.0
 70
    12
 71
     3
 72
    15
 73
    11
 74
     0
 42
0.0000000001
 43
0.0000000001
 40
6.15398381369289
 40
6.15398381369289
 40
6.15398381369289
 40
6.15398381369289
 40
6.287337509104841
 40
6.361102320677926
 40
6.361102320677926
 40
6.361102320677926
 40
16.98938476706124
 40
16.98938476706124
 40
16.98938476706124
 40
17.99672628607799
 40
17.99672628607799
 40
17.99672628607799
 40
17.99672628607799
 10
86.9439523348886
 20
29.18055086020695
 30
0.0
 41
1.00000006883108
 10
86.94403748332401
 20
29.18098876617525
 30
0.0
 41
1.00000006883108
 10
86.93644006710882
 20
29.14191636413146
 30
0.0
 41
1.00000006883108
 10
86.92324142276539
 20
29.07403766384574
 30
0.0
 41
1.00000006883108
 10
86.91854862192191
 20
29.04990327445988
 30
0.0
 41
1.00000006883108
 10
86.24234237784351
 20
25.57227331648976
 30
0.0
 41
1.00000006883108
 10
85.566136133765
 20
22.09464335851967
 30
0.0
 41
1.00000006883108
 10
84.88992988968657
 20
18.61701340054953
 30
0.0
 41
1.00000006883108
 10
84.82402963261657
 20
18.27005367369986
 30
0.0
 41
0.90533970387705
 10
84.94569685913262
 20
17.93851034028787
 30
0.0
 41
0.90533970387705
 10
85.22038037941803
 20
17.71653543264491
 30
0.0
 41
1.00000006883108
  0
SPLINE
  5
41
330
1F
100
AcDbEntity
  8
Default
100
AcDbSpline
210
0.0
220
0.0
230
1.0
 70
    12
 71
     2
 72
     8
 73
     5
 74
     0
 42
0.0000000001
 43
0.0000000001
 40
-49.96028937811735
 40
-49.96028937811735
 40
-49.96028937811735
 40
-46.47887988617807
 40
-46.47887988617807
 40
-43.17597997314454
 40
-43.17597997314454
 40
-43.17597997314454
 10
85.22038037941802
 20
17.71653543264491
 30
0.0
 41
1.0
 10
86.96108512538773
 20
17.71653543264027
 30
0.0
 41
1.0
 10
88.70178987135738
 20
17.71653543264027
 30
0.0
 41
1.0
 10
90.37373282587971
 20
17.71653543264028
 30
0.0
 41
0.930974051519276
 10
91.72483704679424
 20
16.70445649199991
 30
0.0
 41
0.9566192831701117
  0
LINE
  5
42
330
1F
100
AcDbEntity
  8
Default
100
AcDbLine
 10
93.2767901579096
 20
16.37034626254911
 30
0.0
 11
93.27679015790957
 21
29.80303740087457
 31
0.0
  0
ARC
  5
43
330
1F
100
AcDbEntity
  8
Default
100
AcDbCircle
 10
93.40679000083689
 20
29.80303755794531
 30
0.0
 40
0.1299998429274071
100
AcDbArc
 50
90.00064378116554
 51
180.0000692269353
  0
LINE
  5
44
330
1F
100
AcDbEntity
  8
Default
100
AcDbLine
 10
93.40678854014553
 20
29.93303740086451
 30
0.0
 11
97.54672632529811
 21
29.93308391762345
 31
0.0
  0
ARC
  5
45
330
1F
100
AcDbEntity
  8
Default
100
AcDbCircle
 10
97.54317599088583
 20
28.99878835187803
 30
0.0
 40
0.9343023113778528
100
AcDbArc
 50
11.2180615379273
 51
89.78227639515825
  0
SPLINE
  5
46
330
1F
100
AcDbEntity
  8
Default
100
AcDbSpline
210
0.0
220
0.0
230
1.0
 70
    12
 71
     3
 72
    15
 73
    11
 74
     0
 42
0.0000000001
 43
0.0000000001
 40
6.15398381369289
 40
6.15398381369289
 40
6.15398381369289
 40
6.15398381369289
 40
6.287337509104841
 40
6.361102320677926
 40
6.361102320677926
 40
6.361102320677926
 40
16.98938476706124
 40
16.98938476706124
 40
16.98938476706124
 40
17.99672628607799
 40
17.99672628607799
 40
17.99672628607799
 40
17.99672628607799
 10
98.45962740782619
 20
29.18055086020695
 30
0.0
 41
1.00000006883108
 10
98.45954225939079
 20
29.18098876617525
 30
0.0
 41
1.00000006883108
 10
98.46713967560596
 20
29.14191636413146
 30
0.0
 41
1.00000006883108
 10
98.48033831994941
 20
29.07403766384574
 30
0.0
 41
1.00000006883108
 10
98.48503112079287
 20
29.04990327445988
 30
0.0
 41
1.00000006883108
 10
99.16123736487128
 20
25.57227331648976
 30
0.0
 41
1.00000006883108
 10
99.8374436089498
 20
22.09464335851967
 30
0.0
 41
1.00000006883108
 10
100.5136498530282
 20
18.61701340054953
 30
0.0
 41
1.00000006883108
 10
100.5795501100982
 20
18.27005367369986
 30
0.0
 41
0.90533970387705
 10
100.4578828835821
 20
17.93851034028787
 30
0.0
 41
0.90533970387705
 10
100.1831993632968
 20
17.71653543264491
 30
0.0
 41
1.00000006883108
  0
SPLINE
  5
47
330
1F
100
AcDbEntity
  8
Default
100
AcDbSpline
210
0.0
220
0.0
230
1.0
 70
    12
 71
     2
 72
     8
 73
     5
 74
     0
 42
0.0000000001
 43
0.0000000001
 40
-49.96028937811735
 40
-49.96028937811735
 40
-49.96028937811735
 40
-46.47887988617807
 40
-46.47887988617807
 40
-43.17597997314454
 40
-43.17597997314454
 40
-43.17597997314454
 10
100.1831993632968
 20
17.71653543264491
 30
0.0
 41
1.0
 10
98.44249461732706
 20
17.71653543264027
 30
0.0
 41
1.0
 10
96.7017898713574
 20
17.71653543264027
 30
0.0
 41
1.0
 10
95.02984691683507
 20
17.71653543264028
 30
0.0
 41
0.930974051519276
 10
93.67874269592055
 20
16.70445649199991
 30
0.0
 41
0.9566192831701117
  0
POLYLINE
  5
48
330
1F
100
AcDbEntity
  8
Default
100
AcDb2dPolyline
 66
     1
 10
0.0
 20
0.0
 30
0.0
  0
VERTEX
  5
49
330
48
100
AcDbEntity
  8
Default
100
AcDbVertex
100
AcDb2dVertex
 10
92.50178958456218
 20
16.16335200740381
 30
0.0
  0
VERTEX
  5
4A
330
48
100
AcDbEntity
  8
Default
100
AcDbVertex
100
AcDb2dVertex
 10
92.90179015815261
 20
16.16335200740381
 30
0.0
  0
SEQEND
  5
4B
330
48
100
AcDbEntity
  8
Default
  0
SPLINE
  5
4C
330
1F
100
AcDbEntity
  8
Default
100
AcDbSpline
210
0.0
220
0.0
230
1.0
 70
    12
 71
     2
 72
     6
 73
     3
 74
     0
 42
0.0000000001
 43
0.0000000001
 40
-0.5886261144997057
 40
-0.5886261144997057
 40
-0.5886261144997057
 40
0.0
 40
0.0
 40
0.0
 10
92.90179015815262
 20
16.16335200740381
 30
0.0
 41
0.9999992264991597
 10
93.27566474659018
 20
16.16437000819075
 30
0.0
 41
0.7093323993340948
 10
93.27679015815227
 20
16.53824422740831
 30
0.0
 41
1.0
  0
LINE
  5
4D
330
1F
100
AcDbEntity
  8
Default
100
AcDbLine
 10
93.27679015815227
 20
16.53824422740831
 30
0.0
 11
93.27679015745923
 21
47.14499219791614
 31
0.0
  0
SPLINE
  5
4E
330
1F
100
AcDbEntity
  8
Default
100
AcDbSpline
210
0.0
220
0.0
230
1.0
 70
    12
 71
     2
 72
     6
 73
     3
 74
     0
 42
0.0000000001
 43
0.0000000001
 40
0.0
 40
0.0
 40
0.0
 40
0.5886261205904333
 40
0.5886261205904333
 40
0.5886261205904333
 10
93.27679015745923
 20
47.14499219791614
 30
0.0
 41
0.9999982228272312
 10
93.27566314806897
 20
47.51886481421093
 30
0.0
 41
0.7093332611091969
 10
92.90179015676675
 20
47.51988279643065
 30
0.0
 41
0.9999992265080193
  0
SPLINE
  5
4F
330
1F
100
AcDbEntity
  8
Default
100
AcDbSpline
210
0.0
220
0.0
230
1.0
 70
    24
 71
     2
 72
     6
 73
     3
 74
     0
 42
0.0000000001
 43
0.0000000001
 40
0.0
 40
0.0
 40
0.0
 40
0.4000005722045898
 40
0.4000005722045898
 40
0.4000005722045898
 10
92.90179015676676
 20
47.51988279643065
 30
0.0
 10
92.70178987066447
 20
47.51988380019412
 30
0.0
 10
92.50178958456222
 20
47.51988480395758
 30
0.0
  0
SPLINE
  5
50
330
1F
100
AcDbEntity
  8
Default
100
AcDbSpline
210
0.0
220
0.0
230
1.0
 70
    12
 71
     2
 72
     6
 73
     3
 74
     0
 42
0.0000000001
 43
0.0000000001
 40
0.0
 40
0.0
 40
0.0
 40
0.5870352486939824
 40
0.5870352486939824
 40
0.5870352486939824
 10
92.50178958456222
 20
47.51988480395759
 30
0.0
 41
0.9999969198852808
 10
92.1316135063038
 20
47.51516844845321
 30
0.0
 41
0.7163618147950785
 10
92.12678958456274
 20
47.14499381940703
 30
0.0
 41
1.0
  0
LINE
  5
51
330
1F
100
AcDbEntity
  8
Default
100
AcDbLine
 10
92.12678958456274
 20
47.14499381940703
 30
0.0
 11
92.12678958456252
 21
16.53824422740831
 31
0.0
  0
SPLINE
  5
52
330
1F
100
AcDbEntity
  8
Default
100
AcDbSpline
210
0.0
220
0.0
230
1.0
 70
    12
 71
     2
 72
     6
 73
     3
 74
     0
 42
0.0000000001
 43
0.0000000001
 40
0.0
 40
0.0
 40
0.0
 40
0.5886261144997057
 40
0.5886261144997057
 40
0.5886261144997057
 10
92.12678958456252
 20
16.53824422740831
 30
0.0
 41
1.0
 10
92.1279149961246
 20
16.16437000819075
 30
0.0
 41
0.7093323993340948
 10
92.50178958456219
 20
16.16335200740381
 30
0.0
 41
0.9999992264991597
  0
LINE
  5
53
330
1F
100
AcDbEntity
  8
Default
100
AcDbLine
 10
65.88181798762785
 20
8.267716535002464
 30
0.0
 11
92.70178987135738
 21
8.267716535002464
 31
0.0
  0
SPLINE
  5
54
330
1F
100
AcDbEntity
  8
Default
100
AcDbSpline
210
0.0
220
0.0
230
1.0
 70
    24
 71
     2
 72
     6
 73
     3
 74
     0
 42
0.0000000001
 43
0.0000000001
 40
-7.480314960629922
 40
-7.480314960629922
 40
-7.480314960629922
 40
0.0
 40
0.0
 40
0.0
 10
92.70178987135738
 20
8.267716535002464
 30
0.0
 10
92.70178987135738
 20
12.00787401531743
 30
0.0
 10
92.70178987135739
 20
15.74803149563239
 30
0.0
  0
SPLINE
  5
55
330
1F
100
AcDbEntity
  8
Default
100
AcDbSpline
210
0.0
220
0.0
230
1.0
 70
    12
 71
     2
 72
     6
 73
     3
 74
     0
 42
0.0000000001
 43
0.0000000001
 40
-4.698278081188684
 40
-4.698278081188684
 40
-4.698278081188684
 40
0.0
 40
0.0
 40
0.0
 10
92.70178987135739
 20
15.74803149563239
 30
0.0
 41
0.9951850438805565
 10
91.15698509001437
 20
17.71653543264029
 30
0.0
 41
0.9018126163918814
 10
88.70178987135738
 20
17.71653543264027
 30
0.0
 41
1.0
  0
SPLINE
  5
56
330
1F
100
AcDbEntity
  8
Default
100
AcDbSpline
210
0.0
220
0.0
230
1.0
 70
    24
 71
     2
 72
     6
 73
     3
 74
     0
 42
0.0000000001
 43
0.0000000001
 40
-18.81997188372955
 40
-18.81997188372955
 40
-18.81997188372955
 40
0.0
 40
0.0
 40
0.0
 10
88.70178987135738
 20
17.71653543264027
 30
0.0
 10
79.29180392949267
 20
17.71653543264027
 30
0.0
 10
69.88181798762797
 20
17.71653543264027
 30
0.0
  0
SPLINE
  5
57
330
1F
100
AcDbEntity
  8
Default
100
AcDbSpline
210
0.0
220
0.0
230
1.0
 70
    12
 71
     2
 72
     6
 73
     3
 74
     0
 42
0.0000000001
 43
0.0000000001
 40
-4.699143931408535
 40
-4.699143931408535
 40
-4.699143931408535
 40
0.0
 40
0.0
 40
0.0
 10
69.88181798762797
 20
17.71653543264027
 30
0.0
 41
1.0
 10
67.42641634995955
 20
17.71653543264029
 30
0.0
 41
0.9018715500186938
 10
65.88181798762776
 20
15.7480314956324
 30
0.0
 41
0.99517758000718
  0
SPLINE
  5
58
330
1F
100
AcDbEntity
  8
Default
100
AcDbSpline
210
0.0
220
0.0
230
1.0
 70
    24
 71
     2
 72
     6
 73
     3
 74
     0
 42
0.0000000001
 43
0.0000000001
 40
0.0
 40
0.0
 40
0.0
 40
7.480314960629922
 40
7.480314960629922
 40
7.480314960629922
 10
65.88181798762785
 20
15.74803149563239
 30
0.0
 10
65.88181798762785
 20
12.00787401531743
 30
0.0
 10
65.88181798762785
 20
8.267716535002464
 30
0.0
  0
SPLINE
  5
59
330
1F
100
AcDbEntity
  8
Default
100
AcDbSpline
210
0.0
220
0.0
230
1.0
 70
    24
 71
     2
 72
     6
 73
     3
 74
     0
 42
0.0000000001
 43
0.0000000001
 40
-7.480314960629922
 40
-7.480314960629922
 40
-7.480314960629922
 40
0.0
 40
0.0
 40
0.0
 10
65.88181798762785
 20
8.267716535002464
 30
0.0
 10
65.88181798762785
 20
12.00787401531743
 30
0.0
 10
65.88181798762785
 20
15.74803149563239
 30
0.0
  0
SPLINE
  5
5A
330
1F
100
AcDbEntity
  8
Default
100
AcDbSpline
210
0.0
220
0.0
230
1.0
 70
    12
 71
     2
 72
     6
 73
     3
 74
     0
 42
0.0000000001
 43
0.0000000001
 40
0.0
 40
0.0
 40
0.0
 40
8.16810736516567
 40
8.16810736516567
 40
8.16810736516567
 10
67.96551853903644
 20
8.264547969383656
 30
0.0
 41
1.0
 10
67.70294569529239
 20
4.188941075187653
 30
0.0
 41
0.9999990299969506
 10
67.45172711223996
 20
0.1126185563210188
 30
0.0
 41
0.9999999999695106
  0
ARC
  5
5B
330
1F
100
AcDbEntity
  8
Default
100
AcDbCircle
 10
67.33195435116464
 20
0.1199999995671135
 30
0.0
 40
0.12
100
AcDbArc
 50
270.0
 51
356.4733941180739
  0
LINE
  5
5C
330
1F
100
AcDbEntity
  8
Default
100
AcDbLine
 10
67.33195435116464
 20
-0.0000000004328865
 30
0.0
 11
66.31814687881625
 21
0.0000000004328911
 31
0.0
  0
SPLINE
  5
5D
330
1F
100
AcDbEntity
  8
Default
100
AcDbSpline
210
0.0
220
0.0
230
1.0
 70
    12
 71
     2
 72
     6
 73
     3
 74
     0
 42
0.0000000001
 43
0.0000000001
 40
0.0
 40
0.0
 40
0.0
 40
0.1828505988539321
 40
0.1828505988539321
 40
0.1828505988539321
 10
66.31814687881625
 20
0.0000000004328911
 30
0.0
 41
1.0
 10
66.2050285556802
 20
0.0041375781094731
 30
0.0
 41
0.7349920081234328
 10
66.20007891968235
 20
0.1174055248896195
 30
0.0
 41
1.0
  0
SPLINE
  5
5E
330
1F
100
AcDbEntity
  8
Default
100
AcDbSpline
210
0.0
220
0.0
230
1.0
 70
    12
 71
     2
 72
     6
 73
     3
 74
     0
 42
0.0000000001
 43
0.0000000001
 40
0.0
 40
0.0
 40
0.0
 40
8.149911166782651
 40
8.149911166782651
 40
8.149911166782651
 10
66.20007891968235
 20
0.1174055248896195
 30
0.0
 41
1.0
 10
66.16885304570349
 20
4.192424850926482
 30
0.0
 41
0.9999998996156108
 10
66.133951640527
 20
8.267231241551016
 30
0.0
 41
1.0
  0
POLYLINE
  5
5F
330
1F
100
AcDbEntity
  8
Default
100
AcDb2dPolyline
 66
     1
 10
0.0
 20
0.0
 30
0.0
  0
VERTEX
  5
60
330
5F
100
AcDbEntity
  8
Default
100
AcDbVertex
100
AcDb2dVertex
 10
66.133951640527
 20
8.267231241551016
 30
0.0
  0
VERTEX
  5
61
330
5F
100
AcDbEntity
  8
Default
100
AcDbVertex
100
AcDb2dVertex
 10
67.96551853903644
 20
8.264547969383656
 30
0.0
  0
SEQEND
  5
62
330
5F
100
AcDbEntity
  8
Default
  0
SPLINE
  5
63
330
1F
100
AcDbEntity
  8
Default
100
AcDbSpline
210
0.0
220
0.0
230
1.0
 70
    12
 71
     2
 72
     6
 73
     3
 74
     0
 42
0.0000000001
 43
0.0000000001
 40
0.0
 40
0.0
 40
0.0
 40
8.16810736516567
 40
8.16810736516567
 40
8.16810736516567
 10
90.61808931994891
 20
8.264547969383656
 30
0.0
 41
1.0
 10
90.88066216369279
 20
4.188941075187653
 30
0.0
 41
0.9999990299969506
 10
91.13188074674528
 20
0.1126185563210192
 30
0.0
 41
0.9999999999695106
  0
ARC
  5
64
330
1F
100
AcDbEntity
  8
Default
100
AcDbCircle
 10
91.25165350782059
 20
0.1199999995671135
 30
0.0
 40
0.12
100
AcDbArc
 50
183.5266058819259
 51
270.0
  0
LINE
  5
65
330
1F
100
AcDbEntity
  8
Default
100
AcDbLine
 10
91.25165350782059
 20
-0.0000000004328865
 30
0.0
 11
92.26546098016898
 21
0.0000000004328911
 31
0.0
  0
SPLINE
  5
66
330
1F
100
AcDbEntity
  8
Default
100
AcDbSpline
210
0.0
220
0.0
230
1.0
 70
    12
 71
     2
 72
     6
 73
     3
 74
     0
 42
0.0000000001
 43
0.0000000001
 40
0.0
 40
0.0
 40
0.0
 40
0.1828505988539321
 40
0.1828505988539321
 40
0.1828505988539321
 10
92.26546098016898
 20
0.0000000004328911
 30
0.0
 41
1.0
 10
92.3785793033052
 20
0.0041375781094731
 30
0.0
 41
0.7349920081234328
 10
92.38352893930288
 20
0.1174055248896195
 30
0.0
 41
1.0
  0
SPLINE
  5
67
330
1F
100
AcDbEntity
  8
Default
100
AcDbSpline
210
0.0
220
0.0
230
1.0
 70
    12
 71
     2
 72
     6
 73
     3
 74
     0
 42
0.0000000001
 43
0.0000000001
 40
0.0
 40
0.0
 40
0.0
 40
8.149911166782651
 40
8.149911166782651
 40
8.149911166782651
 10
92.38352893930288
 20
0.1174055248896195
 30
0.0
 41
1.0
 10
92.41475481328177
 20
4.192424850926482
 30
0.0
 41
0.9999998996156108
 10
92.44965621845846
 20
8.267231241551016
 30
0.0
 41
1.0
  0
POLYLINE
  5
68
330
1F
100
AcDbEntity
  8
Default
100
AcDb2dPolyline
 66
     1
 10
0.0
 20
0.0
 30
0.0
  0
VERTEX
  5
69
330
68
100
AcDbEntity
  8
Default
100
AcDbVertex
100
AcDb2dVertex
 10
92.44965621845846
 20
8.267231241551016
 30
0.0
  0
VERTEX
  5
6A
330
68
100
AcDbEntity
  8
Default
100
AcDbVertex
100
AcDb2dVertex
 10
90.61808931994891
 20
8.264547969383656
 30
0.0
  0
SEQEND
  5
6B
330
68
100
AcDbEntity
  8
Default
  0
LINE
  5
6C
330
1F
100
AcDbEntity
  8
Default
100
AcDbLine
 10
119.5217617550869
 20
8.267716535002464
 30
0.0
 11
92.7017898713574
 21
8.267716535002464
 31
0.0
  0
SPLINE
  5
6D
330
1F
100
AcDbEntity
  8
Default
100
AcDbSpline
210
0.0
220
0.0
230
1.0
 70
    24
 71
     2
 72
     6
 73
     3
 74
     0
 42
0.0000000001
 43
0.0000000001
 40
-7.480314960629922
 40
-7.480314960629922
 40
-7.480314960629922
 40
0.0
 40
0.0
 40
0.0
 10
92.7017898713574
 20
8.267716535002464
 30
0.0
 10
92.7017898713574
 20
12.00787401531743
 30
0.0
 10
92.70178987135739
 20
15.74803149563239
 30
0.0
  0
SPLINE
  5
6E
330
1F
100
AcDbEntity
  8
Default
100
AcDbSpline
210
0.0
220
0.0
230
1.0
 70
    12
 71
     2
 72
     6
 73
     3
 74
     0
 42
0.0000000001
 43
0.0000000001
 40
-4.698278081188684
 40
-4.698278081188684
 40
-4.698278081188684
 40
0.0
 40
0.0
 40
0.0
 10
92.70178987135739
 20
15.74803149563239
 30
0.0
 41
0.9951850438805565
 10
94.2465946527004
 20
17.71653543264029
 30
0.0
 41
0.9018126163918814
 10
96.7017898713574
 20
17.71653543264027
 30
0.0
 41
1.0
  0
SPLINE
  5
6F
330
1F
100
AcDbEntity
  8
Default
100
AcDbSpline
210
0.0
220
0.0
230
1.0
 70
    24
 71
     2
 72
     6
 73
     3
 74
     0
 42
0.0000000001
 43
0.0000000001
 40
-18.81997188372955
 40
-18.81997188372955
 40
-18.81997188372955
 40
0.0
 40
0.0
 40
0.0
 10
96.7017898713574
 20
17.71653543264027
 30
0.0
 10
106.1117758132221
 20
17.71653543264027
 30
0.0
 10
115.5217617550868
 20
17.71653543264027
 30
0.0
  0
SPLINE
  5
70
330
1F
100
AcDbEntity
  8
Default
100
AcDbSpline
210
0.0
220
0.0
230
1.0
 70
    12
 71
     2
 72
     6
 73
     3
 74
     0
 42
0.0000000001
 43
0.0000000001
 40
-4.699143931408535
 40
-4.699143931408535
 40
-4.699143931408535
 40
0.0
 40
0.0
 40
0.0
 10
115.5217617550868
 20
17.71653543264027
 30
0.0
 41
1.0
 10
117.9771633927552
 20
17.71653543264029
 30
0.0
 41
0.9018715500186938
 10
119.521761755087
 20
15.7480314956324
 30
0.0
 41
0.99517758000718
  0
SPLINE
  5
71
330
1F
100
AcDbEntity
  8
Default
100
AcDbSpline
210
0.0
220
0.0
230
1.0
 70
    24
 71
     2
 72
     6
 73
     3
 74
     0
 42
0.0000000001
 43
0.0000000001
 40
0.0
 40
0.0
 40
0.0
 40
7.480314960629922
 40
7.480314960629922
 40
7.480314960629922
 10
119.5217617550869
 20
15.74803149563239
 30
0.0
 10
119.5217617550869
 20
12.00787401531743
 30
0.0
 10
119.5217617550869
 20
8.267716535002464
 30
0.0
  0
SPLINE
  5
72
330
1F
100
AcDbEntity
  8
Default
100
AcDbSpline
210
0.0
220
0.0
230
1.0
 70
    24
 71
     2
 72
     6
 73
     3
 74
     0
 42
0.0000000001
 43
0.0000000001
 40
-7.480314960629922
 40
-7.480314960629922
 40
-7.480314960629922
 40
0.0
 40
0.0
 40
0.0
 10
119.5217617550869
 20
8.267716535002464
 30
0.0
 10
119.5217617550869
 20
12.00787401531743
 30
0.0
 10
119.5217617550869
 20
15.74803149563239
 30
0.0
  0
SPLINE
  5
73
330
1F
100
AcDbEntity
  8
Default
100
AcDbSpline
210
0.0
220
0.0
230
1.0
 70
    12
 71
     2
 72
     6
 73
     3
 74
     0
 42
0.0000000001
 43
0.0000000001
 40
0.0
 40
0.0
 40
0.0
 40
8.16810736516567
 40
8.16810736516567
 40
8.16810736516567
 10
117.4380612036783
 20
8.264547969383656
 30
0.0
 41
1.0
 10
117.7006340474224
 20
4.188941075187653
 30
0.0
 41
0.9999990299969506
 10
117.9518526304748
 20
0.1126185563210188
 30
0.0
 41
0.9999999999695106
  0
ARC
  5
74
330
1F
100
AcDbEntity
  8
Default
100
AcDbCircle
 10
118.0716253915501
 20
0.1199999995671135
 30
0.0
 40
0.12
100
AcDbArc
 50
183.526605881926
 51
270.0
  0
LINE
  5
75
330
1F
100
AcDbEntity
  8
Default
100
AcDbLine
 10
118.0716253915501
 20
-0.0000000004328865
 30
0.0
 11
119.0854328638985
 21
0.0000000004328911
 31
0.0
  0
SPLINE
  5
76
330
1F
100
AcDbEntity
  8
Default
100
AcDbSpline
210
0.0
220
0.0
230
1.0
 70
    12
 71
     2
 72
     6
 73
     3
 74
     0
 42
0.0000000001
 43
0.0000000001
 40
0.0
 40
0.0
 40
0.0
 40
0.1828505988539321
 40
0.1828505988539321
 40
0.1828505988539321
 10
119.0854328638985
 20
0.0000000004328911
 30
0.0
 41
1.0
 10
119.1985511870346
 20
0.0041375781094731
 30
0.0
 41
0.7349920081234328
 10
119.2035008230324
 20
0.1174055248896195
 30
0.0
 41
1.0
  0
SPLINE
  5
77
330
1F
100
AcDbEntity
  8
Default
100
AcDbSpline
210
0.0
220
0.0
230
1.0
 70
    12
 71
     2
 72
     6
 73
     3
 74
     0
 42
0.0000000001
 43
0.0000000001
 40
0.0
 40
0.0
 40
0.0
 40
8.149911166782651
 40
8.149911166782651
 40
8.149911166782651
 10
119.2035008230324
 20
0.1174055248896195
 30
0.0
 41
1.0
 10
119.2347266970113
 20
4.192424850926482
 30
0.0
 41
0.9999998996156108
 10
119.2696281021878
 20
8.267231241551016
 30
0.0
 41
1.0
  0
POLYLINE
  5
78
330
1F
100
AcDbEntity
  8
Default
100
AcDb2dPolyline
 66
     1
 10
0.0
 20
0.0
 30
0.0
  0
VERTEX
  5
79
330
78
100
AcDbEntity
  8
Default
100
AcDbVertex
100
AcDb2dVertex
 10
119.2696281021878
 20
8.267231241551016
 30
0.0
  0
VERTEX
  5
7A
330
78
100
AcDbEntity
  8
Default
100
AcDbVertex
100
AcDb2dVertex
 10
117.4380612036783
 20
8.264547969383656
 30
0.0
  0
SEQEND
  5
7B
330
78
100
AcDbEntity
  8
Default
  0
SPLINE
  5
7C
330
1F
100
AcDbEntity
  8
Default
100
AcDbSpline
210
0.0
220
0.0
230
1.0
 70
    12
 71
     2
 72
     6
 73
     3
 74
     0
 42
0.0000000001
 43
0.0000000001
 40
0.0
 40
0.0
 40
0.0
 40
8.16810736516567
 40
8.16810736516567
 40
8.16810736516567
 10
94.78549042276587
 20
8.264547969383656
 30
0.0
 41
1.0
 10
94.52291757902196
 20
4.188941075187653
 30
0.0
 41
0.9999990299969506
 10
94.2716989959695
 20
0.1126185563210192
 30
0.0
 41
0.9999999999695106
  0
ARC
  5
7D
330
1F
100
AcDbEntity
  8
Default
100
AcDbCircle
 10
94.15192623489419
 20
0.1199999995671135
 30
0.0
 40
0.12
100
AcDbArc
 50
270.0
 51
356.4733941180742
  0
LINE
  5
7E
330
1F
100
AcDbEntity
  8
Default
100
AcDbLine
 10
94.15192623489419
 20
-0.0000000004328865
 30
0.0
 11
93.1381187625458
 21
0.0000000004328911
 31
0.0
  0
SPLINE
  5
7F
330
1F
100
AcDbEntity
  8
Default
100
AcDbSpline
210
0.0
220
0.0
230
1.0
 70
    12
 71
     2
 72
     6
 73
     3
 74
     0
 42
0.0000000001
 43
0.0000000001
 40
0.0
 40
0.0
 40
0.0
 40
0.1828505988539321
 40
0.1828505988539321
 40
0.1828505988539321
 10
93.1381187625458
 20
0.0000000004328911
 30
0.0
 41
1.0
 10
93.02500043940958
 20
0.0041375781094731
 30
0.0
 41
0.7349920081234328
 10
93.0200508034119
 20
0.1174055248896195
 30
0.0
 41
1.0
  0
SPLINE
  5
80
330
1F
100
AcDbEntity
  8
Default
100
AcDbSpline
210
0.0
220
0.0
230
1.0
 70
    12
 71
     2
 72
     6
 73
     3
 74
     0
 42
0.0000000001
 43
0.0000000001
 40
0.0
 40
0.0
 40
0.0
 40
8.149911166782651
 40
8.149911166782651
 40
8.149911166782651
 10
93.0200508034119
 20
0.1174055248896195
 30
0.0
 41
1.0
 10
92.98882492943298
 20
4.192424850926482
 30
0.0
 41
0.9999998996156108
 10
92.95392352425633
 20
8.267231241551016
 30
0.0
 41
1.0
  0
POLYLINE
  5
81
330
1F
100
AcDbEntity
  8
Default
100
AcDb2dPolyline
 66
     1
 10
0.0
 20
0.0
 30
0.0
  0
VERTEX
  5
82
330
81
100
AcDbEntity
  8
Default
100
AcDbVertex
100
AcDb2dVertex
 10
92.95392352425633
 20
8.267231241551016
 30
0.0
  0
VERTEX
  5
83
330
81
100
AcDbEntity
  8
Default
100
AcDbVertex
100
AcDb2dVertex
 10
94.78549042276587
 20
8.264547969383656
 30
0.0
  0
SEQEND
  5
84
330
81
100
AcDbEntity
  8
Default
  0
SPLINE
  5
85
330
1F
100
AcDbEntity
  8
Default
100
AcDbSpline
210
0.0
220
0.0
230
1.0
 70
     8
 71
     3
 72
     8
 73
     4
 74
     0
 42
0.0000000001
 43
0.0000000001
 40
0.0
 40
0.0
 40
0.0
 40
0.0
 40
1.0
 40
1.0
 40
1.0
 40
1.0
 10
-32.31029061532411
 20
98.27901694596291
 30
0.0
 10
-32.31029061532411
 20
98.89915176162272
 30
0.0
 10
-31.9049399875272
 20
99.1663015498229
 30
0.0
 10
-31.24963044266735
 20
99.16630154982376
 30
0.0
  0
SPLINE
  5
86
330
1F
100
AcDbEntity
  8
Default
100
AcDbSpline
210
0.0
220
0.0
230
1.0
 70
    24
 71
     2
 72
     6
 73
     3
 74
     0
 42
0.0000000001
 43
0.0000000001
 40
0.0
 40
0.0
 40
0.0
 40
62.44505413181791
 40
62.44505413181791
 40
62.44505413181791
 10
-31.24963044266735
 20
99.16630154982376
 30
0.0
 10
-0.0271033767584186
 20
99.16630154986244
 30
0.0
 10
31.19542368915052
 20
99.16630154990112
 30
0.0
  0
SPLINE
  5
87
330
1F
100
AcDbEntity
  8
Default
100
AcDbSpline
210
0.0
220
0.0
230
1.0
 70
     8
 71
     3
 72
     8
 73
     4
 74
     0
 42
0.0000000001
 43
0.0000000001
 40
-1.0
 40
-1.0
 40
-1.0
 40
-1.0
 40
0.0
 40
0.0
 40
0.0
 40
0.0
 10
31.19542368915052
 20
99.16630154990112
 30
0.0
 10
31.85073312448674
 20
99.16630154990192
 30
0.0
 10
32.25608386093688
 20
98.89915206956864
 30
0.0
 10
32.25608386093677
 20
98.27901746682217
 30
0.0
  0
LINE
  5
88
330
1F
100
AcDbEntity
  8
Default
100
AcDbLine
 10
-32.31029061532388
 20
94.5154156347427
 30
0.0
 11
-32.31029061532411
 21
100.2145571164691
 31
0.0
  0
SPLINE
  5
89
330
1F
100
AcDbEntity
  8
Default
100
AcDbSpline
210
0.0
220
0.0
230
1.0
 70
     8
 71
     3
 72
     8
 73
     4
 74
     0
 42
0.0000000001
 43
0.0000000001
 40
0.0
 40
0.0
 40
0.0
 40
0.0
 40
1.0
 40
1.0
 40
1.0
 40
1.0
 10
-32.31029061532411
 20
100.2145571164691
 30
0.0
 10
-32.31029061532411
 20
100.9710976199967
 30
0.0
 10
-31.7335576299962
 20
101.2203194299953
 30
0.0
 10
-30.8960770529535
 20
101.2203194299953
 30
0.0
  0
SPLINE
  5
8A
330
1F
100
AcDbEntity
  8
Default
100
AcDbSpline
210
0.0
220
0.0
230
1.0
 70
    24
 71
     2
 72
     6
 73
     3
 74
     0
 42
0.0000000001
 43
0.0000000001
 40
-61.73794735151458
 40
-61.73794735151458
 40
-61.73794735151458
 40
0.0
 40
0.0
 40
0.0
 10
-30.8960770529535
 20
101.2203194299953
 30
0.0
 10
-0.0271033771961697
 20
101.2203194299955
 30
0.0
 10
30.84187029856116
 20
101.2203194299957
 30
0.0
  0
SPLINE
  5
8B
330
1F
100
AcDbEntity
  8
Default
100
AcDbSpline
210
0.0
220
0.0
230
1.0
 70
     8
 71
     3
 72
     8
 73
     4
 74
     0
 42
0.0000000001
 43
0.0000000001
 40
-1.0
 40
-1.0
 40
-1.0
 40
-1.0
 40
0.0
 40
0.0
 40
0.0
 40
0.0
 10
30.84187029856116
 20
101.2203194299957
 30
0.0
 10
31.67934466707754
 20
101.2203194299957
 30
0.0
 10
32.25608386093677
 20
100.9711167901972
 30
0.0
 10
32.25608386093677
 20
100.2145881840846
 30
0.0
  0
LINE
  5
8C
330
1F
100
AcDbEntity
  8
Default
100
AcDbLine
 10
32.25608386093677
 20
100.2145881840846
 30
0.0
 11
32.25608386093677
 21
94.5154156347427
 31
0.0
  0
SPLINE
  5
8D
330
1F
100
AcDbEntity
  8
Default
100
AcDbSpline
210
0.0
220
0.0
230
1.0
 70
    12
 71
     2
 72
     6
 73
     3
 74
     0
 42
0.0000000001
 43
0.0000000001
 40
0.970771243709296
 40
0.970771243709296
 40
0.970771243709296
 40
1.963495408493633
 40
1.963495408493633
 40
1.963495408493633
 10
38.99019492972309
 20
93.76643066816222
 30
0.0
 41
0.8535716970449257
 10
39.36453594495323
 20
94.13390069296749
 30
0.0
 41
0.851916039752461
 10
39.36453594495322
 20
94.65846281017942
 30
0.0
 41
1.0
  0
SPLINE
  5
8E
330
1F
100
AcDbEntity
  8
Default
100
AcDbSpline
210
0.0
220
0.0
230
1.0
 70
    24
 71
     2
 72
     6
 73
     3
 74
     0
 42
0.0000000001
 43
0.0000000001
 40
0.0
 40
0.0
 40
0.0
 40
24.31997188372955
 40
24.31997188372955
 40
24.31997188372955
 10
39.36453594495322
 20
94.65846281017942
 30
0.0
 10
39.36453594495322
 20
106.8184487520442
 30
0.0
 10
39.36453594495322
 20
118.978434693909
 30
0.0
  0
SPLINE
  5
8F
330
1F
100
AcDbEntity
  8
Default
100
AcDbSpline
210
0.0
220
0.0
230
1.0
 70
    12
 71
     2
 72
     6
 73
     3
 74
     0
 42
0.0000000001
 43
0.0000000001
 40
0.0
 40
0.0
 40
0.0
 40
1.963495408493636
 40
1.963495408493636
 40
1.963495408493636
 10
39.36453594495322
 20
118.978434693909
 30
0.0
 41
1.0
 10
39.36453594495316
 20
120.228434693909
 30
0.0
 41
0.7071067811865495
 10
38.11453594495322
 20
120.228434693909
 30
0.0
 41
1.0
  0
SPLINE
  5
90
330
1F
100
AcDbEntity
  8
Default
100
AcDbSpline
210
0.0
220
0.0
230
1.0
 70
    24
 71
     2
 72
     6
 73
     3
 74
     0
 42
0.0000000001
 43
0.0000000001
 40
0.0
 40
0.0
 40
0.0
 40
76.28327864429392
 40
76.28327864429392
 40
76.28327864429392
 10
38.11453594495322
 20
120.228434693909
 30
0.0
 10
-0.0271033771937255
 20
120.228434693909
 30
0.0
 10
-38.16874269934067
 20
120.228434693909
 30
0.0
  0
SPLINE
  5
91
330
1F
100
AcDbEntity
  8
Default
100
AcDbSpline
210
0.0
220
0.0
230
1.0
 70
    12
 71
     2
 72
     6
 73
     3
 74
     0
 42
0.0000000001
 43
0.0000000001
 40
0.0
 40
0.0
 40
0.0
 40
1.963495408493624
 40
1.963495408493624
 40
1.963495408493624
 10
-38.16874269934067
 20
120.228434693909
 30
0.0
 41
1.0
 10
-39.41874269934064
 20
120.228434693909
 30
0.0
 41
0.7071067811865401
 10
-39.41874269934067
 20
118.978434693909
 30
0.0
 41
1.0
  0
SPLINE
  5
92
330
1F
100
AcDbEntity
  8
Default
100
AcDbSpline
210
0.0
220
0.0
230
1.0
 70
    24
 71
     2
 72
     6
 73
     3
 74
     0
 42
0.0000000001
 43
0.0000000001
 40
0.0
 40
0.0
 40
0.0
 40
24.31997188372955
 40
24.31997188372955
 40
24.31997188372955
 10
-39.41874269934067
 20
118.978434693909
 30
0.0
 10
-39.41874269934067
 20
106.8184487520442
 30
0.0
 10
-39.41874269934067
 20
94.65846281017942
 30
0.0
  0
SPLINE
  5
93
330
1F
100
AcDbEntity
  8
Default
100
AcDbSpline
210
0.0
220
0.0
230
1.0
 70
    12
 71
     2
 72
     6
 73
     3
 74
     0
 42
0.0000000001
 43
0.0000000001
 40
0.0
 40
0.0
 40
0.0
 40
0.992715290584593
 40
0.992715290584593
 40
0.992715290584593
 10
-39.41874269934067
 20
94.65846281017942
 30
0.0
 41
1.0
 10
-39.41874269934067
 20
94.13390619724164
 30
0.0
 41
0.8519173635105505
 10
-39.04440836375298
 20
93.76643722524962
 30
0.0
 41
0.8535716674562563
  0
LINE
  5
94
330
1F
100
AcDbEntity
  8
Default
100
AcDbLine
 10
-38.66942487847507
 20
93.25070916666225
 30
0.0
 11
38.61522136705787
 21
93.25070916666253
 31
0.0
  0
SPLINE
  5
95
330
1F
100
AcDbEntity
  8
Default
100
AcDbSpline
210
0.0
220
0.0
230
1.0
 70
    12
 71
     2
 72
     6
 73
     3
 74
     0
 42
0.0000000001
 43
0.0000000001
 40
-0.5718231513183922
 40
-0.5718231513183922
 40
-0.5718231513183922
 40
0.0
 40
0.0
 40
0.0
 10
38.61522136705787
 20
93.25070916666253
 30
0.0
 41
1.0
 10
38.97081913591997
 20
93.25526560584939
 30
0.0
 41
0.7302969681238137
 10
38.98997958505163
 20
93.61037602747454
 30
0.0
 41
1.0
  0
POLYLINE
  5
96
330
1F
100
AcDbEntity
  8
Default
100
AcDb2dPolyline
 66
     1
 10
0.0
 20
0.0
 30
0.0
  0
VERTEX
  5
97
330
96
100
AcDbEntity
  8
Default
100
AcDbVertex
100
AcDb2dVertex
 10
38.98997958505163
 20
93.61037602747454
 30
0.0
  0
VERTEX
  5
98
330
96
100
AcDbEntity
  8
Default
100
AcDbVertex
100
AcDb2dVertex
 10
38.99032448907326
 20
94.02570973886652
 30
0.0
  0
SEQEND
  5
99
330
96
100
AcDbEntity
  8
Default
  0
SPLINE
  5
9A
330
1F
100
AcDbEntity
  8
Default
100
AcDbSpline
210
0.0
220
0.0
230
1.0
 70
    12
 71
     2
 72
     6
 73
     3
 74
     0
 42
0.0000000001
 43
0.0000000001
 40
-0.5886261159745874
 40
-0.5886261159745874
 40
-0.5886261159745874
 40
0.0
 40
0.0
 40
0.0
 10
38.99032448907326
 20
94.02570973886652
 30
0.0
 41
1.0
 10
38.98909304804576
 20
94.39958432862599
 30
0.0
 41
0.7093320060914909
 10
38.61521812408512
 20
94.40070973886621
 30
0.0
 41
1.0
  0
LINE
  5
9B
330
1F
100
AcDbEntity
  8
Default
100
AcDbLine
 10
38.61521812408512
 20
94.40070973886621
 30
0.0
 11
-38.66942812144032
 21
94.40070973886652
 31
0.0
  0
SPLINE
  5
9C
330
1F
100
AcDbEntity
  8
Default
100
AcDbSpline
210
0.0
220
0.0
230
1.0
 70
    12
 71
     2
 72
     6
 73
     3
 74
     0
 42
0.0000000001
 43
0.0000000001
 40
-0.5870350994197429
 40
-0.5870350994197429
 40
-0.5870350994197429
 40
0.0
 40
0.0
 40
0.0
 10
-38.66942812144032
 20
94.40070973886536
 30
0.0
 41
1.0
 10
-39.03960520988304
 20
94.39588543410433
 30
0.0
 41
0.7163609361589981
 10
-39.04453525851488
 20
94.02570973886652
 30
0.0
 41
1.0
  0
POLYLINE
  5
9D
330
1F
100
AcDbEntity
  8
Default
100
AcDb2dPolyline
 66
     1
 10
0.0
 20
0.0
 30
0.0
  0
VERTEX
  5
9E
330
9D
100
AcDbEntity
  8
Default
100
AcDbVertex
100
AcDb2dVertex
 10
-39.04453525851488
 20
94.02570973886652
 30
0.0
  0
VERTEX
  5
9F
330
9D
100
AcDbEntity
  8
Default
100
AcDbVertex
100
AcDb2dVertex
 10
-39.04419749402621
 20
93.61041519033766
 30
0.0
  0
SEQEND
  5
A0
330
9D
100
AcDbEntity
  8
Default
  0
SPLINE
  5
A1
330
1F
100
AcDbEntity
  8
Default
100
AcDbSpline
210
0.0
220
0.0
230
1.0
 70
    12
 71
     2
 72
     6
 73
     3
 74
     0
 42
0.0000000001
 43
0.0000000001
 40
-0.5733554140578405
 40
-0.5733554140578405
 40
-0.5733554140578405
 40
0.0
 40
0.0
 40
0.0
 10
-39.04419749402621
 20
93.61041519033766
 30
0.0
 41
1.0
 10
-39.02842423060305
 20
93.25176097623624
 30
0.0
 41
0.7234857856899921
 10
-38.66942487847507
 20
93.25070916666225
 30
0.0
 41
1.0
  0
ARC
  5
A2
330
1F
100
AcDbEntity
  8
Default
100
AcDbCircle
 10
32.12608386093655
 20
93.1207092944616
 30
0.0
 40
0.1299999999999955
100
AcDbArc
 50
359.9999999999499
 51
90.0
  0
LINE
  5
A3
330
1F
100
AcDbEntity
  8
Default
100
AcDbLine
 10
32.12608386093655
 20
93.2507092944616
 30
0.0
 11
-32.180290615324
 21
93.2507092944616
 31
0.0
  0
ARC
  5
A4
330
1F
100
AcDbEntity
  8
Default
100
AcDbCircle
 10
-32.180290615324
 20
93.1207092944616
 30
0.0
 40
0.13
100
AcDbArc
 50
90.0
 51
180.0000000000501
  0
SPLINE
  5
A5
330
1F
100
AcDbEntity
  8
Default
100
AcDbSpline
210
0.0
220
0.0
230
1.0
 70
     8
 71
     3
 72
     8
 73
     4
 74
     0
 42
0.0000000001
 43
0.0000000001
 40
0.0
 40
0.0
 40
0.0
 40
0.0
 40
1.0
 40
1.0
 40
1.0
 40
1.0
 10
-32.31029061532411
 20
89.35710798324128
 30
0.0
 10
-32.31029061532411
 20
88.73697316758147
 30
0.0
 10
-31.9049399875272
 20
88.46982337938128
 30
0.0
 10
-31.24963044266735
 20
88.46982337938043
 30
0.0
  0
SPLINE
  5
A6
330
1F
100
AcDbEntity
  8
Default
100
AcDbSpline
210
0.0
220
0.0
230
1.0
 70
    24
 71
     2
 72
     6
 73
     3
 74
     0
 42
0.0000000001
 43
0.0000000001
 40
0.0
 40
0.0
 40
0.0
 40
62.44505413181791
 40
62.44505413181791
 40
62.44505413181791
 10
-31.24963044266735
 20
88.46982337938043
 30
0.0
 10
-0.0271033767584186
 20
88.46982337934175
 30
0.0
 10
31.19542368915052
 20
88.46982337930307
 30
0.0
  0
SPLINE
  5
A7
330
1F
100
AcDbEntity
  8
Default
100
AcDbSpline
210
0.0
220
0.0
230
1.0
 70
     8
 71
     3
 72
     8
 73
     4
 74
     0
 42
0.0000000001
 43
0.0000000001
 40
-1.0
 40
-1.0
 40
-1.0
 40
-1.0
 40
0.0
 40
0.0
 40
0.0
 40
0.0
 10
31.19542368915052
 20
88.46982337930307
 30
0.0
 10
31.85073312448674
 20
88.46982337930227
 30
0.0
 10
32.25608386093688
 20
88.73697285963554
 30
0.0
 10
32.25608386093677
 20
89.35710746238202
 30
0.0
  0
SPLINE
  5
A8
330
1F
100
AcDbEntity
  8
Default
100
AcDbSpline
210
0.0
220
0.0
230
1.0
 70
    12
 71
     2
 72
     6
 73
     3
 74
     0
 42
0.0000000001
 43
0.0000000001
 40
0.970771243709296
 40
0.970771243709296
 40
0.970771243709296
 40
1.963495408493633
 40
1.963495408493633
 40
1.963495408493633
 10
38.99019492972309
 20
93.86969426104199
 30
0.0
 41
0.8535716970449257
 10
39.36453594495323
 20
93.50222423623671
 30
0.0
 41
0.851916039752461
 10
39.36453594495322
 20
92.97766211902477
 30
0.0
 41
1.0
  0
SPLINE
  5
A9
330
1F
100
AcDbEntity
  8
Default
100
AcDbSpline
210
0.0
220
0.0
230
1.0
 70
    24
 71
     2
 72
     6
 73
     3
 74
     0
 42
0.0000000001
 43
0.0000000001
 40
0.0
 40
0.0
 40
0.0
 40
24.31997188372955
 40
24.31997188372955
 40
24.31997188372955
 10
39.36453594495322
 20
92.97766211902477
 30
0.0
 10
39.36453594495322
 20
80.81767617715998
 30
0.0
 10
39.36453594495322
 20
68.65769023529519
 30
0.0
  0
SPLINE
  5
AA
330
1F
100
AcDbEntity
  8
Default
100
AcDbSpline
210
0.0
220
0.0
230
1.0
 70
    12
 71
     2
 72
     6
 73
     3
 74
     0
 42
0.0000000001
 43
0.0000000001
 40
0.0
 40
0.0
 40
0.0
 40
1.963495408493636
 40
1.963495408493636
 40
1.963495408493636
 10
39.36453594495322
 20
68.65769023529519
 30
0.0
 41
1.0
 10
39.36453594495316
 20
67.40769023529522
 30
0.0
 41
0.7071067811865495
 10
38.11453594495322
 20
67.40769023529519
 30
0.0
 41
1.0
  0
SPLINE
  5
AB
330
1F
100
AcDbEntity
  8
Default
100
AcDbSpline
210
0.0
220
0.0
230
1.0
 70
    24
 71
     2
 72
     6
 73
     3
 74
     0
 42
0.0000000001
 43
0.0000000001
 40
0.0
 40
0.0
 40
0.0
 40
76.28327864429392
 40
76.28327864429392
 40
76.28327864429392
 10
38.11453594495322
 20
67.40769023529519
 30
0.0
 10
-0.0271033771937255
 20
67.40769023529519
 30
0.0
 10
-38.16874269934067
 20
67.40769023529519
 30
0.0
  0
SPLINE
  5
AC
330
1F
100
AcDbEntity
  8
Default
100
AcDbSpline
210
0.0
220
0.0
230
1.0
 70
    12
 71
     2
 72
     6
 73
     3
 74
     0
 42
0.0000000001
 43
0.0000000001
 40
0.0
 40
0.0
 40
0.0
 40
1.963495408493624
 40
1.963495408493624
 40
1.963495408493624
 10
-38.16874269934067
 20
67.40769023529519
 30
0.0
 41
1.0
 10
-39.41874269934064
 20
67.40769023529519
 30
0.0
 41
0.7071067811865401
 10
-39.41874269934067
 20
68.65769023529519
 30
0.0
 41
1.0
  0
SPLINE
  5
AD
330
1F
100
AcDbEntity
  8
Default
100
AcDbSpline
210
0.0
220
0.0
230
1.0
 70
    24
 71
     2
 72
     6
 73
     3
 74
     0
 42
0.0000000001
 43
0.0000000001
 40
0.0
 40
0.0
 40
0.0
 40
24.31997188372955
 40
24.31997188372955
 40
24.31997188372955
 10
-39.41874269934067
 20
68.65769023529519
 30
0.0
 10
-39.41874269934067
 20
80.81767617715998
 30
0.0
 10
-39.41874269934067
 20
92.97766211902477
 30
0.0
  0
SPLINE
  5
AE
330
1F
100
AcDbEntity
  8
Default
100
AcDbSpline
210
0.0
220
0.0
230
1.0
 70
    12
 71
     2
 72
     6
 73
     3
 74
     0
 42
0.0000000001
 43
0.0000000001
 40
0.0
 40
0.0
 40
0.0
 40
0.992715290584593
 40
0.992715290584593
 40
0.992715290584593
 10
-39.41874269934067
 20
92.97766211902477
 30
0.0
 41
1.0
 10
-39.41874269934067
 20
93.50221873196254
 30
0.0
 41
0.8519173635105505
 10
-39.04440836375298
 20
93.86968770395457
 30
0.0
 41
0.8535716674562563
  0
LINE
  5
AF
330
1F
100
AcDbEntity
  8
Default
100
AcDbLine
 10
-32.31029061532388
 20
93.12070929446149
 30
0.0
 11
-32.31029061532411
 21
87.42156781273506
 31
0.0
  0
SPLINE
  5
B0
330
1F
100
AcDbEntity
  8
Default
100
AcDbSpline
210
0.0
220
0.0
230
1.0
 70
     8
 71
     3
 72
     8
 73
     4
 74
     0
 42
0.0000000001
 43
0.0000000001
 40
0.0
 40
0.0
 40
0.0
 40
0.0
 40
1.0
 40
1.0
 40
1.0
 40
1.0
 10
-32.31029061532411
 20
87.42156781273506
 30
0.0
 10
-32.31029061532411
 20
86.6650273092075
 30
0.0
 10
-31.7335576299962
 20
86.41580549920893
 30
0.0
 10
-30.8960770529535
 20
86.41580549920893
 30
0.0
  0
SPLINE
  5
B1
330
1F
100
AcDbEntity
  8
Default
100
AcDbSpline
210
0.0
220
0.0
230
1.0
 70
    24
 71
     2
 72
     6
 73
     3
 74
     0
 42
0.0000000001
 43
0.0000000001
 40
-61.73794735151458
 40
-61.73794735151458
 40
-61.73794735151458
 40
0.0
 40
0.0
 40
0.0
 10
-30.8960770529535
 20
86.41580549920893
 30
0.0
 10
-0.0271033771961697
 20
86.4158054992087
 30
0.0
 10
30.84187029856116
 20
86.41580549920847
 30
0.0
  0
SPLINE
  5
B2
330
1F
100
AcDbEntity
  8
Default
100
AcDbSpline
210
0.0
220
0.0
230
1.0
 70
     8
 71
     3
 72
     8
 73
     4
 74
     0
 42
0.0000000001
 43
0.0000000001
 40
-1.0
 40
-1.0
 40
-1.0
 40
-1.0
 40
0.0
 40
0.0
 40
0.0
 40
0.0
 10
30.84187029856116
 20
86.41580549920847
 30
0.0
 10
31.67934466707754
 20
86.41580549920847
 30
0.0
 10
32.25608386093677
 20
86.66500813900699
 30
0.0
 10
32.25608386093677
 20
87.42153674511955
 30
0.0
  0
LINE
  5
B3
330
1F
100
AcDbEntity
  8
Default
100
AcDbLine
 10
32.25608386093677
 20
87.42153674511955
 30
0.0
 11
32.25608386093677
 21
93.12070929446149
 31
0.0
  0
SPLINE
  5
B4
330
1F
100
AcDbEntity
  8
Default
100
AcDbSpline
210
0.0
220
0.0
230
1.0
 70
    24
 71
     2
 72
     6
 73
     3
 74
     0
 42
0.0000000001
 43
0.0000000001
 40
0.0
 40
0.0
 40
0.0
 40
7.480314960629922
 40
7.480314960629922
 40
7.480314960629922
 10
39.40516201378102
 20
15.75961977754478
 30
0.0
 10
39.39840066796398
 20
12.01366815627362
 30
0.0
 10
39.39163932214694
 20
8.267716535002464
 30
0.0
  0
SPLINE
  5
B5
330
1F
100
AcDbEntity
  8
Default
100
AcDbSpline
210
0.0
220
0.0
230
1.0
 70
     8
 71
     3
 72
    11
 73
     7
 74
     0
 42
0.0000000001
 43
0.0000000001
 40
0.0
 40
0.0
 40
0.0
 40
0.0
 40
1.156299930201769
 40
2.270294648735
 40
3.417840353569603
 40
4.622493043407858
 40
4.622493043407858
 40
4.622493043407858
 40
4.622493043407858
 10
35.391328181929
 20
17.71653543264027
 30
0.0
 10
35.76284134754724
 20
17.71788380216621
 30
0.0
 10
36.53470071018421
 20
17.63067095300555
 30
0.0
 10
37.60507363664624
 20
17.24356286549498
 30
0.0
 10
38.5935893725399
 20
16.62411790394258
 30
0.0
 10
39.15632979629333
 20
16.07624818253937
 30
0.0
 10
39.40516201378102
 20
15.75961977754478
 30
0.0
  0
LINE
  5
B6
330
1F
100
AcDbEntity
  8
Default
100
AcDbLine
 10
-35.4010241751954
 20
17.71653543264027
 30
0.0
 11
35.391328181929
 21
17.71653543264027
 31
0.0
  0
SPLINE
  5
B7
330
1F
100
AcDbEntity
  8
Default
100
AcDbSpline
210
0.0
220
0.0
230
1.0
 70
    12
 71
     2
 72
     6
 73
     3
 74
     0
 42
0.0000000001
 43
0.0000000001
 40
0.0
 40
0.0
 40
0.0
 40
4.598476703190518
 40
4.598476703190518
 40
4.598476703190518
 10
-39.40519101074381
 20
15.75964486767954
 30
0.0
 41
1.0
 10
-37.86544432571885
 20
17.67293216531775
 30
0.0
 41
0.907263094228092
 10
-35.4010241751954
 20
17.71653543264027
 30
0.0
 41
1.0
  0
SPLINE
  5
B8
330
1F
100
AcDbEntity
  8
Default
100
AcDbSpline
210
0.0
220
0.0
230
1.0
 70
    24
 71
     2
 72
     6
 73
     3
 74
     0
 42
0.0000000001
 43
0.0000000001
 40
-7.480314960629922
 40
-7.480314960629922
 40
-7.480314960629922
 40
0.0
 40
0.0
 40
0.0
 10
-39.39163932214694
 20
8.267716535002464
 30
0.0
 10
-39.39841516644537
 20
12.013680701341
 30
0.0
 10
-39.40519101074381
 20
15.75964486767954
 30
0.0
  0
LINE
  5
B9
330
1F
100
AcDbEntity
  8
Default
100
AcDbLine
 10
39.39163932214694
 20
8.267716535002464
 30
0.0
 11
-39.39163932214694
 21
8.267716535002464
 31
0.0
  0
LINE
  5
BA
330
1F
100
AcDbEntity
  8
Default
100
AcDbLine
 10
-32.28318723813038
 20
28.87237561128511
 30
0.0
 11
-32.28318723813038
 21
17.71653543264027
 31
0.0
  0
SPLINE
  5
BB
330
1F
100
AcDbEntity
  8
Default
100
AcDbSpline
210
0.0
220
0.0
230
1.0
 70
    12
 71
     2
 72
     8
 73
     5
 74
     0
 42
0.0000000001
 43
0.0000000001
 40
-1.666557816449954
 40
-1.666557816449954
 40
-1.666557816449954
 40
-0.833278908224977
 40
-0.833278908224977
 40
0.0
 40
0.0
 40
0.0
 10
-31.22252706636618
 20
29.93303578312047
 30
0.0
 41
1.0
 10
-31.66205723607874
 20
29.9334956483161
 30
0.0
 41
0.9236792119576374
 10
-31.97285216971716
 20
29.62270071465683
 30
0.0
 41
1.0
 10
-32.28364710335548
 20
29.31190578099766
 30
0.0
 41
0.9236792119576374
 10
-32.28318723813038
 20
28.87237561128511
 30
0.0
 41
1.0
  0
SPLINE
  5
BC
330
1F
100
AcDbEntity
  8
Default
100
AcDbSpline
210
0.0
220
0.0
230
1.0
 70
    24
 71
     2
 72
     6
 73
     3
 74
     0
 42
0.0000000001
 43
0.0000000001
 40
-62.44505413272866
 40
-62.44505413272866
 40
-62.44505413272866
 40
0.0
 40
0.0
 40
0.0
 10
31.22252706636243
 20
29.93303578312047
 30
0.0
 10
-0.0000000000018758
 20
29.93303578312047
 30
0.0
 10
-31.22252706636618
 20
29.93303578312047
 30
0.0
  0
SPLINE
  5
BD
330
1F
100
AcDbEntity
  8
Default
100
AcDbSpline
210
0.0
220
0.0
230
1.0
 70
    12
 71
     2
 72
     6
 73
     3
 74
     0
 42
0.0000000001
 43
0.0000000001
 40
-0.5404933285760178
 40
-0.5404933285760178
 40
-0.5404933285760178
 40
0.0
 40
0.0
 40
0.0
 10
31.73939755905364
 20
29.79778820081917
 30
0.0
 41
0.9999998253251212
 10
31.49918992763356
 20
29.93507176944978
 30
0.0
 41
0.9655306711717593
 10
31.22252706636243
 20
29.93303578312047
 30
0.0
 41
1.0
  0
SPLINE
  5
BE
330
1F
100
AcDbEntity
  8
Default
100
AcDbSpline
210
0.0
220
0.0
230
1.0
 70
    12
 71
     2
 72
     6
 73
     3
 74
     0
 42
0.0000000001
 43
0.0000000001
 40
-0.2925577488913214
 40
-0.2925577488913214
 40
-0.2925577488913214
 40
0.0
 40
0.0
 40
0.0
 10
31.9721530284894
 20
29.62199815093787
 30
0.0
 41
1.0
 10
31.86761015836882
 20
29.72556322235782
 30
0.0
 41
0.9910758454212779
 10
31.73939755905361
 20
29.79778820081917
 30
0.0
 41
0.9999999243091741
  0
SPLINE
  5
BF
330
1F
100
AcDbEntity
  8
Default
100
AcDbSpline
210
0.0
220
0.0
230
1.0
 70
    12
 71
     2
 72
     6
 73
     3
 74
     0
 42
0.0000000001
 43
0.0000000001
 40
-0.8332327547165053
 40
-0.8332327547165053
 40
-0.8332327547165053
 40
0.0
 40
0.0
 40
0.0
 10
32.28318723813061
 20
28.87237561129733
 30
0.0
 41
1.0
 10
32.28454905129614
 20
29.31227921242875
 30
0.0
 41
0.9224469656689
 10
31.9721530284894
 20
29.62199815093787
 30
0.0
 41
1.0
  0
LINE
  5
C0
330
1F
100
AcDbEntity
  8
Default
100
AcDbLine
 10
32.28318723813061
 20
17.71653543264027
 30
0.0
 11
32.28318723813061
 21
28.87237561129733
 31
0.0
  0
POLYLINE
  5
C1
330
1F
100
AcDbEntity
  8
Default
100
AcDb2dPolyline
 66
     1
 10
0.0
 20
0.0
 30
0.0
  0
VERTEX
  5
C2
330
C1
100
AcDbEntity
  8
Default
100
AcDbVertex
100
AcDb2dVertex
 10
-32.28318723813038
 20
17.71653543264027
 30
0.0
  0
VERTEX
  5
C3
330
C1
100
AcDbEntity
  8
Default
100
AcDbVertex
100
AcDb2dVertex
 10
32.28318723813061
 20
17.71653543264027
 30
0.0
  0
SEQEND
  5
C4
330
C1
100
AcDbEntity
  8
Default
  0
SPLINE
  5
C5
330
1F
100
AcDbEntity
  8
Default
100
AcDbSpline
210
0.0
220
0.0
230
1.0
 70
    24
 71
     2
 72
     6
 73
     3
 74
     0
 42
0.0000000001
 43
0.0000000001
 40
0.0
 40
0.0
 40
0.0
 40
76.28327864429392
 40
76.28327864429392
 40
76.28327864429392
 10
38.14163932214694
 20
8.267716535002464
 30
0.0
 10
0.0
 20
8.267716535002464
 30
0.0
 10
-38.14163932214694
 20
8.267716535002464
 30
0.0
  0
SPLINE
  5
C6
330
1F
100
AcDbEntity
  8
Default
100
AcDbSpline
210
0.0
220
0.0
230
1.0
 70
    12
 71
     2
 72
     6
 73
     3
 74
     0
 42
0.0000000001
 43
0.0000000001
 40
0.0
 40
0.0
 40
0.0
 40
8.149911166782651
 40
8.149911166782651
 40
8.149911166782651
 10
-39.11715011015758
 20
0.1174055248896195
 30
0.0
 41
1.0
 10
-39.14837598413649
 20
4.192424850926482
 30
0.0
 41
0.9999998996156108
 10
-39.18327738931305
 20
8.267231241551016
 30
0.0
 41
1.0
  0
SPLINE
  5
C7
330
1F
100
AcDbEntity
  8
Default
100
AcDbSpline
210
0.0
220
0.0
230
1.0
 70
    12
 71
     2
 72
     6
 73
     3
 74
     0
 42
0.0000000001
 43
0.0000000001
 40
0.0
 40
0.0
 40
0.0
 40
0.1828505988539321
 40
0.1828505988539321
 40
0.1828505988539321
 10
-38.99908215102369
 20
0.0000000004328911
 30
0.0
 41
1.0
 10
-39.11220047415986
 20
0.0041375781094731
 30
0.0
 41
0.7349920081234328
 10
-39.11715011015758
 20
0.1174055248896195
 30
0.0
 41
1.0
  0
LINE
  5
C8
330
1F
100
AcDbEntity
  8
Default
100
AcDbLine
 10
-37.9852746786753
 20
-0.0000000004328911
 30
0.0
 11
-38.99908215102369
 21
0.0000000004328911
 31
0.0
  0
ARC
  5
C9
330
1F
100
AcDbEntity
  8
Default
100
AcDbCircle
 10
-37.9852746786753
 20
0.1199999995671135
 30
0.0
 40
0.12
100
AcDbArc
 50
270.0
 51
356.4733941180746
  0
SPLINE
  5
CA
330
1F
100
AcDbEntity
  8
Default
100
AcDbSpline
210
0.0
220
0.0
230
1.0
 70
    12
 71
     2
 72
     6
 73
     3
 74
     0
 42
0.0000000001
 43
0.0000000001
 40
0.0
 40
0.0
 40
0.0
 40
8.16810736516567
 40
8.16810736516567
 40
8.16810736516567
 10
-37.35171049080361
 20
8.264547969383656
 30
0.0
 41
1.0
 10
-37.61428333454759
 20
4.188941075187653
 30
0.0
 41
0.9999990299969506
 10
-37.86550191760004
 20
0.1126185563210421
 30
0.0
 41
0.9999999999695106
  0
POLYLINE
  5
CB
330
1F
100
AcDbEntity
  8
Default
100
AcDb2dPolyline
 66
     1
 10
0.0
 20
0.0
 30
0.0
  0
VERTEX
  5
CC
330
CB
100
AcDbEntity
  8
Default
100
AcDbVertex
100
AcDb2dVertex
 10
-39.18327738931305
 20
8.267231241551016
 30
0.0
  0
VERTEX
  5
CD
330
CB
100
AcDbEntity
  8
Default
100
AcDbVertex
100
AcDb2dVertex
 10
-37.35171049080361
 20
8.264547969383656
 30
0.0
  0
SEQEND
  5
CE
330
CB
100
AcDbEntity
  8
Default
  0
SPLINE
  5
CF
330
1F
100
AcDbEntity
  8
Default
100
AcDbSpline
210
0.0
220
0.0
230
1.0
 70
    12
 71
     2
 72
     6
 73
     3
 74
     0
 42
0.0000000001
 43
0.0000000001
 40
0.0
 40
0.0
 40
0.0
 40
8.149911166782651
 40
8.149911166782651
 40
8.149911166782651
 10
39.11715011015758
 20
0.1174055248896195
 30
0.0
 41
1.0
 10
39.14837598413656
 20
4.192424850926482
 30
0.0
 41
0.9999998996156108
 10
39.18327738931305
 20
8.267231241551016
 30
0.0
 41
1.0
  0
SPLINE
  5
D0
330
1F
100
AcDbEntity
  8
Default
100
AcDbSpline
210
0.0
220
0.0
230
1.0
 70
    12
 71
     2
 72
     6
 73
     3
 74
     0
 42
0.0000000001
 43
0.0000000001
 40
0.0
 40
0.0
 40
0.0
 40
0.1828505988539321
 40
0.1828505988539321
 40
0.1828505988539321
 10
38.99908215102369
 20
0.0000000004328911
 30
0.0
 41
1.0
 10
39.11220047415993
 20
0.0041375781094731
 30
0.0
 41
0.7349920081234328
 10
39.11715011015758
 20
0.1174055248896195
 30
0.0
 41
1.0
  0
LINE
  5
D1
330
1F
100
AcDbEntity
  8
Default
100
AcDbLine
 10
37.9852746786753
 20
-0.0000000004328911
 30
0.0
 11
38.99908215102369
 21
0.0000000004328911
 31
0.0
  0
ARC
  5
D2
330
1F
100
AcDbEntity
  8
Default
100
AcDbCircle
 10
37.9852746786753
 20
0.1199999995671135
 30
0.0
 40
0.12
100
AcDbArc
 50
183.5266058819254
 51
270.0
  0
SPLINE
  5
D3
330
1F
100
AcDbEntity
  8
Default
100
AcDbSpline
210
0.0
220
0.0
230
1.0
 70
    12
 71
     2
 72
     6
 73
     3
 74
     0
 42
0.0000000001
 43
0.0000000001
 40
0.0
 40
0.0
 40
0.0
 40
8.16810736516567
 40
8.16810736516567
 40
8.16810736516567
 10
37.35171049080361
 20
8.264547969383656
 30
0.0
 41
1.0
 10
37.61428333454753
 20
4.188941075187653
 30
0.0
 41
0.9999990299969506
 10
37.86550191759998
 20
0.1126185563210421
 30
0.0
 41
0.9999999999695106
  0
POLYLINE
  5
D4
330
1F
100
AcDbEntity
  8
Default
100
AcDb2dPolyline
 66
     1
 10
0.0
 20
0.0
 30
0.0
  0
VERTEX
  5
D5
330
D4
100
AcDbEntity
  8
Default
100
AcDbVertex
100
AcDb2dVertex
 10
39.18327738931305
 20
8.267231241551016
 30
0.0
  0
VERTEX
  5
D6
330
D4
100
AcDbEntity
  8
Default
100
AcDbVertex
100
AcDb2dVertex
 10
37.35171049080361
 20
8.264547969383656
 30
0.0
  0
SEQEND
  5
D7
330
D4
100
AcDbEntity
  8
Default
  0
SPLINE
  5
D8
330
1F
100
AcDbEntity
  8
Default
100
AcDbSpline
210
0.0
220
0.0
230
1.0
 70
    12
 71
     2
 72
     6
 73
     3
 74
     0
 42
0.0000000001
 43
0.0000000001
 40
0.0
 40
0.0
 40
0.0
 40
1.261896844219237
 40
1.261896844219237
 40
1.261896844219237
 10
39.01699957629978
 20
17.74767124147955
 30
0.0
 41
1.0
 10
39.02110722925209
 20
17.07492655057683
 30
0.0
 41
0.9093363001655476
 10
38.5147400612783
 20
16.63198797340307
 30
0.0
 41
1.0
  0
SPLINE
  5
D9
330
1F
100
AcDbEntity
  8
Default
100
AcDbSpline
210
0.0
220
0.0
230
1.0
 70
    24
 71
     2
 72
     6
 73
     3
 74
     0
 42
0.0000000001
 43
0.0000000001
 40
0.0
 40
0.0
 40
0.0
 40
28.35610249905958
 40
28.35610249905958
 40
28.35610249905958
 10
39.01699957629978
 20
46.10377374053915
 30
0.0
 10
39.01699957629978
 20
31.92572249100935
 30
0.0
 10
39.01699957629978
 20
17.74767124147955
 30
0.0
  0
SPLINE
  5
DA
330
1F
100
AcDbEntity
  8
Default
100
AcDbSpline
210
0.0
220
0.0
230
1.0
 70
    12
 71
     2
 72
     6
 73
     3
 74
     0
 42
0.0000000001
 43
0.0000000001
 40
0.0
 40
0.0
 40
0.0
 40
2.35268737233585
 40
2.35268737233585
 40
2.35268737233585
 10
37.51699957629978
 20
47.60377374053915
 30
0.0
 41
1.0
 10
39.00883573978945
 20
47.59560990402885
 30
0.0
 41
0.7109656653689318
 10
39.01699957629978
 20
46.10377374053915
 30
0.0
 41
1.0
  0
SPLINE
  5
DB
330
1F
100
AcDbEntity
  8
Default
100
AcDbSpline
210
0.0
220
0.0
230
1.0
 70
    24
 71
     2
 72
     6
 73
     3
 74
     0
 42
0.0000000001
 43
0.0000000001
 40
0.0
 40
0.0
 40
0.0
 40
75.03399915259943
 40
75.03399915259943
 40
75.03399915259943
 10
-37.51699957629955
 20
47.60377374053915
 30
0.0
 10
0.0000000000001137
 20
47.60377374053915
 30
0.0
 10
37.51699957629978
 20
47.60377374053915
 30
0.0
  0
SPLINE
  5
DC
330
1F
100
AcDbEntity
  8
Default
100
AcDbSpline
210
0.0
220
0.0
230
1.0
 70
    12
 71
     2
 72
     6
 73
     3
 74
     0
 42
0.0000000001
 43
0.0000000001
 40
0.0
 40
0.0
 40
0.0
 40
2.352687372335866
 40
2.352687372335866
 40
2.352687372335866
 10
-39.01699957629955
 20
46.10377374053913
 30
0.0
 41
1.0
 10
-39.00883573978945
 20
47.59560990402888
 30
0.0
 41
0.710965665368916
 10
-37.51699957629955
 20
47.60377374053915
 30
0.0
 41
1.0
  0
SPLINE
  5
DD
330
1F
100
AcDbEntity
  8
Default
100
AcDbSpline
210
0.0
220
0.0
230
1.0
 70
    24
 71
     2
 72
     6
 73
     3
 74
     0
 42
0.0000000001
 43
0.0000000001
 40
0.0
 40
0.0
 40
0.0
 40
28.35610249905957
 40
28.35610249905957
 40
28.35610249905957
 10
-39.01699957629955
 20
17.74767124147955
 30
0.0
 10
-39.01699957629955
 20
31.92572249100934
 30
0.0
 10
-39.01699957629955
 20
46.10377374053913
 30
0.0
  0
SPLINE
  5
DE
330
1F
100
AcDbEntity
  8
Default
100
AcDbSpline
210
0.0
220
0.0
230
1.0
 70
    12
 71
     2
 72
     6
 73
     3
 74
     0
 42
0.0000000001
 43
0.0000000001
 40
0.0
 40
0.0
 40
0.0
 40
1.178525365644504
 40
1.178525365644504
 40
1.178525365644504
 10
-38.5752646485671
 20
16.68941892448184
 30
0.0
 41
1.0
 10
-39.02226344480203
 20
17.12415350343251
 30
0.0
 41
0.9195453832163222
 10
-39.01699957629955
 20
17.74767124147955
 30
0.0
 41
1.0
  0
ENDSEC
  0
SECTION
  2
OBJECTS
  0
DICTIONARY
  5
C
330
0
100
AcDbDictionary
281
     1
  3
ACAD_GROUP
350
D
  3
ACAD_LAYOUT
350
1A
  3
ACAD_MLEADERSTYLE
350
E0
  3
ACAD_MLINESTYLE
350
17
  3
ACAD_PLOTSETTINGS
350
19
  3
ACAD_PLOTSTYLENAME
350
E
  3
ACAD_TABLESTYLE
350
DF
  3
ACAD_VISUALSTYLE
350
2A
  0
DICTIONARY
  5
D
102
{ACAD_REACTORS
330
C
102
}
330
C
100
AcDbDictionary
281
     1
  0
DICTIONARY
  5
1A
102
{ACAD_REACTORS
330
C
102
}
330
C
100
AcDbDictionary
281
     1
  3
Layout1
350
1E
  3
Layout2
350
26
  3
Model
350
22
  0
DICTIONARY
  5
E0
102
{ACAD_REACTORS
330
C
102
}
330
C
100
AcDbDictionary
281
     1
  0
DICTIONARY
  5
17
102
{ACAD_REACTORS
330
C
102
}
330
C
100
AcDbDictionary
281
     1
  3
Standard
350
18
  0
DICTIONARY
  5
19
102
{ACAD_REACTORS
330
C
102
}
330
C
100
AcDbDictionary
281
     1
  0
ACDBDICTIONARYWDFLT
  5
E
102
{ACAD_REACTORS
330
C
102
}
330
C
100
AcDbDictionary
281
     1
  3
Normal
350
F
100
AcDbDictionaryWithDefault
340
F
  0
DICTIONARY
  5
DF
102
{ACAD_REACTORS
330
C
102
}
330
C
100
AcDbDictionary
281
     1
  0
DICTIONARY
  5
2A
102
{ACAD_REACTORS
330
C
102
}
330
C
100
AcDbDictionary
281
     1
  3
2dWireframe
350
2F
  3
3D Hidden
350
31
  3
3dWireframe
350
30
  3
Basic
350
32
  3
Brighten
350
36
  3
ColorChange
350
3A
  3
Conceptual
350
34
  3
Dim
350
35
  3
Facepattern
350
39
  3
Flat
350
2B
  3
FlatWithEdges
350
2C
  3
Gouraud
350
2D
  3
GouraudWithEdges
350
2E
  3
Linepattern
350
38
  3
Realistic
350
33
  3
Thicken
350
37
  0
LAYOUT
  5
1E
102
{ACAD_REACTORS
330
1A
102
}
330
1A
100
AcDbPlotSettings
  1

  2
none_device
  4

  6

 40
0.0
 41
0.0
 42
0.0
 43
0.0
 44
0.0
 45
0.0
 46
0.0
 47
0.0
 48
0.0
 49
0.0
140
0.0
141
0.0
142
1.0
143
1.0
 70
   688
 72
     0
 73
     0
 74
     5
  7

 75
    16
 76
     0
 77
     2
 78
   300
147
1.0
148
0.0
149
0.0
100
AcDbLayout
  1
Layout1
 70
     1
 71
     1
 10
0.0
 20
0.0
 11
12.0
 21
9.0
 12
0.0
 22
0.0
 32
0.0
 14
1.000000000000000E+20
 24
1.000000000000000E+20
 34
1.000000000000000E+20
 15
-1.000000000000000E+20
 25
-1.000000000000000E+20
 35
-1.000000000000000E+20
146
0.0
 13
0.0
 23
0.0
 33
0.0
 16
1.0
 26
0.0
 36
0.0
 17
0.0
 27
1.0
 37
0.0
 76
     0
330
1B
  0
LAYOUT
  5
26
102
{ACAD_REACTORS
330
1A
102
}
330
1A
100
AcDbPlotSettings
  1

  2
none_device
  4

  6

 40
0.0
 41
0.0
 42
0.0
 43
0.0
 44
0.0
 45
0.0
 46
0.0
 47
0.0
 48
0.0
 49
0.0
140
0.0
141
0.0
142
1.0
143
1.0
 70
   688
 72
     0
 73
     0
 74
     5
  7

 75
    16
 76
     0
 77
     2
 78
   300
147
1.0
148
0.0
149
0.0
100
AcDbLayout
  1
Layout2
 70
     1
 71
     2
 10
0.0
 20
0.0
 11
0.0
 21
0.0
 12
0.0
 22
0.0
 32
0.0
 14
0.0
 24
0.0
 34
0.0
 15
0.0
 25
0.0
 35
0.0
146
0.0
 13
0.0
 23
0.0
 33
0.0
 16
1.0
 26
0.0
 36
0.0
 17
0.0
 27
1.0
 37
0.0
 76
     0
330
23
  0
LAYOUT
  5
22
102
{ACAD_REACTORS
330
1A
102
}
330
1A
100
AcDbPlotSettings
  1

  2
none_device
  4

  6

 40
0.0
 41
0.0
 42
0.0
 43
0.0
 44
0.0
 45
0.0
 46
0.0
 47
0.0
 48
0.0
 49
0.0
140
0.0
141
0.0
142
1.0
143
1.0
 70
  1712
 72
     0
 73
     0
 74
     0
  7

 75
     0
 76
     0
 77
     2
 78
   300
147
1.0
148
0.0
149
0.0
100
AcDbLayout
  1
Model
 70
     1
 71
     0
 10
0.0
 20
0.0
 11
12.0
 21
9.0
 12
0.0
 22
0.0
 32
0.0
 14
-39.41874269934067
 24
-0.0000000004328911
 34
0.0
 15
119.5217617550869
 25
120.228434693909
 35
0.0
146
0.0
 13
0.0
 23
0.0
 33
0.0
 16
1.0
 26
0.0
 36
0.0
 17
0.0
 27
1.0
 37
0.0
 76
     0
330
1F
331
29
  0
MLINESTYLE
  5
18
102
{ACAD_REACTORS
330
17
102
}
330
17
100
AcDbMlineStyle
  2
Standard
 70
     0
  3

 62
   256
 51
90.0
 52
90.0
 71
     2
 49
0.5
 62
   256
  6
BYLAYER
 49
-0.5
 62
   256
  6
BYLAYER
  0
ACDBPLACEHOLDER
  5
F
102
{ACAD_REACTORS
330
E
102
}
330
E
  0
VISUALSTYLE
  5
2F
102
{ACAD_REACTORS
330
2A
102
}
330
2A
100
AcDbVisualStyle
  2
2dWireframe
 70
     4
 71
     0
 72
     2
 73
     0
 90
        0
 40
-0.6
 41
-30.0
 62
     5
 63
     7
421
 16777215
 74
     1
 91
        4
 64
     7
 65
   257
 75
     1
175
     1
 42
1.0
 92
        0
 66
   257
 43
1.0
 76
     1
 77
     6
 78
     2
 67
     7
 79
     5
170
     0
171
     0
290
     0
174
     0
 93
        1
 44
0.0
173
     0
291
     0
 45
0.0
1001
ACAD
1000
AcDbSavedByObjectVersion
1070
     0
  0
VISUALSTYLE
  5
31
102
{ACAD_REACTORS
330
2A
102
}
330
2A
100
AcDbVisualStyle
  2
3D Hidden
 70
     6
 71
     1
 72
     2
 73
     2
 90
        0
 40
-0.6
 41
-30.0
 62
     5
 63
     7
421
 16777215
 74
     2
 91
        2
 64
     7
 65
   257
 75
     2
175
     1
 42
40.0
 92
        0
 66
   257
 43
1.0
 76
     1
 77
     6
 78
     2
 67
     7
 79
     3
170
     0
171
     0
290
     0
174
     0
 93
        1
 44
0.0
173
     0
291
     0
 45
0.0
1001
ACAD
1000
AcDbSavedByObjectVersion
1070
     0
  0
VISUALSTYLE
  5
30
102
{ACAD_REACTORS
330
2A
102
}
330
2A
100
AcDbVisualStyle
  2
3dWireframe
 70
     5
 71
     0
 72
     2
 73
     0
 90
        0
 40
-0.6
 41
-30.0
 62
     5
 63
     7
421
 16777215
 74
     1
 91
        4
 64
     7
 65
   257
 75
     1
175
     1
 42
1.0
 92
        0
 66
   257
 43
1.0
 76
     1
 77
     6
 78
     2
 67
     7
 79
     5
170
     0
171
     0
290
     0
174
     0
 93
        1
 44
0.0
173
     0
291
     0
 45
0.0
1001
ACAD
1000
AcDbSavedByObjectVersion
1070
     0
  0
VISUALSTYLE
  5
32
102
{ACAD_REACTORS
330
2A
102
}
330
2A
100
AcDbVisualStyle
  2
Basic
 70
     7
 71
     1
 72
     0
 73
     1
 90
        0
 40
-0.6
 41
-30.0
 62
     5
 63
     7
421
 16777215
 74
     0
 91
        4
 64
     7
 65
   257
 75
     1
175
     1
 42
1.0
 92
        8
 66
     7
 43
1.0
 76
     1
 77
     6
 78
     2
 67
     7
 79
     5
170
     0
171
     0
290
     0
174
     0
 93
        1
 44
0.0
173
     0
291
     1
 45
0.0
1001
ACAD
1000
AcDbSavedByObjectVersion
1070
     0
  0
VISUALSTYLE
  5
36
102
{ACAD_REACTORS
330
2A
102
}
330
2A
100
AcDbVisualStyle
  2
Brighten
 70
    12
 71
     2
 72
     2
 73
     0
 90
        0
 40
-0.6
 41
-30.0
 62
     5
 63
     7
421
 16777215
 74
     1
 91
        4
 64
     7
 65
   257
 75
     1
175
     1
 42
1.0
 92
        8
 66
     7
 43
1.0
 76
     1
 77
     6
 78
     2
 67
     7
 79
     5
170
     0
171
     0
290
     0
174
     0
 93
        1
 44
50.0
173
     0
291
     1
 45
0.0
1001
ACAD
1000
AcDbSavedByObjectVersion
1070
     0
  0
VISUALSTYLE
  5
3A
102
{ACAD_REACTORS
330
2A
102
}
330
2A
100
AcDbVisualStyle
  2
ColorChange
 70
    16
 71
     2
 72
     2
 73
     3
 90
        0
 40
-0.6
 41
-30.0
 62
     5
 63
     8
421
  8421504
 74
     1
 91
        4
 64
     7
 65
   257
 75
     1
175
     1
 42
1.0
 92
        8
 66
     8
424
  8421504
 43
1.0
 76
     1
 77
     6
 78
     2
 67
     7
 79
     5
170
     0
171
     0
290
     0
174
     0
 93
        1
 44
0.0
173
     0
291
     1
 45
0.0
1001
ACAD
1000
AcDbSavedByObjectVersion
1070
     0
  0
VISUALSTYLE
  5
34
102
{ACAD_REACTORS
330
2A
102
}
330
2A
100
AcDbVisualStyle
  2
Conceptual
 70
     9
 71
     3
 72
     2
 73
     0
 90
        0
 40
-0.6
 41
-30.0
 62
     5
 63
     7
421
 16777215
 74
     2
 91
        2
 64
     7
 65
   257
 75
     1
175
     1
 42
40.0
 92
        8
 66
     7
 43
1.0
 76
     1
 77
     6
 78
     2
 67
     7
 79
     3
170
     0
171
     0
290
     0
174
     0
 93
        1
 44
0.0
173
     0
291
     0
 45
0.0
1001
ACAD
1000
AcDbSavedByObjectVersion
1070
     0
  0
VISUALSTYLE
  5
35
102
{ACAD_REACTORS
330
2A
102
}
330
2A
100
AcDbVisualStyle
  2
Dim
 70
    11
 71
     2
 72
     2
 73
     0
 90
        0
 40
-0.6
 41
-30.0
 62
     5
 63
     7
421
 16777215
 74
     1
 91
        4
 64
     7
 65
   257
 75
     1
175
     1
 42
1.0
 92
        8
 66
     7
 43
1.0
 76
     1
 77
     6
 78
     2
 67
     7
 79
     5
170
     0
171
     0
290
     0
174
     0
 93
        1
 44
-50.0
173
     0
291
     1
 45
0.0
1001
ACAD
1000
AcDbSavedByObjectVersion
1070
     0
  0
VISUALSTYLE
  5
39
102
{ACAD_REACTORS
330
2A
102
}
330
2A
100
AcDbVisualStyle
  2
Facepattern
 70
    15
 71
     2
 72
     2
 73
     0
 90
        0
 40
-0.6
 41
-30.0
 62
     5
 63
     7
421
 16777215
 74
     1
 91
        4
 64
     7
 65
   257
 75
     1
175
     1
 42
1.0
 92
        8
 66
     7
 43
1.0
 76
     1
 77
     6
 78
     2
 67
     7
 79
     5
170
     0
171
     0
290
     0
174
     0
 93
        1
 44
0.0
173
     0
291
     1
 45
0.0
1001
ACAD
1000
AcDbSavedByObjectVersion
1070
     0
  0
VISUALSTYLE
  5
2B
102
{ACAD_REACTORS
330
2A
102
}
330
2A
100
AcDbVisualStyle
  2
Flat
 70
     0
 71
     2
 72
     1
 73
     1
 90
        2
 40
-0.6
 41
30.0
 62
     5
 63
     7
421
 16777215
 74
     0
 91
        4
 64
     7
 65
   257
 75
     1
175
     1
 42
1.0
 92
        8
 66
     7
 43
1.0
 76
     1
 77
     6
 78
     2
 67
     7
 79
     5
170
     0
171
     0
290
     0
174
     0
 93
       13
 44
0.0
173
     0
291
     1
 45
0.0
1001
ACAD
1000
AcDbSavedByObjectVersion
1070
     0
  0
VISUALSTYLE
  5
2C
102
{ACAD_REACTORS
330
2A
102
}
330
2A
100
AcDbVisualStyle
  2
FlatWithEdges
 70
     1
 71
     2
 72
     1
 73
     1
 90
        2
 40
-0.6
 41
30.0
 62
     5
 63
     7
421
 16777215
 74
     1
 91
        4
 64
     7
 65
   257
 75
     1
175
     1
 42
1.0
 92
        0
 66
   257
 43
1.0
 76
     1
 77
     6
 78
     2
 67
     7
 79
     5
170
     0
171
     0
290
     0
174
     0
 93
       13
 44
0.0
173
     0
291
     1
 45
0.0
1001
ACAD
1000
AcDbSavedByObjectVersion
1070
     0
  0
VISUALSTYLE
  5
2D
102
{ACAD_REACTORS
330
2A
102
}
330
2A
100
AcDbVisualStyle
  2
Gouraud
 70
     2
 71
     2
 72
     2
 73
     1
 90
        2
 40
-0.6
 41
30.0
 62
     5
 63
     7
421
 16777215
 74
     0
 91
        4
 64
     7
 65
   257
 75
     1
175
     1
 42
1.0
 92
        0
 66
     7
 43
1.0
 76
     1
 77
     6
 78
     2
 67
     7
 79
     5
170
     0
171
     0
290
     0
174
     0
 93
       13
 44
0.0
173
     0
291
     1
 45
0.0
1001
ACAD
1000
AcDbSavedByObjectVersion
1070
     0
  0
VISUALSTYLE
  5
2E
102
{ACAD_REACTORS
330
2A
102
}
330
2A
100
AcDbVisualStyle
  2
GouraudWithEdges
 70
     3
 71
     2
 72
     2
 73
     1
 90
        2
 40
-0.6
 41
30.0
 62
     5
 63
     7
421
 16777215
 74
     1
 91
        4
 64
     7
 65
   257
 75
     1
175
     1
 42
1.0
 92
        0
 66
   257
 43
1.0
 76
     1
 77
     6
 78
     2
 67
     7
 79
     5
170
     0
171
     0
290
     0
174
     0
 93
       13
 44
0.0
173
     0
291
     1
 45
0.0
1001
ACAD
1000
AcDbSavedByObjectVersion
1070
     0
  0
VISUALSTYLE
  5
38
102
{ACAD_REACTORS
330
2A
102
}
330
2A
100
AcDbVisualStyle
  2
Linepattern
 70
    14
 71
     2
 72
     2
 73
     0
 90
        0
 40
-0.6
 41
-30.0
 62
     5
 63
     7
421
 16777215
 74
     1
 91
        4
 64
     7
 65
   257
 75
     7
175
     7
 42
1.0
 92
        8
 66
     7
 43
1.0
 76
     1
 77
     6
 78
     2
 67
     7
 79
     5
170
     0
171
     0
290
     0
174
     0
 93
        1
 44
0.0
173
     0
291
     1
 45
0.0
1001
ACAD
1000
AcDbSavedByObjectVersion
1070
     0
  0
VISUALSTYLE
  5
33
102
{ACAD_REACTORS
330
2A
102
}
330
2A
100
AcDbVisualStyle
  2
Realistic
 70
     8
 71
     2
 72
     2
 73
     0
 90
        0
 40
-0.6
 41
-30.0
 62
     5
 63
     7
421
 16777215
 74
     1
 91
        0
 64
     7
 65
   257
 75
     1
175
     1
 42
1.0
 92
        8
 66
     8
424
  7895160
 43
1.0
 76
     1
 77
     6
 78
     2
 67
     7
 79
     5
170
     0
171
     0
290
     0
174
     0
 93
       13
 44
0.0
173
     0
291
     0
 45
0.0
1001
ACAD
1000
AcDbSavedByObjectVersion
1070
     0
  0
VISUALSTYLE
  5
37
102
{ACAD_REACTORS
330
2A
102
}
330
2A
100
AcDbVisualStyle
  2
Thicken
 70
    13
 71
     2
 72
     2
 73
     0
 90
        0
 40
-0.6
 41
-30.0
 62
     5
 63
     7
421
 16777215
 74
     1
 91
        4
 64
     7
 65
   257
 75
     1
175
     1
 42
1.0
 92
       12
 66
     7
 43
1.0
 76
     1
 77
     6
 78
     2
 67
     7
 79
     5
170
     0
171
     0
290
     0
174
     0
 93
        1
 44
0.0
173
     0
291
     1
 45
0.0
1001
ACAD
1000
AcDbSavedByObjectVersion
1070
     0
  0
ENDSEC
  0
EOF
