  0
SECTION
  2
HEADER
  9
$ACADVER
  1
AC1018
  9
$ACADMAINTVER
 70
     0
  9
$DWGCODEPAGE
  3
ANSI_1252
  9
$INSBASE
 10
0.0
 20
0.0
 30
0.0
  9
$EXTMIN
 10
-43.04864430419904
 20
-0.0006296915526036
 30
0.0
  9
$EXTMAX
 10
103.3199233883746
 20
116.2945348648593
 30
0.0
  9
$LIMMIN
 10
0.0
 20
0.0
  9
$LIMMAX
 10
12.0
 20
9.0
  9
$ORTHOMODE
 70
     0
  9
$REGENMODE
 70
     1
  9
$FILLMODE
 70
     1
  9
$QTEXTMODE
 70
     0
  9
$MIRRTEXT
 70
     1
  9
$LTSCALE
 40
0.0393700787401575
  9
$ATTMODE
 70
     1
  9
$TEXTSIZE
 40
0.2
  9
$TRACEWID
 40
0.05
  9
$TEXTSTYLE
  7
Standard
  9
$CLAYER
  8
Default
  9
$CELTYPE
  6
ByLayer
  9
$CECOLOR
 62
   256
  9
$CELTSCALE
 40
1.0
  9
$DISPSILH
 70
     0
  9
$DIMSCALE
 40
1.0
  9
$DIMASZ
 40
0.18
  9
$DIMEXO
 40
0.0625
  9
$DIMDLI
 40
0.38
  9
$DIMRND
 40
0.0
  9
$DIMDLE
 40
0.0
  9
$DIMEXE
 40
0.18
  9
$DIMTP
 40
0.0
  9
$DIMTM
 40
0.0
  9
$DIMTXT
 40
0.18
  9
$DIMCEN
 40
0.09
  9
$DIMTSZ
 40
0.0
  9
$DIMTOL
 70
     0
  9
$DIMLIM
 70
     0
  9
$DIMTIH
 70
     1
  9
$DIMTOH
 70
     1
  9
$DIMSE1
 70
     0
  9
$DIMSE2
 70
     0
  9
$DIMTAD
 70
     0
  9
$DIMZIN
 70
     0
  9
$DIMBLK
  1

  9
$DIMASO
 70
     1
  9
$DIMSHO
 70
     1
  9
$DIMPOST
  1

  9
$DIMAPOST
  1

  9
$DIMALT
 70
     0
  9
$DIMALTD
 70
     2
  9
$DIMALTF
 40
25.4
  9
$DIMLFAC
 40
1.0
  9
$DIMTOFL
 70
     0
  9
$DIMTVP
 40
0.0
  9
$DIMTIX
 70
     0
  9
$DIMSOXD
 70
     0
  9
$DIMSAH
 70
     0
  9
$DIMBLK1
  1

  9
$DIMBLK2
  1

  9
$DIMSTYLE
  2
Standard
  9
$DIMCLRD
 70
     0
  9
$DIMCLRE
 70
     0
  9
$DIMCLRT
 70
     0
  9
$DIMTFAC
 40
1.0
  9
$DIMGAP
 40
0.09
  9
$DIMJUST
 70
     0
  9
$DIMSD1
 70
     0
  9
$DIMSD2
 70
     0
  9
$DIMTOLJ
 70
     1
  9
$DIMTZIN
 70
     0
  9
$DIMALTZ
 70
     0
  9
$DIMALTTZ
 70
     0
  9
$DIMUPT
 70
     0
  9
$DIMDEC
 70
     4
  9
$DIMTDEC
 70
     4
  9
$DIMALTU
 70
     2
  9
$DIMALTTD
 70
     2
  9
$DIMTXSTY
  7
Standard
  9
$DIMAUNIT
 70
     0
  9
$DIMADEC
 70
     0
  9
$DIMALTRND
 40
0.0
  9
$DIMAZIN
 70
     0
  9
$DIMDSEP
 70
    46
  9
$DIMATFIT
 70
     3
  9
$DIMFRAC
 70
     0
  9
$DIMLDRBLK
  1

  9
$DIMLUNIT
 70
     2
  9
$DIMLWD
 70
    -2
  9
$DIMLWE
 70
    -2
  9
$DIMTMOVE
 70
     2
  9
$LUNITS
 70
     2
  9
$LUPREC
 70
     3
  9
$SKETCHINC
 40
0.1
  9
$FILLETRAD
 40
0.5
  9
$AUNITS
 70
     0
  9
$AUPREC
 70
     0
  9
$MENU
  1
.
  9
$ELEVATION
 40
0.0
  9
$PELEVATION
 40
0.0
  9
$THICKNESS
 40
0.0
  9
$LIMCHECK
 70
     0
  9
$CHAMFERA
 40
0.5
  9
$CHAMFERB
 40
0.5
  9
$CHAMFERC
 40
1.0
  9
$CHAMFERD
 40
0.0
  9
$SKPOLY
 70
     0
  9
$TDCREATE
 40
2458149.916734456
  9
$TDUCREATE
 40
2458150.12506779
  9
$TDUPDATE
 40
2458149.916734468
  9
$TDUUPDATE
 40
2458150.125067801
  9
$TDINDWG
 40
0.0000000116
  9
$TDUSRTIMER
 40
0.0000000116
  9
$USRTIMER
 70
     1
  9
$ANGBASE
 50
0.0
  9
$ANGDIR
 70
     0
  9
$PDMODE
 70
     0
  9
$PDSIZE
 40
0.0
  9
$PLINEWID
 40
0.0
  9
$SPLFRAME
 70
     0
  9
$SPLINETYPE
 70
     6
  9
$SPLINESEGS
 70
     8
  9
$HANDSEED
  5
E3
  9
$SURFTAB1
 70
     6
  9
$SURFTAB2
 70
     6
  9
$SURFTYPE
 70
     6
  9
$SURFU
 70
     6
  9
$SURFV
 70
     6
  9
$UCSBASE
  2

  9
$UCSNAME
  2

  9
$UCSORG
 10
0.0
 20
0.0
 30
0.0
  9
$UCSXDIR
 10
1.0
 20
0.0
 30
0.0
  9
$UCSYDIR
 10
0.0
 20
1.0
 30
0.0
  9
$UCSORTHOREF
  2

  9
$UCSORTHOVIEW
 70
     0
  9
$UCSORGTOP
 10
0.0
 20
0.0
 30
0.0
  9
$UCSORGBOTTOM
 10
0.0
 20
0.0
 30
0.0
  9
$UCSORGLEFT
 10
0.0
 20
0.0
 30
0.0
  9
$UCSORGRIGHT
 10
0.0
 20
0.0
 30
0.0
  9
$UCSORGFRONT
 10
0.0
 20
0.0
 30
0.0
  9
$UCSORGBACK
 10
0.0
 20
0.0
 30
0.0
  9
$PUCSBASE
  2

  9
$PUCSNAME
  2

  9
$PUCSORG
 10
0.0
 20
0.0
 30
0.0
  9
$PUCSXDIR
 10
1.0
 20
0.0
 30
0.0
  9
$PUCSYDIR
 10
0.0
 20
1.0
 30
0.0
  9
$PUCSORTHOREF
  2

  9
$PUCSORTHOVIEW
 70
     0
  9
$PUCSORGTOP
 10
0.0
 20
0.0
 30
0.0
  9
$PUCSORGBOTTOM
 10
0.0
 20
0.0
 30
0.0
  9
$PUCSORGLEFT
 10
0.0
 20
0.0
 30
0.0
  9
$PUCSORGRIGHT
 10
0.0
 20
0.0
 30
0.0
  9
$PUCSORGFRONT
 10
0.0
 20
0.0
 30
0.0
  9
$PUCSORGBACK
 10
0.0
 20
0.0
 30
0.0
  9
$USERI1
 70
     0
  9
$USERI2
 70
     0
  9
$USERI3
 70
     0
  9
$USERI4
 70
     0
  9
$USERI5
 70
     0
  9
$USERR1
 40
0.0
  9
$USERR2
 40
0.0
  9
$USERR3
 40
0.0
  9
$USERR4
 40
0.0
  9
$USERR5
 40
0.0
  9
$WORLDVIEW
 70
     1
  9
$SHADEDGE
 70
     3
  9
$SHADEDIF
 70
    70
  9
$TILEMODE
 70
     1
  9
$MAXACTVP
 70
    64
  9
$PINSBASE
 10
0.0
 20
0.0
 30
0.0
  9
$PLIMCHECK
 70
     0
  9
$PEXTMIN
 10
1.000000000000000E+20
 20
1.000000000000000E+20
 30
1.000000000000000E+20
  9
$PEXTMAX
 10
-1.000000000000000E+20
 20
-1.000000000000000E+20
 30
-1.000000000000000E+20
  9
$PLIMMIN
 10
0.0
 20
0.0
  9
$PLIMMAX
 10
12.0
 20
9.0
  9
$UNITMODE
 70
     0
  9
$VISRETAIN
 70
     1
  9
$PLINEGEN
 70
     0
  9
$PSLTSCALE
 70
     1
  9
$TREEDEPTH
 70
  3020
  9
$CMLSTYLE
  2
Standard
  9
$CMLJUST
 70
     0
  9
$CMLSCALE
 40
1.0
  9
$PROXYGRAPHICS
 70
     1
  9
$MEASUREMENT
 70
     0
  9
$CELWEIGHT
370
    -1
  9
$ENDCAPS
280
     0
  9
$JOINSTYLE
280
     0
  9
$LWDISPLAY
290
     0
  9
$INSUNITS
 70
     1
  9
$HYPERLINKBASE
  1

  9
$STYLESHEET
  1

  9
$XEDIT
290
     1
  9
$CEPSNTYPE
380
     0
  9
$PSTYLEMODE
290
     1
  9
$FINGERPRINTGUID
  2
{45F17C9F-6845-4639-AFBC-3449568DF7E0}
  9
$VERSIONGUID
  2
{FAEB1C32-E019-11D5-929B-00C0DF256EC4}
  9
$EXTNAMES
290
     1
  9
$PSVPSCALE
 40
0.0
  9
$OLESTARTUP
290
     0
  9
$SORTENTS
280
   127
  9
$INDEXCTL
280
     0
  9
$HIDETEXT
280
     1
  9
$XCLIPFRAME
290
     0
  9
$HALOGAP
280
     0
  9
$OBSCOLOR
 70
   257
  9
$OBSLTYPE
280
     0
  9
$INTERSECTIONDISPLAY
280
     0
  9
$INTERSECTIONCOLOR
 70
   257
  9
$DIMASSOC
280
     2
  9
$PROJECTNAME
  1

  0
ENDSEC
  0
SECTION
  2
CLASSES
  0
CLASS
  1
ACDBDICTIONARYWDFLT
  2
AcDbDictionaryWithDefault
  3
ObjectDBX Classes
 90
        0
 91
        4
280
     0
281
     0
  0
CLASS
  1
VISUALSTYLE
  2
AcDbVisualStyle
  3
ObjectDBX Classes
 90
     4095
 91
        4
280
     0
281
     0
  0
ENDSEC
  0
SECTION
  2
TABLES
  0
TABLE
  2
VPORT
  5
8
330
0
100
AcDbSymbolTable
 70
     1
  0
VPORT
  5
29
330
8
100
AcDbSymbolTableRecord
100
AcDbViewportTableRecord
  2
*Active
 70
     0
 10
0.0
 20
0.0
 11
1.0
 21
1.0
 12
30.13563954208778
 22
58.14695258665335
 13
0.0
 23
0.0
 14
0.5
 24
0.5
 15
0.5
 25
0.5
 16
0.0
 26
0.0
 36
1.0
 17
0.0
 27
0.0
 37
0.0
 40
118.6210678475401
 41
1.258595473430659
 42
50.0
 43
0.0
 44
0.0
 50
0.0
 51
0.0
 71
     0
 72
   100
 73
     1
 74
     3
 75
     0
 76
     0
 77
     0
 78
     0
281
     0
 65
     1
110
0.0
120
0.0
130
0.0
111
1.0
121
0.0
131
0.0
112
0.0
122
1.0
132
0.0
 79
     0
146
0.0
  0
ENDTAB
  0
TABLE
  2
LTYPE
  5
5
330
0
100
AcDbSymbolTable
 70
     1
  0
LTYPE
  5
14
330
5
100
AcDbSymbolTableRecord
100
AcDbLinetypeTableRecord
  2
ByBlock
 70
     0
  3

 72
    65
 73
     0
 40
0.0
  0
LTYPE
  5
15
330
5
100
AcDbSymbolTableRecord
100
AcDbLinetypeTableRecord
  2
ByLayer
 70
     0
  3

 72
    65
 73
     0
 40
0.0
  0
LTYPE
  5
16
330
5
100
AcDbSymbolTableRecord
100
AcDbLinetypeTableRecord
  2
Continuous
 70
     0
  3
Solid line
 72
    65
 73
     0
 40
0.0
  0
ENDTAB
  0
TABLE
  2
LAYER
  5
2
330
0
100
AcDbSymbolTable
 70
     3
  0
LAYER
  5
10
330
2
100
AcDbSymbolTableRecord
100
AcDbLayerTableRecord
  2
0
 70
     0
 62
     7
  6
Continuous
370
    -3
390
F
  0
LAYER
  5
3B
330
2
100
AcDbSymbolTableRecord
100
AcDbLayerTableRecord
  2
Default
 70
     0
 62
     7
  6
Continuous
370
    -3
390
F
  0
LAYER
  5
5E
330
2
100
AcDbSymbolTableRecord
100
AcDbLayerTableRecord
  2
Default - Tangent
 70
     0
 62
     7
  6
Continuous
370
    -3
390
F
  0
ENDTAB
  0
TABLE
  2
STYLE
  5
3
330
0
100
AcDbSymbolTable
 70
     1
  0
STYLE
  5
11
330
3
100
AcDbSymbolTableRecord
100
AcDbTextStyleTableRecord
  2
Standard
 70
     0
 40
0.0
 41
1.0
 50
0.0
 71
     0
 42
0.2
  3
txt
  4

  0
ENDTAB
  0
TABLE
  2
VIEW
  5
6
330
0
100
AcDbSymbolTable
 70
     0
  0
ENDTAB
  0
TABLE
  2
UCS
  5
7
330
0
100
AcDbSymbolTable
 70
     0
  0
ENDTAB
  0
TABLE
  2
APPID
  5
9
330
0
100
AcDbSymbolTable
 70
     1
  0
APPID
  5
12
330
9
100
AcDbSymbolTableRecord
100
AcDbRegAppTableRecord
  2
ACAD
 70
     0
  0
ENDTAB
  0
TABLE
  2
DIMSTYLE
  5
A
330
0
100
AcDbSymbolTable
 70
     1
100
AcDbDimStyleTable
  0
DIMSTYLE
105
27
330
A
100
AcDbSymbolTableRecord
100
AcDbDimStyleTableRecord
  2
Standard
 70
     0
340
11
  0
ENDTAB
  0
TABLE
  2
BLOCK_RECORD
  5
1
330
0
100
AcDbSymbolTable
 70
     1
  0
BLOCK_RECORD
  5
1F
330
1
100
AcDbSymbolTableRecord
100
AcDbBlockTableRecord
  2
*Model_Space
340
22
  0
BLOCK_RECORD
  5
1B
330
1
100
AcDbSymbolTableRecord
100
AcDbBlockTableRecord
  2
*Paper_Space
340
1E
  0
BLOCK_RECORD
  5
23
330
1
100
AcDbSymbolTableRecord
100
AcDbBlockTableRecord
  2
*Paper_Space0
340
26
  0
ENDTAB
  0
ENDSEC
  0
SECTION
  2
BLOCKS
  0
BLOCK
  5
20
330
1F
100
AcDbEntity
  8
0
100
AcDbBlockBegin
  2
*Model_Space
 70
     0
 10
0.0
 20
0.0
 30
0.0
  3
*Model_Space
  1

  0
ENDBLK
  5
21
330
1F
100
AcDbEntity
  8
0
100
AcDbBlockEnd
  0
BLOCK
  5
1C
330
1B
100
AcDbEntity
 67
     1
  8
0
100
AcDbBlockBegin
  2
*Paper_Space
 70
     0
 10
0.0
 20
0.0
 30
0.0
  3
*Paper_Space
  1

  0
ENDBLK
  5
1D
330
1B
100
AcDbEntity
 67
     1
  8
0
100
AcDbBlockEnd
  0
BLOCK
  5
24
330
23
100
AcDbEntity
  8
0
100
AcDbBlockBegin
  2
*Paper_Space0
 70
     0
 10
0.0
 20
0.0
 30
0.0
  3
*Paper_Space0
  1

  0
ENDBLK
  5
25
330
23
100
AcDbEntity
  8
0
100
AcDbBlockEnd
  0
ENDSEC
  0
SECTION
  2
ENTITIES
  0
SPLINE
  5
3C
330
1F
100
AcDbEntity
  8
Default
100
AcDbSpline
210
0.0
220
0.0
230
1.0
 70
    12
 71
     2
 72
     6
 73
     3
 74
     0
 42
0.0000000001
 43
0.0000000001
 40
3.89689782913199
 40
3.89689782913199
 40
3.89689782913199
 40
4.549469715751133
 40
4.549469715751133
 40
4.549469715751133
 10
64.68836948287435
 20
16.24803149618822
 30
0.0
 41
0.9766545957098015
 10
64.45573928906113
 20
16.02296370269091
 30
0.0
 41
0.9863725950131105
 10
64.25200783061373
 20
15.7708586192872
 30
0.0
 41
1.0
  0
SPLINE
  5
3D
330
1F
100
AcDbEntity
  8
Default
100
AcDbSpline
210
0.0
220
0.0
230
1.0
 70
    24
 71
     2
 72
     6
 73
     3
 74
     0
 42
0.0000000001
 43
0.0000000001
 40
0.0
 40
0.0
 40
0.0
 40
7.480314960629926
 40
7.480314960629926
 40
7.480314960629926
 10
64.25200783061373
 20
15.7708586192872
 30
0.0
 10
64.2426499010924
 20
12.01928757742274
 30
0.0
 10
64.23329197157108
 20
8.267716535558293
 30
0.0
  0
POLYLINE
  5
3E
330
1F
100
AcDbEntity
  8
Default
100
AcDb2dPolyline
 66
     1
 10
0.0
 20
0.0
 30
0.0
  0
VERTEX
  5
3F
330
3E
100
AcDbEntity
  8
Default
100
AcDbVertex
100
AcDb2dVertex
 10
64.23329197157108
 20
8.267716535558293
 30
0.0
  0
VERTEX
  5
40
330
3E
100
AcDbEntity
  8
Default
100
AcDbVertex
100
AcDb2dVertex
 10
103.3199233883746
 20
8.267716535558293
 30
0.0
  0
SEQEND
  5
41
330
3E
100
AcDbEntity
  8
Default
  0
SPLINE
  5
42
330
1F
100
AcDbEntity
  8
Default
100
AcDbSpline
210
0.0
220
0.0
230
1.0
 70
    24
 71
     2
 72
     6
 73
     3
 74
     0
 42
0.0000000001
 43
0.0000000001
 40
0.0
 40
0.0
 40
0.0
 40
7.480314960629922
 40
7.480314960629922
 40
7.480314960629922
 10
103.3199233883746
 20
8.267716535558293
 30
0.0
 10
103.3098255476266
 20
12.01728217424335
 30
0.0
 10
103.2997277068786
 20
15.7668478129284
 30
0.0
  0
SPLINE
  5
43
330
1F
100
AcDbEntity
  8
Default
100
AcDbSpline
210
0.0
220
0.0
230
1.0
 70
    12
 71
     2
 72
     6
 73
     3
 74
     0
 42
0.0000000001
 43
0.0000000001
 40
0.0
 40
0.0
 40
0.0
 40
5.363375961160154
 40
5.363375961160154
 40
5.363375961160154
 10
103.2997277068786
 20
15.7668478129284
 30
0.0
 41
1.0
 10
101.2177889499445
 20
17.69695463812958
 30
0.0
 41
0.9322219123264465
 10
98.40648453574198
 20
17.7165354331961
 30
0.0
 41
1.0
  0
POLYLINE
  5
44
330
1F
100
AcDbEntity
  8
Default
100
AcDb2dPolyline
 66
     1
 10
0.0
 20
0.0
 30
0.0
  0
VERTEX
  5
45
330
44
100
AcDbEntity
  8
Default
100
AcDbVertex
100
AcDb2dVertex
 10
98.40648453574198
 20
17.7165354331961
 30
0.0
  0
VERTEX
  5
46
330
44
100
AcDbEntity
  8
Default
100
AcDbVertex
100
AcDb2dVertex
 10
79.02830303581769
 20
17.71653543319595
 30
0.0
  0
SEQEND
  5
47
330
44
100
AcDbEntity
  8
Default
  0
SPLINE
  5
48
330
1F
100
AcDbEntity
  8
Default
100
AcDbSpline
210
0.0
220
0.0
230
1.0
 70
    12
 71
     2
 72
     6
 73
     3
 74
     0
 42
0.0000000001
 43
0.0000000001
 40
-71.3085038385179
 40
-71.3085038385179
 40
-71.3085038385179
 40
-67.49816755573973
 40
-67.49816755573973
 40
-67.49816755573973
 10
79.02830303581769
 20
17.71683267049402
 30
0.0
 41
1.0
 10
80.93347117720677
 20
17.71693758691308
 30
0.0
 41
1.0
 10
82.83863931859585
 20
17.71707953588174
 30
0.0
 41
1.0
  0
SPLINE
  5
49
330
1F
100
AcDbEntity
  8
Default
100
AcDbSpline
210
0.0
220
0.0
230
1.0
 70
    12
 71
     2
 72
    14
 73
    11
 74
     0
 42
0.0000000001
 43
0.0000000001
 40
-1.107253086753496
 40
-1.107253086753496
 40
-1.107253086753496
 40
0.0
 40
0.0
 40
0.3786444972609069
 40
0.3786444972609069
 40
10.45624479835365
 40
10.45624479835365
 40
11.65143498839898
 40
11.65143498839898
 40
13.04146145541422
 40
13.04146145541422
 40
13.04146145541422
 10
82.83863931859585
 20
17.71707953588174
 30
0.0
 41
1.0
 10
83.07821402757783
 20
18.22745913158656
 30
0.0
 41
0.9728441682493363
 10
83.06251370651802
 20
18.79055927458461
 30
0.0
 41
1.0
 10
83.04125999596522
 20
18.98348944107408
 30
0.0
 41
1.0
 10
83.02000628541242
 20
19.17641960756359
 30
0.0
 41
1.0
 10
82.11221957080302
 20
24.14291745097931
 30
0.0
 41
0.9999999993811204
 10
81.2041309093986
 20
29.1084257353447
 30
0.0
 41
1.0
 10
81.091691360974
 20
29.79347538569223
 30
0.0
 41
0.8188750709494493
 10
80.41832950283293
 20
29.92655419544582
 30
0.0
 41
1.0
 10
79.72331626932531
 20
29.92685299034358
 30
0.0
 41
1.0
 10
79.02830303581769
 20
29.92715178524135
 30
0.0
 41
1.0
  0
SPLINE
  5
4A
330
1F
100
AcDbEntity
  8
Default
100
AcDbSpline
210
0.0
220
0.0
230
1.0
 70
    12
 71
     2
 72
     8
 73
     5
 74
     0
 42
0.0000000001
 43
0.0000000001
 40
0.9689503602058384
 40
0.9689503602058384
 40
0.9689503602058384
 40
0.9817500784314962
 40
0.9817500784314962
 40
1.963500156862992
 40
1.963500156862992
 40
1.963500156862992
 10
43.00055165967927
 20
101.6756605333122
 30
0.0
 41
0.9980410039319201
 10
43.00325224323076
 20
101.6700320568042
 30
0.0
 41
0.9990075629142261
 10
43.00589647329275
 20
101.6643768868953
 30
0.0
 41
1.0
 10
43.22520391806636
 20
101.1953477807218
 30
0.0
 41
0.9238791690864147
 10
43.04862311341697
 20
100.7086206731959
 30
0.0
 41
1.0
  0
LINE
  5
4B
330
1F
100
AcDbEntity
  8
Default
100
AcDbLine
 10
43.04862311341697
 20
100.7086206731959
 30
0.0
 11
34.75485830519324
 21
77.84769780210326
 31
0.0
  0
SPLINE
  5
4C
330
1F
100
AcDbEntity
  8
Default
100
AcDbSpline
210
0.0
220
0.0
230
1.0
 70
    12
 71
     2
 72
     6
 73
     3
 74
     0
 42
0.0000000001
 43
0.0000000001
 40
0.0
 40
0.0
 40
0.0
 40
1.963489745160748
 40
1.963489745160748
 40
1.963489745160748
 10
34.75485830519324
 20
77.84769780210326
 30
0.0
 41
1.0
 10
34.32855760826926
 20
76.67264309804303
 30
0.0
 41
0.7071083830171618
 10
33.15350097279486
 20
77.0989384711819
 30
0.0
 41
1.0
  0
SPLINE
  5
4D
330
1F
100
AcDbEntity
  8
Default
100
AcDbSpline
210
0.0
220
0.0
230
1.0
 70
    24
 71
     2
 72
     6
 73
     3
 74
     0
 42
0.0000000001
 43
0.0000000001
 40
0.0
 40
0.0
 40
0.0
 40
30.87140210479276
 40
30.87140210479276
 40
30.87140210479276
 10
33.15350097279486
 20
77.0989384711819
 30
0.0
 10
18.64314774615966
 20
82.36310724073931
 30
0.0
 10
4.132794519524452
 20
87.62727601029673
 30
0.0
  0
SPLINE
  5
4E
330
1F
100
AcDbEntity
  8
Default
100
AcDbSpline
210
0.0
220
0.0
230
1.0
 70
    12
 71
     2
 72
     6
 73
     3
 74
     0
 42
0.0000000001
 43
0.0000000001
 40
0.0
 40
0.0
 40
0.0
 40
8.35224908294482
 40
8.35224908294482
 40
8.35224908294482
 10
4.132794519524452
 20
87.62727601029673
 30
0.0
 41
1.0
 10
0.0403986548774556
 20
89.11189654899717
 30
0.0
 41
0.9400530899654298
 10
-4.051997209769581
 20
87.62727601029673
 30
0.0
 41
1.0
  0
SPLINE
  5
4F
330
1F
100
AcDbEntity
  8
Default
100
AcDbSpline
210
0.0
220
0.0
230
1.0
 70
    24
 71
     2
 72
     6
 73
     3
 74
     0
 42
0.0000000001
 43
0.0000000001
 40
0.0
 40
0.0
 40
0.0
 40
30.87140210479274
 40
30.87140210479274
 40
30.87140210479274
 10
-4.051997209769581
 20
87.62727601029673
 30
0.0
 10
-18.56235043640478
 20
82.36310724073931
 30
0.0
 10
-33.07270366303999
 20
77.0989384711819
 30
0.0
  0
SPLINE
  5
50
330
1F
100
AcDbEntity
  8
Default
100
AcDbSpline
210
0.0
220
0.0
230
1.0
 70
    12
 71
     2
 72
     6
 73
     3
 74
     0
 42
0.0000000001
 43
0.0000000001
 40
0.0
 40
0.0
 40
0.0
 40
1.963489745160769
 40
1.963489745160769
 40
1.963489745160769
 10
-33.07270366303999
 20
77.0989384711819
 30
0.0
 41
1.0
 10
-34.24776029851434
 20
76.67264309804304
 30
0.0
 41
0.707108383017159
 10
-34.67406099543837
 20
77.84769780210326
 30
0.0
 41
1.0
  0
SPLINE
  5
51
330
1F
100
AcDbEntity
  8
Default
100
AcDbSpline
210
0.0
220
0.0
230
1.0
 70
    24
 71
     2
 72
     6
 73
     3
 74
     0
 42
0.0000000001
 43
0.0000000001
 40
0.0
 40
0.0
 40
0.0
 40
24.31888832188217
 40
24.31888832188217
 40
24.31888832188217
 10
-34.67406099543837
 20
77.84769780210326
 30
0.0
 10
-38.8209433995502
 20
89.27815923764959
 30
0.0
 10
-42.96782580366204
 20
100.7086206731959
 30
0.0
  0
SPLINE
  5
52
330
1F
100
AcDbEntity
  8
Default
100
AcDbSpline
210
0.0
220
0.0
230
1.0
 70
    12
 71
     2
 72
     8
 73
     5
 74
     0
 42
0.0000000001
 43
0.0000000001
 40
0.0
 40
0.0
 40
0.0
 40
0.9817500784315336
 40
0.9817500784315336
 40
0.9945733240946334
 40
0.9945733240946334
 40
0.9945733240946334
 10
-42.96782580366204
 20
100.7086206731959
 30
0.0
 41
1.0
 10
-43.14440660831148
 20
101.1953477807218
 30
0.0
 41
0.9238791690864057
 10
-42.92509916353788
 20
101.6643768868953
 30
0.0
 41
1.0
 10
-42.92245006822239
 20
101.6700424620392
 30
0.0
 41
0.9990057386942676
 10
-42.91974441210011
 20
101.6756812449443
 30
0.0
 41
0.9980374507136345
  0
POLYLINE
  5
53
330
1F
100
AcDbEntity
  8
Default
100
AcDb2dPolyline
 66
     1
 10
0.0
 20
0.0
 30
0.0
  0
VERTEX
  5
54
330
53
100
AcDbEntity
  8
Default
100
AcDbVertex
100
AcDb2dVertex
 10
78.29497476653609
 20
8.266620945379827
 30
0.0
  0
VERTEX
  5
55
330
53
100
AcDbEntity
  8
Default
100
AcDbVertex
100
AcDb2dVertex
 10
80.12654166504552
 20
8.263937673212467
 30
0.0
  0
SEQEND
  5
56
330
53
100
AcDbEntity
  8
Default
  0
SPLINE
  5
57
330
1F
100
AcDbEntity
  8
Default
100
AcDbSpline
210
0.0
220
0.0
230
1.0
 70
    12
 71
     2
 72
     6
 73
     3
 74
     0
 42
0.0000000001
 43
0.0000000001
 40
0.0
 40
0.0
 40
0.0
 40
8.16810736516567
 40
8.16810736516567
 40
8.16810736516567
 10
80.12654166504552
 20
8.263937673212467
 30
0.0
 41
1.0
 10
79.86396882130151
 20
4.188330779016414
 30
0.0
 41
0.9999990299969506
 10
79.61275023824909
 20
0.1120082601498785
 30
0.0
 41
0.9999999999695106
  0
ARC
  5
58
330
1F
100
AcDbEntity
  8
Default
100
AcDbCircle
 10
79.49297747717384
 20
0.119389703395882
 30
0.0
 40
0.12
100
AcDbArc
 50
270.0
 51
356.4733941180743
  0
LINE
  5
59
330
1F
100
AcDbEntity
  8
Default
100
AcDbLine
 10
79.49297747717384
 20
-0.0006102966041226
 30
0.0
 11
78.47917000482545
 21
-0.0006102957382836
 31
0.0
  0
SPLINE
  5
5A
330
1F
100
AcDbEntity
  8
Default
100
AcDbSpline
210
0.0
220
0.0
230
1.0
 70
    12
 71
     2
 72
     6
 73
     3
 74
     0
 42
0.0000000001
 43
0.0000000001
 40
0.0
 40
0.0
 40
0.0
 40
0.1828505988539321
 40
0.1828505988539321
 40
0.1828505988539321
 10
78.47917000482545
 20
-0.0006102957382836
 30
0.0
 41
1.0
 10
78.36605168168926
 20
0.0035272819383305
 30
0.0
 41
0.7349920081234328
 10
78.36110204569155
 20
0.116795228718388
 30
0.0
 41
1.0
  0
SPLINE
  5
5B
330
1F
100
AcDbEntity
  8
Default
100
AcDbSpline
210
0.0
220
0.0
230
1.0
 70
    12
 71
     2
 72
     6
 73
     3
 74
     0
 42
0.0000000001
 43
0.0000000001
 40
0.0
 40
0.0
 40
0.0
 40
8.149911166782651
 40
8.149911166782651
 40
8.149911166782651
 10
78.36110204569155
 20
0.116795228718388
 30
0.0
 41
1.0
 10
78.32987617171258
 20
4.191814554755208
 30
0.0
 41
0.9999998996156108
 10
78.29497476653609
 20
8.266620945379827
 30
0.0
 41
1.0
  0
SPLINE
  5
5C
330
1F
100
AcDbEntity
  8
Default
100
AcDbSpline
210
0.0
220
0.0
230
1.0
 70
    15
 71
     2
 72
    16
 73
    13
 74
     0
 42
0.0000000001
 43
0.0000000001
 40
0.0
 40
0.0
 40
0.0
 40
1.83156886402483
 40
1.83156886402483
 40
9.999676229190499
 40
9.999676229190499
 40
10.18078568231871
 40
10.18078568231871
 40
36.98138200719103
 40
36.98138200719103
 40
37.16423260604496
 40
37.16423260604496
 40
45.31414377282761
 40
45.31414377282761
 40
45.31414377282761
 10
103.01823520128
 20
8.2677165349225
 30
0.0
 41
1.0
 10
102.1024517520253
 20
8.26637489883882
 30
0.0
 41
1.0
 10
101.2835976040501
 20
8.267716535047725
 30
0.0
 41
1.0
 10
101.6426140206074
 20
4.182137937624473
 30
0.0
 41
0.9999990299969506
 10
101.990296307972
 20
0.1129079021826267
 30
0.0
 41
0.9999999999695106
 10
101.9999018966443
 20
0.0004852929385726
 30
0.0
 41
0.7285300360953052
 10
102.1127341190055
 20
0.0004852929385601
 30
0.0
 41
0.9999999999695106
 10
102.498687229323
 20
0.0004852933714796
 30
0.0
 41
0.9999999999695106
 10
102.8983715889306
 20
0.0004852938043991
 30
0.0
 41
0.9999999999695106
 10
103.0114899120668
 20
0.0046228714810041
 30
0.0
 41
0.7349920081010234
 10
103.0164395480645
 20
0.1178908182610692
 30
0.0
 41
0.9999999999695106
 10
103.0325341431216
 20
4.192910144297863
 30
0.0
 41
0.9999998995851214
 10
103.01823520128
 20
8.2677165349225
 30
0.0
 41
1.0
  0
SPLINE
  5
5D
330
1F
100
AcDbEntity
  8
Default
100
AcDbSpline
210
0.0
220
0.0
230
1.0
 70
    15
 71
     2
 72
    16
 73
    13
 74
     0
 42
0.0000000001
 43
0.0000000001
 40
0.0
 40
0.0
 40
0.0
 40
1.83156886402483
 40
1.83156886402483
 40
9.999676229190499
 40
9.999676229190499
 40
10.18078568231871
 40
10.18078568231871
 40
36.98138200719103
 40
36.98138200719103
 40
37.16423260604496
 40
37.16423260604496
 40
45.31414377282761
 40
45.31414377282761
 40
45.31414377282761
 10
64.42342601473905
 20
8.267716535433067
 30
0.0
 41
1.0
 10
65.33920946399377
 20
8.266374899349387
 30
0.0
 41
1.0
 10
66.15806361196906
 20
8.267716535558293
 30
0.0
 41
1.0
 10
65.79904719541166
 20
4.182137938135042
 30
0.0
 41
0.9999990299969506
 10
65.45136490804711
 20
0.1129079026931943
 30
0.0
 41
0.9999999999695106
 10
65.44175931937481
 20
0.000485293449128
 30
0.0
 41
0.7285300360953052
 10
65.32892709701359
 20
0.0004852934491277
 30
0.0
 41
0.9999999999695106
 10
64.94297398669609
 20
0.0004852938820472
 30
0.0
 41
0.9999999999695106
 10
64.54328962708848
 20
0.0004852943149667
 30
0.0
 41
0.9999999999695106
 10
64.43017130395228
 20
0.0046228719915564
 30
0.0
 41
0.7349920081010234
 10
64.42522166795456
 20
0.1178908187716368
 30
0.0
 41
0.9999999999695106
 10
64.40912707289745
 20
4.19291014480843
 30
0.0
 41
0.9999998995851214
 10
64.42342601473905
 20
8.267716535433067
 30
0.0
 41
1.0
  0
SPLINE
  5
5F
330
1F
100
AcDbEntity
  8
Default - Tangent
100
AcDbSpline
210
0.0
220
0.0
230
1.0
 70
    24
 71
     2
 72
     6
 73
     3
 74
     0
 42
0.0000000001
 43
0.0000000001
 40
0.0
 40
0.0
 40
0.0
 40
7.480314960629924
 40
7.480314960629924
 40
7.480314960629924
 10
79.6353031456365
 20
8.267716535558293
 30
0.0
 10
79.6353031456365
 20
12.00787401587326
 30
0.0
 10
79.6353031456365
 20
15.74803149618822
 30
0.0
  0
SPLINE
  5
60
330
1F
100
AcDbEntity
  8
Default
100
AcDbSpline
210
0.0
220
0.0
230
1.0
 70
    12
 71
     2
 72
    10
 73
     7
 74
     0
 42
0.0000000001
 43
0.0000000001
 40
-1.623229783879174
 40
-1.623229783879174
 40
-1.623229783879174
 40
-0.3541738181993638
 40
-0.3541738181993638
 40
28.35538192993383
 40
28.35538192993383
 40
29.97808022251372
 40
29.97808022251372
 40
29.97808022251372
 10
77.57045578874215
 20
16.24803149618805
 30
0.0
 41
1.0
 10
78.03800629887942
 20
16.46651355568838
 30
0.0
 41
0.9258854229924243
 10
78.03800629887937
 20
17.13481785139842
 30
0.0
 41
1.0
 10
78.0380062988782
 20
31.7486355525154
 30
0.0
 41
1.0
 10
78.03800629887706
 20
46.47241602921781
 30
0.0
 41
1.0
 10
78.03800629887701
 20
47.31669037212644
 30
0.0
 41
0.942516226890667
 10
77.50619521555024
 20
47.60341342686925
 30
0.0
 41
1.0
  0
SPLINE
  5
61
330
1F
100
AcDbEntity
  8
Default
100
AcDbSpline
210
0.0
220
0.0
230
1.0
 70
     8
 71
     3
 72
     8
 73
     4
 74
     0
 42
0.0000000001
 43
0.0000000001
 40
0.0
 40
0.0
 40
0.0
 40
0.0
 40
1.0
 40
1.0
 40
1.0
 40
1.0
 10
78.00785941869685
 20
16.24803149618808
 30
0.0
 10
78.70333377146397
 20
16.24803149618805
 30
0.0
 10
79.02830303581769
 20
16.67281152369412
 30
0.0
 10
79.02830303581769
 20
17.39385767844888
 30
0.0
  0
LINE
  5
62
330
1F
100
AcDbEntity
  8
Default
100
AcDbLine
 10
79.02830303581769
 20
17.39385767844888
 30
0.0
 11
79.02830303581769
 21
46.10341342658205
 31
0.0
  0
SPLINE
  5
63
330
1F
100
AcDbEntity
  8
Default
100
AcDbSpline
210
0.0
220
0.0
230
1.0
 70
     8
 71
     3
 72
     8
 73
     4
 74
     0
 42
0.0000000001
 43
0.0000000001
 40
0.0
 40
0.0
 40
0.0
 40
0.0
 40
1.0
 40
1.0
 40
1.0
 40
1.0
 10
79.02830303581769
 20
46.10341342658205
 30
0.0
 10
79.02830303581769
 20
46.91083057988016
 30
0.0
 10
79.04485799569554
 20
47.60341342686925
 30
0.0
 10
78.38389616739187
 20
47.60341342686925
 30
0.0
  0
POLYLINE
  5
64
330
1F
100
AcDbEntity
  8
Default
100
AcDb2dPolyline
 66
     1
 10
0.0
 20
0.0
 30
0.0
  0
VERTEX
  5
65
330
64
100
AcDbEntity
  8
Default
100
AcDbVertex
100
AcDb2dVertex
 10
78.38389616739187
 20
47.60341342686925
 30
0.0
  0
VERTEX
  5
66
330
64
100
AcDbEntity
  8
Default
100
AcDbVertex
100
AcDb2dVertex
 10
64.48905818130902
 20
47.60341342686942
 30
0.0
  0
SEQEND
  5
67
330
64
100
AcDbEntity
  8
Default
  0
SPLINE
  5
68
330
1F
100
AcDbEntity
  8
Default
100
AcDbSpline
210
0.0
220
0.0
230
1.0
 70
     8
 71
     3
 72
     8
 73
     4
 74
     0
 42
0.0000000001
 43
0.0000000001
 40
0.0
 40
0.0
 40
0.0
 40
0.0
 40
1.0
 40
1.0
 40
1.0
 40
1.0
 10
64.48905818130902
 20
47.60341342686942
 30
0.0
 10
64.22136991064139
 20
47.60341342686945
 30
0.0
 10
64.06180166359036
 20
47.4854549032321
 30
0.0
 10
64.06180166359036
 20
47.22841342686939
 30
0.0
  0
SPLINE
  5
69
330
1F
100
AcDbEntity
  8
Default
100
AcDbSpline
210
0.0
220
0.0
230
1.0
 70
    24
 71
     2
 72
     6
 73
     3
 74
     0
 42
0.0000000001
 43
0.0000000001
 40
0.0
 40
0.0
 40
0.0
 40
30.60538193068118
 40
30.60538193068118
 40
30.60538193068118
 10
64.06180166359036
 20
47.22841342686939
 30
0.0
 10
64.06180166359036
 20
31.92572246152881
 30
0.0
 10
64.06180166359036
 20
16.62303149618822
 30
0.0
  0
SPLINE
  5
6A
330
1F
100
AcDbEntity
  8
Default
100
AcDbSpline
210
0.0
220
0.0
230
1.0
 70
     8
 71
     3
 72
     8
 73
     4
 74
     0
 42
0.0000000001
 43
0.0000000001
 40
-1.0
 40
-1.0
 40
-1.0
 40
-1.0
 40
0.0
 40
0.0
 40
0.0
 40
0.0
 10
64.06180166359036
 20
16.62303149618822
 30
0.0
 10
64.06180166359036
 20
16.36599145748755
 30
0.0
 10
64.22136651928716
 20
16.24803149618822
 30
0.0
 10
64.4890521307949
 20
16.24803149618822
 30
0.0
  0
SPLINE
  5
6B
330
1F
100
AcDbEntity
  8
Default
100
AcDbSpline
210
0.0
220
0.0
230
1.0
 70
    24
 71
     2
 72
     6
 73
     3
 74
     0
 42
0.0000000001
 43
0.0000000001
 40
-13.51880728790195
 40
-13.51880728790195
 40
-13.51880728790195
 40
0.0
 40
0.0
 40
0.0
 10
64.4890521307949
 20
16.24803149618822
 30
0.0
 10
71.24845577474588
 20
16.24803149618815
 30
0.0
 10
78.00785941869685
 20
16.24803149618808
 30
0.0
  0
SPLINE
  5
6C
330
1F
100
AcDbEntity
  8
Default
100
AcDbSpline
210
0.0
220
0.0
230
1.0
 70
    12
 71
     2
 72
     6
 73
     3
 74
     0
 42
0.0000000001
 43
0.0000000001
 40
-1.414743347537562
 40
-1.414743347537562
 40
-1.414743347537562
 40
0.0
 40
0.0
 40
0.0
 10
35.08685336492766
 20
99.72208098026402
 30
0.0
 41
1.0
 10
34.76955557331141
 20
98.88188737288651
 30
0.0
 41
0.7098640769194695
 10
33.84811700776282
 20
99.23980917764032
 30
0.0
 41
1.0
  0
SPLINE
  5
6D
330
1F
100
AcDbEntity
  8
Default
100
AcDbSpline
210
0.0
220
0.0
230
1.0
 70
    24
 71
     2
 72
     6
 73
     3
 74
     0
 42
0.0000000001
 43
0.0000000001
 40
-29.38759133763305
 40
-29.38759133763305
 40
-29.38759133763305
 40
0.0
 40
0.0
 40
0.0
 10
33.84811700776282
 20
99.23980917764032
 30
0.0
 10
20.03522438886523
 20
104.2509596099997
 30
0.0
 10
6.222331769967639
 20
109.262110042359
 30
0.0
  0
SPLINE
  5
6E
330
1F
100
AcDbEntity
  8
Default
100
AcDbSpline
210
0.0
220
0.0
230
1.0
 70
    12
 71
     2
 72
     6
 73
     3
 74
     0
 42
0.0000000001
 43
0.0000000001
 40
0.0
 40
0.0
 40
0.0
 40
12.69879247575135
 40
12.69879247575135
 40
12.69879247575135
 10
6.222331769967639
 20
109.262110042359
 30
0.0
 41
1.0
 10
-0.000021190919638
 20
111.5160698621486
 30
0.0
 41
0.9402155920999831
 10
-6.222374201070465
 20
109.2621101783578
 30
0.0
 41
1.0
  0
SPLINE
  5
6F
330
1F
100
AcDbEntity
  8
Default
100
AcDbSpline
210
0.0
220
0.0
230
1.0
 70
    24
 71
     2
 72
     6
 73
     3
 74
     0
 42
0.0000000001
 43
0.0000000001
 40
0.0
 40
0.0
 40
0.0
 40
29.387591336385
 40
29.387591336385
 40
29.387591336385
 10
-6.222374201070465
 20
109.2621101783578
 30
0.0
 10
-20.03526679473245
 20
104.2509596782679
 30
0.0
 10
-33.84815938839444
 20
99.23980917817812
 30
0.0
  0
SPLINE
  5
70
330
1F
100
AcDbEntity
  8
Default
100
AcDbSpline
210
0.0
220
0.0
230
1.0
 70
    12
 71
     2
 72
     6
 73
     3
 74
     0
 42
0.0000000001
 43
0.0000000001
 40
-1.414716428047345
 40
-1.414716428047345
 40
-1.414716428047345
 40
0.0
 40
0.0
 40
0.0
 10
-33.84815938839444
 20
99.23980917817812
 30
0.0
 41
1.0
 10
-34.76958242153538
 20
98.88184475191775
 30
0.0
 41
0.7098463126065864
 10
-35.08688001325649
 20
99.72203761212899
 30
0.0
 41
1.0
  0
LINE
  5
71
330
1F
100
AcDbEntity
  8
Default - Tangent
100
AcDbLine
 10
36.29535310861235
 20
103.4344162205009
 30
0.0
 11
7.851725013663042
 21
113.7534207438259
 31
0.0
  0
SPLINE
  5
72
330
1F
100
AcDbEntity
  8
Default - Tangent
100
AcDbSpline
210
0.0
220
0.0
230
1.0
 70
    12
 71
     2
 72
     6
 73
     3
 74
     0
 42
0.0000000001
 43
0.0000000001
 40
-16.02430746849569
 40
-16.02430746849569
 40
-16.02430746849569
 40
0.0
 40
0.0
 40
0.0
 10
7.851725013663042
 20
113.7534207438259
 30
0.0
 41
1.0
 10
-0.0000211908820688
 20
116.5985218077237
 30
0.0
 41
0.9401804429275078
 10
-7.851767395427203
 20
113.7534207438259
 30
0.0
 41
1.0
  0
LINE
  5
73
330
1F
100
AcDbEntity
  8
Default - Tangent
100
AcDbLine
 10
-7.851767395427203
 20
113.7534207438259
 30
0.0
 11
-36.29539549037634
 21
103.4344162205009
 31
0.0
  0
ARC
  5
74
330
1F
100
AcDbEntity
  8
Default - Tangent
100
AcDbCircle
 10
-36.2510604812523
 20
103.312209809188
 30
0.0
 40
0.13
100
AcDbArc
 50
109.9401596616374
 51
199.9401596617305
  0
LINE
  5
75
330
1F
100
AcDbEntity
  8
Default - Tangent
100
AcDbLine
 10
-36.37326689256511
 20
103.2678748000637
 30
0.0
 11
-34.4700523021838
 21
98.02179434033363
 31
0.0
  0
SPLINE
  5
76
330
1F
100
AcDbEntity
  8
Default - Tangent
100
AcDbSpline
210
0.0
220
0.0
230
1.0
 70
    24
 71
     2
 72
     6
 73
     3
 74
     0
 42
0.0000000001
 43
0.0000000001
 40
-0.1221317482783829
 40
-0.1221317482783829
 40
-0.1221317482783829
 40
0.0
 40
0.0
 40
0.0
 10
-34.4700523021838
 20
98.02179434033363
 30
0.0
 10
-34.44922648612652
 20
97.96438940690557
 30
0.0
 10
-34.42840067006924
 20
97.90698447347751
 30
0.0
  0
SPLINE
  5
77
330
1F
100
AcDbEntity
  8
Default - Tangent
100
AcDbSpline
210
0.0
220
0.0
230
1.0
 70
    12
 71
     2
 72
     8
 73
     5
 74
     0
 42
0.0000000001
 43
0.0000000001
 40
-1.415765061060783
 40
-1.415765061060783
 40
-1.415765061060783
 40
-0.7078825305303914
 40
-0.7078825305303914
 40
0.0
 40
0.0
 40
0.0
 10
-34.42840067006924
 20
97.90698447347751
 30
0.0
 41
1.0
 10
-34.29814921178097
 20
97.55708780392436
 30
0.0
 41
0.9238012675147623
 10
-33.95856973086418
 20
97.4019140373843
 30
0.0
 41
1.0
 10
-33.6189902499474
 20
97.24674027084427
 30
0.0
 41
0.9238012675147623
 10
-32.67527818455636
 20
97.4729525901082
 30
0.0
 41
1.0
  0
SPLINE
  5
78
330
1F
100
AcDbEntity
  8
Default - Tangent
100
AcDbSpline
210
0.0
220
0.0
230
1.0
 70
    24
 71
     2
 72
     6
 73
     3
 74
     0
 42
0.0000000001
 43
0.0000000001
 40
0.0
 40
0.0
 40
0.0
 40
28.88759133743138
 40
28.88759133743138
 40
28.88759133743138
 10
-32.67527818455636
 20
97.4729525901082
 30
0.0
 10
-19.09739791987411
 20
102.398843457511
 30
0.0
 10
-5.519517655191862
 20
107.3247343249138
 30
0.0
  0
SPLINE
  5
79
330
1F
100
AcDbEntity
  8
Default - Tangent
100
AcDbSpline
210
0.0
220
0.0
230
1.0
 70
    12
 71
     2
 72
    10
 73
     7
 74
     0
 42
0.0000000001
 43
0.0000000001
 40
-11.26436690876906
 40
-11.26436690876906
 40
-11.26436690876906
 40
-11.2623726983999
 40
-11.2623726983999
 40
-0.0019941641622624
 40
-0.0019941641622624
 40
0.0
 40
0.0
 40
0.0
 10
-5.519517655191862
 20
107.3247343249138
 30
0.0
 41
1.0
 10
-5.518581509517728
 20
107.3250776181026
 30
0.0
 41
0.9999998585565044
 10
-5.517644999197842
 20
107.3254199152795
 30
0.0
 41
1.0
 10
-0.0000211664014534
 20
109.3232549730583
 30
0.0
 41
0.9402617664146922
 10
5.517602567887309
 20
107.325419643221
 30
0.0
 41
1.0
 10
5.518539056524333
 20
107.3250773540206
 30
0.0
 41
0.99999985854535
 10
5.519475180509687
 20
107.3247340687921
 30
0.0
 41
1.0
  0
SPLINE
  5
7A
330
1F
100
AcDbEntity
  8
Default - Tangent
100
AcDbSpline
210
0.0
220
0.0
230
1.0
 70
    24
 71
     2
 72
     6
 73
     3
 74
     0
 42
0.0000000001
 43
0.0000000001
 40
0.0
 40
0.0
 40
0.0
 40
28.88759133743155
 40
28.88759133743155
 40
28.88759133743155
 10
5.519475180509687
 20
107.3247340687921
 30
0.0
 10
19.09735549165097
 20
102.3988433294502
 30
0.0
 10
32.67523580279226
 20
97.4729525901082
 30
0.0
  0
SPLINE
  5
7B
330
1F
100
AcDbEntity
  8
Default - Tangent
100
AcDbSpline
210
0.0
220
0.0
230
1.0
 70
    12
 71
     2
 72
     8
 73
     5
 74
     0
 42
0.0000000001
 43
0.0000000001
 40
-1.415765058036502
 40
-1.415765058036502
 40
-1.415765058036502
 40
-0.7078825290182509
 40
-0.7078825290182509
 40
0.0
 40
0.0
 40
0.0
 10
32.67523580279226
 20
97.4729525901082
 30
0.0
 41
1.0
 10
33.61894786807051
 20
97.24674027399999
 30
0.0
 41
0.9238012690105355
 10
33.95852734788758
 20
97.40191404003758
 30
0.0
 41
1.0
 10
34.29810682770471
 20
97.55708780607512
 30
0.0
 41
0.9238012690105355
 10
34.42835828826912
 20
97.90698447339375
 30
0.0
 41
1.0
  0
SPLINE
  5
7C
330
1F
100
AcDbEntity
  8
Default - Tangent
100
AcDbSpline
210
0.0
220
0.0
230
1.0
 70
    12
 71
     2
 72
     6
 73
     3
 74
     0
 42
0.0000000001
 43
0.0000000001
 40
-0.1220571695934246
 40
-0.1220571695934246
 40
-0.1220571695934246
 40
0.0
 40
0.0
 40
0.0
 10
34.42835828826912
 20
97.90698447339375
 30
0.0
 41
1.0
 10
34.44901322052212
 20
97.96441165111557
 30
0.0
 41
0.99999621322495
 10
34.46998633203421
 20
98.02173012386763
 30
0.0
 41
1.0
  0
LINE
  5
7D
330
1F
100
AcDbEntity
  8
Default - Tangent
100
AcDbLine
 10
34.46998633203421
 20
98.02173012386763
 30
0.0
 11
36.37322451080107
 21
103.2678748000638
 31
0.0
  0
ARC
  5
7E
330
1F
100
AcDbEntity
  8
Default - Tangent
100
AcDbCircle
 10
36.25101809948825
 20
103.3122098091881
 30
0.0
 40
0.1300000000000146
100
AcDbArc
 50
340.0598403382716
 51
70.05984033832512
  0
SPLINE
  5
7F
330
1F
100
AcDbEntity
  8
Default - Tangent
100
AcDbSpline
210
0.0
220
0.0
230
1.0
 70
    24
 71
     2
 72
     6
 73
     3
 74
     0
 42
0.0000000001
 43
0.0000000001
 40
0.0
 40
0.0
 40
0.0
 40
7.480314960629922
 40
7.480314960629922
 40
7.480314960629922
 10
-34.71445965031586
 20
8.406585235051125
 30
0.0
 10
-34.71445965031586
 20
12.14674271536609
 30
0.0
 10
-34.71445965031586
 20
15.88690019568105
 30
0.0
  0
SPLINE
  5
80
330
1F
100
AcDbEntity
  8
Default - Tangent
100
AcDbSpline
210
0.0
220
0.0
230
1.0
 70
    24
 71
     2
 72
     6
 73
     3
 74
     0
 42
0.0000000001
 43
0.0000000001
 40
0.0
 40
0.0
 40
0.0
 40
7.480314960629922
 40
7.480314960629922
 40
7.480314960629922
 10
34.7144596503158
 20
15.88690019568105
 30
0.0
 10
34.7144596503158
 20
12.14674271536609
 30
0.0
 10
34.7144596503158
 20
8.406585235051125
 30
0.0
  0
SPLINE
  5
81
330
1F
100
AcDbEntity
  8
Default
100
AcDbSpline
210
0.0
220
0.0
230
1.0
 70
    12
 71
     2
 72
    12
 73
     9
 74
     0
 42
0.0000000001
 43
0.0000000001
 40
0.0
 40
0.0
 40
0.0
 40
1.184185714192593
 40
1.184185714192593
 40
29.53956764326416
 40
29.53956764326416
 40
30.72375336248365
 40
30.72375336248365
 40
30.80070600844976
 40
30.80070600844976
 40
30.80070600844976
 10
-41.04338095200018
 20
47.60341342686925
 30
0.0
 41
1.0
 10
-42.40077263534556
 20
47.20326724258091
 30
0.0
 41
0.8724688937631105
 10
-42.39799969266479
 20
46.10341342559902
 30
0.0
 41
0.9999999999652087
 10
-42.39799969268224
 20
31.92572246116175
 30
0.0
 41
0.9999999999652087
 10
-42.39799969269969
 20
17.74803149672449
 30
0.0
 41
0.9999999999652087
 10
-42.4007726377723
 20
17.09849905736513
 30
0.0
 41
0.8724688915183075
 10
-41.84836612757015
 20
16.75681627101097
 30
0.0
 41
0.9999999999748581
 10
-41.81503520190143
 20
16.73754915909081
 30
0.0
 41
0.999117092018691
 10
-41.78020445341278
 20
16.72114820889279
 30
0.0
 41
0.9999999999748581
  0
SPLINE
  5
82
330
1F
100
AcDbEntity
  8
Default
100
AcDbSpline
210
0.0
220
0.0
230
1.0
 70
    12
 71
     2
 72
    12
 73
     9
 74
     0
 42
0.0000000001
 43
0.0000000001
 40
0.0
 40
0.0
 40
0.0
 40
1.184185714192593
 40
1.184185714192593
 40
29.53956764326416
 40
29.53956764326416
 40
30.72375336248365
 40
30.72375336248365
 40
30.80070600844976
 40
30.80070600844976
 40
30.80070600844976
 10
41.04333857023602
 20
47.60341342686925
 30
0.0
 41
1.0
 10
42.40073025358141
 20
47.20326724258091
 30
0.0
 41
0.8724688937631105
 10
42.39795731090063
 20
46.10341342559902
 30
0.0
 41
0.9999999999652087
 10
42.39795731091808
 20
31.92572246116175
 30
0.0
 41
0.9999999999652087
 10
42.3979573109355
 20
17.74803149672449
 30
0.0
 41
0.9999999999652087
 10
42.40073025600815
 20
17.09849905736513
 30
0.0
 41
0.8724688915183075
 10
41.84832374580596
 20
16.75681627101097
 30
0.0
 41
0.9999999999748581
 10
41.81499282013727
 20
16.73754915909081
 30
0.0
 41
0.999117092018691
 10
41.78016207164866
 20
16.72114820889279
 30
0.0
 41
0.9999999999748581
  0
SPLINE
  5
83
330
1F
100
AcDbEntity
  8
Default
100
AcDbSpline
210
0.0
220
0.0
230
1.0
 70
    12
 71
     2
 72
     6
 73
     3
 74
     0
 42
0.0000000001
 43
0.0000000001
 40
0.0
 40
0.0
 40
0.0
 40
1.519721079199265
 40
1.519721079199265
 40
1.519721079199265
 10
42.19597422600066
 20
16.4573891064891
 30
0.0
 41
1.0
 10
42.88069071787378
 20
16.92108382322997
 30
0.0
 41
0.882630593820843
 10
42.87804293283369
 20
17.74803149618808
 30
0.0
 41
1.0
  0
SPLINE
  5
84
330
1F
100
AcDbEntity
  8
Default
100
AcDbSpline
210
0.0
220
0.0
230
1.0
 70
    24
 71
     2
 72
     6
 73
     3
 74
     0
 42
0.0000000001
 43
0.0000000001
 40
-28.35538193068116
 40
-28.35538193068116
 40
-28.35538193068116
 40
0.0
 40
0.0
 40
0.0
 10
42.87804293283369
 20
17.74803149618808
 30
0.0
 10
42.87804293283369
 20
31.92572246152865
 30
0.0
 10
42.87804293283369
 20
46.10341342686922
 30
0.0
  0
SPLINE
  5
85
330
1F
100
AcDbEntity
  8
Default
100
AcDbSpline
210
0.0
220
0.0
230
1.0
 70
    12
 71
     2
 72
     8
 73
     5
 74
     0
 42
0.0000000001
 43
0.0000000001
 40
-2.287437129003494
 40
-2.287437129003494
 40
-2.287437129003494
 40
-1.143718564501747
 40
-1.143718564501747
 40
0.0
 40
0.0
 40
0.0
 10
42.87804293283369
 20
46.10341342686922
 30
0.0
 41
1.0
 10
42.89712169072205
 20
46.70637356633411
 30
0.0
 41
0.9237161025518569
 10
42.48387986474643
 20
47.14586887012061
 30
0.0
 41
1.0
 10
42.07063803877082
 20
47.58536417390714
 30
0.0
 41
0.9237161025518569
 10
41.4676462036241
 20
47.60341342686925
 30
0.0
 41
1.0
  0
LINE
  5
86
330
1F
100
AcDbEntity
  8
Default
100
AcDbLine
 10
41.4676462036241
 20
47.60341342686925
 30
0.0
 11
-41.46768858538826
 21
47.60341342686942
 31
0.0
  0
SPLINE
  5
87
330
1F
100
AcDbEntity
  8
Default
100
AcDbSpline
210
0.0
220
0.0
230
1.0
 70
    12
 71
     2
 72
     8
 73
     5
 74
     0
 42
0.0000000001
 43
0.0000000001
 40
0.0
 40
0.0
 40
0.0
 40
1.143718564501747
 40
1.143718564501747
 40
2.287437129003494
 40
2.287437129003494
 40
2.287437129003494
 10
-41.46768858538826
 20
47.60341342686942
 30
0.0
 41
1.0
 10
-42.07068042053498
 20
47.58536417390714
 30
0.0
 41
0.9237161025518569
 10
-42.48392224651059
 20
47.14586887012061
 30
0.0
 41
1.0
 10
-42.89716407248622
 20
46.70637356633411
 30
0.0
 41
0.9237161025518569
 10
-42.87808531459785
 20
46.10341342686922
 30
0.0
 41
1.0
  0
SPLINE
  5
88
330
1F
100
AcDbEntity
  8
Default
100
AcDbSpline
210
0.0
220
0.0
230
1.0
 70
    24
 71
     2
 72
     6
 73
     3
 74
     0
 42
0.0000000001
 43
0.0000000001
 40
0.0
 40
0.0
 40
0.0
 40
28.35538193068116
 40
28.35538193068116
 40
28.35538193068116
 10
-42.87808531459785
 20
46.10341342686922
 30
0.0
 10
-42.87808531459785
 20
31.92572246152865
 30
0.0
 10
-42.87808531459785
 20
17.74803149618808
 30
0.0
  0
SPLINE
  5
89
330
1F
100
AcDbEntity
  8
Default
100
AcDbSpline
210
0.0
220
0.0
230
1.0
 70
    12
 71
     2
 72
     6
 73
     3
 74
     0
 42
0.0000000001
 43
0.0000000001
 40
-1.519721079199265
 40
-1.519721079199265
 40
-1.519721079199265
 40
0.0
 40
0.0
 40
0.0
 10
-42.87808531459785
 20
17.74803149618808
 30
0.0
 41
1.0
 10
-42.88073309963793
 20
16.92108382322997
 30
0.0
 41
0.882630593820843
 10
-42.19601660776482
 20
16.4573891064891
 30
0.0
 41
1.0
  0
LINE
  5
8A
330
1F
100
AcDbEntity
  8
Default - Tangent
100
AcDbLine
 10
-33.13689274111852
 20
17.71653543315136
 30
0.0
 11
-33.88655197400664
 21
29.03729762567906
 31
0.0
  0
ARC
  5
8B
330
1F
100
AcDbEntity
  8
Default - Tangent
100
AcDbCircle
 10
-34.77014137821158
 20
28.97878646329622
 30
0.0
 40
0.8855245853993031
100
AcDbArc
 50
3.788586943707237
 51
87.70133874038511
  0
LINE
  5
8C
330
1F
100
AcDbEntity
  8
Default - Tangent
100
AcDbLine
 10
33.13685035935436
 20
17.71653543315136
 30
0.0
 11
33.88650959224248
 21
29.03729762567906
 31
0.0
  0
ARC
  5
8D
330
1F
100
AcDbEntity
  8
Default - Tangent
100
AcDbCircle
 10
34.77009899644742
 20
28.97878646329622
 30
0.0
 40
0.8855245853993031
100
AcDbArc
 50
92.29866125961489
 51
176.2114130562928
  0
POLYLINE
  5
8E
330
1F
100
AcDbEntity
  8
Default
100
AcDb2dPolyline
 66
     1
 10
0.0
 20
0.0
 30
0.0
  0
VERTEX
  5
8F
330
8E
100
AcDbEntity
  8
Default
100
AcDbVertex
100
AcDb2dVertex
 10
-36.45800055656679
 20
17.71653543315136
 30
0.0
  0
VERTEX
  5
90
330
8E
100
AcDbEntity
  8
Default
100
AcDbVertex
100
AcDb2dVertex
 10
36.3771608650477
 20
17.71653543315136
 30
0.0
  0
SEQEND
  5
91
330
8E
100
AcDbEntity
  8
Default
  0
SPLINE
  5
92
330
1F
100
AcDbEntity
  8
Default
100
AcDbSpline
210
0.0
220
0.0
230
1.0
 70
    24
 71
     2
 72
     6
 73
     3
 74
     0
 42
0.0000000001
 43
0.0000000001
 40
0.0
 40
0.0
 40
0.0
 40
11.14706306272356
 40
11.14706306272356
 40
11.14706306272356
 10
36.3771608650477
 20
17.71653543315136
 30
0.0
 10
36.37716086504767
 20
23.29006696451314
 30
0.0
 10
36.37716086504764
 20
28.86359849587492
 30
0.0
  0
SPLINE
  5
93
330
1F
100
AcDbEntity
  8
Default
100
AcDbSpline
210
0.0
220
0.0
230
1.0
 70
    12
 71
     2
 72
     6
 73
     3
 74
     0
 42
0.0000000001
 43
0.0000000001
 40
0.0
 40
0.0
 40
0.0
 40
1.524041061225584
 40
1.524041061225584
 40
1.524041061225584
 10
36.37716086504764
 20
28.86359849587492
 30
0.0
 41
1.0
 10
36.4061822065271
 20
29.83272634807348
 30
0.0
 41
0.7077816822571706
 10
35.43618437505208
 20
29.86359849587504
 30
0.0
 41
1.0
  0
LINE
  5
94
330
1F
100
AcDbEntity
  8
Default
100
AcDbLine
 10
35.43618437505208
 20
29.86359849587504
 30
0.0
 11
-35.51702406657122
 21
29.86359849587501
 31
0.0
  0
SPLINE
  5
95
330
1F
100
AcDbEntity
  8
Default
100
AcDbSpline
210
0.0
220
0.0
230
1.0
 70
    12
 71
     2
 72
     6
 73
     3
 74
     0
 42
0.0000000001
 43
0.0000000001
 40
-1.524041061225439
 40
-1.524041061225439
 40
-1.524041061225439
 40
0.0
 40
0.0
 40
0.0
 10
-35.51702406657122
 20
29.86359849587501
 30
0.0
 41
1.0
 10
-36.4870218980462
 20
29.83272634807368
 30
0.0
 41
0.707781682257107
 10
-36.45800055656676
 20
28.86359849587512
 30
0.0
 41
1.0
  0
SPLINE
  5
96
330
1F
100
AcDbEntity
  8
Default
100
AcDbSpline
210
0.0
220
0.0
230
1.0
 70
    24
 71
     2
 72
     6
 73
     3
 74
     0
 42
0.0000000001
 43
0.0000000001
 40
-11.14706306272378
 40
-11.14706306272378
 40
-11.14706306272378
 40
0.0
 40
0.0
 40
0.0
 10
-36.45800055656676
 20
28.86359849587512
 30
0.0
 10
-36.45800055656677
 20
23.29006696451324
 30
0.0
 10
-36.45800055656679
 20
17.71653543315136
 30
0.0
  0
POLYLINE
  5
97
330
1F
100
AcDbEntity
  8
Default
100
AcDb2dPolyline
 66
     1
 10
0.0
 20
0.0
 30
0.0
  0
VERTEX
  5
98
330
97
100
AcDbEntity
  8
Default
100
AcDbVertex
100
AcDb2dVertex
 10
-38.16973782677505
 20
17.71653543311015
 30
0.0
  0
VERTEX
  5
99
330
97
100
AcDbEntity
  8
Default
100
AcDbVertex
100
AcDb2dVertex
 10
38.16970596901604
 20
17.7165354331961
 30
0.0
  0
SEQEND
  5
9A
330
97
100
AcDbEntity
  8
Default
  0
SPLINE
  5
9B
330
1F
100
AcDbEntity
  8
Default
100
AcDbSpline
210
0.0
220
0.0
230
1.0
 70
    12
 71
     2
 72
     6
 73
     3
 74
     0
 42
0.0000000001
 43
0.0000000001
 40
0.0
 40
0.0
 40
0.0
 40
5.364175080027173
 40
5.364175080027173
 40
5.364175080027173
 10
38.16970596901604
 20
17.7165354331961
 30
0.0
 41
1.0
 10
40.9823132657591
 20
17.70021758559776
 30
0.0
 41
0.931800703065184
 10
43.02549971491717
 20
15.76684667659976
 30
0.0
 41
1.0
  0
SPLINE
  5
9C
330
1F
100
AcDbEntity
  8
Default
100
AcDbSpline
210
0.0
220
0.0
230
1.0
 70
    24
 71
     2
 72
     6
 73
     3
 74
     0
 42
0.0000000001
 43
0.0000000001
 40
-7.480314960629924
 40
-7.480314960629924
 40
-7.480314960629924
 40
0.0
 40
0.0
 40
0.0
 10
43.02549971491717
 20
15.76684667659976
 30
0.0
 10
43.01686208672839
 20
12.01728160607902
 30
0.0
 10
43.00822445853962
 20
8.267716535558293
 30
0.0
  0
LINE
  5
9D
330
1F
100
AcDbEntity
  8
Default
100
AcDbLine
 10
43.00822445853962
 20
8.267716535558293
 30
0.0
 11
-43.00822445853964
 21
8.267716535558293
 31
0.0
  0
SPLINE
  5
9E
330
1F
100
AcDbEntity
  8
Default
100
AcDbSpline
210
0.0
220
0.0
230
1.0
 70
    24
 71
     2
 72
     6
 73
     3
 74
     0
 42
0.0000000001
 43
0.0000000001
 40
-7.480314960629922
 40
-7.480314960629922
 40
-7.480314960629922
 40
0.0
 40
0.0
 40
0.0
 10
-43.00822445853964
 20
8.267716535558293
 30
0.0
 10
-43.01685978785687
 20
12.01727913607462
 30
0.0
 10
-43.0254951171741
 20
15.76684173659095
 30
0.0
  0
SPLINE
  5
9F
330
1F
100
AcDbEntity
  8
Default
100
AcDbSpline
210
0.0
220
0.0
230
1.0
 70
    12
 71
     2
 72
     6
 73
     3
 74
     0
 42
0.0000000001
 43
0.0000000001
 40
0.0
 40
0.0
 40
0.0
 40
5.364423885029034
 40
5.364423885029034
 40
5.364423885029034
 10
-43.0254951171741
 20
15.76684173659095
 30
0.0
 41
1.0
 10
-40.98279761317731
 20
17.70139355851891
 30
0.0
 41
0.9316468659276929
 10
-38.16973782677505
 20
17.71653543311015
 30
0.0
 41
1.0
  0
POLYLINE
  5
A0
330
1F
100
AcDbEntity
  8
Default
100
AcDb2dPolyline
 66
     1
 10
0.0
 20
0.0
 30
0.0
  0
VERTEX
  5
A1
330
A0
100
AcDbEntity
  8
Default
100
AcDbVertex
100
AcDb2dVertex
 10
42.92832929088314
 20
8.272430852204138
 30
0.0
  0
VERTEX
  5
A2
330
A0
100
AcDbEntity
  8
Default
100
AcDbVertex
100
AcDb2dVertex
 10
41.09676239237371
 20
8.269747580036778
 30
0.0
  0
SEQEND
  5
A3
330
A0
100
AcDbEntity
  8
Default
  0
SPLINE
  5
A4
330
1F
100
AcDbEntity
  8
Default
100
AcDbSpline
210
0.0
220
0.0
230
1.0
 70
    12
 71
     2
 72
     6
 73
     3
 74
     0
 42
0.0000000001
 43
0.0000000001
 40
0.0
 40
0.0
 40
0.0
 40
8.16810736516567
 40
8.16810736516567
 40
8.16810736516567
 10
41.09676239237371
 20
8.269747580036778
 30
0.0
 41
1.0
 10
41.35933523611767
 20
4.194140685840726
 30
0.0
 41
0.9999990299969506
 10
41.61055381917014
 20
0.1178181669741392
 30
0.0
 41
0.9999999999695106
  0
ARC
  5
A5
330
1F
100
AcDbEntity
  8
Default
100
AcDbCircle
 10
41.73032658024539
 20
0.1251996102201929
 30
0.0
 40
0.12
100
AcDbArc
 50
183.5266058819255
 51
270.0
  0
LINE
  5
A6
330
1F
100
AcDbEntity
  8
Default
100
AcDbLine
 10
41.73032658024539
 20
0.0051996102201883
 30
0.0
 11
42.74413405259378
 21
0.0051996110860273
 31
0.0
  0
SPLINE
  5
A7
330
1F
100
AcDbEntity
  8
Default
100
AcDbSpline
210
0.0
220
0.0
230
1.0
 70
    12
 71
     2
 72
     6
 73
     3
 74
     0
 42
0.0000000001
 43
0.0000000001
 40
0.0
 40
0.0
 40
0.0
 40
0.1828505988539321
 40
0.1828505988539321
 40
0.1828505988539321
 10
42.74413405259378
 20
0.0051996110860273
 30
0.0
 41
1.0
 10
42.85725237572996
 20
0.0093371887625808
 30
0.0
 41
0.7349920081234328
 10
42.86220201172767
 20
0.1226051355426989
 30
0.0
 41
1.0
  0
SPLINE
  5
A8
330
1F
100
AcDbEntity
  8
Default
100
AcDbSpline
210
0.0
220
0.0
230
1.0
 70
    12
 71
     2
 72
     6
 73
     3
 74
     0
 42
0.0000000001
 43
0.0000000001
 40
0.0
 40
0.0
 40
0.0
 40
8.149911166782651
 40
8.149911166782651
 40
8.149911166782651
 10
42.86220201172767
 20
0.1226051355426989
 30
0.0
 41
1.0
 10
42.89342788570659
 20
4.19762446157953
 30
0.0
 41
0.9999998996156108
 10
42.92832929088314
 20
8.272430852204138
 30
0.0
 41
1.0
  0
POLYLINE
  5
A9
330
1F
100
AcDbEntity
  8
Default
100
AcDb2dPolyline
 66
     1
 10
0.0
 20
0.0
 30
0.0
  0
VERTEX
  5
AA
330
A9
100
AcDbEntity
  8
Default
100
AcDbVertex
100
AcDb2dVertex
 10
34.52747339861486
 20
8.266601550431346
 30
0.0
  0
VERTEX
  5
AB
330
A9
100
AcDbEntity
  8
Default
100
AcDbVertex
100
AcDb2dVertex
 10
32.69590650010542
 20
8.263918278263986
 30
0.0
  0
SEQEND
  5
AC
330
A9
100
AcDbEntity
  8
Default
  0
SPLINE
  5
AD
330
1F
100
AcDbEntity
  8
Default
100
AcDbSpline
210
0.0
220
0.0
230
1.0
 70
    12
 71
     2
 72
     6
 73
     3
 74
     0
 42
0.0000000001
 43
0.0000000001
 40
0.0
 40
0.0
 40
0.0
 40
8.16810736516567
 40
8.16810736516567
 40
8.16810736516567
 10
32.69590650010542
 20
8.263918278263986
 30
0.0
 41
1.0
 10
32.9584793438494
 20
4.188311384067935
 30
0.0
 41
0.9999990299969506
 10
33.20969792690186
 20
0.11198886520134
 30
0.0
 41
0.9999999999695106
  0
ARC
  5
AE
330
1F
100
AcDbEntity
  8
Default
100
AcDbCircle
 10
33.32947068797711
 20
0.1193703084474009
 30
0.0
 40
0.12
100
AcDbArc
 50
183.5266058819255
 51
270.0
  0
LINE
  5
AF
330
1F
100
AcDbEntity
  8
Default
100
AcDbLine
 10
33.32947068797711
 20
-0.0006296915526036
 30
0.0
 11
34.3432781603255
 21
-0.0006296906867647
 31
0.0
  0
SPLINE
  5
B0
330
1F
100
AcDbEntity
  8
Default
100
AcDbSpline
210
0.0
220
0.0
230
1.0
 70
    12
 71
     2
 72
     6
 73
     3
 74
     0
 42
0.0000000001
 43
0.0000000001
 40
0.0
 40
0.0
 40
0.0
 40
0.1828505988539321
 40
0.1828505988539321
 40
0.1828505988539321
 10
34.3432781603255
 20
-0.0006296906867647
 30
0.0
 41
1.0
 10
34.4563964834617
 20
0.0035078869897757
 30
0.0
 41
0.7349920081234328
 10
34.46134611945939
 20
0.116775833769907
 30
0.0
 41
1.0
  0
SPLINE
  5
B1
330
1F
100
AcDbEntity
  8
Default
100
AcDbSpline
210
0.0
220
0.0
230
1.0
 70
    12
 71
     2
 72
     6
 73
     3
 74
     0
 42
0.0000000001
 43
0.0000000001
 40
0.0
 40
0.0
 40
0.0
 40
8.149911166782651
 40
8.149911166782651
 40
8.149911166782651
 10
34.46134611945939
 20
0.116775833769907
 30
0.0
 41
1.0
 10
34.4925719934383
 20
4.191795159806713
 30
0.0
 41
0.9999998996156108
 10
34.52747339861486
 20
8.266601550431346
 30
0.0
 41
1.0
  0
POLYLINE
  5
B2
330
1F
100
AcDbEntity
  8
Default
100
AcDb2dPolyline
 66
     1
 10
0.0
 20
0.0
 30
0.0
  0
VERTEX
  5
B3
330
B2
100
AcDbEntity
  8
Default
100
AcDbVertex
100
AcDb2dVertex
 10
-42.9283716726473
 20
8.272430852204138
 30
0.0
  0
VERTEX
  5
B4
330
B2
100
AcDbEntity
  8
Default
100
AcDbVertex
100
AcDb2dVertex
 10
-41.09680477413787
 20
8.269747580036778
 30
0.0
  0
SEQEND
  5
B5
330
B2
100
AcDbEntity
  8
Default
  0
SPLINE
  5
B6
330
1F
100
AcDbEntity
  8
Default
100
AcDbSpline
210
0.0
220
0.0
230
1.0
 70
    12
 71
     2
 72
     6
 73
     3
 74
     0
 42
0.0000000001
 43
0.0000000001
 40
0.0
 40
0.0
 40
0.0
 40
8.16810736516567
 40
8.16810736516567
 40
8.16810736516567
 10
-41.09680477413787
 20
8.269747580036778
 30
0.0
 41
1.0
 10
-41.35937761788182
 20
4.194140685840726
 30
0.0
 41
0.9999990299969506
 10
-41.61059620093427
 20
0.1178181669741392
 30
0.0
 41
0.9999999999695106
  0
ARC
  5
B7
330
1F
100
AcDbEntity
  8
Default
100
AcDbCircle
 10
-41.73036896200955
 20
0.1251996102201929
 30
0.0
 40
0.12
100
AcDbArc
 50
270.0
 51
356.4733941180745
  0
LINE
  5
B8
330
1F
100
AcDbEntity
  8
Default
100
AcDbLine
 10
-41.73036896200955
 20
0.0051996102201883
 30
0.0
 11
-42.74417643435794
 21
0.0051996110860273
 31
0.0
  0
SPLINE
  5
B9
330
1F
100
AcDbEntity
  8
Default
100
AcDbSpline
210
0.0
220
0.0
230
1.0
 70
    12
 71
     2
 72
     6
 73
     3
 74
     0
 42
0.0000000001
 43
0.0000000001
 40
0.0
 40
0.0
 40
0.0
 40
0.1828505988539321
 40
0.1828505988539321
 40
0.1828505988539321
 10
-42.74417643435794
 20
0.0051996110860273
 30
0.0
 41
1.0
 10
-42.85729475749413
 20
0.0093371887625808
 30
0.0
 41
0.7349920081234328
 10
-42.86224439349184
 20
0.1226051355426989
 30
0.0
 41
1.0
  0
SPLINE
  5
BA
330
1F
100
AcDbEntity
  8
Default
100
AcDbSpline
210
0.0
220
0.0
230
1.0
 70
    12
 71
     2
 72
     6
 73
     3
 74
     0
 42
0.0000000001
 43
0.0000000001
 40
0.0
 40
0.0
 40
0.0
 40
8.149911166782651
 40
8.149911166782651
 40
8.149911166782651
 10
-42.86224439349184
 20
0.1226051355426989
 30
0.0
 41
1.0
 10
-42.89347026747073
 20
4.19762446157953
 30
0.0
 41
0.9999998996156108
 10
-42.9283716726473
 20
8.272430852204138
 30
0.0
 41
1.0
  0
POLYLINE
  5
BB
330
1F
100
AcDbEntity
  8
Default
100
AcDb2dPolyline
 66
     1
 10
0.0
 20
0.0
 30
0.0
  0
VERTEX
  5
BC
330
BB
100
AcDbEntity
  8
Default
100
AcDbVertex
100
AcDb2dVertex
 10
-0.5856433334502071
 20
0.0
 30
0.0
  0
VERTEX
  5
BD
330
BB
100
AcDbEntity
  8
Default
100
AcDbVertex
100
AcDb2dVertex
 10
0.5855697965179729
 20
0.0
 30
0.0
  0
SEQEND
  5
BE
330
BB
100
AcDbEntity
  8
Default
  0
SPLINE
  5
BF
330
1F
100
AcDbEntity
  8
Default
100
AcDbSpline
210
0.0
220
0.0
230
1.0
 70
    12
 71
     2
 72
     6
 73
     3
 74
     0
 42
0.0000000001
 43
0.0000000001
 40
-0.1754535196132856
 40
-0.1754535196132856
 40
-0.1754535196132856
 40
0.0
 40
0.0
 40
0.0
 10
0.5855697965179729
 20
0.0
 30
0.0
 41
1.0
 10
0.6917170681338862
 20
0.0041095996480865
 30
0.0
 41
0.7581177397649087
 10
0.7035836359286236
 20
0.1123088348315378
 30
0.0
 41
1.0
  0
SPLINE
  5
C0
330
1F
100
AcDbEntity
  8
Default
100
AcDbSpline
210
0.0
220
0.0
230
1.0
 70
    12
 71
     2
 72
     6
 73
     3
 74
     0
 42
0.0000000001
 43
0.0000000001
 40
-8.154622213871354
 40
-8.154622213871354
 40
-8.154622213871354
 40
0.0
 40
0.0
 40
0.0
 10
0.7035836359286236
 20
0.1123088348315378
 30
0.0
 41
1.0
 10
0.8240303789316954
 20
4.19047268912259
 30
0.0
 41
0.999999993484175
 10
0.9453450485702888
 20
8.265978640302478
 30
0.0
 41
1.0
  0
POLYLINE
  5
C1
330
1F
100
AcDbEntity
  8
Default
100
AcDb2dPolyline
 66
     1
 10
0.0
 20
0.0
 30
0.0
  0
VERTEX
  5
C2
330
C1
100
AcDbEntity
  8
Default
100
AcDbVertex
100
AcDb2dVertex
 10
0.9453450485702888
 20
8.265978640302478
 30
0.0
  0
VERTEX
  5
C3
330
C1
100
AcDbEntity
  8
Default
100
AcDbVertex
100
AcDb2dVertex
 10
-0.9453987493644718
 20
8.265094697216057
 30
0.0
  0
SEQEND
  5
C4
330
C1
100
AcDbEntity
  8
Default
  0
SPLINE
  5
C5
330
1F
100
AcDbEntity
  8
Default
100
AcDbSpline
210
0.0
220
0.0
230
1.0
 70
    12
 71
     2
 72
     6
 73
     3
 74
     0
 42
0.0000000001
 43
0.0000000001
 40
-8.153422829035415
 40
-8.153422829035415
 40
-8.153422829035415
 40
0.0
 40
0.0
 40
0.0
 10
-0.9453987493644718
 20
8.265094697216057
 30
0.0
 41
1.0
 10
-0.8240986731865096
 20
4.190188269726475
 30
0.0
 41
0.9999999935007721
 10
-0.7037954924465168
 20
0.114944801815966
 30
0.0
 41
1.0
  0
SPLINE
  5
C6
330
1F
100
AcDbEntity
  8
Default
100
AcDbSpline
210
0.0
220
0.0
230
1.0
 70
    12
 71
     2
 72
     6
 73
     3
 74
     0
 42
0.0000000001
 43
0.0000000001
 40
-0.1803771424045397
 40
-0.1803771424045397
 40
-0.1803771424045397
 40
0.0
 40
0.0
 40
0.0
 10
-0.7037954924465168
 20
0.114944801815966
 30
0.0
 41
1.0
 10
-0.6963089372282947
 20
0.0041498845071977
 30
0.0
 41
0.7434890949221923
 10
-0.5856433334502071
 20
0.0
 30
0.0
 41
1.0
  0
POLYLINE
  5
C7
330
1F
100
AcDbEntity
  8
Default
100
AcDb2dPolyline
 66
     1
 10
0.0
 20
0.0
 30
0.0
  0
VERTEX
  5
C8
330
C7
100
AcDbEntity
  8
Default
100
AcDbVertex
100
AcDb2dVertex
 10
-34.52751578037902
 20
8.266601550431346
 30
0.0
  0
VERTEX
  5
C9
330
C7
100
AcDbEntity
  8
Default
100
AcDbVertex
100
AcDb2dVertex
 10
-32.69594888186958
 20
8.263918278263986
 30
0.0
  0
SEQEND
  5
CA
330
C7
100
AcDbEntity
  8
Default
  0
SPLINE
  5
CB
330
1F
100
AcDbEntity
  8
Default
100
AcDbSpline
210
0.0
220
0.0
230
1.0
 70
    12
 71
     2
 72
     6
 73
     3
 74
     0
 42
0.0000000001
 43
0.0000000001
 40
0.0
 40
0.0
 40
0.0
 40
8.16810736516567
 40
8.16810736516567
 40
8.16810736516567
 10
-32.69594888186958
 20
8.263918278263986
 30
0.0
 41
1.0
 10
-32.95852172561357
 20
4.188311384067935
 30
0.0
 41
0.9999990299969506
 10
-33.20974030866599
 20
0.11198886520134
 30
0.0
 41
0.9999999999695106
  0
ARC
  5
CC
330
1F
100
AcDbEntity
  8
Default
100
AcDbCircle
 10
-33.32951306974127
 20
0.1193703084474009
 30
0.0
 40
0.12
100
AcDbArc
 50
270.0
 51
356.4733941180745
  0
LINE
  5
CD
330
1F
100
AcDbEntity
  8
Default
100
AcDbLine
 10
-33.32951306974127
 20
-0.0006296915526036
 30
0.0
 11
-34.34332054208966
 21
-0.0006296906867647
 31
0.0
  0
SPLINE
  5
CE
330
1F
100
AcDbEntity
  8
Default
100
AcDbSpline
210
0.0
220
0.0
230
1.0
 70
    12
 71
     2
 72
     6
 73
     3
 74
     0
 42
0.0000000001
 43
0.0000000001
 40
0.0
 40
0.0
 40
0.0
 40
0.1828505988539321
 40
0.1828505988539321
 40
0.1828505988539321
 10
-34.34332054208966
 20
-0.0006296906867647
 30
0.0
 41
1.0
 10
-34.45643886522584
 20
0.0035078869897757
 30
0.0
 41
0.7349920081234328
 10
-34.46138850122355
 20
0.116775833769907
 30
0.0
 41
1.0
  0
SPLINE
  5
CF
330
1F
100
AcDbEntity
  8
Default
100
AcDbSpline
210
0.0
220
0.0
230
1.0
 70
    12
 71
     2
 72
     6
 73
     3
 74
     0
 42
0.0000000001
 43
0.0000000001
 40
0.0
 40
0.0
 40
0.0
 40
8.149911166782651
 40
8.149911166782651
 40
8.149911166782651
 10
-34.46138850122355
 20
0.116775833769907
 30
0.0
 41
1.0
 10
-34.49261437520247
 20
4.191795159806713
 30
0.0
 41
0.9999998996156108
 10
-34.52751578037902
 20
8.266601550431346
 30
0.0
 41
1.0
  0
SPLINE
  5
D0
330
1F
100
AcDbEntity
  8
Default
100
AcDbSpline
210
0.0
220
0.0
230
1.0
 70
    24
 71
     2
 72
     6
 73
     3
 74
     0
 42
0.0000000001
 43
0.0000000001
 40
0.0
 40
0.0
 40
0.0
 40
8.293764808223685
 40
8.293764808223685
 40
8.293764808223685
 10
42.96780461277996
 20
8.26771653551532
 30
0.0
 10
38.82092220866809
 20
8.26771653551532
 30
0.0
 10
34.67403980455623
 20
8.26771653551532
 30
0.0
  0
SPLINE
  5
D1
330
1F
100
AcDbEntity
  8
Default
100
AcDbSpline
210
0.0
220
0.0
230
1.0
 70
    24
 71
     2
 72
     6
 73
     3
 74
     0
 42
0.0000000001
 43
0.0000000001
 40
0.0
 40
0.0
 40
0.0
 40
1.601357332398379
 40
1.601357332398379
 40
1.601357332398379
 10
34.67403980455623
 20
8.26771653551532
 30
0.0
 10
33.87336113835704
 20
8.26771653551532
 30
0.0
 10
33.07268247215785
 20
8.26771653551532
 30
0.0
  0
SPLINE
  5
D2
330
1F
100
AcDbEntity
  8
Default
100
AcDbSpline
210
0.0
220
0.0
230
1.0
 70
    24
 71
     2
 72
     6
 73
     3
 74
     0
 42
0.0000000001
 43
0.0000000001
 40
0.0
 40
0.0
 40
0.0
 40
8.293764808223685
 40
8.293764808223685
 40
8.293764808223685
 10
-34.75487949607538
 20
8.26771653551532
 30
0.0
 10
-38.90176190018721
 20
8.26771653551532
 30
0.0
 10
-43.04864430429905
 20
8.26771653551532
 30
0.0
  0
SPLINE
  5
D3
330
1F
100
AcDbEntity
  8
Default
100
AcDbSpline
210
0.0
220
0.0
230
1.0
 70
    24
 71
     2
 72
     6
 73
     3
 74
     0
 42
0.0000000001
 43
0.0000000001
 40
0.0
 40
0.0
 40
0.0
 40
1.601357332398386
 40
1.601357332398386
 40
1.601357332398386
 10
-33.15352216367697
 20
8.26771653551532
 30
0.0
 10
-33.95420082987617
 20
8.26771653551532
 30
0.0
 10
-34.75487949607538
 20
8.26771653551532
 30
0.0
  0
SPLINE
  5
D4
330
1F
100
AcDbEntity
  8
Default
100
AcDbSpline
210
0.0
220
0.0
230
1.0
 70
    24
 71
     2
 72
     6
 73
     3
 74
     0
 42
0.0000000001
 43
0.0000000001
 40
0.0
 40
0.0
 40
0.0
 40
1.601357332398379
 40
1.601357332398379
 40
1.601357332398379
 10
34.71445965031575
 20
8.267716535558293
 30
0.0
 10
33.91378098411656
 20
8.267716535558293
 30
0.0
 10
33.11310231791737
 20
8.267716535558293
 30
0.0
  0
LINE
  5
D5
330
1F
100
AcDbEntity
  8
Default
100
AcDbLine
 10
-42.76991381111384
 20
102.2958819706546
 30
0.0
 11
-41.69193031182954
 21
102.688438427056
 31
0.0
  0
SPLINE
  5
D6
330
1F
100
AcDbEntity
  8
Default
100
AcDbSpline
210
0.0
220
0.0
230
1.0
 70
     8
 71
     3
 72
    17
 73
    13
 74
     0
 42
0.0000000001
 43
0.0000000001
 40
-0.0000000000000001
 40
-0.0000000000000001
 40
-0.0000000000000001
 40
-0.0000000000000001
 40
25.19148456304585
 40
36.20916109165758
 40
38.00183579174525
 40
40.34314325684684
 40
42.02032425089431
 40
44.03473991816121
 40
51.94928354628931
 40
53.50480182761689
 40
59.48258365251019
 40
88.07047885219492
 40
88.07047885219492
 40
88.07047885219492
 40
88.07047885219492
 10
-41.69193031182954
 20
102.688438427056
 30
0.0
 10
-33.80687838491281
 20
105.5772477913818
 30
0.0
 10
-22.43382305467242
 20
109.6158655760148
 30
0.0
 10
-10.55569419279999
 20
114.0221599925053
 30
0.0
 10
-5.776310328988473
 20
115.650687221141
 30
0.0
 10
-3.848093200750355
 20
115.9577023028534
 30
0.0
 10
-1.865684595218738
 20
116.2475459341137
 30
0.0
 10
2.011124834825296
 20
116.4018829705103
 30
0.0
 10
5.827935737998928
 20
115.7428037964692
 30
0.0
 10
10.66492216356937
 20
113.9723163982529
 30
0.0
 10
21.97810523040596
 20
109.8544124789719
 30
0.0
 10
32.81709986080193
 20
105.9439064721733
 30
0.0
 10
41.7727275411936
 20
102.6884380321507
 30
0.0
  0
LINE
  5
D7
330
1F
100
AcDbEntity
  8
Default
100
AcDbLine
 10
41.7727275411936
 20
102.6884380321507
 30
0.0
 11
42.84618603807695
 21
102.2991140636372
 31
0.0
  0
SPLINE
  5
D8
330
1F
100
AcDbEntity
  8
Default
100
AcDbSpline
210
0.0
220
0.0
230
1.0
 70
    12
 71
     2
 72
     6
 73
     3
 74
     0
 42
0.0000000001
 43
0.0000000001
 40
0.0
 40
0.0
 40
0.0
 40
0.5886641668267995
 40
0.5886641668267995
 40
0.5886641668267995
 10
42.84618603807698
 20
102.2991140636373
 30
0.0
 41
0.9817485664319986
 10
43.1756971036016
 20
102.1614422730627
 30
0.0
 41
0.7185290146222495
 10
43.05487662548737
 20
101.8253860658878
 30
0.0
 41
0.9999999756266585
  0
SPLINE
  5
D9
330
1F
100
AcDbEntity
  8
Default
100
AcDbSpline
210
0.0
220
0.0
230
1.0
 70
    24
 71
     2
 72
     6
 73
     3
 74
     0
 42
0.0000000001
 43
0.0000000001
 40
0.0
 40
0.0
 40
0.0
 40
0.4000131365575363
 40
0.4000131365575363
 40
0.4000131365575363
 10
43.0548766254874
 20
101.8253860658878
 30
0.0
 10
42.98506544677019
 20
101.6329788409973
 30
0.0
 10
42.91525426805299
 20
101.4405716161068
 30
0.0
  0
SPLINE
  5
DA
330
1F
100
AcDbEntity
  8
Default
100
AcDbSpline
210
0.0
220
0.0
230
1.0
 70
    12
 71
     2
 72
     6
 73
     3
 74
     0
 42
0.0000000001
 43
0.0000000001
 40
0.0
 40
0.0
 40
0.0
 40
0.5669972309835125
 40
0.5669972309835125
 40
0.5669972309835125
 10
42.91525426805299
 20
101.4405716161068
 30
0.0
 41
1.0
 10
42.77162117839801
 20
101.1101674031835
 30
0.0
 41
0.7351548494154936
 10
42.43921115249202
 20
101.2227932055284
 30
0.0
 41
1.0
  0
LINE
  5
DB
330
1F
100
AcDbEntity
  8
Default
100
AcDbLine
 10
42.43921115249202
 20
101.2227932055284
 30
0.0
 11
10.64343829546289
 21
112.7583121170304
 31
0.0
  0
SPLINE
  5
DC
330
1F
100
AcDbEntity
  8
Default
100
AcDbSpline
210
0.0
220
0.0
230
1.0
 70
    12
 71
     3
 72
    13
 73
     9
 74
     0
 42
0.0000000001
 43
0.0000000001
 40
32.69591335023863
 40
32.69591335023863
 40
32.69591335023863
 40
32.69591335023863
 40
32.96936336942411
 40
37.29508620992559
 40
43.76554133835274
 40
50.11515774439852
 40
54.39235800121521
 40
54.39236754122082
 40
54.39236754122082
 40
54.39236754122082
 40
54.39236754122082
 10
10.64343829546289
 20
112.7583121170304
 30
0.0
 41
1.0
 10
10.55814480979149
 20
112.7900290560255
 30
0.0
 41
1.0
 10
9.123922398476225
 20
113.3239267772263
 30
0.0
 41
1.0
 10
5.684761050570842
 20
114.6281140504856
 30
0.0
 41
1.0
 10
0.0819365002222412
 20
115.4364698985306
 30
0.0
 41
1.0
 10
-5.513234310654866
 20
114.6512273781529
 30
0.0
 41
1.0
 10
-8.81419738514569
 20
113.4059939582413
 30
0.0
 41
1.0
 10
-10.14768089884254
 20
112.9107611624355
 30
0.0
 41
1.0
 10
-10.14768422207189
 20
112.9107609975625
 30
0.0
 41
1.0
  0
LINE
  5
DD
330
1F
100
AcDbEntity
  8
Default
100
AcDbLine
 10
-10.14768422207189
 20
112.9107609975625
 30
0.0
 11
-42.35877713119419
 21
101.2235199446686
 31
0.0
  0
SPLINE
  5
DE
330
1F
100
AcDbEntity
  8
Default
100
AcDbSpline
210
0.0
220
0.0
230
1.0
 70
    12
 71
     2
 72
     6
 73
     3
 74
     0
 42
0.0000000001
 43
0.0000000001
 40
0.0
 40
0.0
 40
0.0
 40
0.5684023765638812
 40
0.5684023765638812
 40
0.5684023765638812
 10
-42.35877713119419
 20
101.2235199446686
 30
0.0
 41
1.0
 10
-42.692920621111
 20
101.1054968030393
 30
0.0
 41
0.7278116973899145
 10
-42.83440105279021
 20
101.4405760756409
 30
0.0
 41
1.0
  0
SPLINE
  5
DF
330
1F
100
AcDbEntity
  8
Default
100
AcDbSpline
210
0.0
220
0.0
230
1.0
 70
    24
 71
     2
 72
     6
 73
     3
 74
     0
 42
0.0000000001
 43
0.0000000001
 40
0.0
 40
0.0
 40
0.0
 40
0.4000131504761453
 40
0.4000131504761453
 40
0.4000131504761453
 10
-42.83440105279021
 20
101.4405760756409
 30
0.0
 10
-42.90424382529665
 20
101.6329799953749
 30
0.0
 10
-42.97408659780308
 20
101.8253839151089
 30
0.0
  0
SPLINE
  5
E0
330
1F
100
AcDbEntity
  8
Default
100
AcDbSpline
210
0.0
220
0.0
230
1.0
 70
    12
 71
     2
 72
     6
 73
     3
 74
     0
 42
0.0000000001
 43
0.0000000001
 40
0.0
 40
0.0
 40
0.0
 40
0.5954859321389362
 40
0.5954859321389362
 40
0.5954859321389362
 10
-42.97408659780309
 20
101.8253839151089
 30
0.0
 41
0.9999996780951569
 10
-43.08803952684365
 20
102.1543827187723
 30
0.0
 41
0.7260573316313076
 10
-42.7699138111138
 20
102.2958819706546
 30
0.0
 41
0.9683627865654062
  0
ENDSEC
  0
SECTION
  2
OBJECTS
  0
DICTIONARY
  5
C
330
0
100
AcDbDictionary
281
     1
  3
ACAD_GROUP
350
D
  3
ACAD_LAYOUT
350
1A
  3
ACAD_MLEADERSTYLE
350
E2
  3
ACAD_MLINESTYLE
350
17
  3
ACAD_PLOTSETTINGS
350
19
  3
ACAD_PLOTSTYLENAME
350
E
  3
ACAD_TABLESTYLE
350
E1
  3
ACAD_VISUALSTYLE
350
2A
  0
DICTIONARY
  5
D
102
{ACAD_REACTORS
330
C
102
}
330
C
100
AcDbDictionary
281
     1
  0
DICTIONARY
  5
1A
102
{ACAD_REACTORS
330
C
102
}
330
C
100
AcDbDictionary
281
     1
  3
Layout1
350
1E
  3
Layout2
350
26
  3
Model
350
22
  0
DICTIONARY
  5
E2
102
{ACAD_REACTORS
330
C
102
}
330
C
100
AcDbDictionary
281
     1
  0
DICTIONARY
  5
17
102
{ACAD_REACTORS
330
C
102
}
330
C
100
AcDbDictionary
281
     1
  3
Standard
350
18
  0
DICTIONARY
  5
19
102
{ACAD_REACTORS
330
C
102
}
330
C
100
AcDbDictionary
281
     1
  0
ACDBDICTIONARYWDFLT
  5
E
102
{ACAD_REACTORS
330
C
102
}
330
C
100
AcDbDictionary
281
     1
  3
Normal
350
F
100
AcDbDictionaryWithDefault
340
F
  0
DICTIONARY
  5
E1
102
{ACAD_REACTORS
330
C
102
}
330
C
100
AcDbDictionary
281
     1
  0
DICTIONARY
  5
2A
102
{ACAD_REACTORS
330
C
102
}
330
C
100
AcDbDictionary
281
     1
  3
2dWireframe
350
2F
  3
3D Hidden
350
31
  3
3dWireframe
350
30
  3
Basic
350
32
  3
Brighten
350
36
  3
ColorChange
350
3A
  3
Conceptual
350
34
  3
Dim
350
35
  3
Facepattern
350
39
  3
Flat
350
2B
  3
FlatWithEdges
350
2C
  3
Gouraud
350
2D
  3
GouraudWithEdges
350
2E
  3
Linepattern
350
38
  3
Realistic
350
33
  3
Thicken
350
37
  0
LAYOUT
  5
1E
102
{ACAD_REACTORS
330
1A
102
}
330
1A
100
AcDbPlotSettings
  1

  2
none_device
  4

  6

 40
0.0
 41
0.0
 42
0.0
 43
0.0
 44
0.0
 45
0.0
 46
0.0
 47
0.0
 48
0.0
 49
0.0
140
0.0
141
0.0
142
1.0
143
1.0
 70
   688
 72
     0
 73
     0
 74
     5
  7

 75
    16
 76
     0
 77
     2
 78
   300
147
1.0
148
0.0
149
0.0
100
AcDbLayout
  1
Layout1
 70
     1
 71
     1
 10
0.0
 20
0.0
 11
12.0
 21
9.0
 12
0.0
 22
0.0
 32
0.0
 14
1.000000000000000E+20
 24
1.000000000000000E+20
 34
1.000000000000000E+20
 15
-1.000000000000000E+20
 25
-1.000000000000000E+20
 35
-1.000000000000000E+20
146
0.0
 13
0.0
 23
0.0
 33
0.0
 16
1.0
 26
0.0
 36
0.0
 17
0.0
 27
1.0
 37
0.0
 76
     0
330
1B
  0
LAYOUT
  5
26
102
{ACAD_REACTORS
330
1A
102
}
330
1A
100
AcDbPlotSettings
  1

  2
none_device
  4

  6

 40
0.0
 41
0.0
 42
0.0
 43
0.0
 44
0.0
 45
0.0
 46
0.0
 47
0.0
 48
0.0
 49
0.0
140
0.0
141
0.0
142
1.0
143
1.0
 70
   688
 72
     0
 73
     0
 74
     5
  7

 75
    16
 76
     0
 77
     2
 78
   300
147
1.0
148
0.0
149
0.0
100
AcDbLayout
  1
Layout2
 70
     1
 71
     2
 10
0.0
 20
0.0
 11
0.0
 21
0.0
 12
0.0
 22
0.0
 32
0.0
 14
0.0
 24
0.0
 34
0.0
 15
0.0
 25
0.0
 35
0.0
146
0.0
 13
0.0
 23
0.0
 33
0.0
 16
1.0
 26
0.0
 36
0.0
 17
0.0
 27
1.0
 37
0.0
 76
     0
330
23
  0
LAYOUT
  5
22
102
{ACAD_REACTORS
330
1A
102
}
330
1A
100
AcDbPlotSettings
  1

  2
none_device
  4

  6

 40
0.0
 41
0.0
 42
0.0
 43
0.0
 44
0.0
 45
0.0
 46
0.0
 47
0.0
 48
0.0
 49
0.0
140
0.0
141
0.0
142
1.0
143
1.0
 70
  1712
 72
     0
 73
     0
 74
     0
  7

 75
     0
 76
     0
 77
     2
 78
   300
147
1.0
148
0.0
149
0.0
100
AcDbLayout
  1
Model
 70
     1
 71
     0
 10
0.0
 20
0.0
 11
12.0
 21
9.0
 12
0.0
 22
0.0
 32
0.0
 14
-43.04864430419904
 24
-0.0006296915526036
 34
0.0
 15
103.3199233883746
 25
116.2945348648593
 35
0.0
146
0.0
 13
0.0
 23
0.0
 33
0.0
 16
1.0
 26
0.0
 36
0.0
 17
0.0
 27
1.0
 37
0.0
 76
     0
330
1F
331
29
  0
MLINESTYLE
  5
18
102
{ACAD_REACTORS
330
17
102
}
330
17
100
AcDbMlineStyle
  2
Standard
 70
     0
  3

 62
   256
 51
90.0
 52
90.0
 71
     2
 49
0.5
 62
   256
  6
BYLAYER
 49
-0.5
 62
   256
  6
BYLAYER
  0
ACDBPLACEHOLDER
  5
F
102
{ACAD_REACTORS
330
E
102
}
330
E
  0
VISUALSTYLE
  5
2F
102
{ACAD_REACTORS
330
2A
102
}
330
2A
100
AcDbVisualStyle
  2
2dWireframe
 70
     4
 71
     0
 72
     2
 73
     0
 90
        0
 40
-0.6
 41
-30.0
 62
     5
 63
     7
421
 16777215
 74
     1
 91
        4
 64
     7
 65
   257
 75
     1
175
     1
 42
1.0
 92
        0
 66
   257
 43
1.0
 76
     1
 77
     6
 78
     2
 67
     7
 79
     5
170
     0
171
     0
290
     0
174
     0
 93
        1
 44
0.0
173
     0
291
     0
 45
0.0
1001
ACAD
1000
AcDbSavedByObjectVersion
1070
     0
  0
VISUALSTYLE
  5
31
102
{ACAD_REACTORS
330
2A
102
}
330
2A
100
AcDbVisualStyle
  2
3D Hidden
 70
     6
 71
     1
 72
     2
 73
     2
 90
        0
 40
-0.6
 41
-30.0
 62
     5
 63
     7
421
 16777215
 74
     2
 91
        2
 64
     7
 65
   257
 75
     2
175
     1
 42
40.0
 92
        0
 66
   257
 43
1.0
 76
     1
 77
     6
 78
     2
 67
     7
 79
     3
170
     0
171
     0
290
     0
174
     0
 93
        1
 44
0.0
173
     0
291
     0
 45
0.0
1001
ACAD
1000
AcDbSavedByObjectVersion
1070
     0
  0
VISUALSTYLE
  5
30
102
{ACAD_REACTORS
330
2A
102
}
330
2A
100
AcDbVisualStyle
  2
3dWireframe
 70
     5
 71
     0
 72
     2
 73
     0
 90
        0
 40
-0.6
 41
-30.0
 62
     5
 63
     7
421
 16777215
 74
     1
 91
        4
 64
     7
 65
   257
 75
     1
175
     1
 42
1.0
 92
        0
 66
   257
 43
1.0
 76
     1
 77
     6
 78
     2
 67
     7
 79
     5
170
     0
171
     0
290
     0
174
     0
 93
        1
 44
0.0
173
     0
291
     0
 45
0.0
1001
ACAD
1000
AcDbSavedByObjectVersion
1070
     0
  0
VISUALSTYLE
  5
32
102
{ACAD_REACTORS
330
2A
102
}
330
2A
100
AcDbVisualStyle
  2
Basic
 70
     7
 71
     1
 72
     0
 73
     1
 90
        0
 40
-0.6
 41
-30.0
 62
     5
 63
     7
421
 16777215
 74
     0
 91
        4
 64
     7
 65
   257
 75
     1
175
     1
 42
1.0
 92
        8
 66
     7
 43
1.0
 76
     1
 77
     6
 78
     2
 67
     7
 79
     5
170
     0
171
     0
290
     0
174
     0
 93
        1
 44
0.0
173
     0
291
     1
 45
0.0
1001
ACAD
1000
AcDbSavedByObjectVersion
1070
     0
  0
VISUALSTYLE
  5
36
102
{ACAD_REACTORS
330
2A
102
}
330
2A
100
AcDbVisualStyle
  2
Brighten
 70
    12
 71
     2
 72
     2
 73
     0
 90
        0
 40
-0.6
 41
-30.0
 62
     5
 63
     7
421
 16777215
 74
     1
 91
        4
 64
     7
 65
   257
 75
     1
175
     1
 42
1.0
 92
        8
 66
     7
 43
1.0
 76
     1
 77
     6
 78
     2
 67
     7
 79
     5
170
     0
171
     0
290
     0
174
     0
 93
        1
 44
50.0
173
     0
291
     1
 45
0.0
1001
ACAD
1000
AcDbSavedByObjectVersion
1070
     0
  0
VISUALSTYLE
  5
3A
102
{ACAD_REACTORS
330
2A
102
}
330
2A
100
AcDbVisualStyle
  2
ColorChange
 70
    16
 71
     2
 72
     2
 73
     3
 90
        0
 40
-0.6
 41
-30.0
 62
     5
 63
     8
421
  8421504
 74
     1
 91
        4
 64
     7
 65
   257
 75
     1
175
     1
 42
1.0
 92
        8
 66
     8
424
  8421504
 43
1.0
 76
     1
 77
     6
 78
     2
 67
     7
 79
     5
170
     0
171
     0
290
     0
174
     0
 93
        1
 44
0.0
173
     0
291
     1
 45
0.0
1001
ACAD
1000
AcDbSavedByObjectVersion
1070
     0
  0
VISUALSTYLE
  5
34
102
{ACAD_REACTORS
330
2A
102
}
330
2A
100
AcDbVisualStyle
  2
Conceptual
 70
     9
 71
     3
 72
     2
 73
     0
 90
        0
 40
-0.6
 41
-30.0
 62
     5
 63
     7
421
 16777215
 74
     2
 91
        2
 64
     7
 65
   257
 75
     1
175
     1
 42
40.0
 92
        8
 66
     7
 43
1.0
 76
     1
 77
     6
 78
     2
 67
     7
 79
     3
170
     0
171
     0
290
     0
174
     0
 93
        1
 44
0.0
173
     0
291
     0
 45
0.0
1001
ACAD
1000
AcDbSavedByObjectVersion
1070
     0
  0
VISUALSTYLE
  5
35
102
{ACAD_REACTORS
330
2A
102
}
330
2A
100
AcDbVisualStyle
  2
Dim
 70
    11
 71
     2
 72
     2
 73
     0
 90
        0
 40
-0.6
 41
-30.0
 62
     5
 63
     7
421
 16777215
 74
     1
 91
        4
 64
     7
 65
   257
 75
     1
175
     1
 42
1.0
 92
        8
 66
     7
 43
1.0
 76
     1
 77
     6
 78
     2
 67
     7
 79
     5
170
     0
171
     0
290
     0
174
     0
 93
        1
 44
-50.0
173
     0
291
     1
 45
0.0
1001
ACAD
1000
AcDbSavedByObjectVersion
1070
     0
  0
VISUALSTYLE
  5
39
102
{ACAD_REACTORS
330
2A
102
}
330
2A
100
AcDbVisualStyle
  2
Facepattern
 70
    15
 71
     2
 72
     2
 73
     0
 90
        0
 40
-0.6
 41
-30.0
 62
     5
 63
     7
421
 16777215
 74
     1
 91
        4
 64
     7
 65
   257
 75
     1
175
     1
 42
1.0
 92
        8
 66
     7
 43
1.0
 76
     1
 77
     6
 78
     2
 67
     7
 79
     5
170
     0
171
     0
290
     0
174
     0
 93
        1
 44
0.0
173
     0
291
     1
 45
0.0
1001
ACAD
1000
AcDbSavedByObjectVersion
1070
     0
  0
VISUALSTYLE
  5
2B
102
{ACAD_REACTORS
330
2A
102
}
330
2A
100
AcDbVisualStyle
  2
Flat
 70
     0
 71
     2
 72
     1
 73
     1
 90
        2
 40
-0.6
 41
30.0
 62
     5
 63
     7
421
 16777215
 74
     0
 91
        4
 64
     7
 65
   257
 75
     1
175
     1
 42
1.0
 92
        8
 66
     7
 43
1.0
 76
     1
 77
     6
 78
     2
 67
     7
 79
     5
170
     0
171
     0
290
     0
174
     0
 93
       13
 44
0.0
173
     0
291
     1
 45
0.0
1001
ACAD
1000
AcDbSavedByObjectVersion
1070
     0
  0
VISUALSTYLE
  5
2C
102
{ACAD_REACTORS
330
2A
102
}
330
2A
100
AcDbVisualStyle
  2
FlatWithEdges
 70
     1
 71
     2
 72
     1
 73
     1
 90
        2
 40
-0.6
 41
30.0
 62
     5
 63
     7
421
 16777215
 74
     1
 91
        4
 64
     7
 65
   257
 75
     1
175
     1
 42
1.0
 92
        0
 66
   257
 43
1.0
 76
     1
 77
     6
 78
     2
 67
     7
 79
     5
170
     0
171
     0
290
     0
174
     0
 93
       13
 44
0.0
173
     0
291
     1
 45
0.0
1001
ACAD
1000
AcDbSavedByObjectVersion
1070
     0
  0
VISUALSTYLE
  5
2D
102
{ACAD_REACTORS
330
2A
102
}
330
2A
100
AcDbVisualStyle
  2
Gouraud
 70
     2
 71
     2
 72
     2
 73
     1
 90
        2
 40
-0.6
 41
30.0
 62
     5
 63
     7
421
 16777215
 74
     0
 91
        4
 64
     7
 65
   257
 75
     1
175
     1
 42
1.0
 92
        0
 66
     7
 43
1.0
 76
     1
 77
     6
 78
     2
 67
     7
 79
     5
170
     0
171
     0
290
     0
174
     0
 93
       13
 44
0.0
173
     0
291
     1
 45
0.0
1001
ACAD
1000
AcDbSavedByObjectVersion
1070
     0
  0
VISUALSTYLE
  5
2E
102
{ACAD_REACTORS
330
2A
102
}
330
2A
100
AcDbVisualStyle
  2
GouraudWithEdges
 70
     3
 71
     2
 72
     2
 73
     1
 90
        2
 40
-0.6
 41
30.0
 62
     5
 63
     7
421
 16777215
 74
     1
 91
        4
 64
     7
 65
   257
 75
     1
175
     1
 42
1.0
 92
        0
 66
   257
 43
1.0
 76
     1
 77
     6
 78
     2
 67
     7
 79
     5
170
     0
171
     0
290
     0
174
     0
 93
       13
 44
0.0
173
     0
291
     1
 45
0.0
1001
ACAD
1000
AcDbSavedByObjectVersion
1070
     0
  0
VISUALSTYLE
  5
38
102
{ACAD_REACTORS
330
2A
102
}
330
2A
100
AcDbVisualStyle
  2
Linepattern
 70
    14
 71
     2
 72
     2
 73
     0
 90
        0
 40
-0.6
 41
-30.0
 62
     5
 63
     7
421
 16777215
 74
     1
 91
        4
 64
     7
 65
   257
 75
     7
175
     7
 42
1.0
 92
        8
 66
     7
 43
1.0
 76
     1
 77
     6
 78
     2
 67
     7
 79
     5
170
     0
171
     0
290
     0
174
     0
 93
        1
 44
0.0
173
     0
291
     1
 45
0.0
1001
ACAD
1000
AcDbSavedByObjectVersion
1070
     0
  0
VISUALSTYLE
  5
33
102
{ACAD_REACTORS
330
2A
102
}
330
2A
100
AcDbVisualStyle
  2
Realistic
 70
     8
 71
     2
 72
     2
 73
     0
 90
        0
 40
-0.6
 41
-30.0
 62
     5
 63
     7
421
 16777215
 74
     1
 91
        0
 64
     7
 65
   257
 75
     1
175
     1
 42
1.0
 92
        8
 66
     8
424
  7895160
 43
1.0
 76
     1
 77
     6
 78
     2
 67
     7
 79
     5
170
     0
171
     0
290
     0
174
     0
 93
       13
 44
0.0
173
     0
291
     0
 45
0.0
1001
ACAD
1000
AcDbSavedByObjectVersion
1070
     0
  0
VISUALSTYLE
  5
37
102
{ACAD_REACTORS
330
2A
102
}
330
2A
100
AcDbVisualStyle
  2
Thicken
 70
    13
 71
     2
 72
     2
 73
     0
 90
        0
 40
-0.6
 41
-30.0
 62
     5
 63
     7
421
 16777215
 74
     1
 91
        4
 64
     7
 65
   257
 75
     1
175
     1
 42
1.0
 92
       12
 66
     7
 43
1.0
 76
     1
 77
     6
 78
     2
 67
     7
 79
     5
170
     0
171
     0
290
     0
174
     0
 93
        1
 44
0.0
173
     0
291
     1
 45
0.0
1001
ACAD
1000
AcDbSavedByObjectVersion
1070
     0
  0
ENDSEC
  0
EOF
