  0
SECTION
  2
HEADER
  9
$ACADVER
  1
AC1018
  9
$ACADMAINTVER
 70
     0
  9
$DWGCODEPAGE
  3
ANSI_1252
  9
$INSBASE
 10
0.0
 20
0.0
 30
0.0
  9
$EXTMIN
 10
-13.41765278193904
 20
-0.0000000000000024
 30
0.0
  9
$EXTMAX
 10
52.60942666132744
 20
76.78234200740361
 30
0.0
  9
$LIMMIN
 10
0.0
 20
0.0
  9
$LIMMAX
 10
12.0
 20
9.0
  9
$ORTHOMODE
 70
     0
  9
$REGENMODE
 70
     1
  9
$FILLMODE
 70
     1
  9
$QTEXTMODE
 70
     0
  9
$MIRRTEXT
 70
     1
  9
$LTSCALE
 40
0.0393700787401575
  9
$ATTMODE
 70
     1
  9
$TEXTSIZE
 40
0.2
  9
$TRACEWID
 40
0.05
  9
$TEXTSTYLE
  7
Standard
  9
$CLAYER
  8
Default
  9
$CELTYPE
  6
ByLayer
  9
$CECOLOR
 62
   256
  9
$CELTSCALE
 40
1.0
  9
$DISPSILH
 70
     0
  9
$DIMSCALE
 40
1.0
  9
$DIMASZ
 40
0.18
  9
$DIMEXO
 40
0.0625
  9
$DIMDLI
 40
0.38
  9
$DIMRND
 40
0.0
  9
$DIMDLE
 40
0.0
  9
$DIMEXE
 40
0.18
  9
$DIMTP
 40
0.0
  9
$DIMTM
 40
0.0
  9
$DIMTXT
 40
0.18
  9
$DIMCEN
 40
0.09
  9
$DIMTSZ
 40
0.0
  9
$DIMTOL
 70
     0
  9
$DIMLIM
 70
     0
  9
$DIMTIH
 70
     1
  9
$DIMTOH
 70
     1
  9
$DIMSE1
 70
     0
  9
$DIMSE2
 70
     0
  9
$DIMTAD
 70
     0
  9
$DIMZIN
 70
     0
  9
$DIMBLK
  1

  9
$DIMASO
 70
     1
  9
$DIMSHO
 70
     1
  9
$DIMPOST
  1

  9
$DIMAPOST
  1

  9
$DIMALT
 70
     0
  9
$DIMALTD
 70
     2
  9
$DIMALTF
 40
25.4
  9
$DIMLFAC
 40
1.0
  9
$DIMTOFL
 70
     0
  9
$DIMTVP
 40
0.0
  9
$DIMTIX
 70
     0
  9
$DIMSOXD
 70
     0
  9
$DIMSAH
 70
     0
  9
$DIMBLK1
  1

  9
$DIMBLK2
  1

  9
$DIMSTYLE
  2
Standard
  9
$DIMCLRD
 70
     0
  9
$DIMCLRE
 70
     0
  9
$DIMCLRT
 70
     0
  9
$DIMTFAC
 40
1.0
  9
$DIMGAP
 40
0.09
  9
$DIMJUST
 70
     0
  9
$DIMSD1
 70
     0
  9
$DIMSD2
 70
     0
  9
$DIMTOLJ
 70
     1
  9
$DIMTZIN
 70
     0
  9
$DIMALTZ
 70
     0
  9
$DIMALTTZ
 70
     0
  9
$DIMUPT
 70
     0
  9
$DIMDEC
 70
     4
  9
$DIMTDEC
 70
     4
  9
$DIMALTU
 70
     2
  9
$DIMALTTD
 70
     2
  9
$DIMTXSTY
  7
Standard
  9
$DIMAUNIT
 70
     0
  9
$DIMADEC
 70
     0
  9
$DIMALTRND
 40
0.0
  9
$DIMAZIN
 70
     0
  9
$DIMDSEP
 70
    46
  9
$DIMATFIT
 70
     3
  9
$DIMFRAC
 70
     0
  9
$DIMLDRBLK
  1

  9
$DIMLUNIT
 70
     2
  9
$DIMLWD
 70
    -2
  9
$DIMLWE
 70
    -2
  9
$DIMTMOVE
 70
     2
  9
$LUNITS
 70
     2
  9
$LUPREC
 70
     3
  9
$SKETCHINC
 40
0.1
  9
$FILLETRAD
 40
0.5
  9
$AUNITS
 70
     0
  9
$AUPREC
 70
     0
  9
$MENU
  1
.
  9
$ELEVATION
 40
0.0
  9
$PELEVATION
 40
0.0
  9
$THICKNESS
 40
0.0
  9
$LIMCHECK
 70
     0
  9
$CHAMFERA
 40
0.5
  9
$CHAMFERB
 40
0.5
  9
$CHAMFERC
 40
1.0
  9
$CHAMFERD
 40
0.0
  9
$SKPOLY
 70
     0
  9
$TDCREATE
 40
2457317.882535625
  9
$TDUCREATE
 40
2457318.049202292
  9
$TDUPDATE
 40
2457317.882535636
  9
$TDUUPDATE
 40
2457318.049202303
  9
$TDINDWG
 40
0.0000000116
  9
$TDUSRTIMER
 40
0.0000000116
  9
$USRTIMER
 70
     1
  9
$ANGBASE
 50
0.0
  9
$ANGDIR
 70
     0
  9
$PDMODE
 70
     0
  9
$PDSIZE
 40
0.0
  9
$PLINEWID
 40
0.0
  9
$SPLFRAME
 70
     0
  9
$SPLINETYPE
 70
     6
  9
$SPLINESEGS
 70
     8
  9
$HANDSEED
  5
2FC
  9
$SURFTAB1
 70
     6
  9
$SURFTAB2
 70
     6
  9
$SURFTYPE
 70
     6
  9
$SURFU
 70
     6
  9
$SURFV
 70
     6
  9
$UCSBASE
  2

  9
$UCSNAME
  2

  9
$UCSORG
 10
0.0
 20
0.0
 30
0.0
  9
$UCSXDIR
 10
1.0
 20
0.0
 30
0.0
  9
$UCSYDIR
 10
0.0
 20
1.0
 30
0.0
  9
$UCSORTHOREF
  2

  9
$UCSORTHOVIEW
 70
     0
  9
$UCSORGTOP
 10
0.0
 20
0.0
 30
0.0
  9
$UCSORGBOTTOM
 10
0.0
 20
0.0
 30
0.0
  9
$UCSORGLEFT
 10
0.0
 20
0.0
 30
0.0
  9
$UCSORGRIGHT
 10
0.0
 20
0.0
 30
0.0
  9
$UCSORGFRONT
 10
0.0
 20
0.0
 30
0.0
  9
$UCSORGBACK
 10
0.0
 20
0.0
 30
0.0
  9
$PUCSBASE
  2

  9
$PUCSNAME
  2

  9
$PUCSORG
 10
0.0
 20
0.0
 30
0.0
  9
$PUCSXDIR
 10
1.0
 20
0.0
 30
0.0
  9
$PUCSYDIR
 10
0.0
 20
1.0
 30
0.0
  9
$PUCSORTHOREF
  2

  9
$PUCSORTHOVIEW
 70
     0
  9
$PUCSORGTOP
 10
0.0
 20
0.0
 30
0.0
  9
$PUCSORGBOTTOM
 10
0.0
 20
0.0
 30
0.0
  9
$PUCSORGLEFT
 10
0.0
 20
0.0
 30
0.0
  9
$PUCSORGRIGHT
 10
0.0
 20
0.0
 30
0.0
  9
$PUCSORGFRONT
 10
0.0
 20
0.0
 30
0.0
  9
$PUCSORGBACK
 10
0.0
 20
0.0
 30
0.0
  9
$USERI1
 70
     0
  9
$USERI2
 70
     0
  9
$USERI3
 70
     0
  9
$USERI4
 70
     0
  9
$USERI5
 70
     0
  9
$USERR1
 40
0.0
  9
$USERR2
 40
0.0
  9
$USERR3
 40
0.0
  9
$USERR4
 40
0.0
  9
$USERR5
 40
0.0
  9
$WORLDVIEW
 70
     1
  9
$SHADEDGE
 70
     3
  9
$SHADEDIF
 70
    70
  9
$TILEMODE
 70
     1
  9
$MAXACTVP
 70
    64
  9
$PINSBASE
 10
0.0
 20
0.0
 30
0.0
  9
$PLIMCHECK
 70
     0
  9
$PEXTMIN
 10
1.000000000000000E+20
 20
1.000000000000000E+20
 30
1.000000000000000E+20
  9
$PEXTMAX
 10
-1.000000000000000E+20
 20
-1.000000000000000E+20
 30
-1.000000000000000E+20
  9
$PLIMMIN
 10
0.0
 20
0.0
  9
$PLIMMAX
 10
12.0
 20
9.0
  9
$UNITMODE
 70
     0
  9
$VISRETAIN
 70
     1
  9
$PLINEGEN
 70
     0
  9
$PSLTSCALE
 70
     1
  9
$TREEDEPTH
 70
  3020
  9
$CMLSTYLE
  2
Standard
  9
$CMLJUST
 70
     0
  9
$CMLSCALE
 40
1.0
  9
$PROXYGRAPHICS
 70
     1
  9
$MEASUREMENT
 70
     0
  9
$CELWEIGHT
370
    -1
  9
$ENDCAPS
280
     0
  9
$JOINSTYLE
280
     0
  9
$LWDISPLAY
290
     0
  9
$INSUNITS
 70
     1
  9
$HYPERLINKBASE
  1

  9
$STYLESHEET
  1

  9
$XEDIT
290
     1
  9
$CEPSNTYPE
380
     0
  9
$PSTYLEMODE
290
     1
  9
$FINGERPRINTGUID
  2
{9833361E-C150-4063-AC74-D6C0C09FC9AC}
  9
$VERSIONGUID
  2
{FAEB1C32-E019-11D5-929B-00C0DF256EC4}
  9
$EXTNAMES
290
     1
  9
$PSVPSCALE
 40
0.0
  9
$OLESTARTUP
290
     0
  9
$SORTENTS
280
   127
  9
$INDEXCTL
280
     0
  9
$HIDETEXT
280
     1
  9
$XCLIPFRAME
290
     0
  9
$HALOGAP
280
     0
  9
$OBSCOLOR
 70
   257
  9
$OBSLTYPE
280
     0
  9
$INTERSECTIONDISPLAY
280
     0
  9
$INTERSECTIONCOLOR
 70
   257
  9
$DIMASSOC
280
     2
  9
$PROJECTNAME
  1

  0
ENDSEC
  0
SECTION
  2
CLASSES
  0
CLASS
  1
ACDBDICTIONARYWDFLT
  2
AcDbDictionaryWithDefault
  3
ObjectDBX Classes
 90
        0
 91
        4
280
     0
281
     0
  0
CLASS
  1
VISUALSTYLE
  2
AcDbVisualStyle
  3
ObjectDBX Classes
 90
     4095
 91
        4
280
     0
281
     0
  0
ENDSEC
  0
SECTION
  2
TABLES
  0
TABLE
  2
VPORT
  5
8
330
0
100
AcDbSymbolTable
 70
     1
  0
VPORT
  5
29
330
8
100
AcDbSymbolTableRecord
100
AcDbViewportTableRecord
  2
*Active
 70
     0
 10
0.0
 20
0.0
 11
1.0
 21
1.0
 12
19.5958869396942
 22
38.39117100370181
 13
0.0
 23
0.0
 14
0.5
 24
0.5
 15
0.5
 25
0.5
 16
0.0
 26
0.0
 36
1.0
 17
0.0
 27
0.0
 37
0.0
 40
78.31798884755169
 41
0.8599253124748388
 42
50.0
 43
0.0
 44
0.0
 50
0.0
 51
0.0
 71
     0
 72
   100
 73
     1
 74
     3
 75
     0
 76
     0
 77
     0
 78
     0
281
     0
 65
     1
110
0.0
120
0.0
130
0.0
111
1.0
121
0.0
131
0.0
112
0.0
122
1.0
132
0.0
 79
     0
146
0.0
  0
ENDTAB
  0
TABLE
  2
LTYPE
  5
5
330
0
100
AcDbSymbolTable
 70
     1
  0
LTYPE
  5
14
330
5
100
AcDbSymbolTableRecord
100
AcDbLinetypeTableRecord
  2
ByBlock
 70
     0
  3

 72
    65
 73
     0
 40
0.0
  0
LTYPE
  5
15
330
5
100
AcDbSymbolTableRecord
100
AcDbLinetypeTableRecord
  2
ByLayer
 70
     0
  3

 72
    65
 73
     0
 40
0.0
  0
LTYPE
  5
16
330
5
100
AcDbSymbolTableRecord
100
AcDbLinetypeTableRecord
  2
Continuous
 70
     0
  3
Solid line
 72
    65
 73
     0
 40
0.0
  0
ENDTAB
  0
TABLE
  2
LAYER
  5
2
330
0
100
AcDbSymbolTable
 70
     2
  0
LAYER
  5
10
330
2
100
AcDbSymbolTableRecord
100
AcDbLayerTableRecord
  2
0
 70
     0
 62
     7
  6
Continuous
370
    -3
390
F
  0
LAYER
  5
3B
330
2
100
AcDbSymbolTableRecord
100
AcDbLayerTableRecord
  2
Default
 70
     0
 62
     7
  6
Continuous
370
    -3
390
F
  0
ENDTAB
  0
TABLE
  2
STYLE
  5
3
330
0
100
AcDbSymbolTable
 70
     1
  0
STYLE
  5
11
330
3
100
AcDbSymbolTableRecord
100
AcDbTextStyleTableRecord
  2
Standard
 70
     0
 40
0.0
 41
1.0
 50
0.0
 71
     0
 42
0.2
  3
txt
  4

  0
ENDTAB
  0
TABLE
  2
VIEW
  5
6
330
0
100
AcDbSymbolTable
 70
     0
  0
ENDTAB
  0
TABLE
  2
UCS
  5
7
330
0
100
AcDbSymbolTable
 70
     0
  0
ENDTAB
  0
TABLE
  2
APPID
  5
9
330
0
100
AcDbSymbolTable
 70
     1
  0
APPID
  5
12
330
9
100
AcDbSymbolTableRecord
100
AcDbRegAppTableRecord
  2
ACAD
 70
     0
  0
ENDTAB
  0
TABLE
  2
DIMSTYLE
  5
A
330
0
100
AcDbSymbolTable
 70
     1
100
AcDbDimStyleTable
  0
DIMSTYLE
105
27
330
A
100
AcDbSymbolTableRecord
100
AcDbDimStyleTableRecord
  2
Standard
 70
     0
340
11
  0
ENDTAB
  0
TABLE
  2
BLOCK_RECORD
  5
1
330
0
100
AcDbSymbolTable
 70
     1
  0
BLOCK_RECORD
  5
1F
330
1
100
AcDbSymbolTableRecord
100
AcDbBlockTableRecord
  2
*Model_Space
340
22
  0
BLOCK_RECORD
  5
1B
330
1
100
AcDbSymbolTableRecord
100
AcDbBlockTableRecord
  2
*Paper_Space
340
1E
  0
BLOCK_RECORD
  5
23
330
1
100
AcDbSymbolTableRecord
100
AcDbBlockTableRecord
  2
*Paper_Space0
340
26
  0
ENDTAB
  0
ENDSEC
  0
SECTION
  2
BLOCKS
  0
BLOCK
  5
20
330
1F
100
AcDbEntity
  8
0
100
AcDbBlockBegin
  2
*Model_Space
 70
     0
 10
0.0
 20
0.0
 30
0.0
  3
*Model_Space
  1

  0
ENDBLK
  5
21
330
1F
100
AcDbEntity
  8
0
100
AcDbBlockEnd
  0
BLOCK
  5
1C
330
1B
100
AcDbEntity
 67
     1
  8
0
100
AcDbBlockBegin
  2
*Paper_Space
 70
     0
 10
0.0
 20
0.0
 30
0.0
  3
*Paper_Space
  1

  0
ENDBLK
  5
1D
330
1B
100
AcDbEntity
 67
     1
  8
0
100
AcDbBlockEnd
  0
BLOCK
  5
24
330
23
100
AcDbEntity
  8
0
100
AcDbBlockBegin
  2
*Paper_Space0
 70
     0
 10
0.0
 20
0.0
 30
0.0
  3
*Paper_Space0
  1

  0
ENDBLK
  5
25
330
23
100
AcDbEntity
  8
0
100
AcDbBlockEnd
  0
ENDSEC
  0
SECTION
  2
ENTITIES
  0
SPLINE
  5
3C
330
1F
100
AcDbEntity
  8
Default
100
AcDbSpline
210
0.0
220
0.0
230
1.0
 70
    24
 71
     2
 72
     6
 73
     3
 74
     0
 42
0.0000000001
 43
0.0000000001
 40
0.0
 40
0.0
 40
0.0
 40
0.1249999999999801
 40
0.1249999999999801
 40
0.1249999999999801
 10
44.03457041489432
 20
14.78033617303269
 30
0.0
 10
44.03184420318401
 20
14.84277668688155
 30
0.0
 10
44.02911799147371
 20
14.90521720073041
 30
0.0
  0
LINE
  5
3D
330
1F
100
AcDbEntity
  8
Default
100
AcDbLine
 10
40.48685680267464
 20
14.62543965155377
 30
0.0
 11
44.03457041489432
 21
14.78033617303269
 31
0.0
  0
SPLINE
  5
3E
330
1F
100
AcDbEntity
  8
Default
100
AcDbSpline
210
0.0
220
0.0
230
1.0
 70
    24
 71
     2
 72
     6
 73
     3
 74
     0
 42
0.0000000001
 43
0.0000000001
 40
0.195497095832094
 40
0.195497095832094
 40
0.195497095832094
 40
0.4671554945533157
 40
0.4671554945533157
 40
0.4671554945533157
 10
36.09067945865678
 20
14.23890665777374
 30
0.0
 10
36.11555560522639
 20
14.10480709705826
 30
0.0
 10
36.140431751796
 20
13.97070753634277
 30
0.0
  0
SPLINE
  5
3F
330
1F
100
AcDbEntity
  8
Default
100
AcDbSpline
210
0.0
220
0.0
230
1.0
 70
    12
 71
     2
 72
     6
 73
     3
 74
     0
 42
0.0000000001
 43
0.0000000001
 40
0.0
 40
0.0
 40
0.0
 40
0.0611424753167777
 40
0.0611424753167777
 40
0.0611424753167777
 10
36.140431751796
 20
13.97070753634277
 30
0.0
 41
1.0
 10
36.14989158395409
 20
13.93497688760219
 30
0.0
 41
0.8191713151052452
 10
36.18667961526813
 20
13.93170743721443
 30
0.0
 41
1.0
  0
SPLINE
  5
40
330
1F
100
AcDbEntity
  8
Default
100
AcDbSpline
210
0.0
220
0.0
230
1.0
 70
     8
 71
     3
 72
    18
 73
    14
 74
     0
 42
0.0000000001
 43
0.0000000001
 40
0.0
 40
0.0
 40
0.0
 40
0.0
 40
1.0
 40
2.0
 40
3.0
 40
4.0
 40
5.0
 40
6.0
 40
7.0
 40
8.0
 40
9.0
 40
10.0
 40
11.0
 40
11.0
 40
11.0
 40
11.0
 10
36.18667961526813
 20
13.93170743721443
 30
0.0
 10
36.38998975788815
 20
13.91254624674223
 30
0.0
 10
36.82905426383363
 20
13.87664397213218
 30
0.0
 10
37.47428806434961
 20
13.84031329595147
 30
0.0
 10
38.12411509281733
 20
13.81988861513593
 30
0.0
 10
38.77320819485179
 20
13.81563973237541
 30
0.0
 10
39.42248098382565
 20
13.82767819562008
 30
0.0
 10
40.07118876177944
 20
13.85562621785751
 30
0.0
 10
40.71900316725281
 20
13.90002063431897
 30
0.0
 10
41.36547629764685
 20
13.96080668349849
 30
0.0
 10
42.01025780139216
 20
14.03749733897494
 30
0.0
 10
42.65291901309773
 20
14.13029744762253
 30
0.0
 10
43.07969318006761
 20
14.20276915559276
 30
0.0
 10
43.29284192348673
 20
14.24173895873547
 30
0.0
  0
SPLINE
  5
41
330
1F
100
AcDbEntity
  8
Default
100
AcDbSpline
210
0.0
220
0.0
230
1.0
 70
    12
 71
     2
 72
     6
 73
     3
 74
     0
 42
0.0000000001
 43
0.0000000001
 40
0.0
 40
0.0
 40
0.0
 40
0.0642383708293354
 40
0.0642383708293354
 40
0.0642383708293354
 10
43.29284192348673
 20
14.24173895873547
 30
0.0
 41
1.0
 10
43.32937122614388
 20
14.24738544960126
 30
0.0
 41
0.8226493155637911
 10
43.33722403591926
 20
14.28506113854
 30
0.0
 41
1.0
  0
SPLINE
  5
42
330
1F
100
AcDbEntity
  8
Default
100
AcDbSpline
210
0.0
220
0.0
230
1.0
 70
    24
 71
     2
 72
     6
 73
     3
 74
     0
 42
0.0000000001
 43
0.0000000001
 40
0.0
 40
0.0
 40
0.0
 40
0.4664155290576648
 40
0.4664155290576648
 40
0.4664155290576648
 10
43.33722403591926
 20
14.28506113854
 30
0.0
 10
43.35970940204637
 20
14.51807587479505
 30
0.0
 10
43.38219476817348
 20
14.75109061105009
 30
0.0
  0
LINE
  5
43
330
1F
100
AcDbEntity
  8
Default
100
AcDbLine
 10
38.20454792415939
 20
9.820000000000004
 30
0.0
 11
38.20454792415939
 21
11.91000000000023
 31
0.0
  0
LINE
  5
44
330
1F
100
AcDbEntity
  8
Default
100
AcDbLine
 10
39.30454792415938
 20
11.91000000000011
 30
0.0
 11
39.30454792415938
 21
9.820000000000004
 31
0.0
  0
LINE
  5
45
330
1F
100
AcDbEntity
  8
Default
100
AcDbLine
 10
0.54998317744095
 20
11.91000013914194
 30
0.0
 11
0.54998317744095
 21
9.82
 31
0.0
  0
LINE
  5
46
330
1F
100
AcDbEntity
  8
Default
100
AcDbLine
 10
-0.5500168225590443
 20
9.82
 30
0.0
 11
-0.5500168225590443
 21
11.9100000335869
 31
0.0
  0
LINE
  5
47
330
1F
100
AcDbEntity
  8
Default
100
AcDbLine
 10
12.13208818077587
 20
60.66811677720083
 30
0.0
 11
12.74843657884605
 21
60.46755565671851
 31
0.0
  0
ARC
  5
48
330
1F
100
AcDbEntity
  8
Default
100
AcDbCircle
 10
12.54309003460415
 20
59.83650107700543
 30
0.0
 40
0.6636242052614932
100
AcDbArc
 50
342.0267389845188
 51
71.97499837553642
  0
ARC
  5
49
330
1F
100
AcDbEntity
  8
Default
100
AcDbCircle
 10
12.54328234921468
 20
59.83709075665069
 30
0.0
 40
0.6636235246233576
100
AcDbArc
 50
252.0249349543807
 51
341.9731882500365
  0
LINE
  5
4A
330
1F
100
AcDbEntity
  8
Default
100
AcDbLine
 10
12.33848609343153
 20
59.20585809269014
 30
0.0
 11
12.17610139970239
 21
59.25854195899004
 31
0.0
  0
SPLINE
  5
4B
330
1F
100
AcDbEntity
  8
Default
100
AcDbSpline
210
0.0
220
0.0
230
1.0
 70
    24
 71
     2
 72
     6
 73
     3
 74
     0
 42
0.0000000001
 43
0.0000000001
 40
-0.3629272433277748
 40
-0.3629272433277748
 40
-0.3629272433277748
 40
0.0
 40
0.0
 40
0.0
 10
12.90202778193904
 20
60.39464965817783
 30
0.0
 10
12.90202778193904
 20
60.57611327984172
 30
0.0
 10
12.90202778193904
 20
60.75757690150561
 30
0.0
  0
SPLINE
  5
4C
330
1F
100
AcDbEntity
  8
Default
100
AcDbSpline
210
0.0
220
0.0
230
1.0
 70
    24
 71
     2
 72
     6
 73
     3
 74
     0
 42
0.0000000001
 43
0.0000000001
 40
0.0
 40
0.0
 40
0.0
 40
1.280000000000001
 40
1.280000000000001
 40
1.280000000000001
 10
12.90202778193904
 20
60.75757690150561
 30
0.0
 10
12.90202778193904
 20
61.39757690150562
 30
0.0
 10
12.90202778193904
 20
62.03757690150562
 30
0.0
  0
SPLINE
  5
4D
330
1F
100
AcDbEntity
  8
Default
100
AcDbSpline
210
0.0
220
0.0
230
1.0
 70
    24
 71
     2
 72
     6
 73
     3
 74
     0
 42
0.0000000001
 43
0.0000000001
 40
0.0
 40
0.0
 40
0.0
 40
0.71875
 40
0.71875
 40
0.71875
 10
12.90202778193904
 20
62.03757690150562
 30
0.0
 10
12.54265278193904
 20
62.03757690150562
 30
0.0
 10
12.18327778193904
 20
62.03757690150562
 30
0.0
  0
LINE
  5
4E
330
1F
100
AcDbEntity
  8
Default
100
AcDbLine
 10
12.18327778193904
 20
62.03757690150562
 30
0.0
 11
12.18327778193904
 21
60.65145956871539
 31
0.0
  0
SPLINE
  5
4F
330
1F
100
AcDbEntity
  8
Default
100
AcDbSpline
210
0.0
220
0.0
230
1.0
 70
    24
 71
     2
 72
     6
 73
     3
 74
     0
 42
0.0000000001
 43
0.0000000001
 40
0.0
 40
0.0
 40
0.0
 40
0.1915887464148028
 40
0.1915887464148028
 40
0.1915887464148028
 10
13.10106403552425
 20
59.47757690150561
 30
0.0
 10
13.19685840873164
 20
59.47757690150561
 30
0.0
 10
13.29265278193904
 20
59.47757690150561
 30
0.0
  0
SPLINE
  5
50
330
1F
100
AcDbEntity
  8
Default
100
AcDbSpline
210
0.0
220
0.0
230
1.0
 70
    12
 71
     2
 72
     6
 73
     3
 74
     0
 42
0.0000000001
 43
0.0000000001
 40
0.0
 40
0.0
 40
0.0
 40
0.1963097587114814
 40
0.1963097587114814
 40
0.1963097587114814
 10
13.29265278193904
 20
59.47757690150561
 30
0.0
 41
1.0
 10
13.41756163709155
 20
59.4776668953267
 30
0.0
 41
0.7076193065308326
 10
13.4176527819364
 20
59.60491236585118
 30
0.0
 41
1.0
  0
SPLINE
  5
51
330
1F
100
AcDbEntity
  8
Default
100
AcDbSpline
210
0.0
220
0.0
230
1.0
 70
    24
 71
     2
 72
     6
 73
     3
 74
     0
 42
0.0000000001
 43
0.0000000001
 40
-1.150327919447875
 40
-1.150327919447875
 40
-1.150327919447875
 40
0.0
 40
0.0
 40
0.0
 10
13.4176527819364
 20
59.60491236585118
 30
0.0
 10
13.41765278193772
 20
60.1812446336784
 30
0.0
 10
13.41765278193904
 20
60.75757690150561
 30
0.0
  0
SPLINE
  5
52
330
1F
100
AcDbEntity
  8
Default
100
AcDbSpline
210
0.0
220
0.0
230
1.0
 70
    24
 71
     2
 72
     6
 73
     3
 74
     0
 42
0.0000000001
 43
0.0000000001
 40
0.0
 40
0.0
 40
0.0
 40
1.150327919447875
 40
1.150327919447875
 40
1.150327919447875
 10
13.41765278193904
 20
60.75757690150561
 30
0.0
 10
13.41765278193772
 20
61.33390916933283
 30
0.0
 10
13.4176527819364
 20
61.91024143716004
 30
0.0
  0
SPLINE
  5
53
330
1F
100
AcDbEntity
  8
Default
100
AcDbSpline
210
0.0
220
0.0
230
1.0
 70
    12
 71
     2
 72
     6
 73
     3
 74
     0
 42
0.0000000001
 43
0.0000000001
 40
0.0
 40
0.0
 40
0.0
 40
0.1963228425432755
 40
0.1963228425432755
 40
0.1963228425432755
 10
13.4176527819364
 20
61.91024143716004
 30
0.0
 41
1.0
 10
13.41759211469626
 20
62.03751738557008
 30
0.0
 41
0.7074467937681248
 10
13.29265278193904
 20
62.03757690150559
 30
0.0
 41
1.0
  0
SPLINE
  5
54
330
1F
100
AcDbEntity
  8
Default
100
AcDbSpline
210
0.0
220
0.0
230
1.0
 70
    24
 71
     2
 72
     6
 73
     3
 74
     0
 42
0.0000000001
 43
0.0000000001
 40
0.0
 40
0.0
 40
0.0
 40
0.34375
 40
0.34375
 40
0.34375
 10
13.29265278193904
 20
62.03757690150559
 30
0.0
 10
13.12077778193904
 20
62.0375769015056
 30
0.0
 10
12.94890278193904
 20
62.03757690150562
 30
0.0
  0
SPLINE
  5
55
330
1F
100
AcDbEntity
  8
Default
100
AcDbSpline
210
0.0
220
0.0
230
1.0
 70
    12
 71
     2
 72
     6
 73
     3
 74
     0
 42
0.0000000001
 43
0.0000000001
 40
0.0
 40
0.0
 40
0.0
 40
0.0490324958837578
 40
0.0490324958837578
 40
0.0490324958837578
 10
12.94890278193904
 20
62.03757690150562
 30
0.0
 41
1.0
 10
12.91778058101352
 20
62.03744910242668
 30
0.0
 41
0.7100044327163367
 10
12.91765278193904
 20
62.003801232802
 30
0.0
 41
1.0
  0
LINE
  5
56
330
1F
100
AcDbEntity
  8
Default
100
AcDbLine
 10
12.91765278193904
 20
62.003801232802
 30
0.0
 11
12.91765278193904
 21
60.38431476259377
 31
0.0
  0
LINE
  5
57
330
1F
100
AcDbEntity
  8
Default
100
AcDbLine
 10
12.16765278193904
 20
60.65654397798348
 30
0.0
 11
12.16765278193904
 21
62.00380123280377
 31
0.0
  0
SPLINE
  5
58
330
1F
100
AcDbEntity
  8
Default
100
AcDbSpline
210
0.0
220
0.0
230
1.0
 70
    12
 71
     2
 72
     6
 73
     3
 74
     0
 42
0.0000000001
 43
0.0000000001
 40
0.0
 40
0.0
 40
0.0
 40
0.0490228526880222
 40
0.0490228526880222
 40
0.0490228526880222
 10
12.16765278193904
 20
62.00380123280377
 30
0.0
 41
1.0
 10
12.16750254821694
 20
62.03742666778354
 30
0.0
 41
0.710514313637381
 10
12.13640278193904
 20
62.03757690150562
 30
0.0
 41
1.0
  0
SPLINE
  5
59
330
1F
100
AcDbEntity
  8
Default
100
AcDbSpline
210
0.0
220
0.0
230
1.0
 70
    24
 71
     2
 72
     6
 73
     3
 74
     0
 42
0.0000000001
 43
0.0000000001
 40
0.0
 40
0.0
 40
0.0
 40
0.053785277800694
 40
0.053785277800694
 40
0.053785277800694
 10
12.13640278193904
 20
62.03757690150562
 30
0.0
 10
12.10951014303869
 20
62.03757690150562
 30
0.0
 10
12.08261750413834
 20
62.03757690150562
 30
0.0
  0
SPLINE
  5
5A
330
1F
100
AcDbEntity
  8
Default
100
AcDbSpline
210
0.0
220
0.0
230
1.0
 70
     8
 71
     3
 72
    10
 73
     6
 74
     0
 42
0.0000000001
 43
0.0000000001
 40
-1.375063154426382
 40
-1.375063154426382
 40
-1.375063154426382
 40
-1.375063154426382
 40
2.231794050657925
 40
2.572710942153465
 40
2.823994229517671
 40
2.823994229517671
 40
2.823994229517671
 40
2.823994229517671
 10
9.598263592039189
 20
64.63524722011721
 30
0.0
 10
9.870588387240133
 20
63.46420448132884
 30
0.0
 10
10.15811617090421
 20
62.1800482715912
 30
0.0
 10
10.45549629884982
 20
60.81231805348941
 30
0.0
 10
10.49066166316078
 20
60.61801053162163
 30
0.0
 10
10.50423243057352
 20
60.53536805081904
 30
0.0
  0
LINE
  5
5B
330
1F
100
AcDbEntity
  8
Default
100
AcDbLine
 10
10.35507290500982
 20
61.2733113040543
 30
0.0
 11
9.87649339950292
 21
61.44079569140288
 31
0.0
  0
POLYLINE
  5
5C
330
1F
100
AcDbEntity
  8
Default
100
AcDb2dPolyline
 66
     1
 10
0.0
 20
0.0
 30
0.0
  0
VERTEX
  5
5D
330
5C
100
AcDbEntity
  8
Default
100
AcDbVertex
100
AcDb2dVertex
 10
9.316839391141457
 20
68.24430049927643
 30
0.0
  0
VERTEX
  5
5E
330
5C
100
AcDbEntity
  8
Default
100
AcDbVertex
100
AcDb2dVertex
 10
9.262234903620453
 20
69.14638270330472
 30
0.0
  0
SEQEND
  5
5F
330
5C
100
AcDbEntity
  8
Default
  0
SPLINE
  5
60
330
1F
100
AcDbEntity
  8
Default
100
AcDbSpline
210
0.0
220
0.0
230
1.0
 70
    12
 71
     2
 72
     6
 73
     3
 74
     0
 42
0.0000000001
 43
0.0000000001
 40
-0.6267966076678596
 40
-0.6267966076678596
 40
-0.6267966076678596
 40
0.0
 40
0.0
 40
0.0
 10
9.262234903620453
 20
69.14638270330472
 30
0.0
 41
1.0
 10
8.982278941420919
 20
69.28725521420488
 30
0.0
 41
0.9999854287915338
 10
8.7008183596418
 20
69.4250969568047
 30
0.0
 41
1.0
  0
SPLINE
  5
61
330
1F
100
AcDbEntity
  8
Default
100
AcDbSpline
210
0.0
220
0.0
230
1.0
 70
     8
 71
     3
 72
    12
 73
     8
 74
     0
 42
0.0000000001
 43
0.0000000001
 40
-0.458526502144481
 40
-0.458526502144481
 40
-0.458526502144481
 40
-0.458526502144481
 40
0.0
 40
0.377735975993243
 40
0.76153149930615
 40
1.565044396258399
 40
3.30390468891766
 40
3.30390468891766
 40
3.30390468891766
 40
3.30390468891766
 10
9.317419195196607
 20
68.21838019679687
 30
0.0
 10
9.482042143706593
 20
68.18923408061691
 30
0.0
 10
9.616049712700374
 20
67.94457270127349
 30
0.0
 10
9.784483889130996
 20
67.57415266601372
 30
0.0
 10
9.971581735966737
 20
67.08696511074832
 30
0.0
 10
10.2388229082317
 20
66.14708819202122
 30
0.0
 10
10.34032593911024
 20
65.30123814910985
 30
0.0
 10
10.35802326535043
 20
64.72214093080137
 30
0.0
  0
ARC
  5
62
330
1F
100
AcDbEntity
  8
Default
100
AcDbCircle
 10
511.9765206556328
 20
80.05170204035083
 30
0.0
 40
501.852679944918
100
AcDbArc
 50
181.7504256377156
 51
182.6490575925104
  0
SPLINE
  5
63
330
1F
100
AcDbEntity
  8
Default
100
AcDbSpline
210
0.0
220
0.0
230
1.0
 70
    12
 71
     2
 72
     6
 73
     3
 74
     0
 42
0.0000000001
 43
0.0000000001
 40
0.0
 40
0.0
 40
0.0
 40
0.0737402454329051
 40
0.0737402454329051
 40
0.0737402454329051
 10
10.6601390129166
 20
56.85692106378935
 30
0.0
 41
1.0
 10
10.66244142105432
 20
56.81290712191011
 30
0.0
 41
0.7719264310602452
 10
10.7065202535729
 20
56.80668722634069
 30
0.0
 41
1.0
  0
SPLINE
  5
64
330
1F
100
AcDbEntity
  8
Default
100
AcDbSpline
210
0.0
220
0.0
230
1.0
 70
    12
 71
     2
 72
     6
 73
     3
 74
     0
 42
0.0000000001
 43
0.0000000001
 40
0.0
 40
0.0
 40
0.0
 40
1.508245470856755
 40
1.508245470856755
 40
1.508245470856755
 10
10.7065202535729
 20
56.80668722634069
 30
0.0
 41
1.0
 10
11.46057609520536
 20
56.74993272158417
 30
0.0
 41
0.9967796933852576
 10
12.21386769101906
 20
56.81446102657597
 30
0.0
 41
1.0
  0
SPLINE
  5
65
330
1F
100
AcDbEntity
  8
Default
100
AcDbSpline
210
0.0
220
0.0
230
1.0
 70
     8
 71
     3
 72
     8
 73
     4
 74
     0
 42
0.0000000001
 43
0.0000000001
 40
0.0
 40
0.0
 40
0.0
 40
0.0
 40
1.0
 40
1.0
 40
1.0
 40
1.0
 10
12.21386769101906
 20
56.81446102657597
 30
0.0
 10
12.27503499462441
 20
56.8187514094149
 30
0.0
 10
12.27316702734996
 20
56.88883423592142
 30
0.0
 10
12.27081841810875
 20
56.93286376249608
 30
0.0
  0
SPLINE
  5
66
330
1F
100
AcDbEntity
  8
Default
100
AcDbSpline
210
0.0
220
0.0
230
1.0
 70
     8
 71
     3
 72
     9
 73
     5
 74
     0
 42
0.0000000001
 43
0.0000000001
 40
-2.0
 40
-2.0
 40
-2.0
 40
-2.0
 40
-1.0
 40
0.0
 40
0.0
 40
0.0
 40
0.0
 10
12.27081841810875
 20
56.93286376249608
 30
0.0
 10
12.20896312663123
 20
58.24815849135263
 30
0.0
 10
12.12634958189051
 20
60.88044542796712
 30
0.0
 10
12.03046795578905
 20
63.51218438963215
 30
0.0
 10
11.98513195692561
 20
64.8281617030238
 30
0.0
  0
SPLINE
  5
67
330
1F
100
AcDbEntity
  8
Default
100
AcDbSpline
210
0.0
220
0.0
230
1.0
 70
     8
 71
     3
 72
    12
 73
     8
 74
     0
 42
0.0000000001
 43
0.0000000001
 40
0.0
 40
0.0
 40
0.0
 40
0.0
 40
0.6676669642696594
 40
1.126331660161901
 40
1.922052475789338
 40
2.712550596676415
 40
3.640892101522364
 40
3.640892101522364
 40
3.640892101522364
 40
3.640892101522364
 10
11.98513195692561
 20
64.8281617030238
 30
0.0
 10
11.97731617302966
 20
65.05036815921147
 30
0.0
 10
11.96338213717846
 20
65.42621480382263
 30
0.0
 10
11.91044348623504
 20
66.06408072511834
 30
0.0
 10
11.78092646371894
 20
66.73711964987825
 30
0.0
 10
11.43824272256043
 20
67.50758975406448
 30
0.0
 10
11.1075272418243
 20
67.97776888175791
 30
0.0
 10
10.91850202180737
 20
68.2225681308126
 30
0.0
  0
SPLINE
  5
68
330
1F
100
AcDbEntity
  8
Default
100
AcDbSpline
210
0.0
220
0.0
230
1.0
 70
     8
 71
     3
 72
     8
 73
     4
 74
     0
 42
0.0000000001
 43
0.0000000001
 40
0.0
 40
0.0
 40
0.0
 40
0.0
 40
1.0
 40
1.0
 40
1.0
 40
1.0
 10
10.91850202180737
 20
68.2225681308126
 30
0.0
 10
10.67662888750561
 20
68.53580866897077
 30
0.0
 10
10.45758388018803
 20
68.88762055695129
 30
0.0
 10
10.13086685986806
 20
69.11095491721817
 30
0.0
  0
SPLINE
  5
69
330
1F
100
AcDbEntity
  8
Default
100
AcDbSpline
210
0.0
220
0.0
230
1.0
 70
     8
 71
     3
 72
    10
 73
     6
 74
     0
 42
0.0000000001
 43
0.0000000001
 40
0.0
 40
0.0
 40
0.0
 40
0.0
 40
1.177473804769378
 40
1.579315093834944
 40
1.947671481446619
 40
1.947671481446619
 40
1.947671481446619
 40
1.947671481446619
 10
10.13086685986806
 20
69.11095491721817
 30
0.0
 10
9.806858534457888
 20
69.33243769153385
 30
0.0
 10
9.37515210955118
 20
69.63385752139713
 30
0.0
 10
8.830732398990932
 20
69.98765000840008
 30
0.0
 10
8.612455117531255
 20
70.12282085199813
 30
0.0
 10
8.507225421963767
 20
70.1860965431352
 30
0.0
  0
SPLINE
  5
6A
330
1F
100
AcDbEntity
  8
Default
100
AcDbSpline
210
0.0
220
0.0
230
1.0
 70
     8
 71
     3
 72
    17
 73
    13
 74
     0
 42
0.0000000001
 43
0.0000000001
 40
0.0
 40
0.0
 40
0.0
 40
0.0
 40
1.0
 40
1.0
 40
1.0
 40
3.085175862674075
 40
3.985440029312396
 40
4.478568954099425
 40
5.053672501797766
 40
5.053672501797766
 40
5.053672501797766
 40
12.9762236287165
 40
12.9762236287165
 40
12.9762236287165
 40
12.9762236287165
 10
9.262234903620453
 20
69.14638270330472
 30
0.0
 10
9.488253550019351
 20
68.98536309746125
 30
0.0
 10
9.610913403650073
 20
68.85310886419903
 30
0.0
 10
9.676706291673554
 20
68.69017266213139
 30
0.0
 10
9.902510442129312
 20
68.03151593570509
 30
0.0
 10
10.19780640127252
 20
67.07667907054413
 30
0.0
 10
10.35847361317417
 20
65.92630198539243
 30
0.0
 10
10.40684725177553
 20
65.27211071187003
 30
0.0
 10
10.42279769327754
 20
64.91618430560686
 30
0.0
 10
10.42885171727721
 20
64.72463970440702
 30
0.0
 10
10.52093522597818
 20
62.08539525772133
 30
0.0
 10
10.61301873467912
 20
59.44615081103561
 30
0.0
 10
10.70510224338008
 20
56.8069063643499
 30
0.0
  0
SPLINE
  5
6B
330
1F
100
AcDbEntity
  8
Default
100
AcDbSpline
210
0.0
220
0.0
230
1.0
 70
    12
 71
     2
 72
     6
 73
     3
 74
     0
 42
0.0000000001
 43
0.0000000001
 40
0.0
 40
0.0
 40
0.0
 40
0.5752958052014472
 40
0.5752958052014472
 40
0.5752958052014472
 10
10.53067466608869
 20
59.77818169111848
 30
0.0
 41
1.0
 10
10.2555137571535
 20
59.86201422529105
 30
0.0
 41
0.9999990598308219
 10
9.980123971833251
 20
59.94509181392426
 30
0.0
 41
1.0
  0
SPLINE
  5
6C
330
1F
100
AcDbEntity
  8
Default
100
AcDbSpline
210
0.0
220
0.0
230
1.0
 70
     8
 71
     3
 72
    11
 73
     7
 74
     0
 42
0.0000000001
 43
0.0000000001
 40
-0.1944749646861958
 40
-0.1944749646861958
 40
-0.1944749646861958
 40
-0.1944749646861958
 40
-0.1296648892528844
 40
-0.0825436506427746
 40
-0.0406168246840613
 40
0.0
 40
0.0
 40
0.0
 40
0.0
 10
9.153399093283667
 20
67.19421644975613
 30
0.0
 10
9.145728380789848
 20
67.17398252235559
 30
0.0
 10
9.130937051435694
 20
67.1397010503781
 30
0.0
 10
9.098987147817496
 20
67.09851427433027
 30
0.0
 10
9.05849384555512
 20
67.07933726071006
 30
0.0
 10
9.013714942901458
 20
67.09041700491154
 30
0.0
 10
9.00136032501959
 20
67.09576815069006
 30
0.0
  0
SPLINE
  5
6D
330
1F
100
AcDbEntity
  8
Default
100
AcDbSpline
210
0.0
220
0.0
230
1.0
 70
    12
 71
     2
 72
     6
 73
     3
 74
     0
 42
0.0000000001
 43
0.0000000001
 40
-0.1946396435271915
 40
-0.1946396435271915
 40
-0.1946396435271915
 40
0.0
 40
0.0
 40
0.0
 10
9.00136032501959
 20
67.09576815069006
 30
0.0
 41
1.0
 10
8.912053146659854
 20
67.13444969754484
 30
0.0
 41
0.999929809087006
 10
8.823687581087711
 20
67.17523647229812
 30
0.0
 41
1.0
  0
SPLINE
  5
6E
330
1F
100
AcDbEntity
  8
Default
100
AcDbSpline
210
0.0
220
0.0
230
1.0
 70
     8
 71
     3
 72
     8
 73
     4
 74
     0
 42
0.0000000001
 43
0.0000000001
 40
0.0
 40
0.0
 40
0.0
 40
0.0
 40
1.0
 40
1.0
 40
1.0
 40
1.0
 10
8.823687581087711
 20
67.17523647229812
 30
0.0
 10
8.814157774805267
 20
67.17963513211281
 30
0.0
 10
8.80432262946266
 20
67.18606135264638
 30
0.0
 10
8.799480523326878
 20
67.19537367910736
 30
0.0
  0
SPLINE
  5
6F
330
1F
100
AcDbEntity
  8
Default
100
AcDbSpline
210
0.0
220
0.0
230
1.0
 70
     8
 71
     3
 72
    12
 73
     8
 74
     0
 42
0.0000000001
 43
0.0000000001
 40
0.0
 40
0.0
 40
0.0
 40
0.0
 40
1.0
 40
2.0
 40
3.0
 40
4.0
 40
5.0
 40
5.0
 40
5.0
 40
5.0
 10
8.799480523326878
 20
67.19537367910736
 30
0.0
 10
8.73038306001817
 20
67.32826174845418
 30
0.0
 10
8.694539175396528
 20
67.62722606970043
 30
0.0
 10
8.626925832409086
 20
68.06713439514492
 30
0.0
 10
8.556945922725617
 20
68.50840730625909
 30
0.0
 10
8.482972990677695
 20
68.94857617766247
 30
0.0
 10
8.438756554441028
 20
69.24290718431844
 30
0.0
 10
8.417734186189449
 20
69.39021849192757
 30
0.0
  0
SPLINE
  5
70
330
1F
100
AcDbEntity
  8
Default
100
AcDbSpline
210
0.0
220
0.0
230
1.0
 70
     8
 71
     3
 72
    12
 73
     8
 74
     0
 42
0.0000000001
 43
0.0000000001
 40
0.0
 40
0.0
 40
0.0
 40
0.0
 40
1.0
 40
2.0
 40
3.0
 40
4.0
 40
5.0
 40
5.0
 40
5.0
 40
5.0
 10
8.417734186189449
 20
69.39021849192757
 30
0.0
 10
8.400396536594457
 20
69.5117096484967
 30
0.0
 10
8.385970957179097
 20
69.81163032258432
 30
0.0
 10
8.231810645205144
 20
70.15352312898595
 30
0.0
 10
7.974201865769402
 20
70.42675199333355
 30
0.0
 10
7.637071331444076
 20
70.58349093313898
 30
0.0
 10
7.404180117013624
 20
70.6605546418025
 30
0.0
 10
7.288687666854912
 20
70.70281674724158
 30
0.0
  0
SPLINE
  5
71
330
1F
100
AcDbEntity
  8
Default
100
AcDbSpline
210
0.0
220
0.0
230
1.0
 70
     8
 71
     3
 72
    12
 73
     8
 74
     0
 42
0.0000000001
 43
0.0000000001
 40
0.0
 40
0.0
 40
0.0
 40
0.0
 40
1.0
 40
2.0
 40
3.0
 40
4.0
 40
5.0
 40
5.0
 40
5.0
 40
5.0
 10
7.288687666854912
 20
70.70281674724158
 30
0.0
 10
6.821937305358517
 20
70.86958414197538
 30
0.0
 10
5.876989325547555
 20
71.17081595479264
 30
0.0
 10
4.432521750598568
 20
71.52693426203824
 30
0.0
 10
2.966752302757641
 20
71.78181796353907
 30
0.0
 10
1.486880654869282
 20
71.93463377749997
 30
0.0
 10
0.4956353283874932
 20
71.96843182994517
 30
0.0
 10
0.0
 20
71.96852875663835
 30
0.0
  0
SPLINE
  5
72
330
1F
100
AcDbEntity
  8
Default
100
AcDbSpline
210
0.0
220
0.0
230
1.0
 70
     8
 71
     3
 72
    12
 73
     8
 74
     0
 42
0.0000000001
 43
0.0000000001
 40
-5.0
 40
-5.0
 40
-5.0
 40
-5.0
 40
-4.0
 40
-3.0
 40
-2.0
 40
-1.0
 40
0.0
 40
0.0
 40
0.0
 40
0.0
 10
0.0
 20
71.96852875663835
 30
0.0
 10
-0.4956353283874932
 20
71.96843182994517
 30
0.0
 10
-1.486880654869282
 20
71.93463377749997
 30
0.0
 10
-2.966752302757641
 20
71.78181796353907
 30
0.0
 10
-4.432521750598568
 20
71.52693426203824
 30
0.0
 10
-5.876989325547555
 20
71.17081595479264
 30
0.0
 10
-6.821937305358517
 20
70.86958414197538
 30
0.0
 10
-7.288687666854912
 20
70.70281674724158
 30
0.0
  0
SPLINE
  5
73
330
1F
100
AcDbEntity
  8
Default
100
AcDbSpline
210
0.0
220
0.0
230
1.0
 70
     8
 71
     3
 72
    12
 73
     8
 74
     0
 42
0.0000000001
 43
0.0000000001
 40
-5.0
 40
-5.0
 40
-5.0
 40
-5.0
 40
-4.0
 40
-3.0
 40
-2.0
 40
-1.0
 40
0.0
 40
0.0
 40
0.0
 40
0.0
 10
-7.288687666854912
 20
70.70281674724158
 30
0.0
 10
-7.404180117013624
 20
70.6605546418025
 30
0.0
 10
-7.637071331444076
 20
70.58349093313898
 30
0.0
 10
-7.974201865769402
 20
70.42675199333355
 30
0.0
 10
-8.231810645205144
 20
70.15352312898595
 30
0.0
 10
-8.385970957179097
 20
69.81163032258432
 30
0.0
 10
-8.400396536594457
 20
69.5117096484967
 30
0.0
 10
-8.417734186189449
 20
69.39021849192757
 30
0.0
  0
SPLINE
  5
74
330
1F
100
AcDbEntity
  8
Default
100
AcDbSpline
210
0.0
220
0.0
230
1.0
 70
     8
 71
     3
 72
    12
 73
     8
 74
     0
 42
0.0000000001
 43
0.0000000001
 40
-5.0
 40
-5.0
 40
-5.0
 40
-5.0
 40
-4.0
 40
-3.0
 40
-2.0
 40
-1.0
 40
0.0
 40
0.0
 40
0.0
 40
0.0
 10
-8.417734186189449
 20
69.39021849192757
 30
0.0
 10
-8.438756554441028
 20
69.24290718431844
 30
0.0
 10
-8.482972990677695
 20
68.94857617766247
 30
0.0
 10
-8.556945922725617
 20
68.50840730625909
 30
0.0
 10
-8.626925832409086
 20
68.06713439514492
 30
0.0
 10
-8.694539175396528
 20
67.62722606970043
 30
0.0
 10
-8.73038306001817
 20
67.32826174845418
 30
0.0
 10
-8.799480523326878
 20
67.19537367910736
 30
0.0
  0
SPLINE
  5
75
330
1F
100
AcDbEntity
  8
Default
100
AcDbSpline
210
0.0
220
0.0
230
1.0
 70
     8
 71
     3
 72
     8
 73
     4
 74
     0
 42
0.0000000001
 43
0.0000000001
 40
-1.0
 40
-1.0
 40
-1.0
 40
-1.0
 40
0.0
 40
0.0
 40
0.0
 40
0.0
 10
-8.799480523326878
 20
67.19537367910736
 30
0.0
 10
-8.80432262946266
 20
67.18606135264638
 30
0.0
 10
-8.814157774805267
 20
67.17963513211281
 30
0.0
 10
-8.823687581087711
 20
67.17523647229812
 30
0.0
  0
SPLINE
  5
76
330
1F
100
AcDbEntity
  8
Default
100
AcDbSpline
210
0.0
220
0.0
230
1.0
 70
    12
 71
     2
 72
     6
 73
     3
 74
     0
 42
0.0000000001
 43
0.0000000001
 40
0.0
 40
0.0
 40
0.0
 40
0.1946396435271915
 40
0.1946396435271915
 40
0.1946396435271915
 10
-8.823687581087711
 20
67.17523647229812
 30
0.0
 41
1.0
 10
-8.912053146659858
 20
67.13444969754484
 30
0.0
 41
0.999929809087006
 10
-9.00136032501959
 20
67.09576815069006
 30
0.0
 41
1.0
  0
SPLINE
  5
77
330
1F
100
AcDbEntity
  8
Default
100
AcDbSpline
210
0.0
220
0.0
230
1.0
 70
     8
 71
     3
 72
    11
 73
     7
 74
     0
 42
0.0000000001
 43
0.0000000001
 40
0.0
 40
0.0
 40
0.0
 40
0.0
 40
0.0406168246840613
 40
0.0825436506427746
 40
0.1296648892528844
 40
0.1944749646861958
 40
0.1944749646861958
 40
0.1944749646861958
 40
0.1944749646861958
 10
-9.00136032501959
 20
67.09576815069006
 30
0.0
 10
-9.013714942901458
 20
67.09041700491154
 30
0.0
 10
-9.05849384555512
 20
67.07933726071006
 30
0.0
 10
-9.098987147817496
 20
67.09851427433027
 30
0.0
 10
-9.130937051435694
 20
67.1397010503781
 30
0.0
 10
-9.145728380789848
 20
67.17398252235559
 30
0.0
 10
-9.153399093283667
 20
67.19421644975613
 30
0.0
  0
SPLINE
  5
78
330
1F
100
AcDbEntity
  8
Default
100
AcDbSpline
210
0.0
220
0.0
230
1.0
 70
     8
 71
     3
 72
    17
 73
    13
 74
     0
 42
0.0000000001
 43
0.0000000001
 40
0.0
 40
0.0
 40
0.0
 40
0.0
 40
0.2034112806148282
 40
0.8495370005810661
 40
1.054831637103809
 40
1.115405078504724
 40
1.149206366326874
 40
1.187121102444761
 40
1.245946733965205
 40
1.452440095191433
 40
1.671151163279925
 40
3.082899414788236
 40
3.082899414788236
 40
3.082899414788236
 40
3.082899414788236
 10
-9.316839391141457
 20
68.24430049927643
 30
0.0
 10
-9.31996422765883
 20
68.17594263541652
 30
0.0
 10
-9.277854562656756
 20
67.89605962150146
 30
0.0
 10
-9.238834442003593
 20
67.54610792748618
 30
0.0
 10
-9.173007211673053
 20
67.24903356466062
 30
0.0
 10
-9.132339631119777
 20
67.156724350402
 30
0.0
 10
-9.09207708526526
 20
67.1290760323199
 30
0.0
 10
-9.057202666482624
 20
67.16561035884253
 30
0.0
 10
-9.020288259047959
 20
67.25829807970233
 30
0.0
 10
-8.984908804986077
 20
67.41677563373064
 30
0.0
 10
-8.893528668399625
 20
68.02181678756038
 30
0.0
 10
-8.712370766355406
 20
69.06127792292689
 30
0.0
 10
-8.677264074019462
 20
69.53040202619609
 30
0.0
  0
SPLINE
  5
79
330
1F
100
AcDbEntity
  8
Default
100
AcDbSpline
210
0.0
220
0.0
230
1.0
 70
     8
 71
     3
 72
    13
 73
     9
 74
     0
 42
0.0000000001
 43
0.0000000001
 40
0.0
 40
0.0
 40
0.0
 40
0.0
 40
0.2742601052936349
 40
0.5199862723226639
 40
1.053741000014234
 40
1.533324882506242
 40
1.753129461458787
 40
2.230179995847125
 40
2.230179995847125
 40
2.230179995847125
 40
2.230179995847125
 10
-8.677264074019462
 20
69.53040202619609
 30
0.0
 10
-8.670445198962767
 20
69.62152136651066
 30
0.0
 10
-8.659731207524743
 20
69.79505202981203
 30
0.0
 10
-8.556706544326488
 20
70.13390180511472
 30
0.0
 10
-8.321993176513445
 20
70.48871690329723
 30
0.0
 10
-7.994527408300542
 20
70.74665628195852
 30
0.0
 10
-7.632264089693336
 20
70.89994969286853
 30
0.0
 10
-7.412464454042748
 20
70.97391573954356
 30
0.0
 10
-7.262830996896582
 20
71.02821077322353
 30
0.0
  0
SPLINE
  5
7A
330
1F
100
AcDbEntity
  8
Default
100
AcDbSpline
210
0.0
220
0.0
230
1.0
 70
    12
 71
     2
 72
     6
 73
     3
 74
     0
 42
0.0000000001
 43
0.0000000001
 40
-7.400832712492026
 40
-7.400832712492026
 40
-7.400832712492026
 40
0.0
 40
0.0
 40
0.0
 10
-7.262830996896568
 20
71.02821077322353
 30
0.0
 41
0.9999999999409428
 10
-3.735747172919822
 20
72.2592134545867
 30
0.0
 41
0.9858802225640163
 10
0.0
 20
72.25663427060643
 30
0.0
 41
1.0
  0
SPLINE
  5
7B
330
1F
100
AcDbEntity
  8
Default
100
AcDbSpline
210
0.0
220
0.0
230
1.0
 70
    12
 71
     2
 72
     6
 73
     3
 74
     0
 42
0.0000000001
 43
0.0000000001
 40
0.0
 40
0.0
 40
0.0
 40
7.400832712492026
 40
7.400832712492026
 40
7.400832712492026
 10
0.0
 20
72.25663427060643
 30
0.0
 41
1.0
 10
3.735747172919815
 20
72.2592134545867
 30
0.0
 41
0.9858802225640163
 10
7.262830996896561
 20
71.02821077322353
 30
0.0
 41
0.9999999999409428
  0
SPLINE
  5
7C
330
1F
100
AcDbEntity
  8
Default
100
AcDbSpline
210
0.0
220
0.0
230
1.0
 70
     8
 71
     3
 72
    13
 73
     9
 74
     0
 42
0.0000000001
 43
0.0000000001
 40
-2.230179995847125
 40
-2.230179995847125
 40
-2.230179995847125
 40
-2.230179995847125
 40
-1.753129461458787
 40
-1.533324882506242
 40
-1.053741000014234
 40
-0.5199862723226639
 40
-0.2742601052936349
 40
0.0
 40
0.0
 40
0.0
 40
0.0
 10
7.262830996896582
 20
71.02821077322353
 30
0.0
 10
7.412464454042748
 20
70.97391573954356
 30
0.0
 10
7.632264089693336
 20
70.89994969286853
 30
0.0
 10
7.994527408300542
 20
70.74665628195852
 30
0.0
 10
8.321993176513445
 20
70.48871690329723
 30
0.0
 10
8.556706544326488
 20
70.13390180511472
 30
0.0
 10
8.659731207524743
 20
69.79505202981203
 30
0.0
 10
8.670445198962767
 20
69.62152136651066
 30
0.0
 10
8.677264074019462
 20
69.53040202619609
 30
0.0
  0
SPLINE
  5
7D
330
1F
100
AcDbEntity
  8
Default
100
AcDbSpline
210
0.0
220
0.0
230
1.0
 70
     8
 71
     3
 72
    17
 73
    13
 74
     0
 42
0.0000000001
 43
0.0000000001
 40
-3.082899414788236
 40
-3.082899414788236
 40
-3.082899414788236
 40
-3.082899414788236
 40
-1.671151163279925
 40
-1.452440095191433
 40
-1.245946733965205
 40
-1.187121102444761
 40
-1.149206366326874
 40
-1.115405078504724
 40
-1.054831637103809
 40
-0.8495370005810661
 40
-0.2034112806148282
 40
0.0
 40
0.0
 40
0.0
 40
0.0
 10
8.677264074019462
 20
69.53040202619609
 30
0.0
 10
8.712370766355406
 20
69.06127792292689
 30
0.0
 10
8.893528668399625
 20
68.02181678756038
 30
0.0
 10
8.984908804986077
 20
67.41677563373064
 30
0.0
 10
9.020288259047959
 20
67.25829807970233
 30
0.0
 10
9.057202666482624
 20
67.16561035884253
 30
0.0
 10
9.09207708526526
 20
67.1290760323199
 30
0.0
 10
9.132339631119777
 20
67.156724350402
 30
0.0
 10
9.173007211673053
 20
67.24903356466062
 30
0.0
 10
9.238834442003593
 20
67.54610792748618
 30
0.0
 10
9.277854562656756
 20
67.89605962150146
 30
0.0
 10
9.31996422765883
 20
68.17594263541652
 30
0.0
 10
9.316839391141457
 20
68.24430049927643
 30
0.0
  0
LINE
  5
7E
330
1F
100
AcDbEntity
  8
Default
100
AcDbLine
 10
-10.35507290500982
 20
61.2733113040543
 30
0.0
 11
-9.87649339950292
 21
61.44079569140288
 31
0.0
  0
LINE
  5
7F
330
1F
100
AcDbEntity
  8
Default
100
AcDbLine
 10
-7.392433976534051
 20
75.13955575643844
 30
0.0
 11
-7.392433976534051
 21
76.78234200740361
 31
0.0
  0
SPLINE
  5
80
330
1F
100
AcDbEntity
  8
Default
100
AcDbSpline
210
0.0
220
0.0
230
1.0
 70
    24
 71
     2
 72
     6
 73
     3
 74
     0
 42
0.0000000001
 43
0.0000000001
 40
-0.71875
 40
-0.71875
 40
-0.71875
 40
0.0
 40
0.0
 40
0.0
 10
-7.392433976534051
 20
76.78234200740361
 30
0.0
 10
-7.751808976534051
 20
76.78234200740361
 30
0.0
 10
-8.11118397653405
 20
76.78234200740361
 30
0.0
  0
LINE
  5
81
330
1F
100
AcDbEntity
  8
Default
100
AcDbLine
 10
-8.11118397653405
 20
76.78234200740361
 30
0.0
 11
-8.11118397653405
 21
75.14025469029322
 31
0.0
  0
LINE
  5
82
330
1F
100
AcDbEntity
  8
Default
100
AcDbLine
 10
-7.376808976534022
 20
75.12914535731166
 30
0.0
 11
-7.376808976534051
 21
76.75109200734839
 31
0.0
  0
SPLINE
  5
83
330
1F
100
AcDbEntity
  8
Default
100
AcDbSpline
210
0.0
220
0.0
230
1.0
 70
    12
 71
     2
 72
     6
 73
     3
 74
     0
 42
0.0000000001
 43
0.0000000001
 40
0.0
 40
0.0
 40
0.0
 40
0.0490228527406757
 40
0.0490228527406757
 40
0.0490228527406757
 10
-7.376808976534051
 20
76.75109200734839
 30
0.0
 41
1.0
 10
-7.376658742860995
 20
76.78219177367559
 30
0.0
 41
0.710514313144177
 10
-7.345558976534051
 20
76.78234200740361
 30
0.0
 41
1.0
  0
SPLINE
  5
84
330
1F
100
AcDbEntity
  8
Default
100
AcDbSpline
210
0.0
220
0.0
230
1.0
 70
    24
 71
     2
 72
     6
 73
     3
 74
     0
 42
0.0000000001
 43
0.0000000001
 40
0.0
 40
0.0
 40
0.0
 40
0.34375
 40
0.34375
 40
0.34375
 10
-7.345558976534051
 20
76.78234200740361
 30
0.0
 10
-7.173683976534051
 20
76.78234200740361
 30
0.0
 10
-7.001808976534051
 20
76.78234200740361
 30
0.0
  0
SPLINE
  5
85
330
1F
100
AcDbEntity
  8
Default
100
AcDbSpline
210
0.0
220
0.0
230
1.0
 70
    12
 71
     2
 72
     6
 73
     3
 74
     0
 42
0.0000000001
 43
0.0000000001
 40
0.0
 40
0.0
 40
0.0
 40
0.1963097587114712
 40
0.1963097587114712
 40
0.1963097587114712
 10
-7.001808976534051
 20
76.78234200740361
 30
0.0
 41
1.0
 10
-6.876900121381535
 20
76.78225201358252
 30
0.0
 41
0.7076193065308615
 10
-6.876808976536722
 20
76.65734315926458
 30
0.0
 41
1.0
  0
LINE
  5
86
330
1F
100
AcDbEntity
  8
Default
100
AcDbLine
 10
-6.876808976536722
 20
76.65734315926458
 30
0.0
 11
-6.876808976534051
 21
74.49658165262223
 31
0.0
  0
SPLINE
  5
87
330
1F
100
AcDbEntity
  8
Default
100
AcDbSpline
210
0.0
220
0.0
230
1.0
 70
    24
 71
     2
 72
     6
 73
     3
 74
     0
 42
0.0000000001
 43
0.0000000001
 40
0.0
 40
0.0
 40
0.0
 40
0.1924572732197012
 40
0.1924572732197012
 40
0.1924572732197012
 10
-8.309351703314348
 20
74.22234200740361
 30
0.0
 10
-8.4055803399242
 20
74.22234200740361
 30
0.0
 10
-8.50180897653405
 20
74.22234200740361
 30
0.0
  0
SPLINE
  5
88
330
1F
100
AcDbEntity
  8
Default
100
AcDbSpline
210
0.0
220
0.0
230
1.0
 70
    12
 71
     2
 72
     6
 73
     3
 74
     0
 42
0.0000000001
 43
0.0000000001
 40
0.0
 40
0.0
 40
0.0
 40
0.1963097587114392
 40
0.1963097587114392
 40
0.1963097587114392
 10
-8.50180897653405
 20
74.22234200740361
 30
0.0
 41
1.0
 10
-8.626717831686474
 20
74.22243200122479
 30
0.0
 41
0.7076193065313929
 10
-8.626808976531379
 20
74.34967747174919
 30
0.0
 41
1.0
  0
LINE
  5
89
330
1F
100
AcDbEntity
  8
Default
100
AcDbLine
 10
-8.626808976531379
 20
74.34967747174919
 30
0.0
 11
-8.626808976531379
 21
76.65734315926458
 31
0.0
  0
SPLINE
  5
8A
330
1F
100
AcDbEntity
  8
Default
100
AcDbSpline
210
0.0
220
0.0
230
1.0
 70
    12
 71
     2
 72
     6
 73
     3
 74
     0
 42
0.0000000001
 43
0.0000000001
 40
0.0
 40
0.0
 40
0.0
 40
0.1963228425425605
 40
0.1963228425425605
 40
0.1963228425425605
 10
-8.626808976531379
 20
76.65734315926458
 30
0.0
 41
1.0
 10
-8.62674830928957
 20
76.78228249146638
 30
0.0
 41
0.7074467937778354
 10
-8.50180897653405
 20
76.78234200740361
 30
0.0
 41
1.0
  0
SPLINE
  5
8B
330
1F
100
AcDbEntity
  8
Default
100
AcDbSpline
210
0.0
220
0.0
230
1.0
 70
    24
 71
     2
 72
     6
 73
     3
 74
     0
 42
0.0000000001
 43
0.0000000001
 40
0.0
 40
0.0
 40
0.0
 40
0.34375
 40
0.34375
 40
0.34375
 10
-8.50180897653405
 20
76.78234200740361
 30
0.0
 10
-8.32993397653405
 20
76.78234200740361
 30
0.0
 10
-8.15805897653405
 20
76.78234200740361
 30
0.0
  0
SPLINE
  5
8C
330
1F
100
AcDbEntity
  8
Default
100
AcDbSpline
210
0.0
220
0.0
230
1.0
 70
    12
 71
     2
 72
     6
 73
     3
 74
     0
 42
0.0000000001
 43
0.0000000001
 40
0.0
 40
0.0
 40
0.0
 40
0.0490324958834727
 40
0.0490324958834727
 40
0.0490324958834727
 10
-8.15805897653405
 20
76.78234200740361
 30
0.0
 41
1.0
 10
-8.126936775608781
 20
76.78221420832472
 30
0.0
 41
0.7100044327187858
 10
-8.12680897653405
 20
76.75109200739944
 30
0.0
 41
1.0
  0
LINE
  5
8D
330
1F
100
AcDbEntity
  8
Default
100
AcDbLine
 10
-8.12680897653405
 20
76.75109200739944
 30
0.0
 11
-8.12680897653405
 21
75.12989885006645
 31
0.0
  0
SPLINE
  5
8E
330
1F
100
AcDbEntity
  8
Default
100
AcDbSpline
210
0.0
220
0.0
230
1.0
 70
     8
 71
     3
 72
    10
 73
     6
 74
     0
 42
0.0000000001
 43
0.0000000001
 40
-1.375063154426382
 40
-1.375063154426382
 40
-1.375063154426382
 40
-1.375063154426382
 40
2.231794050657925
 40
2.572710942153465
 40
2.823994229517671
 40
2.823994229517671
 40
2.823994229517671
 40
2.823994229517671
 10
-9.598263592039189
 20
64.63524722011721
 30
0.0
 10
-9.870588387240133
 20
63.46420448132884
 30
0.0
 10
-10.15811617090421
 20
62.1800482715912
 30
0.0
 10
-10.45549629884982
 20
60.81231805348941
 30
0.0
 10
-10.49066166316078
 20
60.61801053162163
 30
0.0
 10
-10.50423243057352
 20
60.53536805081904
 30
0.0
  0
SPLINE
  5
8F
330
1F
100
AcDbEntity
  8
Default
100
AcDbSpline
210
0.0
220
0.0
230
1.0
 70
     8
 71
     3
 72
    11
 73
     7
 74
     0
 42
0.0000000001
 43
0.0000000001
 40
-0.2197764651958241
 40
-0.2197764651958241
 40
-0.2197764651958241
 40
-0.2197764651958241
 40
-0.074586981406881
 40
-0.0340594975506468
 40
-0.0168237043023295
 40
0.0
 40
0.0
 40
0.0
 40
0.0
 10
-8.748035435900647
 20
67.34196973440872
 30
0.0
 10
-8.735536340468741
 20
67.29561427927918
 30
0.0
 10
-8.721759342713625
 20
67.23361295327378
 30
0.0
 10
-8.679815373049053
 20
67.17888814765926
 30
0.0
 10
-8.655588970377465
 20
67.16954481686695
 30
0.0
 10
-8.644488927525686
 20
67.16919515463069
 30
0.0
 10
-8.638795161067549
 20
67.17010391933847
 30
0.0
  0
SPLINE
  5
90
330
1F
100
AcDbEntity
  8
Default
100
AcDbSpline
210
0.0
220
0.0
230
1.0
 70
     8
 71
     3
 72
     8
 73
     4
 74
     0
 42
0.0000000001
 43
0.0000000001
 40
0.0
 40
0.0
 40
0.0
 40
0.0
 40
1.0
 40
1.0
 40
1.0
 40
1.0
 10
-8.638795161067549
 20
67.17010391933847
 30
0.0
 10
-2.951581948324389
 20
68.07782268358774
 30
0.0
 10
2.951581948324389
 20
68.07782268358774
 30
0.0
 10
8.638795161067549
 20
67.17010391933847
 30
0.0
  0
SPLINE
  5
91
330
1F
100
AcDbEntity
  8
Default
100
AcDbSpline
210
0.0
220
0.0
230
1.0
 70
     8
 71
     3
 72
    11
 73
     7
 74
     0
 42
0.0000000001
 43
0.0000000001
 40
0.0
 40
0.0
 40
0.0
 40
0.0
 40
0.0168237043023295
 40
0.0340594975506468
 40
0.074586981406881
 40
0.2197764651958241
 40
0.2197764651958241
 40
0.2197764651958241
 40
0.2197764651958241
 10
8.638795161067549
 20
67.17010391933847
 30
0.0
 10
8.644488927525686
 20
67.16919515463069
 30
0.0
 10
8.655588970377465
 20
67.16954481686695
 30
0.0
 10
8.679815373049053
 20
67.17888814765926
 30
0.0
 10
8.721759342713625
 20
67.23361295327378
 30
0.0
 10
8.735536340468741
 20
67.29561427927918
 30
0.0
 10
8.748035435900647
 20
67.34196973440872
 30
0.0
  0
SPLINE
  5
92
330
1F
100
AcDbEntity
  8
Default
100
AcDbSpline
210
0.0
220
0.0
230
1.0
 70
    12
 71
     2
 72
     6
 73
     3
 74
     0
 42
0.0000000001
 43
0.0000000001
 40
0.0
 40
0.0
 40
0.0
 40
0.948847999391868
 40
0.948847999391868
 40
0.948847999391868
 10
0.6737644282317206
 20
52.4031915243692
 30
0.0
 41
1.0
 10
0.6655493717283931
 20
51.92883775827988
 30
0.0
 41
0.999997164098621
 10
0.6632983784901683
 20
50.72336094211276
 30
0.0
 41
1.0
  0
SPLINE
  5
93
330
1F
100
AcDbEntity
  8
Default
100
AcDbSpline
210
0.0
220
0.0
230
1.0
 70
    12
 71
     2
 72
     6
 73
     3
 74
     0
 42
0.0000000001
 43
0.0000000001
 40
-1.041830266836458
 40
-1.041830266836458
 40
-1.041830266836458
 40
0.0
 40
0.0
 40
0.0
 10
0.6632983784901683
 20
50.72336094211276
 30
0.0
 41
1.0
 10
0.6630348831507835
 20
50.06030998940824
 30
0.0
 41
0.7073984447139825
 10
-0.0000160612590605
 20
50.06002638860779
 30
0.0
 41
1.0
  0
SPLINE
  5
94
330
1F
100
AcDbEntity
  8
Default
100
AcDbSpline
210
0.0
220
0.0
230
1.0
 70
    12
 71
     2
 72
     6
 73
     3
 74
     0
 42
0.0000000001
 43
0.0000000001
 40
0.0
 40
0.0
 40
0.0
 40
1.041830266836458
 40
1.041830266836458
 40
1.041830266836458
 10
-0.0000160612590605
 20
50.06002638860779
 30
0.0
 41
1.0
 10
-0.6630670056688996
 20
50.06030998940824
 30
0.0
 41
0.7073984447139825
 10
-0.6633305010082893
 20
50.72336094211276
 30
0.0
 41
1.0
  0
SPLINE
  5
95
330
1F
100
AcDbEntity
  8
Default
100
AcDbSpline
210
0.0
220
0.0
230
1.0
 70
    12
 71
     2
 72
     6
 73
     3
 74
     0
 42
0.0000000001
 43
0.0000000001
 40
-0.948847999391868
 40
-0.948847999391868
 40
-0.948847999391868
 40
0.0
 40
0.0
 40
0.0
 10
-0.6633305010082893
 20
50.72336094211276
 30
0.0
 41
1.0
 10
-0.6655814942464926
 20
51.92883775827988
 30
0.0
 41
0.999997164098621
 10
-0.6737965507498416
 20
52.4031915243692
 30
0.0
 41
1.0
  0
SPLINE
  5
96
330
1F
100
AcDbEntity
  8
Default
100
AcDbSpline
210
0.0
220
0.0
230
1.0
 70
    24
 71
     2
 72
     6
 73
     3
 74
     0
 42
0.0000000001
 43
0.0000000001
 40
0.0
 40
0.0
 40
0.0
 40
0.192070639225884
 40
0.192070639225884
 40
0.192070639225884
 10
-0.5579293607741249
 20
50.36483068602361
 30
0.0
 10
-0.6539646803870625
 20
50.36483068602361
 30
0.0
 10
-0.75
 20
50.36483068602361
 30
0.0
  0
ARC
  5
97
330
1F
100
AcDbEntity
  8
Default
100
AcDbCircle
 10
-0.7476427180765768
 20
50.49216615036947
 30
0.0
 40
0.1273572819207617
100
AcDbArc
 50
180.0000000001311
 51
268.9394401613037
  0
LINE
  5
98
330
1F
100
AcDbEntity
  8
Default
100
AcDbLine
 10
-0.8749999999973284
 20
50.49216615036918
 30
0.0
 11
-0.8750000000017621
 21
52.40484036673934
 31
0.0
  0
SPLINE
  5
99
330
1F
100
AcDbEntity
  8
Default
100
AcDbSpline
210
0.0
220
0.0
230
1.0
 70
    24
 71
     2
 72
     6
 73
     3
 74
     0
 42
0.0000000001
 43
0.0000000001
 40
0.0
 40
0.0
 40
0.0
 40
0.192070639225884
 40
0.192070639225884
 40
0.192070639225884
 10
0.5578972382560039
 20
50.36483068602361
 30
0.0
 10
0.6539325578689414
 20
50.36483068602361
 30
0.0
 10
0.749967877481879
 20
50.36483068602361
 30
0.0
  0
ARC
  5
9A
330
1F
100
AcDbEntity
  8
Default
100
AcDbCircle
 10
0.7476105955584558
 20
50.49216615036947
 30
0.0
 40
0.1273572819207617
100
AcDbArc
 50
271.0605598386963
 51
359.999999999869
  0
LINE
  5
9B
330
1F
100
AcDbEntity
  8
Default
100
AcDbLine
 10
0.8749678774792073
 20
50.49216615036918
 30
0.0
 11
0.8749678774836411
 21
52.40484036673934
 31
0.0
  0
SPLINE
  5
9C
330
1F
100
AcDbEntity
  8
Default
100
AcDbSpline
210
0.0
220
0.0
230
1.0
 70
     8
 71
     3
 72
    18
 73
    14
 74
     0
 42
0.0000000001
 43
0.0000000001
 40
0.0
 40
0.0
 40
0.0
 40
0.0
 40
0.2288146763457363
 40
1.137767722591923
 40
1.406019342845108
 40
1.470612215869624
 40
1.492829524302496
 40
1.504137883557622
 40
1.529769290004883
 40
1.587783876858403
 40
1.780499262773422
 40
1.971449997821802
 40
3.529508919637573
 40
3.529508919637573
 40
3.529508919637573
 40
3.529508919637573
 10
-9.263910079064544
 20
69.08396207011437
 30
0.0
 10
-9.264898855043896
 20
69.0073420851949
 30
0.0
 10
-9.214002231640194
 20
68.6314135256517
 30
0.0
 10
-9.161669584210443
 20
68.16572727670008
 30
0.0
 10
-9.088312242789272
 20
67.75784310546778
 30
0.0
 10
-9.051729936318793
 20
67.64509471664068
 30
0.0
 10
-9.031688656479275
 20
67.61770755339539
 30
0.0
 10
-9.011271136163515
 20
67.61243867264788
 30
0.0
 10
-8.991218965504459
 20
67.64077909908649
 30
0.0
 10
-8.96246565103209
 20
67.72754911596509
 30
0.0
 10
-8.93400729222489
 20
67.87259313122355
 30
0.0
 10
-8.836515922090513
 20
68.51211560759207
 30
0.0
 10
-8.750501701338578
 20
69.08913712584602
 30
0.0
 10
-8.6719078788486
 20
69.602264657865
 30
0.0
  0
LINE
  5
9D
330
1F
100
AcDbEntity
  8
Default
100
AcDbLine
 10
-12.16765278193904
 20
60.65654397798348
 30
0.0
 11
-12.16765278193904
 21
62.00380123280377
 31
0.0
  0
SPLINE
  5
9E
330
1F
100
AcDbEntity
  8
Default
100
AcDbSpline
210
0.0
220
0.0
230
1.0
 70
    12
 71
     2
 72
     6
 73
     3
 74
     0
 42
0.0000000001
 43
0.0000000001
 40
0.0
 40
0.0
 40
0.0
 40
0.0490228526880222
 40
0.0490228526880222
 40
0.0490228526880222
 10
-12.16765278193904
 20
62.00380123280377
 30
0.0
 41
1.0
 10
-12.16750254821695
 20
62.03742666778354
 30
0.0
 41
0.710514313637381
 10
-12.13640278193904
 20
62.03757690150562
 30
0.0
 41
1.0
  0
SPLINE
  5
9F
330
1F
100
AcDbEntity
  8
Default
100
AcDbSpline
210
0.0
220
0.0
230
1.0
 70
    24
 71
     2
 72
     6
 73
     3
 74
     0
 42
0.0000000001
 43
0.0000000001
 40
0.0
 40
0.0
 40
0.0
 40
0.053785277800694
 40
0.053785277800694
 40
0.053785277800694
 10
-12.13640278193904
 20
62.03757690150562
 30
0.0
 10
-12.10951014303869
 20
62.03757690150562
 30
0.0
 10
-12.08261750413834
 20
62.03757690150562
 30
0.0
  0
SPLINE
  5
A0
330
1F
100
AcDbEntity
  8
Default
100
AcDbSpline
210
0.0
220
0.0
230
1.0
 70
    24
 71
     2
 72
     6
 73
     3
 74
     0
 42
0.0000000001
 43
0.0000000001
 40
-0.3629272433277748
 40
-0.3629272433277748
 40
-0.3629272433277748
 40
0.0
 40
0.0
 40
0.0
 10
-12.90202778193904
 20
60.39464965817783
 30
0.0
 10
-12.90202778193904
 20
60.57611327984172
 30
0.0
 10
-12.90202778193904
 20
60.75757690150561
 30
0.0
  0
SPLINE
  5
A1
330
1F
100
AcDbEntity
  8
Default
100
AcDbSpline
210
0.0
220
0.0
230
1.0
 70
    24
 71
     2
 72
     6
 73
     3
 74
     0
 42
0.0000000001
 43
0.0000000001
 40
0.0
 40
0.0
 40
0.0
 40
1.280000000000001
 40
1.280000000000001
 40
1.280000000000001
 10
-12.90202778193904
 20
60.75757690150561
 30
0.0
 10
-12.90202778193904
 20
61.39757690150562
 30
0.0
 10
-12.90202778193904
 20
62.03757690150562
 30
0.0
  0
SPLINE
  5
A2
330
1F
100
AcDbEntity
  8
Default
100
AcDbSpline
210
0.0
220
0.0
230
1.0
 70
    24
 71
     2
 72
     6
 73
     3
 74
     0
 42
0.0000000001
 43
0.0000000001
 40
0.0
 40
0.0
 40
0.0
 40
0.71875
 40
0.71875
 40
0.71875
 10
-12.90202778193904
 20
62.03757690150562
 30
0.0
 10
-12.54265278193904
 20
62.03757690150562
 30
0.0
 10
-12.18327778193904
 20
62.03757690150562
 30
0.0
  0
LINE
  5
A3
330
1F
100
AcDbEntity
  8
Default
100
AcDbLine
 10
-12.18327778193904
 20
62.03757690150562
 30
0.0
 11
-12.18327778193904
 21
60.65145956871539
 31
0.0
  0
SPLINE
  5
A4
330
1F
100
AcDbEntity
  8
Default
100
AcDbSpline
210
0.0
220
0.0
230
1.0
 70
    24
 71
     2
 72
     6
 73
     3
 74
     0
 42
0.0000000001
 43
0.0000000001
 40
0.0
 40
0.0
 40
0.0
 40
0.1915887464148028
 40
0.1915887464148028
 40
0.1915887464148028
 10
-13.10106403552425
 20
59.47757690150561
 30
0.0
 10
-13.19685840873164
 20
59.47757690150561
 30
0.0
 10
-13.29265278193904
 20
59.47757690150561
 30
0.0
  0
SPLINE
  5
A5
330
1F
100
AcDbEntity
  8
Default
100
AcDbSpline
210
0.0
220
0.0
230
1.0
 70
    12
 71
     2
 72
     6
 73
     3
 74
     0
 42
0.0000000001
 43
0.0000000001
 40
0.0
 40
0.0
 40
0.0
 40
0.1963097587114814
 40
0.1963097587114814
 40
0.1963097587114814
 10
-13.29265278193904
 20
59.47757690150561
 30
0.0
 41
1.0
 10
-13.41756163709156
 20
59.4776668953267
 30
0.0
 41
0.7076193065308326
 10
-13.4176527819364
 20
59.60491236585118
 30
0.0
 41
1.0
  0
SPLINE
  5
A6
330
1F
100
AcDbEntity
  8
Default
100
AcDbSpline
210
0.0
220
0.0
230
1.0
 70
    24
 71
     2
 72
     6
 73
     3
 74
     0
 42
0.0000000001
 43
0.0000000001
 40
-1.150327919447875
 40
-1.150327919447875
 40
-1.150327919447875
 40
0.0
 40
0.0
 40
0.0
 10
-13.4176527819364
 20
59.60491236585118
 30
0.0
 10
-13.41765278193772
 20
60.1812446336784
 30
0.0
 10
-13.41765278193904
 20
60.75757690150561
 30
0.0
  0
SPLINE
  5
A7
330
1F
100
AcDbEntity
  8
Default
100
AcDbSpline
210
0.0
220
0.0
230
1.0
 70
    24
 71
     2
 72
     6
 73
     3
 74
     0
 42
0.0000000001
 43
0.0000000001
 40
0.0
 40
0.0
 40
0.0
 40
1.150327919447875
 40
1.150327919447875
 40
1.150327919447875
 10
-13.41765278193904
 20
60.75757690150561
 30
0.0
 10
-13.41765278193772
 20
61.33390916933283
 30
0.0
 10
-13.4176527819364
 20
61.91024143716004
 30
0.0
  0
SPLINE
  5
A8
330
1F
100
AcDbEntity
  8
Default
100
AcDbSpline
210
0.0
220
0.0
230
1.0
 70
    12
 71
     2
 72
     6
 73
     3
 74
     0
 42
0.0000000001
 43
0.0000000001
 40
0.0
 40
0.0
 40
0.0
 40
0.1963228425432755
 40
0.1963228425432755
 40
0.1963228425432755
 10
-13.4176527819364
 20
61.91024143716004
 30
0.0
 41
1.0
 10
-13.41759211469627
 20
62.03751738557008
 30
0.0
 41
0.7074467937681248
 10
-13.29265278193904
 20
62.03757690150559
 30
0.0
 41
1.0
  0
SPLINE
  5
A9
330
1F
100
AcDbEntity
  8
Default
100
AcDbSpline
210
0.0
220
0.0
230
1.0
 70
    24
 71
     2
 72
     6
 73
     3
 74
     0
 42
0.0000000001
 43
0.0000000001
 40
0.0
 40
0.0
 40
0.0
 40
0.34375
 40
0.34375
 40
0.34375
 10
-13.29265278193904
 20
62.03757690150559
 30
0.0
 10
-13.12077778193904
 20
62.0375769015056
 30
0.0
 10
-12.94890278193904
 20
62.03757690150562
 30
0.0
  0
SPLINE
  5
AA
330
1F
100
AcDbEntity
  8
Default
100
AcDbSpline
210
0.0
220
0.0
230
1.0
 70
    12
 71
     2
 72
     6
 73
     3
 74
     0
 42
0.0000000001
 43
0.0000000001
 40
0.0
 40
0.0
 40
0.0
 40
0.0490324958837578
 40
0.0490324958837578
 40
0.0490324958837578
 10
-12.94890278193904
 20
62.03757690150562
 30
0.0
 41
1.0
 10
-12.91778058101353
 20
62.03744910242668
 30
0.0
 41
0.7100044327163367
 10
-12.91765278193904
 20
62.003801232802
 30
0.0
 41
1.0
  0
LINE
  5
AB
330
1F
100
AcDbEntity
  8
Default
100
AcDbLine
 10
-12.91765278193904
 20
62.003801232802
 30
0.0
 11
-12.91765278193904
 21
60.38431476259377
 31
0.0
  0
LINE
  5
AC
330
1F
100
AcDbEntity
  8
Default
100
AcDbLine
 10
-12.13208818077587
 20
60.66811677720083
 30
0.0
 11
-12.74843657884605
 21
60.46755565671851
 31
0.0
  0
ARC
  5
AD
330
1F
100
AcDbEntity
  8
Default
100
AcDbCircle
 10
-12.54309003460415
 20
59.83650107700543
 30
0.0
 40
0.6636242052614932
100
AcDbArc
 50
108.0250016244618
 51
197.9732610154793
  0
ARC
  5
AE
330
1F
100
AcDbEntity
  8
Default
100
AcDbCircle
 10
-12.54328234921468
 20
59.83709075665069
 30
0.0
 40
0.6636235246233576
100
AcDbArc
 50
198.0268117499635
 51
287.9750650456193
  0
LINE
  5
AF
330
1F
100
AcDbEntity
  8
Default
100
AcDbLine
 10
-12.33848609343153
 20
59.20585809269014
 30
0.0
 11
-12.17610139970239
 21
59.25854195899004
 31
0.0
  0
POLYLINE
  5
B0
330
1F
100
AcDbEntity
  8
Default
100
AcDb2dPolyline
 66
     1
 10
0.0
 20
0.0
 30
0.0
  0
VERTEX
  5
B1
330
B0
100
AcDbEntity
  8
Default
100
AcDbVertex
100
AcDb2dVertex
 10
-6.279613448025458
 20
71.34475849133729
 30
0.0
  0
VERTEX
  5
B2
330
B0
100
AcDbEntity
  8
Default
100
AcDbVertex
100
AcDb2dVertex
 10
-8.288923879374266
 20
74.19252423592123
 30
0.0
  0
SEQEND
  5
B3
330
B0
100
AcDbEntity
  8
Default
  0
SPLINE
  5
B4
330
1F
100
AcDbEntity
  8
Default
100
AcDbSpline
210
0.0
220
0.0
230
1.0
 70
    12
 71
     2
 72
     6
 73
     3
 74
     0
 42
0.0000000001
 43
0.0000000001
 40
0.0
 40
0.0
 40
0.0
 40
1.041827519740055
 40
1.041827519740055
 40
1.041827519740055
 10
-8.288923879374266
 20
74.19252423592123
 30
0.0
 41
1.0
 10
-8.678437229897783
 20
74.7290967141955
 30
0.0
 41
0.7074024770456415
 10
-8.142190778602298
 20
75.11905878690321
 30
0.0
 41
1.0
  0
SPLINE
  5
B5
330
1F
100
AcDbEntity
  8
Default
100
AcDbSpline
210
0.0
220
0.0
230
1.0
 70
    12
 71
     2
 72
     6
 73
     3
 74
     0
 42
0.0000000001
 43
0.0000000001
 40
0.0
 40
0.0
 40
0.0
 40
1.041830266836562
 40
1.041830266836562
 40
1.041830266836562
 10
-8.142190778602298
 20
75.11905878690321
 30
0.0
 41
1.0
 10
-7.605604600071704
 20
75.5085609156843
 30
0.0
 41
0.7073984447108688
 10
-7.215659856345155
 20
74.97229630548229
 30
0.0
 41
1.0
  0
POLYLINE
  5
B6
330
1F
100
AcDbEntity
  8
Default
100
AcDb2dPolyline
 66
     1
 10
0.0
 20
0.0
 30
0.0
  0
VERTEX
  5
B7
330
B6
100
AcDbEntity
  8
Default
100
AcDbVertex
100
AcDb2dVertex
 10
-7.215659856345155
 20
74.97229630548229
 30
0.0
  0
VERTEX
  5
B8
330
B6
100
AcDbEntity
  8
Default
100
AcDbVertex
100
AcDb2dVertex
 10
-4.786385392567553
 20
71.73245091291174
 30
0.0
  0
SEQEND
  5
B9
330
B6
100
AcDbEntity
  8
Default
  0
POLYLINE
  5
BA
330
1F
100
AcDbEntity
  8
Default
100
AcDb2dPolyline
 66
     1
 10
0.0
 20
0.0
 30
0.0
  0
VERTEX
  5
BB
330
BA
100
AcDbEntity
  8
Default
100
AcDbVertex
100
AcDb2dVertex
 10
6.279613448025458
 20
71.34475849133729
 30
0.0
  0
VERTEX
  5
BC
330
BA
100
AcDbEntity
  8
Default
100
AcDbVertex
100
AcDb2dVertex
 10
8.288923879374266
 20
74.19252423592123
 30
0.0
  0
SEQEND
  5
BD
330
BA
100
AcDbEntity
  8
Default
  0
SPLINE
  5
BE
330
1F
100
AcDbEntity
  8
Default
100
AcDbSpline
210
0.0
220
0.0
230
1.0
 70
    12
 71
     2
 72
     6
 73
     3
 74
     0
 42
0.0000000001
 43
0.0000000001
 40
0.0
 40
0.0
 40
0.0
 40
1.041827519740055
 40
1.041827519740055
 40
1.041827519740055
 10
8.288923879374266
 20
74.19252423592123
 30
0.0
 41
1.0
 10
8.678437229897783
 20
74.7290967141955
 30
0.0
 41
0.7074024770456415
 10
8.142190778602298
 20
75.11905878690321
 30
0.0
 41
1.0
  0
SPLINE
  5
BF
330
1F
100
AcDbEntity
  8
Default
100
AcDbSpline
210
0.0
220
0.0
230
1.0
 70
    12
 71
     2
 72
     6
 73
     3
 74
     0
 42
0.0000000001
 43
0.0000000001
 40
0.0
 40
0.0
 40
0.0
 40
1.041830266836562
 40
1.041830266836562
 40
1.041830266836562
 10
8.142190778602298
 20
75.11905878690321
 30
0.0
 41
1.0
 10
7.605604600071708
 20
75.5085609156843
 30
0.0
 41
0.7073984447108688
 10
7.215659856345155
 20
74.97229630548229
 30
0.0
 41
1.0
  0
POLYLINE
  5
C0
330
1F
100
AcDbEntity
  8
Default
100
AcDb2dPolyline
 66
     1
 10
0.0
 20
0.0
 30
0.0
  0
VERTEX
  5
C1
330
C0
100
AcDbEntity
  8
Default
100
AcDbVertex
100
AcDb2dVertex
 10
7.215659856345155
 20
74.97229630548229
 30
0.0
  0
VERTEX
  5
C2
330
C0
100
AcDbEntity
  8
Default
100
AcDbVertex
100
AcDb2dVertex
 10
4.786385392567553
 20
71.73245091291174
 30
0.0
  0
SEQEND
  5
C3
330
C0
100
AcDbEntity
  8
Default
  0
LINE
  5
C4
330
1F
100
AcDbEntity
  8
Default
100
AcDbLine
 10
7.392433976534051
 20
75.13955575643844
 30
0.0
 11
7.392433976534051
 21
76.78234200740361
 31
0.0
  0
SPLINE
  5
C5
330
1F
100
AcDbEntity
  8
Default
100
AcDbSpline
210
0.0
220
0.0
230
1.0
 70
    24
 71
     2
 72
     6
 73
     3
 74
     0
 42
0.0000000001
 43
0.0000000001
 40
-0.71875
 40
-0.71875
 40
-0.71875
 40
0.0
 40
0.0
 40
0.0
 10
7.392433976534051
 20
76.78234200740361
 30
0.0
 10
7.751808976534051
 20
76.78234200740361
 30
0.0
 10
8.11118397653405
 20
76.78234200740361
 30
0.0
  0
LINE
  5
C6
330
1F
100
AcDbEntity
  8
Default
100
AcDbLine
 10
8.11118397653405
 20
76.78234200740361
 30
0.0
 11
8.11118397653405
 21
75.14025469029322
 31
0.0
  0
LINE
  5
C7
330
1F
100
AcDbEntity
  8
Default
100
AcDbLine
 10
7.376808976534022
 20
75.12914535731166
 30
0.0
 11
7.376808976534051
 21
76.75109200734839
 31
0.0
  0
SPLINE
  5
C8
330
1F
100
AcDbEntity
  8
Default
100
AcDbSpline
210
0.0
220
0.0
230
1.0
 70
    12
 71
     2
 72
     6
 73
     3
 74
     0
 42
0.0000000001
 43
0.0000000001
 40
0.0
 40
0.0
 40
0.0
 40
0.0490228527406757
 40
0.0490228527406757
 40
0.0490228527406757
 10
7.376808976534051
 20
76.75109200734839
 30
0.0
 41
1.0
 10
7.37665874286099
 20
76.78219177367559
 30
0.0
 41
0.710514313144177
 10
7.345558976534051
 20
76.78234200740361
 30
0.0
 41
1.0
  0
SPLINE
  5
C9
330
1F
100
AcDbEntity
  8
Default
100
AcDbSpline
210
0.0
220
0.0
230
1.0
 70
    24
 71
     2
 72
     6
 73
     3
 74
     0
 42
0.0000000001
 43
0.0000000001
 40
0.0
 40
0.0
 40
0.0
 40
0.34375
 40
0.34375
 40
0.34375
 10
7.345558976534051
 20
76.78234200740361
 30
0.0
 10
7.173683976534051
 20
76.78234200740361
 30
0.0
 10
7.001808976534051
 20
76.78234200740361
 30
0.0
  0
SPLINE
  5
CA
330
1F
100
AcDbEntity
  8
Default
100
AcDbSpline
210
0.0
220
0.0
230
1.0
 70
    12
 71
     2
 72
     6
 73
     3
 74
     0
 42
0.0000000001
 43
0.0000000001
 40
0.0
 40
0.0
 40
0.0
 40
0.1963097587114712
 40
0.1963097587114712
 40
0.1963097587114712
 10
7.001808976534051
 20
76.78234200740361
 30
0.0
 41
1.0
 10
6.876900121381525
 20
76.78225201358252
 30
0.0
 41
0.7076193065308615
 10
6.876808976536722
 20
76.65734315926458
 30
0.0
 41
1.0
  0
LINE
  5
CB
330
1F
100
AcDbEntity
  8
Default
100
AcDbLine
 10
6.876808976536722
 20
76.65734315926458
 30
0.0
 11
6.876808976534051
 21
74.49658165262223
 31
0.0
  0
SPLINE
  5
CC
330
1F
100
AcDbEntity
  8
Default
100
AcDbSpline
210
0.0
220
0.0
230
1.0
 70
    24
 71
     2
 72
     6
 73
     3
 74
     0
 42
0.0000000001
 43
0.0000000001
 40
0.0
 40
0.0
 40
0.0
 40
0.1924572732197012
 40
0.1924572732197012
 40
0.1924572732197012
 10
8.309351703314348
 20
74.22234200740361
 30
0.0
 10
8.4055803399242
 20
74.22234200740361
 30
0.0
 10
8.50180897653405
 20
74.22234200740361
 30
0.0
  0
SPLINE
  5
CD
330
1F
100
AcDbEntity
  8
Default
100
AcDbSpline
210
0.0
220
0.0
230
1.0
 70
    12
 71
     2
 72
     6
 73
     3
 74
     0
 42
0.0000000001
 43
0.0000000001
 40
0.0
 40
0.0
 40
0.0
 40
0.1963097587114392
 40
0.1963097587114392
 40
0.1963097587114392
 10
8.50180897653405
 20
74.22234200740361
 30
0.0
 41
1.0
 10
8.626717831686472
 20
74.22243200122479
 30
0.0
 41
0.7076193065313929
 10
8.626808976531379
 20
74.34967747174919
 30
0.0
 41
1.0
  0
LINE
  5
CE
330
1F
100
AcDbEntity
  8
Default
100
AcDbLine
 10
8.626808976531379
 20
74.34967747174919
 30
0.0
 11
8.626808976531379
 21
76.65734315926458
 31
0.0
  0
SPLINE
  5
CF
330
1F
100
AcDbEntity
  8
Default
100
AcDbSpline
210
0.0
220
0.0
230
1.0
 70
    12
 71
     2
 72
     6
 73
     3
 74
     0
 42
0.0000000001
 43
0.0000000001
 40
0.0
 40
0.0
 40
0.0
 40
0.1963228425425605
 40
0.1963228425425605
 40
0.1963228425425605
 10
8.626808976531379
 20
76.65734315926458
 30
0.0
 41
1.0
 10
8.626748309289576
 20
76.78228249146638
 30
0.0
 41
0.7074467937778354
 10
8.50180897653405
 20
76.78234200740361
 30
0.0
 41
1.0
  0
SPLINE
  5
D0
330
1F
100
AcDbEntity
  8
Default
100
AcDbSpline
210
0.0
220
0.0
230
1.0
 70
    24
 71
     2
 72
     6
 73
     3
 74
     0
 42
0.0000000001
 43
0.0000000001
 40
0.0
 40
0.0
 40
0.0
 40
0.34375
 40
0.34375
 40
0.34375
 10
8.50180897653405
 20
76.78234200740361
 30
0.0
 10
8.32993397653405
 20
76.78234200740361
 30
0.0
 10
8.15805897653405
 20
76.78234200740361
 30
0.0
  0
SPLINE
  5
D1
330
1F
100
AcDbEntity
  8
Default
100
AcDbSpline
210
0.0
220
0.0
230
1.0
 70
    12
 71
     2
 72
     6
 73
     3
 74
     0
 42
0.0000000001
 43
0.0000000001
 40
0.0
 40
0.0
 40
0.0
 40
0.0490324958834727
 40
0.0490324958834727
 40
0.0490324958834727
 10
8.15805897653405
 20
76.78234200740361
 30
0.0
 41
1.0
 10
8.12693677560878
 20
76.78221420832472
 30
0.0
 41
0.7100044327187858
 10
8.12680897653405
 20
76.75109200739944
 30
0.0
 41
1.0
  0
LINE
  5
D2
330
1F
100
AcDbEntity
  8
Default
100
AcDbLine
 10
8.12680897653405
 20
76.75109200739944
 30
0.0
 11
8.12680897653405
 21
75.12989885006645
 31
0.0
  0
SPLINE
  5
D3
330
1F
100
AcDbEntity
  8
Default
100
AcDbSpline
210
0.0
220
0.0
230
1.0
 70
     8
 71
     3
 72
    18
 73
    14
 74
     0
 42
0.0000000001
 43
0.0000000001
 40
0.0
 40
0.0
 40
0.0
 40
0.0
 40
0.2288146763457363
 40
1.137767722591923
 40
1.406019342845108
 40
1.470612215869624
 40
1.492829524302496
 40
1.504137883557622
 40
1.529769290004883
 40
1.587783876858403
 40
1.780499262773422
 40
1.971449997821802
 40
3.529508919637573
 40
3.529508919637573
 40
3.529508919637573
 40
3.529508919637573
 10
9.263910079064544
 20
69.08396207011437
 30
0.0
 10
9.264898855043896
 20
69.0073420851949
 30
0.0
 10
9.214002231640194
 20
68.6314135256517
 30
0.0
 10
9.161669584210443
 20
68.16572727670008
 30
0.0
 10
9.088312242789272
 20
67.75784310546778
 30
0.0
 10
9.051729936318793
 20
67.64509471664068
 30
0.0
 10
9.031688656479275
 20
67.61770755339539
 30
0.0
 10
9.011271136163515
 20
67.61243867264788
 30
0.0
 10
8.991218965504459
 20
67.64077909908649
 30
0.0
 10
8.96246565103209
 20
67.72754911596509
 30
0.0
 10
8.93400729222489
 20
67.87259313122355
 30
0.0
 10
8.836515922090513
 20
68.51211560759207
 30
0.0
 10
8.750501701338578
 20
69.08913712584602
 30
0.0
 10
8.6719078788486
 20
69.602264657865
 30
0.0
  0
SPLINE
  5
D4
330
1F
100
AcDbEntity
  8
Default
100
AcDbSpline
210
0.0
220
0.0
230
1.0
 70
     8
 71
     3
 72
    10
 73
     6
 74
     0
 42
0.0000000001
 43
0.0000000001
 40
-12.24581096497875
 40
-12.24581096497875
 40
-12.24581096497875
 40
-12.24581096497875
 40
-11.9855312274426
 40
-10.9855312274426
 40
-9.985531227442603
 40
-9.985531227442603
 40
-9.985531227442603
 40
-9.985531227442603
 10
-9.250821850176322
 20
67.68107415795937
 30
0.0
 10
-9.32287324731297
 20
67.16255787815523
 30
0.0
 10
-9.621546527827917
 20
64.6394755048816
 30
0.0
 10
-10.00410208618953
 20
60.10006653784611
 30
0.0
 10
-10.21018694554581
 20
56.0723394285945
 30
0.0
 10
-10.19165131585603
 20
54.05637700240835
 30
0.0
  0
SPLINE
  5
D5
330
1F
100
AcDbEntity
  8
Default
100
AcDbSpline
210
0.0
220
0.0
230
1.0
 70
     8
 71
     3
 72
     8
 73
     4
 74
     0
 42
0.0000000001
 43
0.0000000001
 40
-9.985531227442603
 40
-9.985531227442603
 40
-9.985531227442603
 40
-9.985531227442603
 40
-8.985531227442603
 40
-8.985531227442603
 40
-8.985531227442603
 40
-8.985531227442603
 10
-10.19165131585603
 20
54.05637700240835
 30
0.0
 10
-10.18478539207126
 20
53.30962900394105
 30
0.0
 10
-9.736459536287555
 20
52.90282048208724
 30
0.0
 10
-8.971888959347979
 20
52.82954283153744
 30
0.0
  0
SPLINE
  5
D6
330
1F
100
AcDbEntity
  8
Default
100
AcDbSpline
210
0.0
220
0.0
230
1.0
 70
    12
 71
     2
 72
     6
 73
     3
 74
     0
 42
0.0000000001
 43
0.0000000001
 40
-8.985531227442603
 40
-8.985531227442603
 40
-8.985531227442603
 40
0.0
 40
0.0
 40
0.0
 10
-8.971888959347979
 20
52.82954283153744
 30
0.0
 41
1.0
 10
-4.496207422313662
 20
52.400586450616
 30
0.0
 41
0.9988578034794814
 10
0.0
 20
52.40081134792765
 30
0.0
 41
1.0
  0
SPLINE
  5
D7
330
1F
100
AcDbEntity
  8
Default
100
AcDbSpline
210
0.0
220
0.0
230
1.0
 70
    12
 71
     2
 72
     6
 73
     3
 74
     0
 42
0.0000000001
 43
0.0000000001
 40
0.0
 40
0.0
 40
0.0
 40
8.985531227442603
 40
8.985531227442603
 40
8.985531227442603
 10
0.0
 20
52.40081134792765
 30
0.0
 41
1.0
 10
4.496207422313639
 20
52.400586450616
 30
0.0
 41
0.9988578034794814
 10
8.971888959347979
 20
52.82954283153744
 30
0.0
 41
1.0
  0
SPLINE
  5
D8
330
1F
100
AcDbEntity
  8
Default
100
AcDbSpline
210
0.0
220
0.0
230
1.0
 70
     8
 71
     3
 72
     8
 73
     4
 74
     0
 42
0.0000000001
 43
0.0000000001
 40
8.985531227442603
 40
8.985531227442603
 40
8.985531227442603
 40
8.985531227442603
 40
9.985531227442603
 40
9.985531227442603
 40
9.985531227442603
 40
9.985531227442603
 10
8.971888959347979
 20
52.82954283153744
 30
0.0
 10
9.736459536287555
 20
52.90282048208724
 30
0.0
 10
10.18478539207126
 20
53.30962900394105
 30
0.0
 10
10.19165131585603
 20
54.05637700240835
 30
0.0
  0
SPLINE
  5
D9
330
1F
100
AcDbEntity
  8
Default
100
AcDbSpline
210
0.0
220
0.0
230
1.0
 70
     8
 71
     3
 72
    10
 73
     6
 74
     0
 42
0.0000000001
 43
0.0000000001
 40
9.985531227442603
 40
9.985531227442603
 40
9.985531227442603
 40
9.985531227442603
 40
10.9855312274426
 40
11.9855312274426
 40
12.24581096497875
 40
12.24581096497875
 40
12.24581096497875
 40
12.24581096497875
 10
10.19165131585603
 20
54.05637700240835
 30
0.0
 10
10.21018694554581
 20
56.0723394285945
 30
0.0
 10
10.00410208618953
 20
60.10006653784611
 30
0.0
 10
9.621546527827917
 20
64.6394755048816
 30
0.0
 10
9.32287324731297
 20
67.16255787815523
 30
0.0
 10
9.250821850176322
 20
67.68107415795937
 30
0.0
  0
SPLINE
  5
DA
330
1F
100
AcDbEntity
  8
Default
100
AcDbSpline
210
0.0
220
0.0
230
1.0
 70
     8
 71
     3
 72
    12
 73
     8
 74
     0
 42
0.0000000001
 43
0.0000000001
 40
-0.458526502144481
 40
-0.458526502144481
 40
-0.458526502144481
 40
-0.458526502144481
 40
0.0
 40
0.377735975993243
 40
0.76153149930615
 40
1.565044396258399
 40
3.30390468891766
 40
3.30390468891766
 40
3.30390468891766
 40
3.30390468891766
 10
-9.317419195196607
 20
68.21838019679687
 30
0.0
 10
-9.482042143706593
 20
68.18923408061691
 30
0.0
 10
-9.616049712700374
 20
67.94457270127349
 30
0.0
 10
-9.784483889130996
 20
67.57415266601372
 30
0.0
 10
-9.971581735966737
 20
67.08696511074832
 30
0.0
 10
-10.2388229082317
 20
66.14708819202122
 30
0.0
 10
-10.34032593911024
 20
65.30123814910985
 30
0.0
 10
-10.35802326535043
 20
64.72214093080137
 30
0.0
  0
ARC
  5
DB
330
1F
100
AcDbEntity
  8
Default
100
AcDbCircle
 10
-511.9765206556329
 20
80.05170204035083
 30
0.0
 40
501.852679944918
100
AcDbArc
 50
357.3509424074896
 51
358.2495743622844
  0
SPLINE
  5
DC
330
1F
100
AcDbEntity
  8
Default
100
AcDbSpline
210
0.0
220
0.0
230
1.0
 70
    12
 71
     2
 72
     6
 73
     3
 74
     0
 42
0.0000000001
 43
0.0000000001
 40
0.0
 40
0.0
 40
0.0
 40
0.0737402454329051
 40
0.0737402454329051
 40
0.0737402454329051
 10
-10.6601390129166
 20
56.85692106378935
 30
0.0
 41
1.0
 10
-10.66244142105432
 20
56.81290712191011
 30
0.0
 41
0.7719264310602452
 10
-10.7065202535729
 20
56.80668722634069
 30
0.0
 41
1.0
  0
SPLINE
  5
DD
330
1F
100
AcDbEntity
  8
Default
100
AcDbSpline
210
0.0
220
0.0
230
1.0
 70
    12
 71
     2
 72
     6
 73
     3
 74
     0
 42
0.0000000001
 43
0.0000000001
 40
0.0
 40
0.0
 40
0.0
 40
1.508245470856755
 40
1.508245470856755
 40
1.508245470856755
 10
-10.7065202535729
 20
56.80668722634069
 30
0.0
 41
1.0
 10
-11.46057609520537
 20
56.74993272158417
 30
0.0
 41
0.9967796933852576
 10
-12.21386769101906
 20
56.81446102657597
 30
0.0
 41
1.0
  0
SPLINE
  5
DE
330
1F
100
AcDbEntity
  8
Default
100
AcDbSpline
210
0.0
220
0.0
230
1.0
 70
     8
 71
     3
 72
     8
 73
     4
 74
     0
 42
0.0000000001
 43
0.0000000001
 40
0.0
 40
0.0
 40
0.0
 40
0.0
 40
1.0
 40
1.0
 40
1.0
 40
1.0
 10
-12.21386769101906
 20
56.81446102657597
 30
0.0
 10
-12.27503499462441
 20
56.8187514094149
 30
0.0
 10
-12.27316702734996
 20
56.88883423592142
 30
0.0
 10
-12.27081841810875
 20
56.93286376249608
 30
0.0
  0
SPLINE
  5
DF
330
1F
100
AcDbEntity
  8
Default
100
AcDbSpline
210
0.0
220
0.0
230
1.0
 70
     8
 71
     3
 72
     9
 73
     5
 74
     0
 42
0.0000000001
 43
0.0000000001
 40
-2.0
 40
-2.0
 40
-2.0
 40
-2.0
 40
-1.0
 40
0.0
 40
0.0
 40
0.0
 40
0.0
 10
-12.27081841810875
 20
56.93286376249608
 30
0.0
 10
-12.20896312663123
 20
58.24815849135263
 30
0.0
 10
-12.12634958189051
 20
60.88044542796712
 30
0.0
 10
-12.03046795578905
 20
63.51218438963215
 30
0.0
 10
-11.98513195692561
 20
64.8281617030238
 30
0.0
  0
SPLINE
  5
E0
330
1F
100
AcDbEntity
  8
Default
100
AcDbSpline
210
0.0
220
0.0
230
1.0
 70
     8
 71
     3
 72
    12
 73
     8
 74
     0
 42
0.0000000001
 43
0.0000000001
 40
0.0
 40
0.0
 40
0.0
 40
0.0
 40
0.6676669642696594
 40
1.126331660161901
 40
1.922052475789338
 40
2.712550596676415
 40
3.640892101522364
 40
3.640892101522364
 40
3.640892101522364
 40
3.640892101522364
 10
-11.98513195692561
 20
64.8281617030238
 30
0.0
 10
-11.97731617302966
 20
65.05036815921147
 30
0.0
 10
-11.96338213717846
 20
65.42621480382263
 30
0.0
 10
-11.91044348623504
 20
66.06408072511834
 30
0.0
 10
-11.78092646371894
 20
66.73711964987825
 30
0.0
 10
-11.43824272256043
 20
67.50758975406448
 30
0.0
 10
-11.1075272418243
 20
67.97776888175791
 30
0.0
 10
-10.91850202180737
 20
68.2225681308126
 30
0.0
  0
SPLINE
  5
E1
330
1F
100
AcDbEntity
  8
Default
100
AcDbSpline
210
0.0
220
0.0
230
1.0
 70
     8
 71
     3
 72
     8
 73
     4
 74
     0
 42
0.0000000001
 43
0.0000000001
 40
0.0
 40
0.0
 40
0.0
 40
0.0
 40
1.0
 40
1.0
 40
1.0
 40
1.0
 10
-10.91850202180737
 20
68.2225681308126
 30
0.0
 10
-10.67662888750561
 20
68.53580866897077
 30
0.0
 10
-10.45758388018803
 20
68.88762055695129
 30
0.0
 10
-10.13086685986806
 20
69.11095491721817
 30
0.0
  0
SPLINE
  5
E2
330
1F
100
AcDbEntity
  8
Default
100
AcDbSpline
210
0.0
220
0.0
230
1.0
 70
     8
 71
     3
 72
    10
 73
     6
 74
     0
 42
0.0000000001
 43
0.0000000001
 40
0.0
 40
0.0
 40
0.0
 40
0.0
 40
1.177473804769378
 40
1.579315093834944
 40
1.947671481446619
 40
1.947671481446619
 40
1.947671481446619
 40
1.947671481446619
 10
-10.13086685986806
 20
69.11095491721817
 30
0.0
 10
-9.806858534457888
 20
69.33243769153385
 30
0.0
 10
-9.37515210955118
 20
69.63385752139713
 30
0.0
 10
-8.830732398990932
 20
69.98765000840008
 30
0.0
 10
-8.612455117531255
 20
70.12282085199813
 30
0.0
 10
-8.507225421963767
 20
70.1860965431352
 30
0.0
  0
SPLINE
  5
E3
330
1F
100
AcDbEntity
  8
Default
100
AcDbSpline
210
0.0
220
0.0
230
1.0
 70
     8
 71
     3
 72
    17
 73
    13
 74
     0
 42
0.0000000001
 43
0.0000000001
 40
0.0
 40
0.0
 40
0.0
 40
0.0
 40
1.0
 40
1.0
 40
1.0
 40
3.085175862674075
 40
3.985440029312396
 40
4.478568954099425
 40
5.053672501797766
 40
5.053672501797766
 40
5.053672501797766
 40
12.9762236287165
 40
12.9762236287165
 40
12.9762236287165
 40
12.9762236287165
 10
-9.262234903620453
 20
69.14638270330472
 30
0.0
 10
-9.488253550019351
 20
68.98536309746125
 30
0.0
 10
-9.610913403650073
 20
68.85310886419903
 30
0.0
 10
-9.676706291673554
 20
68.69017266213139
 30
0.0
 10
-9.902510442129312
 20
68.03151593570509
 30
0.0
 10
-10.19780640127252
 20
67.07667907054413
 30
0.0
 10
-10.35847361317417
 20
65.92630198539243
 30
0.0
 10
-10.40684725177553
 20
65.27211071187003
 30
0.0
 10
-10.42279769327754
 20
64.91618430560686
 30
0.0
 10
-10.42885171727721
 20
64.72463970440702
 30
0.0
 10
-10.52093522597818
 20
62.08539525772133
 30
0.0
 10
-10.61301873467912
 20
59.44615081103561
 30
0.0
 10
-10.70510224338008
 20
56.8069063643499
 30
0.0
  0
POLYLINE
  5
E4
330
1F
100
AcDbEntity
  8
Default
100
AcDb2dPolyline
 66
     1
 10
0.0
 20
0.0
 30
0.0
  0
VERTEX
  5
E5
330
E4
100
AcDbEntity
  8
Default
100
AcDbVertex
100
AcDb2dVertex
 10
-9.316839391141457
 20
68.24430049927643
 30
0.0
  0
VERTEX
  5
E6
330
E4
100
AcDbEntity
  8
Default
100
AcDbVertex
100
AcDb2dVertex
 10
-9.262234903620453
 20
69.14638270330472
 30
0.0
  0
SEQEND
  5
E7
330
E4
100
AcDbEntity
  8
Default
  0
SPLINE
  5
E8
330
1F
100
AcDbEntity
  8
Default
100
AcDbSpline
210
0.0
220
0.0
230
1.0
 70
    12
 71
     2
 72
     6
 73
     3
 74
     0
 42
0.0000000001
 43
0.0000000001
 40
-0.6267966076678596
 40
-0.6267966076678596
 40
-0.6267966076678596
 40
0.0
 40
0.0
 40
0.0
 10
-9.262234903620453
 20
69.14638270330472
 30
0.0
 41
1.0
 10
-8.982278941420923
 20
69.28725521420488
 30
0.0
 41
0.9999854287915338
 10
-8.7008183596418
 20
69.4250969568047
 30
0.0
 41
1.0
  0
SPLINE
  5
E9
330
1F
100
AcDbEntity
  8
Default
100
AcDbSpline
210
0.0
220
0.0
230
1.0
 70
    12
 71
     2
 72
     6
 73
     3
 74
     0
 42
0.0000000001
 43
0.0000000001
 40
0.0
 40
0.0
 40
0.0
 40
0.5752958052014472
 40
0.5752958052014472
 40
0.5752958052014472
 10
-10.53067466608869
 20
59.77818169111848
 30
0.0
 41
1.0
 10
-10.25551375715349
 20
59.86201422529105
 30
0.0
 41
0.9999990598308219
 10
-9.980123971833251
 20
59.94509181392426
 30
0.0
 41
1.0
  0
SPLINE
  5
EA
330
1F
100
AcDbEntity
  8
Default
100
AcDbSpline
210
0.0
220
0.0
230
1.0
 70
     8
 71
     3
 72
    16
 73
    12
 74
     0
 42
0.0000000001
 43
0.0000000001
 40
0.0
 40
0.0
 40
0.0
 40
0.0
 40
1.0
 40
2.0
 40
3.0
 40
4.0
 40
5.0
 40
6.0
 40
7.0
 40
8.0
 40
9.0
 40
9.0
 40
9.0
 40
9.0
 10
-8.920936131113734
 20
17.80448004609269
 30
0.0
 10
-8.962507134606994
 20
18.414398913619
 30
0.0
 10
-9.080697001318867
 20
19.63601695767647
 30
0.0
 10
-8.964180932988398
 20
21.47077729199596
 30
0.0
 10
-8.88948890393712
 20
23.30414563070077
 30
0.0
 10
-8.812754740198812
 20
25.13828941987543
 30
0.0
 10
-8.739128462408473
 20
26.97232808372411
 30
0.0
 10
-8.663616773103058
 20
28.80635677453872
 30
0.0
 10
-8.579696027638562
 20
30.64000401525856
 30
0.0
 10
-8.491765010296433
 20
32.47346551868385
 30
0.0
 10
-8.438718177943201
 20
33.69603093273929
 30
0.0
 10
-8.408841830064972
 20
34.30715064217222
 30
0.0
  0
SPLINE
  5
EB
330
1F
100
AcDbEntity
  8
Default
100
AcDbSpline
210
0.0
220
0.0
230
1.0
 70
     8
 71
     3
 72
    14
 73
    10
 74
     0
 42
0.0000000001
 43
0.0000000001
 40
0.0
 40
0.0
 40
0.0
 40
0.0
 40
1.0
 40
2.0
 40
3.0
 40
4.0
 40
5.0
 40
6.0
 40
7.0
 40
7.0
 40
7.0
 40
7.0
 10
-8.408841830064972
 20
34.30715064217222
 30
0.0
 10
-8.405642262201411
 20
34.36243807201674
 30
0.0
 10
-8.398385864222803
 20
34.47286975892651
 30
0.0
 10
-8.38698519286038
 20
34.63881935954629
 30
0.0
 10
-8.376638657477656
 20
34.80375904137227
 30
0.0
 10
-8.351203310716812
 20
34.9715047882533
 30
0.0
 10
-8.238470207476695
 20
35.1027420722387
 30
0.0
 10
-8.078410767900436
 20
35.15844267683274
 30
0.0
 10
-7.969393552802018
 20
35.17561915127239
 30
0.0
 10
-7.9141508152656
 20
35.18069888257553
 30
0.0
  0
SPLINE
  5
EC
330
1F
100
AcDbEntity
  8
Default
100
AcDbSpline
210
0.0
220
0.0
230
1.0
 70
    24
 71
     2
 72
     6
 73
     3
 74
     0
 42
0.0000000001
 43
0.0000000001
 40
0.0
 40
0.0
 40
0.0
 40
0.2330877007434116
 40
0.2330877007434116
 40
0.2330877007434116
 10
-10.35802326535043
 20
25.52340600366679
 30
0.0
 10
-10.47258165145647
 20
25.5471954692566
 30
0.0
 10
-10.58714003756251
 20
25.57098493484642
 30
0.0
  0
SPLINE
  5
ED
330
1F
100
AcDbEntity
  8
Default
100
AcDbSpline
210
0.0
220
0.0
230
1.0
 70
    12
 71
     3
 72
    11
 73
     7
 74
     0
 42
0.0000000001
 43
0.0000000001
 40
-1.0
 40
-1.0
 40
-1.0
 40
-1.0
 40
-0.7499999988155471
 40
-0.4999999992100971
 40
-0.2499999996046464
 40
-0.1042452044392402
 40
-0.1042452044392402
 40
-0.1042452044392402
 40
-0.1042452044392402
 10
-10.58714003756251
 20
25.57098493484642
 30
0.0
 41
1.0
 10
-10.5940241278212
 20
25.57241448467603
 30
0.0
 41
1.0
 10
-10.61111069473094
 20
25.48650846508469
 30
0.0
 41
1.0
 10
-10.64082141362985
 20
25.1323440325687
 30
0.0
 41
1.0
 10
-10.65406065624913
 20
24.70555192521655
 30
0.0
 41
1.0
 10
-10.65380710197817
 20
24.43300513929914
 30
0.0
 41
1.0
 10
-10.65310781073882
 20
24.33539921389887
 30
0.0
 41
1.0
  0
SPLINE
  5
EE
330
1F
100
AcDbEntity
  8
Default
100
AcDbSpline
210
0.0
220
0.0
230
1.0
 70
     8
 71
     3
 72
     8
 73
     4
 74
     0
 42
0.0000000001
 43
0.0000000001
 40
0.0
 40
0.0
 40
0.0
 40
0.0
 40
1.0
 40
1.0
 40
1.0
 40
1.0
 10
-10.14200564473336
 20
17.69111411606706
 30
0.0
 10
-10.28247205401831
 20
18.19024315999491
 30
0.0
 10
-10.44849976918726
 20
18.68168554160581
 30
0.0
 10
-10.5864012639195
 20
19.18156882546567
 30
0.0
  0
SPLINE
  5
EF
330
1F
100
AcDbEntity
  8
Default
100
AcDbSpline
210
0.0
220
0.0
230
1.0
 70
     8
 71
     3
 72
    13
 73
     9
 74
     0
 42
0.0000000001
 43
0.0000000001
 40
-0.7408031672589086
 40
-0.7408031672589086
 40
-0.7408031672589086
 40
-0.7408031672589086
 40
0.0000000000000002
 40
0.323666798745513
 40
0.6531947481389557
 40
1.271731416662941
 40
1.751790196722357
 40
2.381920827116336
 40
2.381920827116336
 40
2.381920827116336
 40
2.381920827116336
 10
-9.528386324799698
 20
14.64338950623682
 30
0.0
 10
-9.640841829075839
 20
14.86460303923159
 30
0.0
 10
-9.838294587662176
 20
15.1574433039747
 30
0.0
 10
-10.07186801780591
 20
15.55993079951672
 30
0.0
 10
-10.25849645208663
 20
15.94051861801655
 30
0.0
 10
-10.42529141487947
 20
16.38788697051627
 30
0.0
 10
-10.54868869631306
 20
16.95215246075693
 30
0.0
 10
-10.55878005760019
 20
17.3244808653001
 30
0.0
 10
-10.56187034815292
 20
17.53749431124839
 30
0.0
  0
SPLINE
  5
F0
330
1F
100
AcDbEntity
  8
Default
100
AcDbSpline
210
0.0
220
0.0
230
1.0
 70
     8
 71
     3
 72
    16
 73
    12
 74
     0
 42
0.0000000001
 43
0.0000000001
 40
2.381920827116336
 40
2.381920827116336
 40
2.381920827116336
 40
2.381920827116336
 40
3.381920827116336
 40
4.381920827116336
 40
5.381920827116336
 40
6.381920827116335
 40
7.381920827116335
 40
8.381920827116335
 40
9.381920827116335
 40
10.38192082711634
 40
11.38192082711634
 40
11.38192082711634
 40
11.38192082711634
 40
11.38192082711634
 10
-10.56187034815292
 20
17.53749431124839
 30
0.0
 10
-10.56640054145493
 20
17.84976012237995
 30
0.0
 10
-10.57531985075764
 20
18.46702641679054
 30
0.0
 10
-10.58864233622049
 20
19.39292531307928
 30
0.0
 10
-10.60192066092068
 20
20.31882744060588
 30
0.0
 10
-10.61511100098733
 20
21.24472269812242
 30
0.0
 10
-10.6283764760492
 20
22.1706467085047
 30
0.0
 10
-10.64110857737748
 20
23.09646635362373
 30
0.0
 10
-10.65557840012985
 20
24.02268015550648
 30
0.0
 10
-10.66331194855735
 20
24.94742526603089
 30
0.0
 10
-10.66281759529423
 20
25.56777185023893
 30
0.0
 10
-10.61367346624644
 20
25.87021460499042
 30
0.0
  0
SPLINE
  5
F1
330
1F
100
AcDbEntity
  8
Default
100
AcDbSpline
210
0.0
220
0.0
230
1.0
 70
     8
 71
     3
 72
    14
 73
    10
 74
     0
 42
0.0000000001
 43
0.0000000001
 40
0.0
 40
0.0
 40
0.0
 40
0.0
 40
1.0
 40
2.0
 40
3.0
 40
4.0
 40
5.0
 40
6.0
 40
7.0
 40
7.0
 40
7.0
 40
7.0
 10
-10.56930082176575
 20
14.72063925454462
 30
0.0
 10
-10.33241066063852
 20
14.69428040561993
 30
0.0
 10
-9.857228514153974
 20
14.65391123145614
 30
0.0
 10
-9.142539177883265
 20
14.62814466129412
 30
0.0
 10
-8.427236274036659
 20
14.62251629039756
 30
0.0
 10
-7.71408300784239
 20
14.5678610046437
 30
0.0
 10
-7.00013311831421
 20
14.52302214208976
 30
0.0
 10
-6.288109858903198
 20
14.47268862105429
 30
0.0
 10
-5.808769812772425
 20
14.44801930796993
 30
0.0
 10
-5.58176889485901
 20
14.37403069979994
 30
0.0
  0
LINE
  5
F2
330
1F
100
AcDbEntity
  8
Default
100
AcDbLine
 10
-8.634307721805214
 20
15.00527090320247
 30
0.0
 11
-6.771648325251221
 21
14.91898855002279
 31
0.0
  0
SPLINE
  5
F3
330
1F
100
AcDbEntity
  8
Default
100
AcDbSpline
210
0.0
220
0.0
230
1.0
 70
     8
 71
     3
 72
    13
 73
     9
 74
     0
 42
0.0000000001
 43
0.0000000001
 40
-6.823851813856487
 40
-6.823851813856487
 40
-6.823851813856487
 40
-6.823851813856487
 40
-6.281240933349355
 40
-5.874057640813247
 40
-5.734709727001422
 40
-5.647625216845664
 40
-5.559187811090736
 40
-5.476908754093682
 40
-5.476908754093682
 40
-5.476908754093682
 40
-5.476908754093682
 10
-6.771648325251221
 20
14.91898855002279
 30
0.0
 10
-6.591545199984125
 20
14.91064578940224
 30
0.0
 10
-6.274650006225897
 20
14.88379513033117
 30
0.0
 10
-5.913035572770355
 20
14.86005458071531
 30
0.0
 10
-5.702913226686036
 20
14.83335515138271
 30
0.0
 10
-5.599698175557933
 20
14.81833077553594
 30
0.0
 10
-5.517040670506788
 20
14.78530665301231
 30
0.0
 10
-5.497542287672076
 20
14.72189468014098
 30
0.0
 10
-5.501006388074813
 20
14.69601439213846
 30
0.0
  0
LINE
  5
F4
330
1F
100
AcDbEntity
  8
Default
100
AcDbLine
 10
-5.501006388074813
 20
14.69601439213846
 30
0.0
 11
-5.528661659429645
 21
14.43480950621553
 31
0.0
  0
SPLINE
  5
F5
330
1F
100
AcDbEntity
  8
Default
100
AcDbSpline
210
0.0
220
0.0
230
1.0
 70
    12
 71
     2
 72
     6
 73
     3
 74
     0
 42
0.0000000001
 43
0.0000000001
 40
0.0
 40
0.0
 40
0.0
 40
0.1061870214800932
 40
0.1061870214800932
 40
0.1061870214800932
 10
-5.528661659429645
 20
14.43480950621553
 30
0.0
 41
1.0
 10
-5.542618079692122
 20
14.37451868595328
 30
0.0
 41
0.8184810208292602
 10
-5.603090709280735
 20
14.36736974086852
 30
0.0
 41
1.0
  0
POLYLINE
  5
F6
330
1F
100
AcDbEntity
  8
Default
100
AcDb2dPolyline
 66
     1
 10
0.0
 20
0.0
 30
0.0
  0
VERTEX
  5
F7
330
F6
100
AcDbEntity
  8
Default
100
AcDbVertex
100
AcDb2dVertex
 10
-5.603090709280735
 20
14.36736974086852
 30
0.0
  0
VERTEX
  5
F8
330
F6
100
AcDbEntity
  8
Default
100
AcDbVertex
100
AcDb2dVertex
 10
-6.258285935290843
 20
14.24894491178266
 30
0.0
  0
SEQEND
  5
F9
330
F6
100
AcDbEntity
  8
Default
  0
SPLINE
  5
FA
330
1F
100
AcDbEntity
  8
Default
100
AcDbSpline
210
0.0
220
0.0
230
1.0
 70
     8
 71
     3
 72
    12
 73
     8
 74
     0
 42
0.0000000001
 43
0.0000000001
 40
-4.443290175847516
 40
-4.443290175847516
 40
-4.443290175847516
 40
-4.443290175847516
 40
-4.31401685296278
 40
-3.31401685296278
 40
-2.31401685296278
 40
-1.31401685296278
 40
-0.3140168529627803
 40
-0.3140168529627803
 40
-0.3140168529627803
 40
-0.3140168529627803
 10
-6.258285935290843
 20
14.24894491178266
 30
0.0
 10
-6.301187876848644
 20
14.24253130336416
 30
0.0
 10
-6.684920667169507
 20
14.22075790329679
 30
0.0
 10
-7.403654195764375
 20
14.28854150965602
 30
0.0
 10
-8.41283450094528
 20
14.4136518400029
 30
0.0
 10
-9.42318100234587
 20
14.52828011977771
 30
0.0
 10
-10.09606220848491
 20
14.61242692494578
 30
0.0
 10
-10.42960650179504
 20
14.67332270301525
 30
0.0
  0
SPLINE
  5
FB
330
1F
100
AcDbEntity
  8
Default
100
AcDbSpline
210
0.0
220
0.0
230
1.0
 70
     8
 71
     3
 72
    10
 73
     6
 74
     0
 42
0.0000000001
 43
0.0000000001
 40
-0.3140168529627803
 40
-0.3140168529627803
 40
-0.3140168529627803
 40
-0.3140168529627803
 40
-0.0000000000000003
 40
0.9999999999999998
 40
2.0
 40
2.0
 40
2.0
 40
2.0
 10
-10.42960650179504
 20
14.67332270301525
 30
0.0
 10
-10.58194799083827
 20
14.70113596108506
 30
0.0
 10
-11.11214058972573
 20
15.09709078930741
 30
0.0
 10
-11.87712493083367
 20
16.02659845224631
 30
0.0
 10
-12.09047799110382
 20
17.04447428179932
 30
0.0
 10
-12.10330918373407
 20
17.54954874619468
 30
0.0
  0
SPLINE
  5
FC
330
1F
100
AcDbEntity
  8
Default
100
AcDbSpline
210
0.0
220
0.0
230
1.0
 70
     8
 71
     3
 72
    12
 73
     8
 74
     0
 42
0.0000000001
 43
0.0000000001
 40
2.0
 40
2.0
 40
2.0
 40
2.0
 40
3.0
 40
4.0
 40
5.0
 40
6.0
 40
7.0
 40
7.0
 40
7.0
 40
7.0
 10
-12.10330918373407
 20
17.54954874619468
 30
0.0
 10
-12.11623882820106
 20
18.05849857199628
 30
0.0
 10
-12.1418129997669
 20
19.07640737708827
 30
0.0
 10
-12.17888235481212
 20
20.60329564089967
 30
0.0
 10
-12.21568211235322
 20
22.13021121832062
 30
0.0
 10
-12.24856629556822
 20
23.65714391876609
 30
0.0
 10
-12.2769242166209
 20
24.67513345924994
 30
0.0
 10
-12.26815126822981
 20
25.18427048025932
 30
0.0
  0
SPLINE
  5
FD
330
1F
100
AcDbEntity
  8
Default
100
AcDbSpline
210
0.0
220
0.0
230
1.0
 70
     8
 71
     3
 72
    11
 73
     7
 74
     0
 42
0.0000000001
 43
0.0000000001
 40
0.0
 40
0.0
 40
0.0
 40
0.0
 40
0.3096496387287225
 40
0.5091162119321627
 40
0.5786167791367458
 40
0.6321013442192785
 40
0.6321013442192785
 40
0.6321013442192785
 40
0.6321013442192785
 10
-12.26815126822981
 20
25.18427048025932
 30
0.0
 10
-12.26638296145481
 20
25.28689395454819
 30
0.0
 10
-12.25439874333082
 20
25.59103725184335
 30
0.0
 10
-12.23840502022529
 20
25.78127934144827
 30
0.0
 10
-12.21911342000612
 20
25.88911591888165
 30
0.0
 10
-12.1828857611612
 20
25.91671252553146
 30
0.0
 10
-12.16427257316462
 20
25.91688303579597
 30
0.0
  0
SPLINE
  5
FE
330
1F
100
AcDbEntity
  8
Default
100
AcDbSpline
210
0.0
220
0.0
230
1.0
 70
    12
 71
     2
 72
     7
 73
     4
 74
     0
 42
0.0000000001
 43
0.0000000001
 40
0.6321013442192785
 40
0.6321013442192785
 40
0.6321013442192785
 40
2.141129452606297
 40
2.385668941627854
 40
2.385668941627854
 40
2.385668941627854
 10
-12.16427257316462
 20
25.91688303579597
 30
0.0
 41
1.0
 10
-11.4110375995497
 20
25.99681300009951
 30
0.0
 41
0.9943200481919514
 10
-10.53680566886084
 20
25.90242236148425
 30
0.0
 41
1.000920441776457
 10
-10.42262516232165
 20
25.86673711770814
 30
0.0
 41
1.0
  0
SPLINE
  5
FF
330
1F
100
AcDbEntity
  8
Default
100
AcDbSpline
210
0.0
220
0.0
230
1.0
 70
     8
 71
     3
 72
     8
 73
     4
 74
     0
 42
0.0000000001
 43
0.0000000001
 40
0.0
 40
0.0
 40
0.0
 40
0.0
 40
1.0
 40
1.0
 40
1.0
 40
1.0
 10
-10.42262516232165
 20
25.86673711770814
 30
0.0
 10
-10.39820834194634
 20
25.85910604114577
 30
0.0
 10
-10.38020234534417
 20
25.83096024915514
 30
0.0
 10
-10.37608899358207
 20
25.80571159010121
 30
0.0
  0
SPLINE
  5
100
330
1F
100
AcDbEntity
  8
Default
100
AcDbSpline
210
0.0
220
0.0
230
1.0
 70
     8
 71
     3
 72
    10
 73
     6
 74
     0
 42
0.0000000001
 43
0.0000000001
 40
0.0
 40
0.0
 40
0.0
 40
0.0
 40
1.0
 40
2.0
 40
3.0
 40
3.0
 40
3.0
 40
3.0
 10
-10.37608899358207
 20
25.80571159010121
 30
0.0
 10
-10.2818098907893
 20
25.22700569281779
 30
0.0
 10
-10.11644219862927
 20
24.06536751444635
 30
0.0
 10
-9.857306500567518
 20
22.32486943286312
 30
0.0
 10
-9.691398500429699
 20
21.16346647431934
 30
0.0
 10
-9.60863175127102
 20
20.58275560668818
 30
0.0
  0
SPLINE
  5
101
330
1F
100
AcDbEntity
  8
Default
100
AcDbSpline
210
0.0
220
0.0
230
1.0
 70
     8
 71
     3
 72
     9
 73
     5
 74
     0
 42
0.0000000001
 43
0.0000000001
 40
0.0
 40
0.0
 40
0.0
 40
0.0
 40
1.0
 40
2.0
 40
2.0
 40
2.0
 40
2.0
 10
-9.60863175127102
 20
20.58275560668818
 30
0.0
 10
-9.591219267646323
 20
20.46058554955665
 30
0.0
 10
-9.524018718532659
 20
20.21632476308205
 30
0.0
 10
-9.41609775314896
 20
19.98849504169097
 30
0.0
 10
-9.31796379062311
 20
19.91157041135983
 30
0.0
  0
SPLINE
  5
102
330
1F
100
AcDbEntity
  8
Default
100
AcDbSpline
210
0.0
220
0.0
230
1.0
 70
     8
 71
     3
 72
    16
 73
    12
 74
     0
 42
0.0000000001
 43
0.0000000001
 40
0.0
 40
0.0
 40
0.0
 40
0.0
 40
1.0
 40
2.0
 40
3.0
 40
4.0
 40
5.0
 40
6.0
 40
7.0
 40
8.0
 40
9.0
 40
9.0
 40
9.0
 40
9.0
 10
8.920936131113734
 20
17.80448004609269
 30
0.0
 10
8.962507134606994
 20
18.414398913619
 30
0.0
 10
9.080697001318867
 20
19.63601695767647
 30
0.0
 10
8.964180932988398
 20
21.47077729199596
 30
0.0
 10
8.88948890393712
 20
23.30414563070077
 30
0.0
 10
8.812754740198812
 20
25.13828941987543
 30
0.0
 10
8.739128462408473
 20
26.97232808372411
 30
0.0
 10
8.663616773103058
 20
28.80635677453872
 30
0.0
 10
8.579696027638562
 20
30.64000401525856
 30
0.0
 10
8.491765010296433
 20
32.47346551868385
 30
0.0
 10
8.438718177943201
 20
33.69603093273929
 30
0.0
 10
8.408841830064972
 20
34.30715064217222
 30
0.0
  0
SPLINE
  5
103
330
1F
100
AcDbEntity
  8
Default
100
AcDbSpline
210
0.0
220
0.0
230
1.0
 70
     8
 71
     3
 72
    14
 73
    10
 74
     0
 42
0.0000000001
 43
0.0000000001
 40
0.0
 40
0.0
 40
0.0
 40
0.0
 40
1.0
 40
2.0
 40
3.0
 40
4.0
 40
5.0
 40
6.0
 40
7.0
 40
7.0
 40
7.0
 40
7.0
 10
8.408841830064972
 20
34.30715064217222
 30
0.0
 10
8.405642262201411
 20
34.36243807201674
 30
0.0
 10
8.398385864222803
 20
34.47286975892651
 30
0.0
 10
8.38698519286038
 20
34.63881935954629
 30
0.0
 10
8.376638657477656
 20
34.80375904137227
 30
0.0
 10
8.351203310716812
 20
34.9715047882533
 30
0.0
 10
8.238470207476695
 20
35.1027420722387
 30
0.0
 10
8.078410767900436
 20
35.15844267683274
 30
0.0
 10
7.969393552802018
 20
35.17561915127239
 30
0.0
 10
7.9141508152656
 20
35.18069888257553
 30
0.0
  0
SPLINE
  5
104
330
1F
100
AcDbEntity
  8
Default
100
AcDbSpline
210
0.0
220
0.0
230
1.0
 70
    24
 71
     2
 72
     6
 73
     3
 74
     0
 42
0.0000000001
 43
0.0000000001
 40
0.0
 40
0.0
 40
0.0
 40
0.2330877007434116
 40
0.2330877007434116
 40
0.2330877007434116
 10
10.35802326535043
 20
25.52340600366679
 30
0.0
 10
10.47258165145647
 20
25.5471954692566
 30
0.0
 10
10.58714003756251
 20
25.57098493484642
 30
0.0
  0
SPLINE
  5
105
330
1F
100
AcDbEntity
  8
Default
100
AcDbSpline
210
0.0
220
0.0
230
1.0
 70
    12
 71
     3
 72
    11
 73
     7
 74
     0
 42
0.0000000001
 43
0.0000000001
 40
-1.0
 40
-1.0
 40
-1.0
 40
-1.0
 40
-0.7499999988155471
 40
-0.4999999992100971
 40
-0.2499999996046464
 40
-0.1042452044392402
 40
-0.1042452044392402
 40
-0.1042452044392402
 40
-0.1042452044392402
 10
10.58714003756251
 20
25.57098493484642
 30
0.0
 41
1.0
 10
10.5940241278212
 20
25.57241448467603
 30
0.0
 41
1.0
 10
10.61111069473094
 20
25.48650846508469
 30
0.0
 41
1.0
 10
10.64082141362985
 20
25.1323440325687
 30
0.0
 41
1.0
 10
10.65406065624913
 20
24.70555192521655
 30
0.0
 41
1.0
 10
10.65380710197817
 20
24.43300513929914
 30
0.0
 41
1.0
 10
10.65310781073882
 20
24.33539921389887
 30
0.0
 41
1.0
  0
SPLINE
  5
106
330
1F
100
AcDbEntity
  8
Default
100
AcDbSpline
210
0.0
220
0.0
230
1.0
 70
     8
 71
     3
 72
     8
 73
     4
 74
     0
 42
0.0000000001
 43
0.0000000001
 40
0.0
 40
0.0
 40
0.0
 40
0.0
 40
1.0
 40
1.0
 40
1.0
 40
1.0
 10
10.14200564473336
 20
17.69111411606706
 30
0.0
 10
10.28247205401831
 20
18.19024315999491
 30
0.0
 10
10.44849976918726
 20
18.68168554160581
 30
0.0
 10
10.5864012639195
 20
19.18156882546567
 30
0.0
  0
SPLINE
  5
107
330
1F
100
AcDbEntity
  8
Default
100
AcDbSpline
210
0.0
220
0.0
230
1.0
 70
     8
 71
     3
 72
    13
 73
     9
 74
     0
 42
0.0000000001
 43
0.0000000001
 40
-0.7408031672589086
 40
-0.7408031672589086
 40
-0.7408031672589086
 40
-0.7408031672589086
 40
0.0000000000000002
 40
0.323666798745513
 40
0.6531947481389557
 40
1.271731416662941
 40
1.751790196722357
 40
2.381920827116336
 40
2.381920827116336
 40
2.381920827116336
 40
2.381920827116336
 10
9.528386324799698
 20
14.64338950623682
 30
0.0
 10
9.640841829075839
 20
14.86460303923159
 30
0.0
 10
9.838294587662176
 20
15.1574433039747
 30
0.0
 10
10.07186801780591
 20
15.55993079951672
 30
0.0
 10
10.25849645208663
 20
15.94051861801655
 30
0.0
 10
10.42529141487947
 20
16.38788697051627
 30
0.0
 10
10.54868869631306
 20
16.95215246075693
 30
0.0
 10
10.55878005760019
 20
17.3244808653001
 30
0.0
 10
10.56187034815292
 20
17.53749431124839
 30
0.0
  0
SPLINE
  5
108
330
1F
100
AcDbEntity
  8
Default
100
AcDbSpline
210
0.0
220
0.0
230
1.0
 70
     8
 71
     3
 72
    16
 73
    12
 74
     0
 42
0.0000000001
 43
0.0000000001
 40
2.381920827116336
 40
2.381920827116336
 40
2.381920827116336
 40
2.381920827116336
 40
3.381920827116336
 40
4.381920827116336
 40
5.381920827116336
 40
6.381920827116335
 40
7.381920827116335
 40
8.381920827116335
 40
9.381920827116335
 40
10.38192082711634
 40
11.38192082711634
 40
11.38192082711634
 40
11.38192082711634
 40
11.38192082711634
 10
10.56187034815292
 20
17.53749431124839
 30
0.0
 10
10.56640054145493
 20
17.84976012237995
 30
0.0
 10
10.57531985075764
 20
18.46702641679054
 30
0.0
 10
10.58864233622049
 20
19.39292531307928
 30
0.0
 10
10.60192066092068
 20
20.31882744060588
 30
0.0
 10
10.61511100098733
 20
21.24472269812242
 30
0.0
 10
10.6283764760492
 20
22.1706467085047
 30
0.0
 10
10.64110857737748
 20
23.09646635362373
 30
0.0
 10
10.65557840012985
 20
24.02268015550648
 30
0.0
 10
10.66331194855735
 20
24.94742526603089
 30
0.0
 10
10.66281759529423
 20
25.56777185023893
 30
0.0
 10
10.61367346624644
 20
25.87021460499042
 30
0.0
  0
SPLINE
  5
109
330
1F
100
AcDbEntity
  8
Default
100
AcDbSpline
210
0.0
220
0.0
230
1.0
 70
     8
 71
     3
 72
    14
 73
    10
 74
     0
 42
0.0000000001
 43
0.0000000001
 40
0.0
 40
0.0
 40
0.0
 40
0.0
 40
1.0
 40
2.0
 40
3.0
 40
4.0
 40
5.0
 40
6.0
 40
7.0
 40
7.0
 40
7.0
 40
7.0
 10
10.56930082176575
 20
14.72063925454462
 30
0.0
 10
10.33241066063852
 20
14.69428040561993
 30
0.0
 10
9.857228514153974
 20
14.65391123145614
 30
0.0
 10
9.142539177883265
 20
14.62814466129412
 30
0.0
 10
8.427236274036659
 20
14.62251629039756
 30
0.0
 10
7.71408300784239
 20
14.5678610046437
 30
0.0
 10
7.00013311831421
 20
14.52302214208976
 30
0.0
 10
6.288109858903198
 20
14.47268862105429
 30
0.0
 10
5.808769812772425
 20
14.44801930796993
 30
0.0
 10
5.58176889485901
 20
14.37403069979994
 30
0.0
  0
LINE
  5
10A
330
1F
100
AcDbEntity
  8
Default
100
AcDbLine
 10
8.634307721805214
 20
15.00527090320247
 30
0.0
 11
6.771648325251221
 21
14.91898855002279
 31
0.0
  0
SPLINE
  5
10B
330
1F
100
AcDbEntity
  8
Default
100
AcDbSpline
210
0.0
220
0.0
230
1.0
 70
     8
 71
     3
 72
    13
 73
     9
 74
     0
 42
0.0000000001
 43
0.0000000001
 40
-6.823851813856487
 40
-6.823851813856487
 40
-6.823851813856487
 40
-6.823851813856487
 40
-6.281240933349355
 40
-5.874057640813247
 40
-5.734709727001422
 40
-5.647625216845664
 40
-5.559187811090736
 40
-5.476908754093682
 40
-5.476908754093682
 40
-5.476908754093682
 40
-5.476908754093682
 10
6.771648325251221
 20
14.91898855002279
 30
0.0
 10
6.591545199984125
 20
14.91064578940224
 30
0.0
 10
6.274650006225897
 20
14.88379513033117
 30
0.0
 10
5.913035572770355
 20
14.86005458071531
 30
0.0
 10
5.702913226686036
 20
14.83335515138271
 30
0.0
 10
5.599698175557933
 20
14.81833077553594
 30
0.0
 10
5.517040670506788
 20
14.78530665301231
 30
0.0
 10
5.497542287672076
 20
14.72189468014098
 30
0.0
 10
5.501006388074813
 20
14.69601439213846
 30
0.0
  0
LINE
  5
10C
330
1F
100
AcDbEntity
  8
Default
100
AcDbLine
 10
5.501006388074813
 20
14.69601439213846
 30
0.0
 11
5.528661659429645
 21
14.43480950621553
 31
0.0
  0
SPLINE
  5
10D
330
1F
100
AcDbEntity
  8
Default
100
AcDbSpline
210
0.0
220
0.0
230
1.0
 70
    12
 71
     2
 72
     6
 73
     3
 74
     0
 42
0.0000000001
 43
0.0000000001
 40
0.0
 40
0.0
 40
0.0
 40
0.1061870214800932
 40
0.1061870214800932
 40
0.1061870214800932
 10
5.528661659429645
 20
14.43480950621553
 30
0.0
 41
1.0
 10
5.542618079692111
 20
14.37451868595328
 30
0.0
 41
0.8184810208292602
 10
5.603090709280735
 20
14.36736974086852
 30
0.0
 41
1.0
  0
POLYLINE
  5
10E
330
1F
100
AcDbEntity
  8
Default
100
AcDb2dPolyline
 66
     1
 10
0.0
 20
0.0
 30
0.0
  0
VERTEX
  5
10F
330
10E
100
AcDbEntity
  8
Default
100
AcDbVertex
100
AcDb2dVertex
 10
5.603090709280735
 20
14.36736974086852
 30
0.0
  0
VERTEX
  5
110
330
10E
100
AcDbEntity
  8
Default
100
AcDbVertex
100
AcDb2dVertex
 10
6.258285935290843
 20
14.24894491178266
 30
0.0
  0
SEQEND
  5
111
330
10E
100
AcDbEntity
  8
Default
  0
SPLINE
  5
112
330
1F
100
AcDbEntity
  8
Default
100
AcDbSpline
210
0.0
220
0.0
230
1.0
 70
     8
 71
     3
 72
    12
 73
     8
 74
     0
 42
0.0000000001
 43
0.0000000001
 40
-4.443290175847516
 40
-4.443290175847516
 40
-4.443290175847516
 40
-4.443290175847516
 40
-4.31401685296278
 40
-3.31401685296278
 40
-2.31401685296278
 40
-1.31401685296278
 40
-0.3140168529627803
 40
-0.3140168529627803
 40
-0.3140168529627803
 40
-0.3140168529627803
 10
6.258285935290843
 20
14.24894491178266
 30
0.0
 10
6.301187876848644
 20
14.24253130336416
 30
0.0
 10
6.684920667169507
 20
14.22075790329679
 30
0.0
 10
7.403654195764375
 20
14.28854150965602
 30
0.0
 10
8.41283450094528
 20
14.4136518400029
 30
0.0
 10
9.42318100234587
 20
14.52828011977771
 30
0.0
 10
10.09606220848491
 20
14.61242692494578
 30
0.0
 10
10.42960650179504
 20
14.67332270301525
 30
0.0
  0
SPLINE
  5
113
330
1F
100
AcDbEntity
  8
Default
100
AcDbSpline
210
0.0
220
0.0
230
1.0
 70
     8
 71
     3
 72
    10
 73
     6
 74
     0
 42
0.0000000001
 43
0.0000000001
 40
-0.3140168529627803
 40
-0.3140168529627803
 40
-0.3140168529627803
 40
-0.3140168529627803
 40
-0.0000000000000003
 40
0.9999999999999998
 40
2.0
 40
2.0
 40
2.0
 40
2.0
 10
10.42960650179504
 20
14.67332270301525
 30
0.0
 10
10.58194799083827
 20
14.70113596108506
 30
0.0
 10
11.11214058972573
 20
15.09709078930741
 30
0.0
 10
11.87712493083367
 20
16.02659845224631
 30
0.0
 10
12.09047799110382
 20
17.04447428179932
 30
0.0
 10
12.10330918373407
 20
17.54954874619468
 30
0.0
  0
SPLINE
  5
114
330
1F
100
AcDbEntity
  8
Default
100
AcDbSpline
210
0.0
220
0.0
230
1.0
 70
     8
 71
     3
 72
    12
 73
     8
 74
     0
 42
0.0000000001
 43
0.0000000001
 40
2.0
 40
2.0
 40
2.0
 40
2.0
 40
3.0
 40
4.0
 40
5.0
 40
6.0
 40
7.0
 40
7.0
 40
7.0
 40
7.0
 10
12.10330918373407
 20
17.54954874619468
 30
0.0
 10
12.11623882820106
 20
18.05849857199628
 30
0.0
 10
12.1418129997669
 20
19.07640737708827
 30
0.0
 10
12.17888235481212
 20
20.60329564089967
 30
0.0
 10
12.21568211235322
 20
22.13021121832062
 30
0.0
 10
12.24856629556822
 20
23.65714391876609
 30
0.0
 10
12.2769242166209
 20
24.67513345924994
 30
0.0
 10
12.26815126822981
 20
25.18427048025932
 30
0.0
  0
SPLINE
  5
115
330
1F
100
AcDbEntity
  8
Default
100
AcDbSpline
210
0.0
220
0.0
230
1.0
 70
     8
 71
     3
 72
    11
 73
     7
 74
     0
 42
0.0000000001
 43
0.0000000001
 40
0.0
 40
0.0
 40
0.0
 40
0.0
 40
0.3096496387287225
 40
0.5091162119321627
 40
0.5786167791367458
 40
0.6321013442192785
 40
0.6321013442192785
 40
0.6321013442192785
 40
0.6321013442192785
 10
12.26815126822981
 20
25.18427048025932
 30
0.0
 10
12.26638296145481
 20
25.28689395454819
 30
0.0
 10
12.25439874333082
 20
25.59103725184335
 30
0.0
 10
12.23840502022529
 20
25.78127934144827
 30
0.0
 10
12.21911342000612
 20
25.88911591888165
 30
0.0
 10
12.1828857611612
 20
25.91671252553146
 30
0.0
 10
12.16427257316462
 20
25.91688303579597
 30
0.0
  0
SPLINE
  5
116
330
1F
100
AcDbEntity
  8
Default
100
AcDbSpline
210
0.0
220
0.0
230
1.0
 70
    12
 71
     2
 72
     7
 73
     4
 74
     0
 42
0.0000000001
 43
0.0000000001
 40
0.6321013442192785
 40
0.6321013442192785
 40
0.6321013442192785
 40
2.141129452606297
 40
2.385668941627854
 40
2.385668941627854
 40
2.385668941627854
 10
12.16427257316462
 20
25.91688303579597
 30
0.0
 41
1.0
 10
11.4110375995497
 20
25.99681300009951
 30
0.0
 41
0.9943200481919514
 10
10.53680566886086
 20
25.90242236148425
 30
0.0
 41
1.000920441776457
 10
10.42262516232165
 20
25.86673711770814
 30
0.0
 41
1.0
  0
SPLINE
  5
117
330
1F
100
AcDbEntity
  8
Default
100
AcDbSpline
210
0.0
220
0.0
230
1.0
 70
     8
 71
     3
 72
     8
 73
     4
 74
     0
 42
0.0000000001
 43
0.0000000001
 40
0.0
 40
0.0
 40
0.0
 40
0.0
 40
1.0
 40
1.0
 40
1.0
 40
1.0
 10
10.42262516232165
 20
25.86673711770814
 30
0.0
 10
10.39820834194634
 20
25.85910604114577
 30
0.0
 10
10.38020234534417
 20
25.83096024915514
 30
0.0
 10
10.37608899358207
 20
25.80571159010121
 30
0.0
  0
SPLINE
  5
118
330
1F
100
AcDbEntity
  8
Default
100
AcDbSpline
210
0.0
220
0.0
230
1.0
 70
     8
 71
     3
 72
    10
 73
     6
 74
     0
 42
0.0000000001
 43
0.0000000001
 40
0.0
 40
0.0
 40
0.0
 40
0.0
 40
1.0
 40
2.0
 40
3.0
 40
3.0
 40
3.0
 40
3.0
 10
10.37608899358207
 20
25.80571159010121
 30
0.0
 10
10.2818098907893
 20
25.22700569281779
 30
0.0
 10
10.11644219862927
 20
24.06536751444635
 30
0.0
 10
9.857306500567518
 20
22.32486943286312
 30
0.0
 10
9.691398500429699
 20
21.16346647431934
 30
0.0
 10
9.60863175127102
 20
20.58275560668818
 30
0.0
  0
SPLINE
  5
119
330
1F
100
AcDbEntity
  8
Default
100
AcDbSpline
210
0.0
220
0.0
230
1.0
 70
     8
 71
     3
 72
     9
 73
     5
 74
     0
 42
0.0000000001
 43
0.0000000001
 40
0.0
 40
0.0
 40
0.0
 40
0.0
 40
1.0
 40
2.0
 40
2.0
 40
2.0
 40
2.0
 10
9.60863175127102
 20
20.58275560668818
 30
0.0
 10
9.591219267646323
 20
20.46058554955665
 30
0.0
 10
9.524018718532659
 20
20.21632476308205
 30
0.0
 10
9.41609775314896
 20
19.98849504169097
 30
0.0
 10
9.31796379062311
 20
19.91157041135983
 30
0.0
  0
SPLINE
  5
11A
330
1F
100
AcDbEntity
  8
Default
100
AcDbSpline
210
0.0
220
0.0
230
1.0
 70
    12
 71
     2
 72
     6
 73
     3
 74
     0
 42
0.0000000001
 43
0.0000000001
 40
0.0
 40
0.0
 40
0.0
 40
0.5130637917754777
 40
0.5130637917754777
 40
0.5130637917754777
 10
-9.198185982285082
 20
17.81528948762241
 30
0.0
 41
1.0
 10
-9.22207559512584
 20
18.07070970367512
 30
0.0
 41
0.9999819165955021
 10
-9.242891413952435
 20
18.32639877668505
 30
0.0
 41
1.0
  0
SPLINE
  5
11B
330
1F
100
AcDbEntity
  8
Default
100
AcDbSpline
210
0.0
220
0.0
230
1.0
 70
    12
 71
     2
 72
     6
 73
     3
 74
     0
 42
0.0000000001
 43
0.0000000001
 40
0.0
 40
0.0
 40
0.0
 40
1.574475544654591
 40
1.574475544654591
 40
1.574475544654591
 10
-9.242891413952435
 20
18.32639877668505
 30
0.0
 41
1.0
 10
-9.311360605147318
 20
19.1110759646261
 30
0.0
 41
0.9991984765032953
 10
-9.31688621650045
 20
19.89959028340746
 30
0.0
 41
1.0
  0
SPLINE
  5
11C
330
1F
100
AcDbEntity
  8
Default
100
AcDbSpline
210
0.0
220
0.0
230
1.0
 70
     8
 71
     3
 72
    12
 73
     8
 74
     0
 42
0.0000000001
 43
0.0000000001
 40
-5.0
 40
-5.0
 40
-5.0
 40
-5.0
 40
-4.0
 40
-3.0
 40
-2.0
 40
-1.0
 40
0.0
 40
0.0
 40
0.0
 40
0.0
 10
-9.31688621650045
 20
19.89959028340746
 30
0.0
 10
-9.294631633849832
 20
20.8622834890125
 30
0.0
 10
-9.198684770258211
 20
22.78442893349347
 30
0.0
 10
-9.073705816809166
 20
25.6681683974855
 30
0.0
 10
-8.943692953596496
 20
28.55177151424179
 30
0.0
 10
-8.815464995383422
 20
31.43542523694949
 30
0.0
 10
-8.734943702110314
 20
33.35809817033918
 30
0.0
 10
-8.690992846557691
 20
34.31924185923393
 30
0.0
  0
SPLINE
  5
11D
330
1F
100
AcDbEntity
  8
Default
100
AcDbSpline
210
0.0
220
0.0
230
1.0
 70
     8
 71
     3
 72
    12
 73
     8
 74
     0
 42
0.0000000001
 43
0.0000000001
 40
0.0
 40
0.0
 40
0.0
 40
0.0
 40
0.5045506429214904
 40
0.6027571517467247
 40
0.6858744646776231
 40
0.8684321582079311
 40
1.075072363869147
 40
1.075072363869147
 40
1.075072363869147
 40
1.075072363869147
 10
-8.690992846557691
 20
34.31924185923393
 30
0.0
 10
-8.681145551064162
 20
34.48693164018905
 30
0.0
 10
-8.681325668940303
 20
34.6886206934554
 30
0.0
 10
-8.654768749110787
 20
34.91565870375268
 30
0.0
 10
-8.62216697868368
 20
35.03322737106819
 30
0.0
 10
-8.52806732379625
 20
35.16614115770358
 30
0.0
 10
-8.400719166073003
 20
35.21388896715369
 30
0.0
 10
-8.33536102029322
 20
35.23139515210684
 30
0.0
  0
SPLINE
  5
11E
330
1F
100
AcDbEntity
  8
Default
100
AcDbSpline
210
0.0
220
0.0
230
1.0
 70
     8
 71
     3
 72
     9
 73
     5
 74
     0
 42
0.0000000001
 43
0.0000000001
 40
-2.0
 40
-2.0
 40
-2.0
 40
-2.0
 40
-1.0
 40
0.0
 40
0.0
 40
0.0
 40
0.0
 10
-8.33536102029322
 20
35.23139515210684
 30
0.0
 10
-8.159233335108922
 20
35.27857096769066
 30
0.0
 10
-7.78975339943139
 20
35.27947677503231
 30
0.0
 10
-7.42505194961106
 20
35.27847324779412
 30
0.0
 10
-7.242717003028815
 20
35.27778757790082
 30
0.0
  0
ARC
  5
11F
330
1F
100
AcDbEntity
  8
Default
100
AcDbCircle
 10
-0.6285524156035649
 20
1797.553464572887
 30
0.0
 40
1762.28808907662
100
AcDbArc
 50
269.7849587658702
 51
270.0204355925709
  0
ARC
  5
120
330
1F
100
AcDbEntity
  8
Default
100
AcDbCircle
 10
0.6285524156037638
 20
1797.553464572887
 30
0.0
 40
1762.28808907662
100
AcDbArc
 50
269.9795644074291
 51
270.2150412341298
  0
SPLINE
  5
121
330
1F
100
AcDbEntity
  8
Default
100
AcDbSpline
210
0.0
220
0.0
230
1.0
 70
     8
 71
     3
 72
     9
 73
     5
 74
     0
 42
0.0000000001
 43
0.0000000001
 40
0.0
 40
0.0
 40
0.0
 40
0.0
 40
1.0
 40
2.0
 40
2.0
 40
2.0
 40
2.0
 10
7.242717003028815
 20
35.27778757790082
 30
0.0
 10
7.42505194961106
 20
35.27847324779412
 30
0.0
 10
7.78975339943139
 20
35.27947677503231
 30
0.0
 10
8.159233335108922
 20
35.27857096769066
 30
0.0
 10
8.33536102029322
 20
35.23139515210684
 30
0.0
  0
SPLINE
  5
122
330
1F
100
AcDbEntity
  8
Default
100
AcDbSpline
210
0.0
220
0.0
230
1.0
 70
     8
 71
     3
 72
    12
 73
     8
 74
     0
 42
0.0000000001
 43
0.0000000001
 40
-1.075072363869147
 40
-1.075072363869147
 40
-1.075072363869147
 40
-1.075072363869147
 40
-0.8684321582079311
 40
-0.6858744646776231
 40
-0.6027571517467247
 40
-0.5045506429214904
 40
0.0
 40
0.0
 40
0.0
 40
0.0
 10
8.33536102029322
 20
35.23139515210684
 30
0.0
 10
8.400719166073003
 20
35.21388896715369
 30
0.0
 10
8.52806732379625
 20
35.16614115770358
 30
0.0
 10
8.62216697868368
 20
35.03322737106819
 30
0.0
 10
8.654768749110787
 20
34.91565870375268
 30
0.0
 10
8.681325668940303
 20
34.6886206934554
 30
0.0
 10
8.681145551064162
 20
34.48693164018905
 30
0.0
 10
8.690992846557691
 20
34.31924185923393
 30
0.0
  0
SPLINE
  5
123
330
1F
100
AcDbEntity
  8
Default
100
AcDbSpline
210
0.0
220
0.0
230
1.0
 70
     8
 71
     3
 72
    12
 73
     8
 74
     0
 42
0.0000000001
 43
0.0000000001
 40
0.0
 40
0.0
 40
0.0
 40
0.0
 40
1.0
 40
2.0
 40
3.0
 40
4.0
 40
5.0
 40
5.0
 40
5.0
 40
5.0
 10
8.690992846557691
 20
34.31924185923393
 30
0.0
 10
8.734943702110314
 20
33.35809817033918
 30
0.0
 10
8.815464995383422
 20
31.43542523694949
 30
0.0
 10
8.943692953596496
 20
28.55177151424179
 30
0.0
 10
9.073705816809166
 20
25.6681683974855
 30
0.0
 10
9.198684770258211
 20
22.78442893349347
 30
0.0
 10
9.294631633849832
 20
20.8622834890125
 30
0.0
 10
9.31688621650045
 20
19.89959028340746
 30
0.0
  0
SPLINE
  5
124
330
1F
100
AcDbEntity
  8
Default
100
AcDbSpline
210
0.0
220
0.0
230
1.0
 70
    12
 71
     2
 72
     6
 73
     3
 74
     0
 42
0.0000000001
 43
0.0000000001
 40
-1.574475544654591
 40
-1.574475544654591
 40
-1.574475544654591
 40
0.0
 40
0.0
 40
0.0
 10
9.31688621650045
 20
19.89959028340746
 30
0.0
 41
1.0
 10
9.311360605147303
 20
19.1110759646261
 30
0.0
 41
0.9991984765032953
 10
9.242891413952435
 20
18.32639877668505
 30
0.0
 41
1.0
  0
SPLINE
  5
125
330
1F
100
AcDbEntity
  8
Default
100
AcDbSpline
210
0.0
220
0.0
230
1.0
 70
    12
 71
     2
 72
     6
 73
     3
 74
     0
 42
0.0000000001
 43
0.0000000001
 40
-0.5130637917754777
 40
-0.5130637917754777
 40
-0.5130637917754777
 40
0.0
 40
0.0
 40
0.0
 10
9.242891413952435
 20
18.32639877668505
 30
0.0
 41
1.0
 10
9.222075595125826
 20
18.07070970367512
 30
0.0
 41
0.9999819165955021
 10
9.198185982285082
 20
17.81528948762241
 30
0.0
 41
1.0
  0
SPLINE
  5
126
330
1F
100
AcDbEntity
  8
Default
100
AcDbSpline
210
0.0
220
0.0
230
1.0
 70
     8
 71
     3
 72
     9
 73
     5
 74
     0
 42
0.0000000001
 43
0.0000000001
 40
0.0
 40
0.0
 40
0.0
 40
0.0
 40
1.0
 40
2.0
 40
2.0
 40
2.0
 40
2.0
 10
0.0
 20
17.64082748534005
 30
0.0
 10
1.649199287787326
 20
17.63862049378087
 30
0.0
 10
4.947596271407861
 20
17.6704605952919
 30
0.0
 10
8.244563450511777
 20
17.77308667409127
 30
0.0
 10
9.892233721554163
 20
17.84378914094411
 30
0.0
  0
SPLINE
  5
127
330
1F
100
AcDbEntity
  8
Default
100
AcDbSpline
210
0.0
220
0.0
230
1.0
 70
     8
 71
     3
 72
    11
 73
     7
 74
     0
 42
0.0000000001
 43
0.0000000001
 40
-0.7982100111278871
 40
-0.7982100111278871
 40
-0.7982100111278871
 40
-0.7982100111278871
 40
-0.5021656213029607
 40
-0.3211098970399187
 40
-0.1789646551136944
 40
0.0
 40
0.0
 40
0.0
 40
0.0
 10
9.892233721554163
 20
17.84378914094411
 30
0.0
 10
10.04429985861123
 20
17.84819546267917
 30
0.0
 10
10.17177273974022
 20
17.69357045151708
 30
0.0
 10
10.18969740164536
 20
17.48391000582095
 30
0.0
 10
10.19782474755746
 20
17.3190185214114
 30
0.0
 10
10.19206000354731
 20
17.20982478469801
 30
0.0
 10
10.19204955103166
 20
17.15102655519253
 30
0.0
  0
SPLINE
  5
128
330
1F
100
AcDbEntity
  8
Default
100
AcDbSpline
210
0.0
220
0.0
230
1.0
 70
    12
 71
     2
 72
     6
 73
     3
 74
     0
 42
0.0000000001
 43
0.0000000001
 40
-1.7974048894451
 40
-1.7974048894451
 40
-1.7974048894451
 40
0.0
 40
0.0
 40
0.0
 10
10.19204955103166
 20
17.15102655519253
 30
0.0
 41
1.0
 10
10.03410561711513
 20
16.17307220599398
 30
0.0
 41
0.9999999892929199
 10
9.885092246161435
 20
15.28455387964414
 30
0.0
 41
1.0
  0
SPLINE
  5
129
330
1F
100
AcDbEntity
  8
Default
100
AcDbSpline
210
0.0
220
0.0
230
1.0
 70
     8
 71
     3
 72
     9
 73
     5
 74
     0
 42
0.0000000001
 43
0.0000000001
 40
-2.0
 40
-2.0
 40
-2.0
 40
-2.0
 40
-1.0
 40
0.0
 40
0.0
 40
0.0
 40
0.0
 10
9.885092246161435
 20
15.28455387964414
 30
0.0
 10
9.725848844225936
 20
15.15534050419349
 30
0.0
 10
9.313991056582182
 20
15.07412683457207
 30
0.0
 10
8.913613615940989
 20
15.02855289157933
 30
0.0
 10
8.708882184104965
 20
15.02281278247554
 30
0.0
  0
SPLINE
  5
12A
330
1F
100
AcDbEntity
  8
Default
100
AcDbSpline
210
0.0
220
0.0
230
1.0
 70
     8
 71
     3
 72
    10
 73
     6
 74
     0
 42
0.0000000001
 43
0.0000000001
 40
0.0
 40
0.0
 40
0.0
 40
0.0
 40
1.0
 40
2.0
 40
3.0
 40
3.0
 40
3.0
 40
3.0
 10
8.708882184104965
 20
15.02281278247554
 30
0.0
 10
7.74180197080301
 20
14.98393659900647
 30
0.0
 10
5.80703707935379
 20
14.91918239903366
 30
0.0
 10
2.903618821371367
 20
14.87946257557671
 30
0.0
 10
0.9678900974950011
 20
14.87058404568307
 30
0.0
 10
0.0
 20
14.87077842718515
 30
0.0
  0
SPLINE
  5
12B
330
1F
100
AcDbEntity
  8
Default
100
AcDbSpline
210
0.0
220
0.0
230
1.0
 70
     8
 71
     3
 72
    10
 73
     6
 74
     0
 42
0.0000000001
 43
0.0000000001
 40
-3.0
 40
-3.0
 40
-3.0
 40
-3.0
 40
-2.0
 40
-1.0
 40
0.0
 40
0.0
 40
0.0
 40
0.0
 10
0.0
 20
14.87077842718515
 30
0.0
 10
-0.9678900974950011
 20
14.87058404568307
 30
0.0
 10
-2.903618821371367
 20
14.87946257557671
 30
0.0
 10
-5.80703707935379
 20
14.91918239903366
 30
0.0
 10
-7.74180197080301
 20
14.98393659900647
 30
0.0
 10
-8.708882184104965
 20
15.02281278247554
 30
0.0
  0
SPLINE
  5
12C
330
1F
100
AcDbEntity
  8
Default
100
AcDbSpline
210
0.0
220
0.0
230
1.0
 70
     8
 71
     3
 72
     9
 73
     5
 74
     0
 42
0.0000000001
 43
0.0000000001
 40
0.0
 40
0.0
 40
0.0
 40
0.0
 40
1.0
 40
2.0
 40
2.0
 40
2.0
 40
2.0
 10
-8.708882184104965
 20
15.02281278247554
 30
0.0
 10
-8.913613615940989
 20
15.02855289157933
 30
0.0
 10
-9.313991056582182
 20
15.07412683457207
 30
0.0
 10
-9.725848844225936
 20
15.15534050419349
 30
0.0
 10
-9.885092246161435
 20
15.28455387964414
 30
0.0
  0
SPLINE
  5
12D
330
1F
100
AcDbEntity
  8
Default
100
AcDbSpline
210
0.0
220
0.0
230
1.0
 70
    12
 71
     2
 72
     6
 73
     3
 74
     0
 42
0.0000000001
 43
0.0000000001
 40
0.0
 40
0.0
 40
0.0
 40
1.7974048894451
 40
1.7974048894451
 40
1.7974048894451
 10
-9.885092246161435
 20
15.28455387964414
 30
0.0
 41
1.0
 10
-10.03410561711511
 20
16.17307220599398
 30
0.0
 41
0.9999999892929199
 10
-10.19204955103166
 20
17.15102655519253
 30
0.0
 41
1.0
  0
SPLINE
  5
12E
330
1F
100
AcDbEntity
  8
Default
100
AcDbSpline
210
0.0
220
0.0
230
1.0
 70
     8
 71
     3
 72
    11
 73
     7
 74
     0
 42
0.0000000001
 43
0.0000000001
 40
0.0
 40
0.0
 40
0.0
 40
0.0
 40
0.1789646551136944
 40
0.3211098970399187
 40
0.5021656213029607
 40
0.7982100111278871
 40
0.7982100111278871
 40
0.7982100111278871
 40
0.7982100111278871
 10
-10.19204955103166
 20
17.15102655519253
 30
0.0
 10
-10.19206000354731
 20
17.20982478469801
 30
0.0
 10
-10.19782474755746
 20
17.3190185214114
 30
0.0
 10
-10.18969740164536
 20
17.48391000582095
 30
0.0
 10
-10.17177273974022
 20
17.69357045151708
 30
0.0
 10
-10.04429985861123
 20
17.84819546267917
 30
0.0
 10
-9.892233721554163
 20
17.84378914094411
 30
0.0
  0
SPLINE
  5
12F
330
1F
100
AcDbEntity
  8
Default
100
AcDbSpline
210
0.0
220
0.0
230
1.0
 70
     8
 71
     3
 72
     9
 73
     5
 74
     0
 42
0.0000000001
 43
0.0000000001
 40
-2.0
 40
-2.0
 40
-2.0
 40
-2.0
 40
-1.0
 40
0.0
 40
0.0
 40
0.0
 40
0.0
 10
-9.892233721554163
 20
17.84378914094411
 30
0.0
 10
-8.244563450511777
 20
17.77308667409127
 30
0.0
 10
-4.947596271407861
 20
17.6704605952919
 30
0.0
 10
-1.649199287787326
 20
17.63862049378087
 30
0.0
 10
0.0
 20
17.64082748534005
 30
0.0
  0
SPLINE
  5
130
330
1F
100
AcDbEntity
  8
Default
100
AcDbSpline
210
0.0
220
0.0
230
1.0
 70
     8
 71
     3
 72
     9
 73
     5
 74
     0
 42
0.0000000001
 43
0.0000000001
 40
0.0
 40
0.0
 40
0.0
 40
0.0
 40
1.0
 40
2.0
 40
2.0
 40
2.0
 40
2.0
 10
10.18648494910281
 20
17.08132626078725
 30
0.0
 10
10.10029924163348
 20
16.85852268336155
 30
0.0
 10
9.652784366113764
 20
16.65660195079163
 30
0.0
 10
9.21108817115379
 20
16.57220503359932
 30
0.0
 10
8.979993842666914
 20
16.5575872161163
 30
0.0
  0
SPLINE
  5
131
330
1F
100
AcDbEntity
  8
Default
100
AcDbSpline
210
0.0
220
0.0
230
1.0
 70
     8
 71
     3
 72
     9
 73
     5
 74
     0
 42
0.0000000001
 43
0.0000000001
 40
0.0
 40
0.0
 40
0.0
 40
0.0
 40
1.0
 40
2.0
 40
2.0
 40
2.0
 40
2.0
 10
8.979993842666914
 20
16.5575872161163
 30
0.0
 10
7.487802879888307
 20
16.41212101457813
 30
0.0
 10
4.497458204752093
 20
16.18111865072508
 30
0.0
 10
1.499345786601737
 20
16.08941519993991
 30
0.0
 10
0.0
 20
16.08928312295666
 30
0.0
  0
SPLINE
  5
132
330
1F
100
AcDbEntity
  8
Default
100
AcDbSpline
210
0.0
220
0.0
230
1.0
 70
     8
 71
     3
 72
     9
 73
     5
 74
     0
 42
0.0000000001
 43
0.0000000001
 40
-2.0
 40
-2.0
 40
-2.0
 40
-2.0
 40
-1.0
 40
0.0
 40
0.0
 40
0.0
 40
0.0
 10
0.0
 20
16.08928312295666
 30
0.0
 10
-1.499345786601737
 20
16.08941519993991
 30
0.0
 10
-4.497458204752093
 20
16.18111865072508
 30
0.0
 10
-7.487802879888307
 20
16.41212101457813
 30
0.0
 10
-8.979993842666914
 20
16.5575872161163
 30
0.0
  0
SPLINE
  5
133
330
1F
100
AcDbEntity
  8
Default
100
AcDbSpline
210
0.0
220
0.0
230
1.0
 70
     8
 71
     3
 72
     9
 73
     5
 74
     0
 42
0.0000000001
 43
0.0000000001
 40
-2.0
 40
-2.0
 40
-2.0
 40
-2.0
 40
-1.0
 40
0.0
 40
0.0
 40
0.0
 40
0.0
 10
-8.979993842666914
 20
16.5575872161163
 30
0.0
 10
-9.21108817115379
 20
16.57220503359932
 30
0.0
 10
-9.652784366113764
 20
16.65660195079163
 30
0.0
 10
-10.10029924163348
 20
16.85852268336155
 30
0.0
 10
-10.18648494910281
 20
17.08132626078725
 30
0.0
  0
SPLINE
  5
134
330
1F
100
AcDbEntity
  8
Default
100
AcDbSpline
210
0.0
220
0.0
230
1.0
 70
     8
 71
     3
 72
    12
 73
     8
 74
     0
 42
0.0000000001
 43
0.0000000001
 40
-5.0
 40
-5.0
 40
-5.0
 40
-5.0
 40
-4.0
 40
-3.0
 40
-2.0
 40
-1.0
 40
0.0
 40
0.0
 40
0.0
 40
0.0
 10
-8.764500874110013
 20
17.79852473399536
 30
0.0
 10
-8.889268254071851
 20
18.90179106056099
 30
0.0
 10
-8.864677859447937
 20
21.11808767056395
 30
0.0
 10
-8.694463027749634
 20
24.43747680853907
 30
0.0
 10
-8.558059083627029
 20
27.75815824376404
 30
0.0
 10
-8.411933234846288
 20
31.07846609348922
 30
0.0
 10
-8.315733385548697
 20
33.2920470250744
 30
0.0
 10
-8.267002550857569
 20
34.39881189676165
 30
0.0
  0
SPLINE
  5
135
330
1F
100
AcDbEntity
  8
Default
100
AcDbSpline
210
0.0
220
0.0
230
1.0
 70
    12
 71
     3
 72
    13
 73
     9
 74
     0
 42
0.0000000001
 43
0.0000000001
 40
-3.398668027684848
 40
-3.398668027684848
 40
-3.398668027684848
 40
-3.398668027684848
 40
-3.0
 40
-3.0
 40
-3.0
 40
-2.0
 40
-1.0
 40
0.0
 40
0.0
 40
0.0
 40
0.0
 10
-8.267002550857569
 20
34.39881189676165
 30
0.0
 41
1.0
 10
-8.259560684696853
 20
34.53149520974856
 30
0.0
 41
0.9999623138300792
 10
-8.250708451087233
 20
34.66409189476465
 30
0.0
 41
0.9999623138300792
 10
-8.240446850849054
 20
34.79658696062631
 30
0.0
 41
1.0
 10
-8.234643761018816
 20
34.8575473083369
 30
0.0
 41
1.0
 10
-8.216303789372091
 20
34.98415496498398
 30
0.0
 41
1.0
 10
-8.09009420311429
 20
35.1300957163301
 30
0.0
 41
1.0
 10
-7.96854893213316
 20
35.17713048112839
 30
0.0
 41
1.0
 10
-7.908829509827285
 20
35.18272665351356
 30
0.0
 41
1.0
  0
SPLINE
  5
136
330
1F
100
AcDbEntity
  8
Default
100
AcDbSpline
210
0.0
220
0.0
230
1.0
 70
     8
 71
     2
 72
     8
 73
     5
 74
     0
 42
0.0000000001
 43
0.0000000001
 40
0.0
 40
0.0
 40
0.0
 40
1.0
 40
2.0
 40
3.0
 40
3.0
 40
3.0
 10
-7.908829509827285
 20
35.18272665351356
 30
0.0
 10
-6.591017112335436
 20
35.19367667636416
 30
0.0
 10
-3.954655634427297
 20
35.15036275379025
 30
0.0
 10
-1.318254879006105
 20
35.13462540959117
 30
0.0
 10
0.0
 20
35.13235794818214
 30
0.0
  0
SPLINE
  5
137
330
1F
100
AcDbEntity
  8
Default
100
AcDbSpline
210
0.0
220
0.0
230
1.0
 70
     8
 71
     2
 72
     8
 73
     5
 74
     0
 42
0.0000000001
 43
0.0000000001
 40
-3.0
 40
-3.0
 40
-3.0
 40
-2.0
 40
-1.0
 40
0.0
 40
0.0
 40
0.0
 10
0.0
 20
35.13235794818214
 30
0.0
 10
1.318254879006105
 20
35.13462540959117
 30
0.0
 10
3.954655634427297
 20
35.15036275379025
 30
0.0
 10
6.591017112335436
 20
35.19367667636416
 30
0.0
 10
7.908829509827285
 20
35.18272665351356
 30
0.0
  0
SPLINE
  5
138
330
1F
100
AcDbEntity
  8
Default
100
AcDbSpline
210
0.0
220
0.0
230
1.0
 70
    12
 71
     3
 72
    13
 73
     9
 74
     0
 42
0.0000000001
 43
0.0000000001
 40
0.0
 40
0.0
 40
0.0
 40
0.0
 40
1.0
 40
2.0
 40
3.0
 40
3.0
 40
3.0
 40
3.398668027684848
 40
3.398668027684848
 40
3.398668027684848
 40
3.398668027684848
 10
7.908829509827285
 20
35.18272665351356
 30
0.0
 41
1.0
 10
7.96854893213316
 20
35.17713048112839
 30
0.0
 41
1.0
 10
8.09009420311429
 20
35.1300957163301
 30
0.0
 41
1.0
 10
8.216303789372091
 20
34.98415496498398
 30
0.0
 41
1.0
 10
8.234643761018816
 20
34.8575473083369
 30
0.0
 41
1.0
 10
8.240446850849054
 20
34.79658696062631
 30
0.0
 41
1.0
 10
8.250708451087254
 20
34.66409189476465
 30
0.0
 41
0.9999623138300792
 10
8.259560684696874
 20
34.53149520974856
 30
0.0
 41
0.9999623138300792
 10
8.267002550857569
 20
34.39881189676165
 30
0.0
 41
1.0
  0
SPLINE
  5
139
330
1F
100
AcDbEntity
  8
Default
100
AcDbSpline
210
0.0
220
0.0
230
1.0
 70
     8
 71
     3
 72
    12
 73
     8
 74
     0
 42
0.0000000001
 43
0.0000000001
 40
0.0
 40
0.0
 40
0.0
 40
0.0
 40
1.0
 40
2.0
 40
3.0
 40
4.0
 40
5.0
 40
5.0
 40
5.0
 40
5.0
 10
8.267002550857569
 20
34.39881189676165
 30
0.0
 10
8.315733385548697
 20
33.2920470250744
 30
0.0
 10
8.411933234846288
 20
31.07846609348922
 30
0.0
 10
8.558059083627029
 20
27.75815824376404
 30
0.0
 10
8.694463027749634
 20
24.43747680853907
 30
0.0
 10
8.864677859447937
 20
21.11808767056395
 30
0.0
 10
8.889268254071851
 20
18.90179106056099
 30
0.0
 10
8.764500874110013
 20
17.79852473399536
 30
0.0
  0
SPLINE
  5
13A
330
1F
100
AcDbEntity
  8
Default
100
AcDbSpline
210
0.0
220
0.0
230
1.0
 70
     8
 71
     2
 72
    16
 73
    13
 74
     0
 42
0.0000000001
 43
0.0000000001
 40
-11.0
 40
-11.0
 40
-11.0
 40
-10.0
 40
-9.0
 40
-8.0
 40
-7.0
 40
-6.0
 40
-5.0
 40
-4.0
 40
-3.0
 40
-2.0
 40
-1.0
 40
0.0
 40
0.0
 40
0.0
 10
42.95755819861265
 20
17.85365296100962
 30
0.0
 10
43.27553653898707
 20
17.85419268532414
 30
0.0
 10
43.91149426702839
 20
17.8539968210051
 30
0.0
 10
44.54744975030604
 20
17.85256097602326
 30
0.0
 10
45.18340400971829
 20
17.84968569075949
 30
0.0
 10
45.81933377107322
 20
17.84653333637933
 30
0.0
 10
46.45535952151977
 20
17.83633011621213
 30
0.0
 10
47.08856565398668
 20
17.77313550994488
 30
0.0
 10
47.71494504304121
 20
17.66150486013058
 30
0.0
 10
48.33083456802217
 20
17.50148718063213
 30
0.0
 10
48.93189984791229
 20
17.29360477842665
 30
0.0
 10
49.51445564276679
 20
17.03305953520361
 30
0.0
 10
49.76961098327692
 20
16.8426253982856
 30
0.0
  0
POLYLINE
  5
13B
330
1F
100
AcDbEntity
  8
Default
100
AcDb2dPolyline
 66
     1
 10
0.0
 20
0.0
 30
0.0
  0
VERTEX
  5
13C
330
13B
100
AcDbEntity
  8
Default
100
AcDbVertex
100
AcDb2dVertex
 10
49.76961098327692
 20
16.8426253982856
 30
0.0
  0
VERTEX
  5
13D
330
13B
100
AcDbEntity
  8
Default
100
AcDbVertex
100
AcDb2dVertex
 10
50.21334369105185
 20
16.35801312809342
 30
0.0
  0
SEQEND
  5
13E
330
13B
100
AcDbEntity
  8
Default
  0
SPLINE
  5
13F
330
1F
100
AcDbEntity
  8
Default
100
AcDbSpline
210
0.0
220
0.0
230
1.0
 70
    12
 71
     2
 72
     6
 73
     3
 74
     0
 42
0.0000000001
 43
0.0000000001
 40
-0.2855308194945555
 40
-0.2855308194945555
 40
-0.2855308194945555
 40
0.0
 40
0.0
 40
0.0
 10
50.21334369105185
 20
16.35801312809342
 30
0.0
 41
1.0
 10
50.31401994346852
 20
16.23283279709495
 30
0.0
 41
0.8411392925190023
 10
50.24191367380809
 20
16.08928312295666
 30
0.0
 41
1.0
  0
POLYLINE
  5
140
330
1F
100
AcDbEntity
  8
Default
100
AcDb2dPolyline
 66
     1
 10
0.0
 20
0.0
 30
0.0
  0
VERTEX
  5
141
330
140
100
AcDbEntity
  8
Default
100
AcDbVertex
100
AcDb2dVertex
 10
50.24191367380809
 20
16.08928312295666
 30
0.0
  0
VERTEX
  5
142
330
140
100
AcDbEntity
  8
Default
100
AcDbVertex
100
AcDb2dVertex
 10
49.62800008070377
 20
14.87077842718515
 30
0.0
  0
SEQEND
  5
143
330
140
100
AcDbEntity
  8
Default
  0
SPLINE
  5
144
330
1F
100
AcDbEntity
  8
Default
100
AcDbSpline
210
0.0
220
0.0
230
1.0
 70
     8
 71
     3
 72
     8
 73
     4
 74
     0
 42
0.0000000001
 43
0.0000000001
 40
-1.0
 40
-1.0
 40
-1.0
 40
-1.0
 40
0.0
 40
0.0
 40
0.0
 40
0.0
 10
49.62800008070377
 20
14.87077842718515
 30
0.0
 10
49.60782737414712
 20
14.83073934360429
 30
0.0
 10
49.53873324463279
 20
14.8309706685136
 30
0.0
 10
49.49605201337414
 20
14.84469578425305
 30
0.0
  0
SPLINE
  5
145
330
1F
100
AcDbEntity
  8
Default
100
AcDbSpline
210
0.0
220
0.0
230
1.0
 70
     8
 71
     2
 72
    17
 73
    14
 74
     0
 42
0.0000000001
 43
0.0000000001
 40
-0.5755149710134627
 40
-0.5755149710134627
 40
-0.5755149710134627
 40
0.0
 40
1.0
 40
2.0
 40
3.0
 40
4.0
 40
5.0
 40
6.0
 40
7.0
 40
8.0
 40
9.0
 40
10.0
 40
11.0
 40
11.0
 40
11.0
 10
49.49605201337414
 20
14.84469578425305
 30
0.0
 10
49.26038632706747
 20
14.92047941853425
 30
0.0
 10
48.60990767974167
 20
15.11375255669783
 30
0.0
 10
47.75983264721839
 20
15.25508293046011
 30
0.0
 10
46.89975630823443
 20
15.29187098242568
 30
0.0
 10
46.0394979222165
 20
15.30977451917726
 30
0.0
 10
45.17952949386813
 20
15.33996931216714
 30
0.0
 10
44.31958246855604
 20
15.37019163559646
 30
0.0
 10
43.45947152762085
 20
15.39561740075897
 30
0.0
 10
42.59909444693244
 20
15.41008834818372
 30
0.0
 10
41.73857793104798
 20
15.40768196921446
 30
0.0
 10
40.87841450450426
 20
15.38198833849621
 30
0.0
 10
40.01952054222716
 20
15.32906840668189
 30
0.0
 10
39.59008696293574
 20
15.30285065372
 30
0.0
  0
SPLINE
  5
146
330
1F
100
AcDbEntity
  8
Default
100
AcDbSpline
210
0.0
220
0.0
230
1.0
 70
     8
 71
     3
 72
    16
 73
    12
 74
     0
 42
0.0000000001
 43
0.0000000001
 40
0.0
 40
0.0
 40
0.0
 40
0.0
 40
1.942103930247232
 40
3.371840953526517
 40
4.633531468350091
 40
5.81758844210913
 40
6.753232261964659
 40
7.854807719131936
 40
8.614145819354858
 40
10.04969109524328
 40
13.51973107174976
 40
13.51973107174976
 40
13.51973107174976
 40
13.51973107174976
 10
32.82053130229366
 20
19.95771909680695
 30
0.0
 10
33.03406158162929
 20
20.56874070386221
 30
0.0
 10
33.40248646618258
 20
21.63112765519504
 30
0.0
 10
33.81581842094187
 20
23.12014370077434
 30
0.0
 10
34.04206394657871
 20
24.39443325379601
 30
0.0
 10
34.09040826397512
 20
25.52308571716498
 30
0.0
 10
34.00736414186972
 20
26.5951302055693
 30
0.0
 10
33.84203936152207
 20
27.513528505892
 30
0.0
 10
33.58263943522692
 20
28.58133201062633
 30
0.0
 10
33.12528000474899
 20
30.41340205578233
 30
0.0
 10
32.73574458850189
 20
32.00153887559875
 30
0.0
 10
32.45672122718878
 20
33.12957656303702
 30
0.0
  0
SPLINE
  5
147
330
1F
100
AcDbEntity
  8
Default
100
AcDbSpline
210
0.0
220
0.0
230
1.0
 70
    12
 71
     2
 72
     6
 73
     3
 74
     0
 42
0.0000000001
 43
0.0000000001
 40
0.0
 40
0.0
 40
0.0
 40
0.7434832518933872
 40
0.7434832518933872
 40
0.7434832518933872
 10
32.45672122718878
 20
33.12957656303702
 30
0.0
 41
1.0
 10
32.36635072803166
 20
33.49569102879704
 30
0.0
 41
0.9999897359220614
 10
32.27313691376588
 20
33.85916001190893
 30
0.0
 41
1.0
  0
SPLINE
  5
148
330
1F
100
AcDbEntity
  8
Default
100
AcDbSpline
210
0.0
220
0.0
230
1.0
 70
     8
 71
     3
 72
    11
 73
     7
 74
     0
 42
0.0000000001
 43
0.0000000001
 40
0.0
 40
0.0
 40
0.0
 40
0.0
 40
0.0943979850512939
 40
0.1808067524415644
 40
0.2840775812548267
 40
0.2909310364311248
 40
0.2909310364311248
 40
0.2909310364311248
 40
0.2909310364311248
 10
32.27313691376588
 20
33.85916001190893
 30
0.0
 10
32.26423156829429
 20
33.89283461141796
 30
0.0
 10
32.24724368096432
 20
33.95122127119004
 30
0.0
 10
32.19729696426634
 20
34.03257600120548
 30
0.0
 10
32.15136592501202
 20
34.07953614575605
 30
0.0
 10
32.12158134255824
 20
34.10158672732496
 30
0.0
 10
32.11970852622386
 20
34.10292684107262
 30
0.0
  0
ARC
  5
149
330
1F
100
AcDbEntity
  8
Default
100
AcDbCircle
 10
52.02832841294963
 20
-126.2234609317076
 30
0.0
 40
161.5577412631844
100
AcDbArc
 50
97.07850174639317
 51
97.52445167349177
  0
SPLINE
  5
14A
330
1F
100
AcDbEntity
  8
Default
100
AcDbSpline
210
0.0
220
0.0
230
1.0
 70
    12
 71
     2
 72
     8
 73
     5
 74
     0
 42
0.0000000001
 43
0.0000000001
 40
0.0
 40
0.0
 40
0.0
 40
0.0337840562930002
 40
0.0337840562930002
 40
0.0675954341026109
 40
0.0675954341026109
 40
0.0675954341026109
 10
30.87245665475459
 20
33.94311751777052
 30
0.0
 41
0.9999089120905852
 10
30.85531923580632
 20
33.93928820269705
 30
0.0
 41
0.9434732354634218
 10
30.83943895019203
 20
33.94677841374163
 30
0.0
 41
1.0
 10
30.82354504907403
 20
33.95427504539489
 30
0.0
 41
0.9434272548889802
 10
30.81583626908764
 20
33.97006714120305
 30
0.0
 41
1.0
  0
SPLINE
  5
14B
330
1F
100
AcDbEntity
  8
Default
100
AcDbSpline
210
0.0
220
0.0
230
1.0
 70
    12
 71
     2
 72
     6
 73
     3
 74
     0
 42
0.0000000001
 43
0.0000000001
 40
-0.9391112967875194
 40
-0.9391112967875194
 40
-0.9391112967875194
 40
0.0
 40
0.0
 40
0.0
 10
30.81583626908764
 20
33.97006714120305
 30
0.0
 41
1.0
 10
30.60983353533787
 20
34.39208282889898
 30
0.0
 41
0.9998236317729985
 10
30.41982461253482
 20
34.82153710612658
 30
0.0
 41
1.0
  0
SPLINE
  5
14C
330
1F
100
AcDbEntity
  8
Default
100
AcDbSpline
210
0.0
220
0.0
230
1.0
 70
     8
 71
     3
 72
     8
 73
     4
 74
     0
 42
0.0000000001
 43
0.0000000001
 40
0.0
 40
0.0
 40
0.0
 40
0.0
 40
1.0
 40
1.0
 40
1.0
 40
1.0
 10
30.41982461253482
 20
34.82153710612658
 30
0.0
 10
30.41708372939701
 20
34.82773199408
 30
0.0
 10
30.4155995253854
 20
34.83463102126306
 30
0.0
 10
30.41555040503584
 20
34.84140499087634
 30
0.0
  0
SPLINE
  5
14D
330
1F
100
AcDbEntity
  8
Default
100
AcDbSpline
210
0.0
220
0.0
230
1.0
 70
    24
 71
     2
 72
     6
 73
     3
 74
     0
 42
0.0000000001
 43
0.0000000001
 40
0.0
 40
0.0
 40
0.0
 40
0.3756344302423317
 40
0.3756344302423317
 40
0.3756344302423317
 10
30.41555040503584
 20
34.84140499087634
 30
0.0
 10
30.4141885145572
 20
35.02921726829769
 30
0.0
 10
30.41282662407855
 20
35.21702954571904
 30
0.0
  0
SPLINE
  5
14E
330
1F
100
AcDbEntity
  8
Default
100
AcDbSpline
210
0.0
220
0.0
230
1.0
 70
    12
 71
     2
 72
     6
 73
     3
 74
     0
 42
0.0000000001
 43
0.0000000001
 40
-0.0571194921297601
 40
-0.0571194921297601
 40
-0.0571194921297601
 40
0.0
 40
0.0
 40
0.0
 10
30.41282662407855
 20
35.21702954571904
 30
0.0
 41
1.0
 10
30.41601716704105
 20
35.25357204229517
 30
0.0
 41
0.8451187847612076
 10
30.44612063150242
 20
35.26451343166822
 30
0.0
 41
0.9999980633665538
  0
SPLINE
  5
14F
330
1F
100
AcDbEntity
  8
Default
100
AcDbSpline
210
0.0
220
0.0
230
1.0
 70
    12
 71
     2
 72
     6
 73
     3
 74
     0
 42
0.0000000001
 43
0.0000000001
 40
-1.225569346398654
 40
-1.225569346398654
 40
-1.225569346398654
 40
0.0
 40
0.0
 40
0.0
 10
30.44612063150242
 20
35.26451343166822
 30
0.0
 41
1.0
 10
31.05881468000432
 20
35.27560619321429
 30
0.0
 41
0.9999790130022124
 10
31.67159979157441
 20
35.27876382910361
 30
0.0
 41
1.0
  0
SPLINE
  5
150
330
1F
100
AcDbEntity
  8
Default
100
AcDbSpline
210
0.0
220
0.0
230
1.0
 70
     8
 71
     3
 72
    14
 73
    10
 74
     0
 42
0.0000000001
 43
0.0000000001
 40
-2.066914431306983
 40
-2.066914431306983
 40
-2.066914431306983
 40
-2.066914431306983
 40
-1.874328439170003
 40
-1.762616418280213
 40
-1.468595988338907
 40
-0.9577967491206933
 40
-0.4925312904195531
 40
-0.2440350913921057
 40
0.0
 40
0.0
 40
0.0
 40
0.0
 10
31.67159979157441
 20
35.27876382910361
 30
0.0
 10
31.75223596860016
 20
35.27859622723273
 30
0.0
 10
31.85333858535174
 20
35.28283318686972
 30
0.0
 10
32.05320266507081
 20
35.27369146012269
 30
0.0
 10
32.35541241501923
 20
35.2350978133181
 30
0.0
 10
32.76479377121433
 20
35.10130732123866
 30
0.0
 10
33.07760063162351
 20
34.82628326103705
 30
0.0
 10
33.24813637907272
 20
34.55507315946149
 30
0.0
 10
33.31301455922582
 20
34.40376854528994
 30
0.0
 10
33.33639164398511
 20
34.32568668493997
 30
0.0
  0
SPLINE
  5
151
330
1F
100
AcDbEntity
  8
Default
100
AcDbSpline
210
0.0
220
0.0
230
1.0
 70
    12
 71
     3
 72
    16
 73
    12
 74
     0
 42
0.0000000001
 43
0.0000000001
 40
-10.7034908744336
 40
-10.7034908744336
 40
-10.7034908744336
 40
-10.7034908744336
 40
-9.548444173399638
 40
-9.548444173399638
 40
-9.548444173399638
 40
-5.561390993315754
 40
-4.368682615497302
 40
-3.35377164334195
 40
-1.68637417032936
 40
-0.8406662208826743
 40
0.0
 40
0.0
 40
0.0
 40
0.0
 10
33.33639164398511
 20
34.32568668493997
 30
0.0
 41
1.0
 10
33.47299086214745
 20
33.89415721362377
 30
0.0
 41
0.9999670400222817
 10
33.58697570226285
 20
33.52211070569245
 30
0.0
 41
0.9999670400222817
 10
33.69844835037193
 20
33.14503259744716
 30
0.0
 41
1.0
 10
34.07500333502642
 20
31.87051844585822
 30
0.0
 41
1.0
 10
34.54129098393128
 20
30.20785949451978
 30
0.0
 41
1.0
 10
35.13919788437616
 20
28.23147621482114
 30
0.0
 41
1.0
 10
35.46396751589774
 20
26.98036874994551
 30
0.0
 41
1.0
 10
35.58681884563163
 20
25.80541065429828
 30
0.0
 41
1.0
 10
35.59071719667966
 20
24.68844266069811
 30
0.0
 41
1.0
 10
35.543685975899
 20
24.12674782714105
 30
0.0
 41
1.0
 10
35.51272041042071
 20
23.84865747653162
 30
0.0
 41
1.0
  0
SPLINE
  5
152
330
1F
100
AcDbEntity
  8
Default
100
AcDbSpline
210
0.0
220
0.0
230
1.0
 70
    12
 71
     2
 72
     7
 73
     4
 74
     0
 42
0.0000000001
 43
0.0000000001
 40
-2.503957112930287
 40
-2.503957112930287
 40
-2.503957112930287
 40
-2.139115446905204
 40
-0.0000000000000004
 40
-0.0000000000000004
 40
-0.0000000000000004
 10
49.49605201337414
 20
14.84469578425305
 30
0.0
 41
1.0
 10
49.32193631128339
 20
14.8929013737258
 30
0.0
 41
1.001134924532993
 10
48.08611746452608
 20
15.11824520819492
 30
0.0
 41
0.9933457857868965
 10
47.01317491016954
 20
15.06360132866371
 30
0.0
 41
1.0
  0
LINE
  5
153
330
1F
100
AcDbEntity
  8
Default
100
AcDbLine
 10
47.01317491016954
 20
15.06360132866371
 30
0.0
 11
40.51852473420013
 21
14.73283536139726
 31
0.0
  0
LINE
  5
154
330
1F
100
AcDbEntity
  8
Default
100
AcDbLine
 10
38.95477621780611
 20
15.08970839661274
 30
0.0
 11
40.22341771651566
 21
15.0373098339698
 31
0.0
  0
SPLINE
  5
155
330
1F
100
AcDbEntity
  8
Default
100
AcDbSpline
210
0.0
220
0.0
230
1.0
 70
     8
 71
     3
 72
    12
 73
     8
 74
     0
 42
0.0000000001
 43
0.0000000001
 40
0.0
 40
0.0
 40
0.0
 40
0.0
 40
0.1523912456812672
 40
0.2313469294792212
 40
0.2935323365913671
 40
0.3254333757314992
 40
0.355988330318532
 40
0.355988330318532
 40
0.355988330318532
 40
0.355988330318532
 10
40.22341771651566
 20
15.0373098339698
 30
0.0
 10
40.2990070456251
 20
15.03442880402433
 30
0.0
 10
40.37464082611854
 20
15.02847186127012
 30
0.0
 10
40.47321381287878
 20
15.01559758206762
 30
0.0
 10
40.52205448073423
 20
14.98096932189673
 30
0.0
 10
40.53980237684809
 20
14.94186847436895
 30
0.0
 10
40.54364946827479
 20
14.92195496403239
 30
0.0
 10
40.54347897306036
 20
14.91145119483254
 30
0.0
  0
SPLINE
  5
156
330
1F
100
AcDbEntity
  8
Default
100
AcDbSpline
210
0.0
220
0.0
230
1.0
 70
     8
 71
     3
 72
     8
 73
     4
 74
     0
 42
0.0000000001
 43
0.0000000001
 40
0.0
 40
0.0
 40
0.0
 40
0.0
 40
1.0
 40
1.0
 40
1.0
 40
1.0
 10
40.54347897306036
 20
14.91145119483254
 30
0.0
 10
40.54127012816048
 20
14.77536997342292
 30
0.0
 10
40.49558842932996
 20
14.64176136627277
 30
0.0
 10
40.44639469800657
 20
14.51486394858979
 30
0.0
  0
SPLINE
  5
157
330
1F
100
AcDbEntity
  8
Default
100
AcDbSpline
210
0.0
220
0.0
230
1.0
 70
    12
 71
     2
 72
     8
 73
     5
 74
     0
 42
0.0000000001
 43
0.0000000001
 40
0.0
 40
0.0
 40
0.0
 40
0.0203074198143066
 40
0.0203074198143066
 40
0.0735096054863379
 40
0.0735096054863379
 40
0.0735096054863379
 10
40.44639469800657
 20
14.51486394858979
 30
0.0
 41
1.0
 10
40.4426942805162
 20
14.50531855710915
 30
0.0
 41
0.98775983224758
 10
40.43623255180745
 20
14.49737792424925
 30
0.0
 41
1.0
 10
40.41843360315265
 20
14.47551684974436
 30
0.0
 41
0.9175309740554288
 10
40.39031112477343
 20
14.47355844183666
 30
0.0
 41
1.0
  0
SPLINE
  5
158
330
1F
100
AcDbEntity
  8
Default
100
AcDbSpline
210
0.0
220
0.0
230
1.0
 70
     8
 71
     2
 72
    10
 73
     7
 74
     0
 42
0.0000000001
 43
0.0000000001
 40
0.0
 40
0.0
 40
0.0
 40
1.0
 40
2.0
 40
3.0
 40
4.0
 40
5.0
 40
5.0
 40
5.0
 10
37.53651126328975
 20
14.70812682939171
 30
0.0
 10
37.82085712020881
 20
14.6870827197492
 30
0.0
 10
38.39029963216058
 20
14.65669073704604
 30
0.0
 10
38.96027477567787
 20
14.63905656596918
 30
0.0
 10
39.53030836055154
 20
14.62709059924579
 30
0.0
 10
40.10107325857621
 20
14.62690259860989
 30
0.0
 10
40.38613238648844
 20
14.60079988324106
 30
0.0
  0
SPLINE
  5
159
330
1F
100
AcDbEntity
  8
Default
100
AcDbSpline
210
0.0
220
0.0
230
1.0
 70
    12
 71
     2
 72
     6
 73
     3
 74
     0
 42
0.0000000001
 43
0.0000000001
 40
0.0
 40
0.0
 40
0.0
 40
0.1254244525058922
 40
0.1254244525058922
 40
0.1254244525058922
 10
40.38613238648844
 20
14.60079988324106
 30
0.0
 41
1.0
 10
40.38947974135706
 20
14.53626611390004
 30
0.0
 41
0.9999771139944562
 10
40.39031112477343
 20
14.47355844183666
 30
0.0
 41
1.0
  0
SPLINE
  5
15A
330
1F
100
AcDbEntity
  8
Default
100
AcDbSpline
210
0.0
220
0.0
230
1.0
 70
     8
 71
     2
 72
    18
 73
    15
 74
     0
 42
0.0000000001
 43
0.0000000001
 40
0.0
 40
0.0
 40
0.0
 40
1.0
 40
2.0
 40
3.0
 40
4.0
 40
5.0
 40
6.0
 40
7.0
 40
8.0
 40
9.0
 40
10.0
 40
11.0
 40
12.0
 40
13.0
 40
13.0
 40
13.0
 10
33.58548688094464
 20
19.94902872227679
 30
0.0
 10
33.76588670451432
 20
20.47300663359256
 30
0.0
 10
34.13257263713572
 20
21.51891461652882
 30
0.0
 10
34.48396194480318
 20
22.5701613332576
 30
0.0
 10
34.7853420603534
 20
23.63707207787844
 30
0.0
 10
35.00327228184062
 20
24.7247840474928
 30
0.0
 10
35.0768547017602
 20
25.83289371249469
 30
0.0
 10
34.96851164362818
 20
26.93818525372891
 30
0.0
 10
34.70798038666697
 20
28.01633759469684
 30
0.0
 10
34.39276002524744
 20
29.07895394862106
 30
0.0
 10
34.08097771375469
 20
30.1425109008208
 30
0.0
 10
33.77196890836859
 20
31.20688863502006
 30
0.0
 10
33.46464325974026
 20
32.27175114080533
 30
0.0
 10
33.15474359090567
 20
33.33587108094768
 30
0.0
 10
33.00476039221297
 20
33.86935617518074
 30
0.0
  0
SPLINE
  5
15B
330
1F
100
AcDbEntity
  8
Default
100
AcDbSpline
210
0.0
220
0.0
230
1.0
 70
     8
 71
     2
 72
    10
 73
     7
 74
     0
 42
0.0000000001
 43
0.0000000001
 40
0.0
 40
0.0
 40
0.0
 40
1.0
 40
2.0
 40
3.0
 40
4.0
 40
5.0
 40
5.0
 40
5.0
 10
33.00264267842644
 20
33.87681305603731
 30
0.0
 10
32.95639576132288
 20
34.06704217783657
 30
0.0
 10
32.81613812948143
 20
34.4369809949692
 30
0.0
 10
32.52790129681671
 20
34.71306307619781
 30
0.0
 10
32.14855110936736
 20
34.82915598409536
 30
0.0
 10
31.7564526813556
 20
34.85111911014101
 30
0.0
 10
31.55937478542322
 20
34.85171175931838
 30
0.0
  0
SPLINE
  5
15C
330
1F
100
AcDbEntity
  8
Default
100
AcDbSpline
210
0.0
220
0.0
230
1.0
 70
    12
 71
     2
 72
     6
 73
     3
 74
     0
 42
0.0000000001
 43
0.0000000001
 40
0.0
 40
0.0
 40
0.0
 40
1.14273110650959
 40
1.14273110650959
 40
1.14273110650959
 10
31.55937478542322
 20
34.85171175931838
 30
0.0
 41
1.0
 10
30.9868802014923
 20
34.84788986039214
 30
0.0
 41
0.9999972560044662
 10
30.41555040503584
 20
34.84140499087634
 30
0.0
 41
1.0
  0
SPLINE
  5
15D
330
1F
100
AcDbEntity
  8
Default
100
AcDbSpline
210
0.0
220
0.0
230
1.0
 70
     8
 71
     2
 72
    13
 73
    10
 74
     0
 42
0.0000000001
 43
0.0000000001
 40
0.0
 40
0.0
 40
0.0
 40
1.0
 40
2.0
 40
3.0
 40
4.0
 40
5.0
 40
6.0
 40
7.0
 40
8.0
 40
8.0
 40
8.0
 10
42.58083917166888
 20
17.852787775818
 30
0.0
 10
42.03184721009825
 20
17.85127848198066
 30
0.0
 10
40.93388116184229
 20
17.84428605056478
 30
0.0
 10
39.83594828698079
 20
17.83327586525527
 30
0.0
 10
38.73805881243561
 20
17.81850460304826
 30
0.0
 10
37.64025293095719
 20
17.79848591918072
 30
0.0
 10
36.54239230481153
 20
17.78189137709543
 30
0.0
 10
35.44538951833692
 20
17.71792534123465
 30
0.0
 10
34.36760109469756
 20
17.4929021709236
 30
0.0
 10
33.86299553841528
 20
17.27128325121936
 30
0.0
  0
SPLINE
  5
15E
330
1F
100
AcDbEntity
  8
Default
100
AcDbSpline
210
0.0
220
0.0
230
1.0
 70
     8
 71
     2
 72
    13
 73
    10
 74
     0
 42
0.0000000001
 43
0.0000000001
 40
0.0
 40
0.0
 40
0.0
 40
1.0
 40
2.0
 40
3.0
 40
4.0
 40
5.0
 40
6.0
 40
7.0
 40
8.0
 40
8.0
 40
8.0
 10
38.12274285801087
 20
14.88588519548815
 30
0.0
 10
38.33048324799094
 20
14.92796014736546
 30
0.0
 10
38.74213637063264
 20
15.02905830564198
 30
0.0
 10
39.14986056777269
 20
15.14533953970084
 30
0.0
 10
39.54977013160595
 20
15.28568982027894
 30
0.0
 10
39.94478458347686
 20
15.43948448757145
 30
0.0
 10
40.33627965796714
 20
15.60196579783732
 30
0.0
 10
40.72145316892002
 20
15.77901528677869
 30
0.0
 10
41.0977054717012
 20
15.97438595195443
 30
0.0
 10
41.27980822906915
 20
16.08291296762506
 30
0.0
  0
SPLINE
  5
15F
330
1F
100
AcDbEntity
  8
Default
100
AcDbSpline
210
0.0
220
0.0
230
1.0
 70
     8
 71
     3
 72
    11
 73
     7
 74
     0
 42
0.0000000001
 43
0.0000000001
 40
0.0
 40
0.0
 40
0.0
 40
0.0
 40
0.3351648026042968
 40
0.6368094587203054
 40
1.18849186186077
 40
2.108739504204061
 40
2.108739504204061
 40
2.108739504204061
 40
2.108739504204061
 10
41.27980822906915
 20
16.08291296762506
 30
0.0
 10
41.37596426772501
 20
16.13982612427376
 30
0.0
 10
41.55711224440003
 20
16.250485688671
 30
0.0
 10
41.88454413537914
 20
16.47389447458284
 30
0.0
 10
42.34574429086678
 20
16.84487706623941
 30
0.0
 10
42.66139640291422
 20
17.22870135102649
 30
0.0
 10
42.79377698281348
 20
17.50712283575103
 30
0.0
  0
SPLINE
  5
160
330
1F
100
AcDbEntity
  8
Default
100
AcDbSpline
210
0.0
220
0.0
230
1.0
 70
     8
 71
     3
 72
    11
 73
     7
 74
     0
 42
0.0000000001
 43
0.0000000001
 40
0.0
 40
0.0
 40
0.0
 40
0.0
 40
2.365105487962983
 40
3.996346816045657
 40
5.646510442017146
 40
7.134957544265312
 40
7.134957544265312
 40
7.134957544265312
 40
7.134957544265312
 10
42.79377698281348
 20
17.50712283575103
 30
0.0
 10
43.13068932760541
 20
18.21987416609338
 30
0.0
 10
43.69973894750399
 20
19.42433598395468
 30
0.0
 10
44.49338367318458
 20
21.13100711132954
 30
0.0
 10
45.15239235097167
 20
22.57797235272393
 30
0.0
 10
45.57616120286912
 20
23.53452571393083
 30
0.0
 10
45.77433407232309
 20
23.98938084161312
 30
0.0
  0
SPLINE
  5
161
330
1F
100
AcDbEntity
  8
Default
100
AcDbSpline
210
0.0
220
0.0
230
1.0
 70
    12
 71
     2
 72
     8
 73
     5
 74
     0
 42
0.0000000001
 43
0.0000000001
 40
0.0
 40
0.0
 40
0.0
 40
1.379682443117928
 40
1.379682443117928
 40
2.759364886235856
 40
2.759364886235856
 40
2.759364886235856
 10
45.77433407232309
 20
23.98938084161312
 30
0.0
 41
1.0
 10
46.06991718623659
 20
24.67930816304203
 30
0.0
 41
0.8829250738035976
 10
45.66316969404465
 20
25.31011999191302
 30
0.0
 41
1.0
 10
45.25015190103066
 20
25.94988494832707
 30
0.0
 41
0.8829250738035976
 10
44.49960302785286
 20
25.95647849210184
 30
0.0
 41
1.0
  0
SPLINE
  5
162
330
1F
100
AcDbEntity
  8
Default
100
AcDbSpline
210
0.0
220
0.0
230
1.0
 70
    12
 71
     2
 72
     6
 73
     3
 74
     0
 42
0.0000000001
 43
0.0000000001
 40
0.0
 40
0.0
 40
0.0
 40
6.555530289745614
 40
6.555530289745614
 40
6.555530289745614
 10
44.49960302785286
 20
25.95647849210184
 30
0.0
 41
1.0
 10
41.22168535974718
 20
25.98527487619766
 30
0.0
 41
0.99987233317269
 10
37.94452137280483
 20
25.90931651059739
 30
0.0
 41
0.9999999999999496
  0
SPLINE
  5
163
330
1F
100
AcDbEntity
  8
Default
100
AcDbSpline
210
0.0
220
0.0
230
1.0
 70
     8
 71
     3
 72
    12
 73
     8
 74
     0
 42
0.0000000001
 43
0.0000000001
 40
0.0
 40
0.0
 40
0.0
 40
0.0
 40
0.1966078110567105
 40
0.391756684700644
 40
0.8019735076828474
 40
1.233856357264024
 40
1.761376133313992
 40
1.761376133313992
 40
1.761376133313992
 40
1.761376133313992
 10
37.94452137280484
 20
25.90931651059739
 30
0.0
 10
37.87897103213288
 20
25.90802100971309
 30
0.0
 10
37.74863475020743
 20
25.89746724367212
 30
0.0
 10
37.48632289870457
 20
25.84270258362758
 30
0.0
 10
37.16428723713653
 20
25.71084307022418
 30
0.0
 10
36.78629133533781
 20
25.45090464188748
 30
0.0
 10
36.55845552236599
 20
25.22523821978275
 30
0.0
 10
36.43618766397248
 20
25.09902229127014
 30
0.0
  0
SPLINE
  5
164
330
1F
100
AcDbEntity
  8
Default
100
AcDbSpline
210
0.0
220
0.0
230
1.0
 70
    12
 71
     3
 72
    10
 73
     6
 74
     0
 42
0.0000000001
 43
0.0000000001
 40
-0.7089426933420687
 40
-0.7089426933420687
 40
-0.7089426933420687
 40
-0.7089426933420687
 40
-0.5000524082110864
 40
-0.5000524082110864
 40
0.0
 40
0.0
 40
0.0
 40
0.0
 10
36.43618766397248
 20
25.09902229127014
 30
0.0
 41
1.0
 10
36.13694692231658
 20
24.79351913840475
 30
0.0
 41
1.0
 10
35.86600006221755
 20
24.42327724862964
 30
0.0
 41
1.0
 10
34.96058445051455
 20
22.95728322518259
 30
0.0
 41
1.0
 10
34.44455071080961
 20
21.69454939720038
 30
0.0
 41
1.0
 10
33.98122056556554
 20
20.59163126349513
 30
0.0
 41
1.0
  0
SPLINE
  5
165
330
1F
100
AcDbEntity
  8
Default
100
AcDbSpline
210
0.0
220
0.0
230
1.0
 70
    12
 71
     3
 72
    12
 73
     8
 74
     0
 42
0.0000000001
 43
0.0000000001
 40
-1.0
 40
-1.0
 40
-1.0
 40
-1.0
 40
-0.5170223658558294
 40
-0.5170223658558294
 40
-0.2703903953372826
 40
-0.2703903953372826
 40
0.0
 40
0.0
 40
0.0
 40
0.0
 10
33.98122056556554
 20
20.59163126349513
 30
0.0
 41
1.0
 10
33.92438436217017
 20
20.45633749938511
 30
0.0
 41
1.0
 10
33.85780736098783
 20
20.31691405092969
 30
0.0
 41
1.0
 10
33.75620717925653
 20
20.13476428949622
 30
0.0
 41
1.0
 10
33.71882670210161
 20
20.07306057921172
 30
0.0
 41
1.0
 10
33.65055910984853
 20
19.97054398758052
 30
0.0
 41
1.0
 10
33.61838416326898
 20
19.92687650341654
 30
0.0
 41
1.0
 10
33.580006105769
 20
19.89366112995473
 30
0.0
 41
1.0
  0
POLYLINE
  5
166
330
1F
100
AcDbEntity
  8
Default
100
AcDb2dPolyline
 66
     1
 10
0.0
 20
0.0
 30
0.0
  0
VERTEX
  5
167
330
166
100
AcDbEntity
  8
Default
100
AcDbVertex
100
AcDb2dVertex
 10
33.580006105769
 20
19.89366112995473
 30
0.0
  0
VERTEX
  5
168
330
166
100
AcDbEntity
  8
Default
100
AcDbVertex
100
AcDb2dVertex
 10
32.78493764493476
 20
19.89366112995473
 30
0.0
  0
SEQEND
  5
169
330
166
100
AcDbEntity
  8
Default
  0
ARC
  5
16A
330
1F
100
AcDbEntity
  8
Default
100
AcDbCircle
 10
-18.59253546604151
 20
37.72757443779402
 30
0.0
 40
54.38467805495053
100
AcDbArc
 50
339.2594164915728
 51
340.8573235021994
  0
SPLINE
  5
16B
330
1F
100
AcDbEntity
  8
Default
100
AcDbSpline
210
0.0
220
0.0
230
1.0
 70
     8
 71
     3
 72
     8
 73
     4
 74
     0
 42
0.0000000001
 43
0.0000000001
 40
0.0
 40
0.0
 40
0.0
 40
0.0
 40
1.0
 40
1.0
 40
1.0
 40
1.0
 10
32.26765783672334
 20
18.46792894920802
 30
0.0
 10
32.17279377191312
 20
18.21741526885015
 30
0.0
 10
31.93511855384162
 20
18.00933624398742
 30
0.0
 10
31.68434540356978
 20
17.91516022824294
 30
0.0
  0
ARC
  5
16C
330
1F
100
AcDbEntity
  8
Default
100
AcDbCircle
 10
40.57110810112997
 20
-5.748629960460082
 30
0.0
 40
25.27745076817883
100
AcDbArc
 50
110.5832991737925
 51
113.441808937043
  0
SPLINE
  5
16D
330
1F
100
AcDbEntity
  8
Default
100
AcDbSpline
210
0.0
220
0.0
230
1.0
 70
     8
 71
     3
 72
    12
 73
     8
 74
     0
 42
0.0000000001
 43
0.0000000001
 40
0.0
 40
0.0
 40
0.0
 40
0.0
 40
0.3764079185196961
 40
0.7366419227469463
 40
1.403726567880446
 40
2.089426026172505
 40
2.806850164905986
 40
2.806850164905986
 40
2.806850164905986
 40
2.806850164905986
 10
30.51529649488148
 20
17.44253582044328
 30
0.0
 10
30.47961450240732
 20
17.32231606011094
 30
0.0
 10
30.42265739598119
 20
17.08285177130854
 30
0.0
 10
30.37092086704399
 20
16.61711326814818
 30
0.0
 10
30.42865269661195
 20
16.04232040722727
 30
0.0
 10
30.71211758748331
 20
15.40384036325911
 30
0.0
 10
31.01374535252057
 20
15.04212567318737
 30
0.0
 10
31.23923294888462
 20
14.854680292064
 30
0.0
  0
SPLINE
  5
16E
330
1F
100
AcDbEntity
  8
Default
100
AcDbSpline
210
0.0
220
0.0
230
1.0
 70
    24
 71
     2
 72
     6
 73
     3
 74
     0
 42
0.0000000001
 43
0.0000000001
 40
-1.023969449953251
 40
-1.023969449953251
 40
-1.023969449953251
 40
0.0
 40
0.0
 40
0.0
 10
31.23923294888462
 20
14.854680292064
 30
0.0
 10
31.75120421173803
 20
14.85839305675772
 30
0.0
 10
32.26317547459143
 20
14.86210582145143
 30
0.0
  0
SPLINE
  5
16F
330
1F
100
AcDbEntity
  8
Default
100
AcDbSpline
210
0.0
220
0.0
230
1.0
 70
    12
 71
     2
 72
     6
 73
     3
 74
     0
 42
0.0000000001
 43
0.0000000001
 40
-0.7699893907806937
 40
-0.7699893907806937
 40
-0.7699893907806937
 40
0.0
 40
0.0
 40
0.0
 10
32.26317547459143
 20
14.86210582145143
 30
0.0
 41
1.0
 10
32.61557012596977
 20
15.01721327618017
 30
0.0
 41
0.9999018616282419
 10
32.97217199097125
 20
15.16238704347278
 30
0.0
 41
1.0
  0
SPLINE
  5
170
330
1F
100
AcDbEntity
  8
Default
100
AcDbSpline
210
0.0
220
0.0
230
1.0
 70
     8
 71
     2
 72
    13
 73
    10
 74
     0
 42
0.0000000001
 43
0.0000000001
 40
0.0
 40
0.0
 40
0.0
 40
1.0
 40
2.0
 40
3.0
 40
4.0
 40
5.0
 40
6.0
 40
7.0
 40
8.0
 40
8.0
 40
8.0
 10
40.39031112477343
 20
14.47355844183666
 30
0.0
 10
40.16669207290261
 20
14.41553942601187
 30
0.0
 10
39.69832735184701
 20
14.38059471903694
 30
0.0
 10
39.2318414873836
 20
14.35333901624918
 30
0.0
 10
38.76481880367461
 20
14.32836870979324
 30
0.0
 10
38.2977860009195
 20
14.30495957958801
 30
0.0
 10
37.83066062166554
 20
14.28319945121232
 30
0.0
 10
37.36345819139908
 20
14.26328796922129
 30
0.0
 10
36.89624421353557
 20
14.24003118138782
 30
0.0
 10
36.6624795844979
 20
14.23830272053626
 30
0.0
  0
SPLINE
  5
171
330
1F
100
AcDbEntity
  8
Default
100
AcDbSpline
210
0.0
220
0.0
230
1.0
 70
     8
 71
     3
 72
    12
 73
     8
 74
     0
 42
0.0000000001
 43
0.0000000001
 40
8.0
 40
8.0
 40
8.0
 40
8.0
 40
8.718994952341673
 40
9.221319102328108
 40
10.03029210323231
 40
11.62826553927853
 40
12.32492498358345
 40
12.32492498358345
 40
12.32492498358345
 40
12.32492498358345
 10
36.6624795844979
 20
14.23830272053626
 30
0.0
 10
36.42257314586283
 20
14.23652884700832
 30
0.0
 10
36.01613299946104
 20
14.23729775230433
 30
0.0
 10
35.33844537746279
 20
14.255077604832
 30
0.0
 10
34.37815051014815
 20
14.39819922628639
 30
0.0
 10
33.39792736391308
 20
14.77882917052347
 30
0.0
 10
32.82074440446547
 20
15.30417754834119
 30
0.0
 10
32.62881429146049
 20
15.43620625144166
 30
0.0
  0
LINE
  5
172
330
1F
100
AcDbEntity
  8
Default
100
AcDbLine
 10
32.62881429146049
 20
15.43620625144166
 30
0.0
 11
32.50727821045842
 21
15.39277419509506
 31
0.0
  0
ARC
  5
173
330
1F
100
AcDbEntity
  8
Default
100
AcDbCircle
 10
46.15609778438304
 20
-18.80172081898561
 30
0.0
 40
36.81784574129149
100
AcDbArc
 50
111.7595387902885
 51
113.9173982231036
  0
SPLINE
  5
174
330
1F
100
AcDbEntity
  8
Default
100
AcDbSpline
210
0.0
220
0.0
230
1.0
 70
    12
 71
     2
 72
     6
 73
     3
 74
     0
 42
0.0000000001
 43
0.0000000001
 40
0.0
 40
0.0
 40
0.0
 40
0.4103731654982347
 40
0.4103731654982347
 40
0.4103731654982347
 10
34.45981594424492
 20
14.42430674323685
 30
0.0
 41
1.0
 10
34.25489337155678
 20
14.4139012390939
 30
0.0
 41
0.9999999719724716
 10
34.0499757490461
 20
14.4033987013928
 30
0.0
 41
1.0
  0
SPLINE
  5
175
330
1F
100
AcDbEntity
  8
Default
100
AcDbSpline
210
0.0
220
0.0
230
1.0
 70
    12
 71
     2
 72
     6
 73
     3
 74
     0
 42
0.0000000001
 43
0.0000000001
 40
0.0
 40
0.0
 40
0.0
 40
1.651684540757468
 40
1.651684540757468
 40
1.651684540757468
 10
34.0499757490461
 20
14.4033987013928
 30
0.0
 41
1.0
 10
33.21740895756104
 20
14.51093461190051
 30
0.0
 41
0.9758041065035736
 10
32.51033303989485
 20
14.96345541914475
 30
0.0
 41
1.0
  0
POLYLINE
  5
176
330
1F
100
AcDbEntity
  8
Default
100
AcDb2dPolyline
 66
     1
 10
0.0
 20
0.0
 30
0.0
  0
VERTEX
  5
177
330
176
100
AcDbEntity
  8
Default
100
AcDbVertex
100
AcDb2dVertex
 10
34.75130110480691
 20
20.58801835899433
 30
0.0
  0
VERTEX
  5
178
330
176
100
AcDbEntity
  8
Default
100
AcDbVertex
100
AcDb2dVertex
 10
34.03582679907083
 20
18.33519159311528
 30
0.0
  0
SEQEND
  5
179
330
176
100
AcDbEntity
  8
Default
  0
SPLINE
  5
17A
330
1F
100
AcDbEntity
  8
Default
100
AcDbSpline
210
0.0
220
0.0
230
1.0
 70
     8
 71
     2
 72
    23
 73
    20
 74
     0
 42
0.0000000001
 43
0.0000000001
 40
-18.0
 40
-18.0
 40
-18.0
 40
-17.0
 40
-16.0
 40
-15.0
 40
-14.0
 40
-13.0
 40
-12.0
 40
-11.0
 40
-10.0
 40
-9.0
 40
-8.0
 40
-7.0
 40
-6.0
 40
-5.0
 40
-4.0
 40
-3.0
 40
-2.0
 40
-1.0
 40
0.0
 40
0.0
 40
0.0
 10
34.03582679907083
 20
18.33519159311528
 30
0.0
 10
33.99633255371032
 20
18.21273448610614
 30
0.0
 10
33.93233519066825
 20
17.96342339276848
 30
0.0
 10
33.88985455585444
 20
17.70953525347902
 30
0.0
 10
33.8676073854275
 20
17.4531309107476
 30
0.0
 10
33.85975209780509
 20
17.19589314663452
 30
0.0
 10
33.87684499846742
 20
16.93868271360973
 30
0.0
 10
33.9398283792608
 20
16.68857910392094
 30
0.0
 10
34.04437172120063
 20
16.45304812716801
 30
0.0
 10
34.17358135047337
 20
16.23032572573845
 30
0.0
 10
34.32573412198903
 20
16.02255963568223
 30
0.0
 10
34.49923443356536
 20
15.83227969684428
 30
0.0
 10
34.69155003543781
 20
15.66103870996061
 30
0.0
 10
34.89985002724501
 20
15.50970664045139
 30
0.0
 10
35.12166450773597
 20
15.37901627642949
 30
0.0
 10
35.35377661136133
 20
15.26776204273974
 30
0.0
 10
35.59322988606624
 20
15.1733832870578
 30
0.0
 10
35.83874329148571
 20
15.09614356119713
 30
0.0
 10
36.08978411897414
 20
15.0388570761321
 30
0.0
 10
36.21764705736877
 20
15.02239483880323
 30
0.0
  0
SPLINE
  5
17B
330
1F
100
AcDbEntity
  8
Default
100
AcDbSpline
210
0.0
220
0.0
230
1.0
 70
     8
 71
     2
 72
    11
 73
     8
 74
     0
 42
0.0000000001
 43
0.0000000001
 40
0.0
 40
0.0
 40
0.0
 40
0.9998922721550128
 40
1.99991381772401
 40
2.999935363293007
 40
3.999956908862005
 40
4.999978454431003
 40
6.0
 40
6.0
 40
6.0
 10
36.21764705736877
 20
15.02239483880323
 30
0.0
 10
36.4669910567327
 20
15.00565867894065
 30
0.0
 10
36.96591062700708
 20
15.03233751863008
 30
0.0
 10
37.46115719925322
 20
15.09771145922042
 30
0.0
 10
37.94994965075233
 20
15.20042179838666
 30
0.0
 10
38.43427436061199
 20
15.32200476394228
 30
0.0
 10
38.91329906165947
 20
15.46311760856285
 30
0.0
 10
39.14977712322724
 20
15.54324865760704
 30
0.0
  0
SPLINE
  5
17C
330
1F
100
AcDbEntity
  8
Default
100
AcDbSpline
210
0.0
220
0.0
230
1.0
 70
     8
 71
     3
 72
    12
 73
     8
 74
     0
 42
0.0000000001
 43
0.0000000001
 40
-4.028283816019552
 40
-4.028283816019552
 40
-4.028283816019552
 40
-4.028283816019552
 40
-2.724129642606016
 40
-1.619899275521244
 40
-0.7109079996101784
 40
-0.3299925134026732
 40
0.0
 40
0.0
 40
0.0
 40
0.0
 10
39.14977712322724
 20
15.54324865760704
 30
0.0
 10
39.56255483376503
 20
15.6797876825409
 30
0.0
 10
40.31246582553518
 20
15.96896511903695
 30
0.0
 10
41.29808555542547
 20
16.47456117622982
 30
0.0
 10
41.94588987714161
 20
16.94740767516647
 30
0.0
 10
42.31009950868835
 20
17.34938918399748
 30
0.0
 10
42.43935303907932
 20
17.54842947623045
 30
0.0
 10
42.48683076274955
 20
17.64807467947287
 30
0.0
  0
SPLINE
  5
17D
330
1F
100
AcDbEntity
  8
Default
100
AcDbSpline
210
0.0
220
0.0
230
1.0
 70
    12
 71
     2
 72
     6
 73
     3
 74
     0
 42
0.0000000001
 43
0.0000000001
 40
-7.134656467012396
 40
-7.134656467012396
 40
-7.134656467012396
 40
0.0
 40
0.0
 40
0.0
 10
42.48683076274955
 20
17.64807467947287
 30
0.0
 41
1.0
 10
43.97554641436653
 20
20.8899192832082
 30
0.0
 41
0.9999999999723347
 10
45.46421383709284
 20
24.13178603409305
 30
0.0
 41
1.0
  0
SPLINE
  5
17E
330
1F
100
AcDbEntity
  8
Default
100
AcDbSpline
210
0.0
220
0.0
230
1.0
 70
    12
 71
     2
 72
     8
 73
     5
 74
     0
 42
0.0000000001
 43
0.0000000001
 40
-2.039896679625175
 40
-2.039896679625175
 40
-2.039896679625175
 40
-1.019948339812587
 40
-1.019948339812587
 40
0.0
 40
0.0
 40
0.0
 10
45.46421383709284
 20
24.13178603409305
 30
0.0
 41
1.0
 10
45.6969543871314
 20
24.63855135382236
 30
0.0
 41
0.8765451505110287
 10
45.39425062841241
 20
25.10689918115477
 30
0.0
 41
1.0
 10
45.09154686969345
 20
25.57524700848717
 30
0.0
 41
0.8765451505110287
 10
44.5339066251351
 20
25.57117140319777
 30
0.0
 41
1.0
  0
SPLINE
  5
17F
330
1F
100
AcDbEntity
  8
Default
100
AcDbSpline
210
0.0
220
0.0
230
1.0
 70
     8
 71
     3
 72
    17
 73
    13
 74
     0
 42
0.0000000001
 43
0.0000000001
 40
-12.69558277915412
 40
-12.69558277915412
 40
-12.69558277915412
 40
-12.69558277915412
 40
-6.160250789128044
 40
-6.160250789128044
 40
-6.160250789128044
 40
-5.736894655222111
 40
-5.257873602608599
 40
-4.695564852277931
 40
-4.046758342988472
 40
-2.366045248840019
 40
-1.330079237171369
 40
0.0
 40
0.0
 40
0.0
 40
0.0
 10
44.5339066251351
 20
25.57117140319777
 30
0.0
 10
42.35552080863457
 20
25.55525031277659
 30
0.0
 10
40.12570668024875
 20
25.53920349127622
 30
0.0
 10
37.94731996388359
 20
25.52340600366679
 30
0.0
 10
37.80627900688739
 20
25.52270922466296
 30
0.0
 10
37.50613490204145
 20
25.46345253961515
 30
0.0
 10
37.08178888594418
 20
25.21160464760486
 30
0.0
 10
36.67755490378104
 20
24.8155956074107
 30
0.0
 10
36.11337804065946
 20
24.03020207287221
 30
0.0
 10
35.62603681445557
 20
23.01516796299933
 30
0.0
 10
35.13895582090342
 20
21.75815709219273
 30
0.0
 10
34.88951862039116
 20
21.00898370014789
 30
0.0
 10
34.75130110480691
 20
20.58801835899433
 30
0.0
  0
POLYLINE
  5
180
330
1F
100
AcDbEntity
  8
Default
100
AcDb2dPolyline
 66
     1
 10
0.0
 20
0.0
 30
0.0
  0
VERTEX
  5
181
330
180
100
AcDbEntity
  8
Default
100
AcDbVertex
100
AcDb2dVertex
 10
34.42795810722922
 20
20.59736827975789
 30
0.0
  0
VERTEX
  5
182
330
180
100
AcDbEntity
  8
Default
100
AcDbVertex
100
AcDb2dVertex
 10
33.79367843831903
 20
18.65910863549381
 30
0.0
  0
SEQEND
  5
183
330
180
100
AcDbEntity
  8
Default
  0
SPLINE
  5
184
330
1F
100
AcDbEntity
  8
Default
100
AcDbSpline
210
0.0
220
0.0
230
1.0
 70
     8
 71
     3
 72
    14
 73
    10
 74
     0
 42
0.0000000001
 43
0.0000000001
 40
-2.925089932725565
 40
-2.925089932725565
 40
-2.925089932725565
 40
-2.925089932725565
 40
-2.450616115393024
 40
-2.344763851551224
 40
-2.075712685049938
 40
-1.419014518385656
 40
-0.712822927459071
 40
-0.375660298156378
 40
0.0
 40
0.0
 40
0.0
 40
0.0
 10
33.79367843831903
 20
18.65910863549381
 30
0.0
 10
33.74499689351461
 20
18.50863609753183
 30
0.0
 10
33.68462746224077
 20
18.32483512547088
 30
0.0
 10
33.59661280317073
 20
18.05576562073458
 30
0.0
 10
33.51740569000054
 20
17.72019998289809
 30
0.0
 10
33.50233051478745
 20
17.17203439683626
 30
0.0
 10
33.62652691893055
 20
16.61421611868546
 30
0.0
 10
33.83030099979379
 20
16.18509376326104
 30
0.0
 10
33.96097411286101
 20
15.98657455629667
 30
0.0
 10
34.03781244286441
 20
15.8874142733258
 30
0.0
  0
SPLINE
  5
185
330
1F
100
AcDbEntity
  8
Default
100
AcDbSpline
210
0.0
220
0.0
230
1.0
 70
     8
 71
     2
 72
    18
 73
    15
 74
     0
 42
0.0000000001
 43
0.0000000001
 40
0.0
 40
0.0
 40
0.0
 40
1.0
 40
2.0
 40
3.0
 40
4.0
 40
5.0
 40
6.0
 40
7.0
 40
8.0
 40
9.0
 40
10.0
 40
11.0
 40
12.0
 40
13.0
 40
13.0
 40
13.0
 10
34.03781244286441
 20
15.8874142733258
 30
0.0
 10
34.14241732383593
 20
15.75304751469331
 30
0.0
 10
34.38311162866063
 20
15.51205089444174
 30
0.0
 10
34.65453240936273
 20
15.30634052266285
 30
0.0
 10
34.94443405914868
 20
15.12799165179699
 30
0.0
 10
35.24978364158198
 20
14.97757376117235
 30
0.0
 10
35.5677632409228
 20
14.8561368735849
 30
0.0
 10
35.89556117472193
 20
14.76447211471854
 30
0.0
 10
36.23023472317701
 20
14.70254088883077
 30
0.0
 10
36.56903674963465
 20
14.66998203618726
 30
0.0
 10
36.90939017493429
 20
14.66791633607563
 30
0.0
 10
37.24855202178176
 20
14.69715807024541
 30
0.0
 10
37.58332918552838
 20
14.75787187338004
 30
0.0
 10
37.95800537549246
 20
14.84357387361143
 30
0.0
 10
38.12274285801087
 20
14.88588519548815
 30
0.0
  0
SPLINE
  5
186
330
1F
100
AcDbEntity
  8
Default
100
AcDbSpline
210
0.0
220
0.0
230
1.0
 70
     8
 71
     2
 72
    14
 73
    11
 74
     0
 42
0.0000000001
 43
0.0000000001
 40
-9.0
 40
-9.0
 40
-9.0
 40
-8.0
 40
-7.0
 40
-6.0
 40
-5.0
 40
-4.0
 40
-3.0
 40
-2.0
 40
-1.0
 40
0.0
 40
0.0
 40
0.0
 10
38.12274285801087
 20
14.88588519548815
 30
0.0
 10
38.41723842053264
 20
14.9615236983148
 30
0.0
 10
38.99904627416998
 20
15.13834684534226
 30
0.0
 10
39.57438037878245
 20
15.33514167891045
 30
0.0
 10
40.14299285395114
 20
15.55067342922331
 30
0.0
 10
40.70014178174779
 20
15.7945216959236
 30
0.0
 10
41.2400972203377
 20
16.07468685343257
 30
0.0
 10
41.75336966710751
 20
16.40154049434094
 30
0.0
 10
42.22578106947535
 20
16.78585721737713
 30
0.0
 10
42.62522197666289
 20
17.24787184256577
 30
0.0
 10
42.75611654801293
 20
17.52441711070699
 30
0.0
  0
SPLINE
  5
187
330
1F
100
AcDbEntity
  8
Default
100
AcDbSpline
210
0.0
220
0.0
230
1.0
 70
    12
 71
     2
 72
     6
 73
     3
 74
     0
 42
0.0000000001
 43
0.0000000001
 40
-7.134661926181252
 40
-7.134661926181252
 40
-7.134661926181252
 40
0.0
 40
0.0
 40
0.0
 10
42.75611654801293
 20
17.52441711070699
 30
0.0
 41
1.0
 10
44.25048887757511
 20
20.7636650806038
 30
0.0
 41
0.9999984753730452
 10
45.73354677473986
 20
24.00812865715891
 30
0.0
 41
1.0
  0
SPLINE
  5
188
330
1F
100
AcDbEntity
  8
Default
100
AcDbSpline
210
0.0
220
0.0
230
1.0
 70
    12
 71
     2
 72
     8
 73
     5
 74
     0
 42
0.0000000001
 43
0.0000000001
 40
0.0
 40
0.0
 40
0.0
 40
1.347973588786271
 40
1.347973588786271
 40
2.695947177572542
 40
2.695947177572542
 40
2.695947177572542
 10
45.73354677473986
 20
24.00812865715891
 30
0.0
 41
1.0
 10
46.03871922663811
 20
24.67817535494918
 30
0.0
 41
0.8778415180454479
 10
45.64045854758606
 20
25.29741254826006
 30
0.0
 41
1.0
 10
45.242197868534
 20
25.91664974157094
 30
0.0
 41
0.8778415180454479
 10
44.50278923917409
 20
25.91688691181545
 30
0.0
 41
1.0
  0
SPLINE
  5
189
330
1F
100
AcDbEntity
  8
Default
100
AcDbSpline
210
0.0
220
0.0
230
1.0
 70
    12
 71
     2
 72
     6
 73
     3
 74
     0
 42
0.0000000001
 43
0.0000000001
 40
-6.554936308707257
 40
-6.554936308707257
 40
-6.554936308707257
 40
0.0
 40
0.0
 40
0.0
 10
44.50278923917409
 20
25.91688691181545
 30
0.0
 41
1.0
 10
41.22220689770967
 20
25.89934288818639
 30
0.0
 41
0.9999982043539589
 10
37.94484134013868
 20
25.86938590286861
 30
0.0
 41
1.0
  0
SPLINE
  5
18A
330
1F
100
AcDbEntity
  8
Default
100
AcDbSpline
210
0.0
220
0.0
230
1.0
 70
     8
 71
     3
 72
    14
 73
    10
 74
     0
 42
0.0000000001
 43
0.0000000001
 40
0.0
 40
0.0
 40
0.0
 40
0.0
 40
0.5236472825289638
 40
1.04538540363359
 40
2.334113129586278
 40
3.074923228276718
 40
4.064285510867739
 40
5.145128935998467
 40
6.695969969607652
 40
6.695969969607652
 40
6.695969969607652
 40
6.695969969607652
 10
37.94484134013868
 20
25.86938590286861
 30
0.0
 10
37.77076063814306
 20
25.86602948798054
 30
0.0
 10
37.42137558695276
 20
25.81346654367176
 30
0.0
 10
36.72376160681515
 20
25.44523176120174
 30
0.0
 10
36.16491481666984
 20
24.78205825677929
 30
0.0
 10
35.66698970518436
 20
23.91104931644126
 30
0.0
 10
35.283201051124
 20
23.0528874576713
 30
0.0
 10
34.86071777015312
 20
21.92353610936256
 30
0.0
 10
34.5891811434453
 20
21.08813709271842
 30
0.0
 10
34.42795810722922
 20
20.59736827975789
 30
0.0
  0
SPLINE
  5
18B
330
1F
100
AcDbEntity
  8
Default
100
AcDbSpline
210
0.0
220
0.0
230
1.0
 70
    12
 71
     2
 72
     8
 73
     5
 74
     0
 42
0.0000000001
 43
0.0000000001
 40
-2.175275875317383
 40
-2.175275875317383
 40
-2.175275875317383
 40
-1.087637937658692
 40
-1.087637937658692
 40
0.0
 40
0.0
 40
0.0
 10
45.51207148680754
 20
24.10980988629493
 30
0.0
 41
1.0
 10
45.74954633339281
 20
24.65148651285512
 30
0.0
 41
0.8834748559215619
 10
45.43894854116326
 20
25.15256367528568
 30
0.0
 41
1.0
 10
45.07313260021606
 20
25.68229039894899
 30
0.0
 41
0.8834748559215619
 10
44.48170531413291
 20
25.67763896920832
 30
0.0
 41
1.0
  0
SPLINE
  5
18C
330
1F
100
AcDbEntity
  8
Default
100
AcDbSpline
210
0.0
220
0.0
230
1.0
 70
    12
 71
     2
 72
     6
 73
     3
 74
     0
 42
0.0000000001
 43
0.0000000001
 40
0.0
 40
0.0
 40
0.0
 40
6.535324536744564
 40
6.535324536744564
 40
6.535324536744564
 10
44.48170531413291
 20
25.67763896920832
 30
0.0
 41
1.0
 10
41.21414369160937
 20
25.65194040292951
 30
0.0
 41
0.9999998122366776
 10
37.94654909713358
 20
25.63024656738069
 30
0.0
 41
1.0
  0
SPLINE
  5
18D
330
1F
100
AcDbEntity
  8
Default
100
AcDbSpline
210
0.0
220
0.0
230
1.0
 70
    12
 71
     3
 72
    12
 73
     8
 74
     0
 42
0.0000000001
 43
0.0000000001
 40
0.0
 40
0.0
 40
0.0
 40
0.0
 40
0.5000753322212572
 40
0.5000753322212572
 40
0.7500400247463155
 40
0.7500400247463155
 40
1.0
 40
1.0
 40
1.0
 40
1.0
 10
37.94654909713358
 20
25.63024656738069
 30
0.0
 41
1.0
 10
37.22703392781597
 20
25.62532949013683
 30
0.0
 41
1.0
 10
36.61436601661151
 20
25.11299763475645
 30
0.0
 41
1.0
 10
35.79038005818981
 20
23.65716764260317
 30
0.0
 41
1.0
 10
35.56237640523224
 20
23.12336029159396
 30
0.0
 41
1.0
 10
35.11183721172014
 20
21.91404478854754
 30
0.0
 41
1.0
 10
34.88696815740684
 20
21.21435960463676
 30
0.0
 41
1.0
 10
34.68210174476494
 20
20.58751512551225
 30
0.0
 41
1.0
  0
POLYLINE
  5
18E
330
1F
100
AcDbEntity
  8
Default
100
AcDb2dPolyline
 66
     1
 10
0.0
 20
0.0
 30
0.0
  0
VERTEX
  5
18F
330
18E
100
AcDbEntity
  8
Default
100
AcDbVertex
100
AcDb2dVertex
 10
34.68210174476494
 20
20.58751512551225
 30
0.0
  0
VERTEX
  5
190
330
18E
100
AcDbEntity
  8
Default
100
AcDbVertex
100
AcDb2dVertex
 10
34.03557603919165
 20
18.60048584597574
 30
0.0
  0
SEQEND
  5
191
330
18E
100
AcDbEntity
  8
Default
  0
SPLINE
  5
192
330
1F
100
AcDbEntity
  8
Default
100
AcDbSpline
210
0.0
220
0.0
230
1.0
 70
     8
 71
     2
 72
    15
 73
    12
 74
     0
 42
0.0000000001
 43
0.0000000001
 40
0.0
 40
0.0
 40
0.0
 40
1.0
 40
2.0
 40
3.0
 40
4.0
 40
5.0
 40
6.0
 40
7.0
 40
8.0
 40
9.0
 40
10.0
 40
10.0
 40
10.0
 10
34.03557603919165
 20
18.60048584597574
 30
0.0
 10
33.94525319542657
 20
18.32581026533975
 30
0.0
 10
33.77322928710257
 20
17.7709932245626
 30
0.0
 10
33.76429229543061
 20
17.18846898353617
 30
0.0
 10
33.88941803714289
 20
16.62036374194766
 30
0.0
 10
34.16070256402338
 20
16.10483574300606
 30
0.0
 10
34.55505734642531
 20
15.67730367111591
 30
0.0
 10
35.03440769381558
 20
15.34921682253865
 30
0.0
 10
35.56224884120655
 20
15.1081479655375
 30
0.0
 10
36.12295377090578
 20
14.95896651702258
 30
0.0
 10
36.70027385057568
 20
14.90116259770727
 30
0.0
 10
36.98976987881437
 20
14.92018648657337
 30
0.0
  0
SPLINE
  5
193
330
1F
100
AcDbEntity
  8
Default
100
AcDbSpline
210
0.0
220
0.0
230
1.0
 70
     8
 71
     2
 72
    19
 73
    16
 74
     0
 42
0.0000000001
 43
0.0000000001
 40
0.0
 40
0.0
 40
0.0
 40
1.0
 40
2.0
 40
3.0
 40
4.0
 40
5.0
 40
6.0
 40
7.0
 40
8.0
 40
9.0
 40
10.0
 40
11.0
 40
12.0
 40
13.0
 40
14.0
 40
14.0
 40
14.0
 10
36.98976987881437
 20
14.92018648657337
 30
0.0
 10
37.21652012105773
 20
14.936465879703
 30
0.0
 10
37.66351770427826
 20
15.01874032721553
 30
0.0
 10
38.10546293861901
 20
15.12351149914184
 30
0.0
 10
38.54392017296456
 20
15.24212228936388
 30
0.0
 10
38.97822006906836
 20
15.37514908218175
 30
0.0
 10
39.40834366053656
 20
15.52107518670015
 30
0.0
 10
39.83457417911092
 20
15.67802614494096
 30
0.0
 10
40.25538953436552
 20
15.84901864150522
 30
0.0
 10
40.66870284174269
 20
16.03749970008197
 30
0.0
 10
41.0715823736644
 20
16.24747887978467
 30
0.0
 10
41.45924360590209
 20
16.48450454456273
 30
0.0
 10
41.8265174898529
 20
16.75224020669506
 30
0.0
 10
42.16321771894664
 20
17.0580758484473
 30
0.0
 10
42.44486821814539
 20
17.41638190887283
 30
0.0
 10
42.54121889599355
 20
17.62318131314663
 30
0.0
  0
SPLINE
  5
194
330
1F
100
AcDbEntity
  8
Default
100
AcDbSpline
210
0.0
220
0.0
230
1.0
 70
     8
 71
     3
 72
     9
 73
     5
 74
     0
 42
0.0000000001
 43
0.0000000001
 40
-7.13462914005262
 40
-7.13462914005262
 40
-7.13462914005262
 40
-7.13462914005262
 40
-1.426655541490889
 40
0.0
 40
0.0
 40
0.0
 40
0.0
 10
42.54121889599355
 20
17.62318131314663
 30
0.0
 10
43.33403444492805
 20
19.35276720022402
 30
0.0
 10
44.32793154549083
 20
21.51335757562849
 30
0.0
 10
45.32111355332961
 20
23.67423765324128
 30
0.0
 10
45.51207148680754
 20
24.10980988629493
 30
0.0
  0
SPLINE
  5
195
330
1F
100
AcDbEntity
  8
Default
100
AcDbSpline
210
0.0
220
0.0
230
1.0
 70
    15
 71
     2
 72
    12
 73
     9
 74
     0
 42
0.0000000001
 43
0.0000000001
 40
0.0
 40
0.0
 40
0.0
 40
1.570796326794897
 40
1.570796326794897
 40
3.141592653589793
 40
3.141592653589793
 40
4.71238898038469
 40
4.71238898038469
 40
6.283185307179586
 40
6.283185307179586
 40
6.283185307179586
 10
39.0283810335859
 20
13.55722066937363
 30
0.0
 41
1.0
 10
39.03661459546587
 20
13.38054634369402
 30
0.0
 41
0.7071067811865475
 10
38.64139732069904
 20
13.36212801451511
 30
0.0
 41
1.0
 10
38.24618004593221
 20
13.3437096853362
 30
0.0
 41
0.7071067811865475
 10
38.23794648405223
 20
13.52038401101581
 30
0.0
 41
1.0
 10
38.22971292217225
 20
13.69705833669542
 30
0.0
 41
0.7071067811865475
 10
38.62493019693909
 20
13.71547666587433
 30
0.0
 41
1.0
 10
39.02014747170592
 20
13.73389499505324
 30
0.0
 41
0.7071067811865475
 10
39.0283810335859
 20
13.55722066937363
 30
0.0
 41
1.0
  0
SPLINE
  5
196
330
1F
100
AcDbEntity
  8
Default
100
AcDbSpline
210
0.0
220
0.0
230
1.0
 70
     8
 71
     3
 72
    13
 73
     9
 74
     0
 42
0.0000000001
 43
0.0000000001
 40
0.0
 40
0.0
 40
0.0
 40
0.0
 40
0.2981212301897421
 40
0.6520033169486958
 40
1.75866747796116
 40
2.02792014509328
 40
2.255864737809856
 40
2.398137421766556
 40
2.398137421766556
 40
2.398137421766556
 40
2.398137421766556
 10
36.54133470370002
 20
13.90084109768012
 30
0.0
 10
36.58602892456446
 20
13.81200118606837
 30
0.0
 10
36.69438823941104
 20
13.6235892947377
 30
0.0
 10
37.01955529979581
 20
13.13517285548259
 30
0.0
 10
37.38625729336763
 20
12.68928141601311
 30
0.0
 10
37.70130008157372
 20
12.25739389131447
 30
0.0
 10
37.81252978916731
 20
12.07503389510526
 30
0.0
 10
37.85530431697842
 20
11.95809361000831
 30
0.0
 10
37.85627469501439
 20
11.91000000000027
 30
0.0
  0
POLYLINE
  5
197
330
1F
100
AcDbEntity
  8
Default
100
AcDb2dPolyline
 66
     1
 10
0.0
 20
0.0
 30
0.0
  0
VERTEX
  5
198
330
197
100
AcDbEntity
  8
Default
100
AcDbVertex
100
AcDb2dVertex
 10
37.85627469501439
 20
11.91000000000027
 30
0.0
  0
VERTEX
  5
199
330
197
100
AcDbEntity
  8
Default
100
AcDbVertex
100
AcDb2dVertex
 10
39.65627954711903
 20
11.91000000000007
 30
0.0
  0
SEQEND
  5
19A
330
197
100
AcDbEntity
  8
Default
  0
SPLINE
  5
19B
330
1F
100
AcDbEntity
  8
Default
100
AcDbSpline
210
0.0
220
0.0
230
1.0
 70
     8
 71
     3
 72
    15
 73
    11
 74
     0
 42
0.0000000001
 43
0.0000000001
 40
0.0
 40
0.0
 40
0.0
 40
0.0
 40
0.088124537773721
 40
0.2036322619254046
 40
0.5536785235545338
 40
0.9663894600886548
 40
2.317551417327636
 40
3.055061107656349
 40
3.592815813003495
 40
4.012666374301555
 40
4.012666374301555
 40
4.012666374301555
 40
4.012666374301555
 10
39.65627954711903
 20
11.91000000000007
 30
0.0
 10
39.65687578261148
 20
11.93895775382463
 30
0.0
 10
39.6769980974691
 20
12.0064440679532
 30
0.0
 10
39.79861276696815
 20
12.14756875534938
 30
0.0
 10
40.04210890694191
 20
12.31296863728652
 30
0.0
 10
40.66137844530559
 20
12.64828444875094
 30
0.0
 10
41.41827591552476
 20
13.00069909328631
 30
0.0
 10
42.17271204726792
 20
13.44680512307155
 30
0.0
 10
42.61869722373932
 20
13.79685923891439
 30
0.0
 10
42.82143727289868
 20
14.04723611313205
 30
0.0
 10
42.88650831992916
 20
14.17154300680757
 30
0.0
  0
SPLINE
  5
19C
330
1F
100
AcDbEntity
  8
Default
100
AcDbSpline
210
0.0
220
0.0
230
1.0
 70
    24
 71
     2
 72
     6
 73
     3
 74
     0
 42
0.0000000001
 43
0.0000000001
 40
0.0
 40
0.0
 40
0.0
 40
0.3849119340617779
 40
0.3849119340617779
 40
0.3849119340617779
 10
-2.75683717196226
 20
14.37677097496763
 30
0.0
 10
-2.949293138993156
 20
14.37677097496763
 30
0.0
 10
-3.141749106024051
 20
14.37677097496763
 30
0.0
  0
SPLINE
  5
19D
330
1F
100
AcDbEntity
  8
Default
100
AcDbSpline
210
0.0
220
0.0
230
1.0
 70
    12
 71
     2
 72
     6
 73
     3
 74
     0
 42
0.0000000001
 43
0.0000000001
 40
0.0
 40
0.0
 40
0.0
 40
0.7853981633974483
 40
0.7853981633974483
 40
0.7853981633974483
 10
-3.141749106024051
 20
14.37677097496763
 30
0.0
 41
1.0
 10
-3.641749106024037
 20
14.37677097496763
 30
0.0
 41
0.7071067811865476
 10
-3.641749106024051
 20
14.39858066865031
 30
0.0
 41
1.0
  0
SPLINE
  5
19E
330
1F
100
AcDbEntity
  8
Default
100
AcDbSpline
210
0.0
220
0.0
230
1.0
 70
    24
 71
     2
 72
     6
 73
     3
 74
     0
 42
0.0000000001
 43
0.0000000001
 40
0.0
 40
0.0
 40
0.0
 40
0.359945810699692
 40
0.359945810699692
 40
0.359945810699692
 10
-3.641749106024051
 20
14.39858066865031
 30
0.0
 10
-3.641749106024051
 20
14.57855357400016
 30
0.0
 10
-3.641749106024051
 20
14.75852647935
 30
0.0
  0
SPLINE
  5
19F
330
1F
100
AcDbEntity
  8
Default
100
AcDbSpline
210
0.0
220
0.0
230
1.0
 70
    12
 71
     2
 72
     6
 73
     3
 74
     0
 42
0.0000000001
 43
0.0000000001
 40
0.0
 40
0.0
 40
0.0
 40
0.7853981633974483
 40
0.7853981633974483
 40
0.7853981633974483
 10
-3.641749106024051
 20
14.75852647935
 30
0.0
 41
1.0
 10
-3.641749106024037
 20
14.78033617303267
 30
0.0
 41
0.7071067811865476
 10
-3.141749106024051
 20
14.78033617303269
 30
0.0
 41
1.0
  0
SPLINE
  5
1A0
330
1F
100
AcDbEntity
  8
Default
100
AcDbSpline
210
0.0
220
0.0
230
1.0
 70
    24
 71
     2
 72
     6
 73
     3
 74
     0
 42
0.0000000001
 43
0.0000000001
 40
0.0
 40
0.0
 40
0.0
 40
6.283464566930007
 40
6.283464566930007
 40
6.283464566930007
 10
-3.141749106024051
 20
14.78033617303269
 30
0.0
 10
-0.0000168225590471
 20
14.78033617303269
 30
0.0
 10
3.141715460905957
 20
14.78033617303269
 30
0.0
  0
SPLINE
  5
1A1
330
1F
100
AcDbEntity
  8
Default
100
AcDbSpline
210
0.0
220
0.0
230
1.0
 70
    12
 71
     2
 72
     6
 73
     3
 74
     0
 42
0.0000000001
 43
0.0000000001
 40
0.0
 40
0.0
 40
0.0
 40
0.7853981633974483
 40
0.7853981633974483
 40
0.7853981633974483
 10
3.141715460905957
 20
14.78033617303269
 30
0.0
 41
1.0
 10
3.641715460905971
 20
14.78033617303267
 30
0.0
 41
0.7071067811865476
 10
3.641715460905957
 20
14.75852647935
 30
0.0
 41
1.0
  0
SPLINE
  5
1A2
330
1F
100
AcDbEntity
  8
Default
100
AcDbSpline
210
0.0
220
0.0
230
1.0
 70
    24
 71
     2
 72
     6
 73
     3
 74
     0
 42
0.0000000001
 43
0.0000000001
 40
0.0
 40
0.0
 40
0.0
 40
0.359945810699692
 40
0.359945810699692
 40
0.359945810699692
 10
3.641715460905957
 20
14.75852647935
 30
0.0
 10
3.641715460905957
 20
14.57855357400016
 30
0.0
 10
3.641715460905957
 20
14.39858066865031
 30
0.0
  0
SPLINE
  5
1A3
330
1F
100
AcDbEntity
  8
Default
100
AcDbSpline
210
0.0
220
0.0
230
1.0
 70
    12
 71
     2
 72
     6
 73
     3
 74
     0
 42
0.0000000001
 43
0.0000000001
 40
0.0
 40
0.0
 40
0.0
 40
0.7853981633984484
 40
0.7853981633984484
 40
0.7853981633984484
 10
3.641715460905957
 20
14.39858066865031
 30
0.0
 41
1.0
 10
3.641715460905974
 20
14.37677097496759
 30
0.0
 41
0.7071067811858404
 10
3.141715460904962
 20
14.37677097496763
 30
0.0
 41
1.0
  0
SPLINE
  5
1A4
330
1F
100
AcDbEntity
  8
Default
100
AcDbSpline
210
0.0
220
0.0
230
1.0
 70
    24
 71
     2
 72
     6
 73
     3
 74
     0
 42
0.0000000001
 43
0.0000000001
 40
0.0
 40
0.0
 40
0.0
 40
0.384898494982103
 40
0.384898494982103
 40
0.384898494982103
 10
3.141715460904962
 20
14.37677097496763
 30
0.0
 10
2.949266213413907
 20
14.37677097496763
 30
0.0
 10
2.756816965922852
 20
14.37677097496763
 30
0.0
  0
SPLINE
  5
1A5
330
1F
100
AcDbEntity
  8
Default
100
AcDbSpline
210
0.0
220
0.0
230
1.0
 70
    12
 71
     2
 72
     6
 73
     3
 74
     0
 42
0.0000000001
 43
0.0000000001
 40
-0.0927557571444814
 40
-0.0927557571444814
 40
-0.0927557571444814
 40
0.0
 40
0.0
 40
0.0
 10
2.632562796050664
 20
13.88191098537943
 30
0.0
 41
1.0
 10
2.629920981097025
 20
13.92821713924079
 30
0.0
 41
0.9998844437718732
 10
2.625872662754958
 20
13.9744215783163
 30
0.0
 41
1.0
  0
SPLINE
  5
1A6
330
1F
100
AcDbEntity
  8
Default
100
AcDbSpline
210
0.0
220
0.0
230
1.0
 70
     8
 71
     3
 72
    22
 73
    18
 74
     0
 42
0.0000000001
 43
0.0000000001
 40
0.0
 40
0.0
 40
0.0
 40
0.0
 40
1.0
 40
2.0
 40
3.0
 40
4.0
 40
5.0
 40
6.0
 40
7.0
 40
8.0
 40
9.0
 40
10.0
 40
11.0
 40
12.0
 40
13.0
 40
14.0
 40
15.0
 40
15.0
 40
15.0
 40
15.0
 10
2.625872662754958
 20
13.9744215783163
 30
0.0
 10
2.528447911769348
 20
14.03587512581644
 30
0.0
 10
2.286937103862499
 20
14.05855004513072
 30
0.0
 10
1.94077918234116
 20
14.11668936144154
 30
0.0
 10
1.588391997058153
 20
14.15420132316261
 30
0.0
 10
1.236406168625791
 20
14.18519229066615
 30
0.0
 10
0.8834929433612615
 20
14.20774254333873
 30
0.0
 10
0.5302604429188875
 20
14.22275921061564
 30
0.0
 10
0.1767646404413767
 20
14.23017044109514
 30
0.0
 10
-0.1768005199460987
 20
14.2302017197212
 30
0.0
 10
-0.5302974991675455
 20
14.22283901562045
 30
0.0
 10
-0.8835302496125195
 20
14.20782185473521
 30
0.0
 10
-1.236439212706543
 20
14.1851973567991
 30
0.0
 10
-1.588407291520184
 20
14.15398697722726
 30
0.0
 10
-1.940785852387933
 20
14.11646176031612
 30
0.0
 10
-2.287051985259652
 20
14.05903263615769
 30
0.0
 10
-2.528462706534597
 20
14.03576420108581
 30
0.0
 10
-2.625906311258674
 20
13.9744215783163
 30
0.0
  0
SPLINE
  5
1A7
330
1F
100
AcDbEntity
  8
Default
100
AcDbSpline
210
0.0
220
0.0
230
1.0
 70
    12
 71
     2
 72
     6
 73
     3
 74
     0
 42
0.0000000001
 43
0.0000000001
 40
0.0
 40
0.0
 40
0.0
 40
0.0927557571444814
 40
0.0927557571444814
 40
0.0927557571444814
 10
-2.625906311258674
 20
13.9744215783163
 30
0.0
 41
1.0
 10
-2.629954634277926
 20
13.92821713924079
 30
0.0
 41
0.9998844437718732
 10
-2.632596449231571
 20
13.88191098537943
 30
0.0
 41
1.0
  0
POLYLINE
  5
1A8
330
1F
100
AcDbEntity
  8
Default
100
AcDb2dPolyline
 66
     1
 10
0.0
 20
0.0
 30
0.0
  0
VERTEX
  5
1A9
330
1A8
100
AcDbEntity
  8
Default
100
AcDbVertex
100
AcDb2dVertex
 10
-2.180323590594725
 20
13.85484220677441
 30
0.0
  0
VERTEX
  5
1AA
330
1A8
100
AcDbEntity
  8
Default
100
AcDbVertex
100
AcDb2dVertex
 10
-2.574145395122912
 20
13.82797388262147
 30
0.0
  0
SEQEND
  5
1AB
330
1A8
100
AcDbEntity
  8
Default
  0
ARC
  5
1AC
330
1F
100
AcDbEntity
  8
Default
100
AcDbCircle
 10
-2.617012959583462
 20
13.8857034112549
 30
0.0
 40
0.0719049828524945
100
AcDbArc
 50
202.294812665826
 51
306.5960548147264
  0
SPLINE
  5
1AD
330
1F
100
AcDbEntity
  8
Default
100
AcDbSpline
210
0.0
220
0.0
230
1.0
 70
    12
 71
     2
 72
    14
 73
    11
 74
     0
 42
0.0000000001
 43
0.0000000001
 40
-6.133786681467222
 40
-6.133786681467222
 40
-6.133786681467222
 40
-5.417515997292589
 40
-5.417515997292589
 40
-5.232992932541986
 40
-5.232992932541986
 40
0.0000000000000001
 40
0.0000000000000001
 40
0.1845073348419032
 40
0.1845073348419032
 40
0.9803787898738036
 40
0.9803787898738036
 40
0.9803787898738036
 10
-2.68354261850358
 20
13.85842464583213
 30
0.0
 41
1.0
 10
-2.749814121838398
 20
14.32684693877734
 30
0.0
 41
1.0
 10
-2.799703491566746
 20
14.6814903851289
 30
0.0
 41
1.0
 10
-2.707577879201793
 20
14.686261085756
 30
0.0
 41
1.0
 10
-2.61545226683684
 20
14.69103178638311
 30
0.0
 41
1.0
 10
-0.0000168251813299
 20
14.82647142343203
 30
0.0
 41
0.9986618594433156
 10
2.615418607172856
 20
14.69103160676815
 30
0.0
 41
1.0
 10
2.707552565575142
 20
14.68626046759945
 30
0.0
 41
1.0
 10
2.799686523977414
 20
14.68148932843074
 30
0.0
 41
1.0
 10
2.744248541347233
 20
14.28743416311053
 30
0.0
 41
1.0
 10
2.683508974677054
 20
13.85842464583213
 30
0.0
 41
1.0
  0
ARC
  5
1AE
330
1F
100
AcDbEntity
  8
Default
100
AcDbCircle
 10
2.616979315756936
 20
13.8857034112549
 30
0.0
 40
0.0719049828524945
100
AcDbArc
 50
233.4039451852736
 51
337.705187334174
  0
POLYLINE
  5
1AF
330
1F
100
AcDbEntity
  8
Default
100
AcDb2dPolyline
 66
     1
 10
0.0
 20
0.0
 30
0.0
  0
VERTEX
  5
1B0
330
1AF
100
AcDbEntity
  8
Default
100
AcDbVertex
100
AcDb2dVertex
 10
2.574111751296385
 20
13.82797388262147
 30
0.0
  0
VERTEX
  5
1B1
330
1AF
100
AcDbEntity
  8
Default
100
AcDbVertex
100
AcDb2dVertex
 10
2.180289946768198
 20
13.85484220677441
 30
0.0
  0
SEQEND
  5
1B2
330
1AF
100
AcDbEntity
  8
Default
  0
SPLINE
  5
1B3
330
1F
100
AcDbEntity
  8
Default
100
AcDbSpline
210
0.0
220
0.0
230
1.0
 70
     8
 71
     3
 72
    12
 73
     8
 74
     0
 42
0.0000000001
 43
0.0000000001
 40
-5.0
 40
-5.0
 40
-5.0
 40
-5.0
 40
-4.0
 40
-3.0
 40
-2.0
 40
-1.0
 40
0.0
 40
0.0
 40
0.0
 40
0.0
 10
-2.282468573984872
 20
14.06398661933031
 30
0.0
 10
-2.209934727431431
 20
13.90859709423899
 30
0.0
 10
-2.053673335577315
 20
13.60191426146723
 30
0.0
 10
-1.750890034680765
 20
13.18460769479154
 30
0.0
 10
-1.439129071951427
 20
12.77433266126674
 30
0.0
 10
-1.126921117611218
 20
12.36853885566524
 30
0.0
 10
-0.9248332236678038
 20
12.08228090781385
 30
0.0
 10
-0.9000311741494755
 20
11.90999999999983
 30
0.0
  0
POLYLINE
  5
1B4
330
1F
100
AcDbEntity
  8
Default
100
AcDb2dPolyline
 66
     1
 10
0.0
 20
0.0
 30
0.0
  0
VERTEX
  5
1B5
330
1B4
100
AcDbEntity
  8
Default
100
AcDbVertex
100
AcDb2dVertex
 10
-0.9000311741494755
 20
11.90999999999983
 30
0.0
  0
VERTEX
  5
1B6
330
1B4
100
AcDbEntity
  8
Default
100
AcDbVertex
100
AcDb2dVertex
 10
0.8999981811644489
 20
11.91000017272907
 30
0.0
  0
SEQEND
  5
1B7
330
1B4
100
AcDbEntity
  8
Default
  0
SPLINE
  5
1B8
330
1F
100
AcDbEntity
  8
Default
100
AcDbSpline
210
0.0
220
0.0
230
1.0
 70
     8
 71
     3
 72
    12
 73
     8
 74
     0
 42
0.0000000001
 43
0.0000000001
 40
0.0
 40
0.0
 40
0.0
 40
0.0
 40
1.0
 40
2.0
 40
3.0
 40
4.0
 40
5.0
 40
5.0
 40
5.0
 40
5.0
 10
0.8999981811644489
 20
11.91000017272907
 30
0.0
 10
0.9248001976189357
 20
12.08228108530306
 30
0.0
 10
1.126888036624209
 20
12.3685390719388
 30
0.0
 10
1.439095913085183
 20
12.7743329374587
 30
0.0
 10
1.750856797075244
 20
13.18460803081611
 30
0.0
 10
2.053640017883041
 20
13.60191465560143
 30
0.0
 10
2.209901350879122
 20
13.90859751836261
 30
0.0
 10
2.282435167610473
 20
14.06398705737449
 30
0.0
  0
SPLINE
  5
1B9
330
1F
100
AcDbEntity
  8
Default
100
AcDbSpline
210
0.0
220
0.0
230
1.0
 70
    12
 71
     2
 72
     6
 73
     3
 74
     0
 42
0.0000000001
 43
0.0000000001
 40
0.0
 40
0.0
 40
0.0
 40
6.308534519420058
 40
6.308534519420058
 40
6.308534519420058
 10
-1.890698333391683
 20
13.37787194686158
 30
0.0
 41
1.0
 10
-5.044966186421718
 20
13.3810705414445
 30
0.0
 41
0.999998946622504
 10
-8.199576578108832
 20
13.37510987121441
 30
0.0
 41
1.0
  0
SPLINE
  5
1BA
330
1F
100
AcDbEntity
  8
Default
100
AcDbSpline
210
0.0
220
0.0
230
1.0
 70
    12
 71
     2
 72
     6
 73
     3
 74
     0
 42
0.0000000001
 43
0.0000000001
 40
0.0
 40
0.0
 40
0.0
 40
0.0785831248997358
 40
0.0785831248997358
 40
0.0785831248997358
 10
-8.199576578108832
 20
13.37510987121441
 30
0.0
 41
1.0
 10
-8.249901664726004
 20
13.3751271274331
 30
0.0
 41
0.7080614882125202
 10
-8.250016822538939
 20
13.42510554144265
 30
0.0
 41
1.0
  0
POLYLINE
  5
1BB
330
1F
100
AcDbEntity
  8
Default
100
AcDb2dPolyline
 66
     1
 10
0.0
 20
0.0
 30
0.0
  0
VERTEX
  5
1BC
330
1BB
100
AcDbEntity
  8
Default
100
AcDbVertex
100
AcDb2dVertex
 10
-8.250016822538939
 20
13.42510554144265
 30
0.0
  0
VERTEX
  5
1BD
330
1BB
100
AcDbEntity
  8
Default
100
AcDbVertex
100
AcDb2dVertex
 10
-8.25001682255781
 20
13.64490604054627
 30
0.0
  0
SEQEND
  5
1BE
330
1BB
100
AcDbEntity
  8
Default
  0
SPLINE
  5
1BF
330
1F
100
AcDbEntity
  8
Default
100
AcDbSpline
210
0.0
220
0.0
230
1.0
 70
    12
 71
     2
 72
     6
 73
     3
 74
     0
 42
0.0000000001
 43
0.0000000001
 40
0.0
 40
0.0
 40
0.0
 40
0.0785685106525353
 40
0.0785685106525353
 40
0.0785685106525353
 10
-8.25001682255781
 20
13.64490604054627
 30
0.0
 41
1.0
 10
-8.249866015472367
 20
13.69484875205214
 30
0.0
 41
0.7085750451979772
 10
-8.199583924998151
 20
13.69489653345451
 30
0.0
 41
1.0
  0
SPLINE
  5
1C0
330
1F
100
AcDbEntity
  8
Default
100
AcDbSpline
210
0.0
220
0.0
230
1.0
 70
    12
 71
     2
 72
     6
 73
     3
 74
     0
 42
0.0000000001
 43
0.0000000001
 40
0.0
 40
0.0
 40
0.0
 40
6.107059540251874
 40
6.107059540251874
 40
6.107059540251874
 10
-8.199583924998151
 20
13.69489653345451
 30
0.0
 41
1.0
 10
-5.14571843464079
 20
13.68909636100868
 30
0.0
 41
0.9999990036808405
 10
-2.092187947402763
 20
13.69192600189337
 30
0.0
 41
1.0
  0
SPLINE
  5
1C1
330
1F
100
AcDbEntity
  8
Default
100
AcDbSpline
210
0.0
220
0.0
230
1.0
 70
    24
 71
     2
 72
     6
 73
     3
 74
     0
 42
0.0000000001
 43
0.0000000001
 40
0.0
 40
0.0
 40
0.0
 40
2.133458434542447
 40
2.133458434542447
 40
2.133458434542447
 10
-0.9800168225590369
 20
7.561541565457564
 30
0.0
 10
-0.9800168225590511
 20
8.628270782728787
 30
0.0
 10
-0.9800168225590653
 20
9.695000000000011
 30
0.0
  0
SPLINE
  5
1C2
330
1F
100
AcDbEntity
  8
Default
100
AcDbSpline
210
0.0
220
0.0
230
1.0
 70
    24
 71
     2
 72
     6
 73
     3
 74
     0
 42
0.0000000001
 43
0.0000000001
 40
0.0
 40
0.0
 40
0.0
 40
2.133457786270659
 40
2.133457786270659
 40
2.133457786270659
 10
0.9799831774409711
 20
9.695000000000011
 30
0.0
 10
0.9799831774409711
 20
8.62827110686468
 30
0.0
 10
0.9799831774409711
 20
7.561542213729352
 30
0.0
  0
SPLINE
  5
1C3
330
1F
100
AcDbEntity
  8
Default
100
AcDbSpline
210
0.0
220
0.0
230
1.0
 70
    24
 71
     2
 72
     6
 73
     3
 74
     0
 42
0.0000000001
 43
0.0000000001
 40
0.0
 40
0.0
 40
0.0
 40
0.1739735899772906
 40
0.1739735899772906
 40
0.1739735899772906
 10
0.9780010826612795
 20
9.6969820947797
 30
0.0
 10
0.9164921300511253
 20
9.75849104738986
 30
0.0
 10
0.8549831774409711
 20
9.820000000000018
 30
0.0
  0
SPLINE
  5
1C4
330
1F
100
AcDbEntity
  8
Default
100
AcDbSpline
210
0.0
220
0.0
230
1.0
 70
    24
 71
     2
 72
     6
 73
     3
 74
     0
 42
0.0000000001
 43
0.0000000001
 40
0.0
 40
0.0
 40
0.0
 40
1.706541446864048
 40
1.706541446864048
 40
1.706541446864048
 10
0.8549831774409711
 20
9.820000000000018
 30
0.0
 10
0.0017124540089526
 20
9.820000000000018
 30
0.0
 10
-0.8515582694230659
 20
9.820000000000018
 30
0.0
  0
SPLINE
  5
1C5
330
1F
100
AcDbEntity
  8
Default
100
AcDbSpline
210
0.0
220
0.0
230
1.0
 70
    24
 71
     2
 72
     6
 73
     3
 74
     0
 42
0.0000000001
 43
0.0000000001
 40
0.0
 40
0.0
 40
0.0
 40
0.1767766952966369
 40
0.1767766952966369
 40
0.1767766952966369
 10
-0.8550168225590653
 20
9.820000000000018
 30
0.0
 10
-0.9175168225590653
 20
9.757500000000014
 30
0.0
 10
-0.9800168225590653
 20
9.695000000000011
 30
0.0
  0
POLYLINE
  5
1C6
330
1F
100
AcDbEntity
  8
Default
100
AcDb2dPolyline
 66
     1
 10
0.0
 20
0.0
 30
0.0
  0
VERTEX
  5
1C7
330
1C6
100
AcDbEntity
  8
Default
100
AcDbVertex
100
AcDb2dVertex
 10
-0.359375
 20
0.8425000000000011
 30
0.0
  0
VERTEX
  5
1C8
330
1C6
100
AcDbEntity
  8
Default
100
AcDbVertex
100
AcDb2dVertex
 10
0.359375
 20
0.8425000000000011
 30
0.0
  0
VERTEX
  5
1C9
330
1C6
100
AcDbEntity
  8
Default
100
AcDbVertex
100
AcDb2dVertex
 10
0.359375
 20
2.559999999999986
 30
0.0
  0
VERTEX
  5
1CA
330
1C6
100
AcDbEntity
  8
Default
100
AcDbVertex
100
AcDb2dVertex
 10
-0.359375
 20
2.559999999999986
 30
0.0
  0
VERTEX
  5
1CB
330
1C6
100
AcDbEntity
  8
Default
100
AcDbVertex
100
AcDb2dVertex
 10
-0.359375
 20
0.8425000000000011
 30
0.0
  0
SEQEND
  5
1CC
330
1C6
100
AcDbEntity
  8
Default
  0
SPLINE
  5
1CD
330
1F
100
AcDbEntity
  8
Default
100
AcDbSpline
210
0.0
220
0.0
230
1.0
 70
    24
 71
     2
 72
     6
 73
     3
 74
     0
 42
0.0000000001
 43
0.0000000001
 40
-0.34375
 40
-0.34375
 40
-0.34375
 40
0.0
 40
0.0
 40
0.0
 10
0.75
 20
2.56
 30
0.0
 10
0.578125
 20
2.56
 30
0.0
 10
0.40625
 20
2.56
 30
0.0
  0
SPLINE
  5
1CE
330
1F
100
AcDbEntity
  8
Default
100
AcDbSpline
210
0.0
220
0.0
230
1.0
 70
    12
 71
     2
 72
     8
 73
     5
 74
     0
 42
0.0000000001
 43
0.0000000001
 40
0.0
 40
0.0
 40
0.0
 40
0.0245437074331711
 40
0.0245437074331711
 40
0.0490874148663426
 40
0.0490874148663426
 40
0.0490874148663426
 10
0.40625
 20
2.56
 30
0.0
 41
1.0
 10
0.3933058174903881
 20
2.559999999999998
 30
0.0
 41
0.9238794417265827
 10
0.3841529026036312
 20
2.550847076427806
 30
0.0
 41
1.0
 10
0.3749999877169035
 20
2.541694152855611
 30
0.0
 41
0.9238794417264897
 10
0.375
 20
2.528749970346
 30
0.0
 41
1.0
  0
SPLINE
  5
1CF
330
1F
100
AcDbEntity
  8
Default
100
AcDbSpline
210
0.0
220
0.0
230
1.0
 70
    24
 71
     2
 72
     6
 73
     3
 74
     0
 42
0.0000000001
 43
0.0000000001
 40
0.0
 40
0.0
 40
0.0
 40
2.492448632942286
 40
2.492448632942286
 40
2.492448632942286
 10
0.375
 20
2.528749970346
 30
0.0
 10
0.375
 20
1.281262826937429
 30
0.0
 10
0.375
 20
0.0337756835288575
 30
0.0
  0
SPLINE
  5
1D0
330
1F
100
AcDbEntity
  8
Default
100
AcDbSpline
210
0.0
220
0.0
230
1.0
 70
    12
 71
     2
 72
     8
 73
     5
 74
     0
 42
0.0000000001
 43
0.0000000001
 40
0.0
 40
0.0
 40
0.0
 40
0.0245437074331714
 40
0.0245437074331714
 40
0.0490874148663431
 40
0.0490874148663431
 40
0.0490874148663431
 10
0.375
 20
0.0337756835288575
 30
0.0
 41
1.0
 10
0.374999987716932
 20
0.0183058471443899
 30
0.0
 41
0.9238794417265142
 10
0.3841529026036312
 20
0.0091529235721945
 30
0.0
 41
1.0
 10
0.3933058174903673
 20
0.0
 30
0.0
 41
0.9238794417265332
 10
0.40625
 20
-0.0000000000000002
 30
0.0
 41
1.0
  0
SPLINE
  5
1D1
330
1F
100
AcDbEntity
  8
Default
100
AcDbSpline
210
0.0
220
0.0
230
1.0
 70
    24
 71
     2
 72
     6
 73
     3
 74
     0
 42
0.0000000001
 43
0.0000000001
 40
-0.34375
 40
-0.34375
 40
-0.34375
 40
0.0
 40
0.0
 40
0.0
 10
0.40625
 20
-0.0000000000000002
 30
0.0
 10
0.578125
 20
-0.0000000000000001
 30
0.0
 10
0.75
 20
0.0
 30
0.0
  0
SPLINE
  5
1D2
330
1F
100
AcDbEntity
  8
Default
100
AcDbSpline
210
0.0
220
0.0
230
1.0
 70
    12
 71
     2
 72
     6
 73
     3
 74
     0
 42
0.0000000001
 43
0.0000000001
 40
0.0
 40
0.0
 40
0.0
 40
0.1963495408493663
 40
0.1963495408493663
 40
0.1963495408493663
 10
0.75
 20
0.0
 30
0.0
 41
1.0
 10
0.8749999999999947
 20
-0.0000000000000089
 30
0.0
 41
0.7071067811864994
 10
0.875
 20
0.125
 30
0.0
 41
1.0
  0
SPLINE
  5
1D3
330
1F
100
AcDbEntity
  8
Default
100
AcDbSpline
210
0.0
220
0.0
230
1.0
 70
    24
 71
     2
 72
     6
 73
     3
 74
     0
 42
0.0000000001
 43
0.0000000001
 40
0.0
 40
0.0
 40
0.0
 40
2.31
 40
2.31
 40
2.31
 10
0.875
 20
0.125
 30
0.0
 10
0.875
 20
1.28
 30
0.0
 10
0.875
 20
2.435
 30
0.0
  0
SPLINE
  5
1D4
330
1F
100
AcDbEntity
  8
Default
100
AcDbSpline
210
0.0
220
0.0
230
1.0
 70
    12
 71
     2
 72
     6
 73
     3
 74
     0
 42
0.0000000001
 43
0.0000000001
 40
0.0
 40
0.0
 40
0.0
 40
0.1963495408493654
 40
0.1963495408493654
 40
0.1963495408493654
 10
0.875
 20
2.435
 30
0.0
 41
1.0
 10
0.874999999999991
 20
2.560000000000009
 30
0.0
 41
0.7071067811864986
 10
0.75
 20
2.56
 30
0.0
 41
1.0
  0
SPLINE
  5
1D5
330
1F
100
AcDbEntity
  8
Default
100
AcDbSpline
210
0.0
220
0.0
230
1.0
 70
    24
 71
     2
 72
     6
 73
     3
 74
     0
 42
0.0000000001
 43
0.0000000001
 40
-0.34375
 40
-0.34375
 40
-0.34375
 40
0.0
 40
0.0
 40
0.0
 10
-0.75
 20
2.56
 30
0.0
 10
-0.578125
 20
2.56
 30
0.0
 10
-0.40625
 20
2.56
 30
0.0
  0
SPLINE
  5
1D6
330
1F
100
AcDbEntity
  8
Default
100
AcDbSpline
210
0.0
220
0.0
230
1.0
 70
    12
 71
     2
 72
     8
 73
     5
 74
     0
 42
0.0000000001
 43
0.0000000001
 40
0.0
 40
0.0
 40
0.0
 40
0.0245437074331711
 40
0.0245437074331711
 40
0.0490874148663426
 40
0.0490874148663426
 40
0.0490874148663426
 10
-0.40625
 20
2.56
 30
0.0
 41
1.0
 10
-0.3933058174903683
 20
2.559999999999998
 30
0.0
 41
0.9238794417265827
 10
-0.3841529026036312
 20
2.550847076427806
 30
0.0
 41
1.0
 10
-0.3749999877169088
 20
2.541694152855611
 30
0.0
 41
0.9238794417264897
 10
-0.375
 20
2.528749970346
 30
0.0
 41
1.0
  0
SPLINE
  5
1D7
330
1F
100
AcDbEntity
  8
Default
100
AcDbSpline
210
0.0
220
0.0
230
1.0
 70
    24
 71
     2
 72
     6
 73
     3
 74
     0
 42
0.0000000001
 43
0.0000000001
 40
0.0
 40
0.0
 40
0.0
 40
2.492448632942286
 40
2.492448632942286
 40
2.492448632942286
 10
-0.375
 20
2.528749970346
 30
0.0
 10
-0.375
 20
1.281262826937429
 30
0.0
 10
-0.375
 20
0.0337756835288575
 30
0.0
  0
SPLINE
  5
1D8
330
1F
100
AcDbEntity
  8
Default
100
AcDbSpline
210
0.0
220
0.0
230
1.0
 70
    12
 71
     2
 72
     8
 73
     5
 74
     0
 42
0.0000000001
 43
0.0000000001
 40
0.0
 40
0.0
 40
0.0
 40
0.0245437074331714
 40
0.0245437074331714
 40
0.0490874148663431
 40
0.0490874148663431
 40
0.0490874148663431
 10
-0.375
 20
0.0337756835288575
 30
0.0
 41
1.0
 10
-0.3749999877169221
 20
0.0183058471443899
 30
0.0
 41
0.9238794417265142
 10
-0.3841529026036312
 20
0.0091529235721945
 30
0.0
 41
1.0
 10
-0.3933058174903697
 20
0.0
 30
0.0
 41
0.9238794417265332
 10
-0.40625
 20
-0.0000000000000002
 30
0.0
 41
1.0
  0
SPLINE
  5
1D9
330
1F
100
AcDbEntity
  8
Default
100
AcDbSpline
210
0.0
220
0.0
230
1.0
 70
    24
 71
     2
 72
     6
 73
     3
 74
     0
 42
0.0000000001
 43
0.0000000001
 40
-0.34375
 40
-0.34375
 40
-0.34375
 40
0.0
 40
0.0
 40
0.0
 10
-0.40625
 20
-0.0000000000000002
 30
0.0
 10
-0.578125
 20
-0.0000000000000001
 30
0.0
 10
-0.75
 20
0.0
 30
0.0
  0
SPLINE
  5
1DA
330
1F
100
AcDbEntity
  8
Default
100
AcDbSpline
210
0.0
220
0.0
230
1.0
 70
    12
 71
     2
 72
     6
 73
     3
 74
     0
 42
0.0000000001
 43
0.0000000001
 40
0.0
 40
0.0
 40
0.0
 40
0.1963495408493663
 40
0.1963495408493663
 40
0.1963495408493663
 10
-0.75
 20
0.0
 30
0.0
 41
1.0
 10
-0.8749999999999979
 20
-0.0000000000000089
 30
0.0
 41
0.7071067811864994
 10
-0.875
 20
0.125
 30
0.0
 41
1.0
  0
SPLINE
  5
1DB
330
1F
100
AcDbEntity
  8
Default
100
AcDbSpline
210
0.0
220
0.0
230
1.0
 70
    24
 71
     2
 72
     6
 73
     3
 74
     0
 42
0.0000000001
 43
0.0000000001
 40
0.0
 40
0.0
 40
0.0
 40
2.31
 40
2.31
 40
2.31
 10
-0.875
 20
0.125
 30
0.0
 10
-0.875
 20
1.28
 30
0.0
 10
-0.875
 20
2.435
 30
0.0
  0
SPLINE
  5
1DC
330
1F
100
AcDbEntity
  8
Default
100
AcDbSpline
210
0.0
220
0.0
230
1.0
 70
    12
 71
     2
 72
     6
 73
     3
 74
     0
 42
0.0000000001
 43
0.0000000001
 40
0.0
 40
0.0
 40
0.0
 40
0.1963495408493654
 40
0.1963495408493654
 40
0.1963495408493654
 10
-0.875
 20
2.435
 30
0.0
 41
1.0
 10
-0.8750000000000036
 20
2.560000000000009
 30
0.0
 41
0.7071067811864986
 10
-0.75
 20
2.56
 30
0.0
 41
1.0
  0
SPLINE
  5
1DD
330
1F
100
AcDbEntity
  8
Default
100
AcDbSpline
210
0.0
220
0.0
230
1.0
 70
    24
 71
     2
 72
     6
 73
     3
 74
     0
 42
0.0000000001
 43
0.0000000001
 40
-0.0829573442459228
 40
-0.0829573442459228
 40
-0.0829573442459228
 40
0.0
 40
0.0
 40
0.0
 10
0.3437500000000853
 20
2.559999999999986
 30
0.0
 10
0.3501533480021095
 20
2.601584463637994
 30
0.0
 10
0.3565566960041338
 20
2.643168927276001
 30
0.0
  0
LINE
  5
1DE
330
1F
100
AcDbEntity
  8
Default
100
AcDbLine
 10
0.3565566960041338
 20
2.643168927276001
 30
0.0
 11
-0.3567451448753332
 21
2.643168927201502
 31
0.0
  0
SPLINE
  5
1DF
330
1F
100
AcDbEntity
  8
Default
100
AcDbSpline
210
0.0
220
0.0
230
1.0
 70
    24
 71
     2
 72
     6
 73
     3
 74
     0
 42
0.0000000001
 43
0.0000000001
 40
-0.0829573442459228
 40
-0.0829573442459228
 40
-0.0829573442459228
 40
0.0
 40
0.0
 40
0.0
 10
-0.3567451448753332
 20
2.643168927201502
 30
0.0
 10
-0.3502475724377092
 20
2.601584463600744
 30
0.0
 10
-0.3437500000000853
 20
2.559999999999986
 30
0.0
  0
SPLINE
  5
1E0
330
1F
100
AcDbEntity
  8
Default
100
AcDbSpline
210
0.0
220
0.0
230
1.0
 70
    24
 71
     2
 72
     6
 73
     3
 74
     0
 42
0.0000000001
 43
0.0000000001
 40
-0.34375
 40
-0.34375
 40
-0.34375
 40
0.0
 40
0.0
 40
0.0
 10
-7.001808976534051
 20
2.56
 30
0.0
 10
-7.173683976534051
 20
2.56
 30
0.0
 10
-7.345558976534051
 20
2.56
 30
0.0
  0
SPLINE
  5
1E1
330
1F
100
AcDbEntity
  8
Default
100
AcDbSpline
210
0.0
220
0.0
230
1.0
 70
    12
 71
     2
 72
     8
 73
     5
 74
     0
 42
0.0000000001
 43
0.0000000001
 40
0.0
 40
0.0
 40
0.0
 40
0.0245437074331711
 40
0.0245437074331711
 40
0.0490874148663426
 40
0.0490874148663426
 40
0.0490874148663426
 10
-7.345558976534051
 20
2.56
 30
0.0
 41
1.0
 10
-7.358503159043668
 20
2.559999999999998
 30
0.0
 41
0.9238794417265827
 10
-7.367656073930419
 20
2.550847076427806
 30
0.0
 41
1.0
 10
-7.376808988817132
 20
2.541694152855611
 30
0.0
 41
0.9238794417264897
 10
-7.376808976534051
 20
2.528749970346
 30
0.0
 41
1.0
  0
SPLINE
  5
1E2
330
1F
100
AcDbEntity
  8
Default
100
AcDbSpline
210
0.0
220
0.0
230
1.0
 70
    24
 71
     2
 72
     6
 73
     3
 74
     0
 42
0.0000000001
 43
0.0000000001
 40
0.0
 40
0.0
 40
0.0
 40
2.492448632942286
 40
2.492448632942286
 40
2.492448632942286
 10
-7.376808976534051
 20
2.528749970346
 30
0.0
 10
-7.376808976534051
 20
1.281262826937429
 30
0.0
 10
-7.376808976534051
 20
0.0337756835288575
 30
0.0
  0
SPLINE
  5
1E3
330
1F
100
AcDbEntity
  8
Default
100
AcDbSpline
210
0.0
220
0.0
230
1.0
 70
    12
 71
     2
 72
     8
 73
     5
 74
     0
 42
0.0000000001
 43
0.0000000001
 40
0.0
 40
0.0
 40
0.0
 40
0.0245437074331714
 40
0.0245437074331714
 40
0.0490874148663431
 40
0.0490874148663431
 40
0.0490874148663431
 10
-7.376808976534051
 20
0.0337756835288575
 30
0.0
 41
1.0
 10
-7.376808988817145
 20
0.0183058471443899
 30
0.0
 41
0.9238794417265142
 10
-7.367656073930419
 20
0.0091529235721945
 30
0.0
 41
1.0
 10
-7.358503159043672
 20
0.0
 30
0.0
 41
0.9238794417265332
 10
-7.345558976534051
 20
-0.0000000000000002
 30
0.0
 41
1.0
  0
SPLINE
  5
1E4
330
1F
100
AcDbEntity
  8
Default
100
AcDbSpline
210
0.0
220
0.0
230
1.0
 70
    24
 71
     2
 72
     6
 73
     3
 74
     0
 42
0.0000000001
 43
0.0000000001
 40
-0.34375
 40
-0.34375
 40
-0.34375
 40
0.0
 40
0.0
 40
0.0
 10
-7.345558976534051
 20
-0.0000000000000002
 30
0.0
 10
-7.173683976534051
 20
-0.0000000000000001
 30
0.0
 10
-7.001808976534051
 20
0.0
 30
0.0
  0
SPLINE
  5
1E5
330
1F
100
AcDbEntity
  8
Default
100
AcDbSpline
210
0.0
220
0.0
230
1.0
 70
    12
 71
     2
 72
     6
 73
     3
 74
     0
 42
0.0000000001
 43
0.0000000001
 40
0.0
 40
0.0
 40
0.0
 40
0.1963495408493663
 40
0.1963495408493663
 40
0.1963495408493663
 10
-7.001808976534051
 20
0.0
 30
0.0
 41
1.0
 10
-6.876808976534046
 20
-0.0000000000000089
 30
0.0
 41
0.7071067811864994
 10
-6.876808976534051
 20
0.125
 30
0.0
 41
1.0
  0
SPLINE
  5
1E6
330
1F
100
AcDbEntity
  8
Default
100
AcDbSpline
210
0.0
220
0.0
230
1.0
 70
    24
 71
     2
 72
     6
 73
     3
 74
     0
 42
0.0000000001
 43
0.0000000001
 40
0.0
 40
0.0
 40
0.0
 40
2.31
 40
2.31
 40
2.31
 10
-6.876808976534051
 20
0.125
 30
0.0
 10
-6.876808976534051
 20
1.28
 30
0.0
 10
-6.876808976534051
 20
2.435
 30
0.0
  0
SPLINE
  5
1E7
330
1F
100
AcDbEntity
  8
Default
100
AcDbSpline
210
0.0
220
0.0
230
1.0
 70
    12
 71
     2
 72
     6
 73
     3
 74
     0
 42
0.0000000001
 43
0.0000000001
 40
0.0
 40
0.0
 40
0.0
 40
0.1963495408493654
 40
0.1963495408493654
 40
0.1963495408493654
 10
-6.876808976534051
 20
2.435
 30
0.0
 41
1.0
 10
-6.876808976534059
 20
2.560000000000009
 30
0.0
 41
0.7071067811864986
 10
-7.001808976534051
 20
2.56
 30
0.0
 41
1.0
  0
POLYLINE
  5
1E8
330
1F
100
AcDbEntity
  8
Default
100
AcDb2dPolyline
 66
     1
 10
0.0
 20
0.0
 30
0.0
  0
VERTEX
  5
1E9
330
1E8
100
AcDbEntity
  8
Default
100
AcDbVertex
100
AcDb2dVertex
 10
-8.11118397653405
 20
0.8425000000000011
 30
0.0
  0
VERTEX
  5
1EA
330
1E8
100
AcDbEntity
  8
Default
100
AcDbVertex
100
AcDb2dVertex
 10
-7.392433976534051
 20
0.8425000000000011
 30
0.0
  0
VERTEX
  5
1EB
330
1E8
100
AcDbEntity
  8
Default
100
AcDbVertex
100
AcDb2dVertex
 10
-7.392433976534051
 20
2.559999999999986
 30
0.0
  0
VERTEX
  5
1EC
330
1E8
100
AcDbEntity
  8
Default
100
AcDbVertex
100
AcDb2dVertex
 10
-8.11118397653405
 20
2.559999999999986
 30
0.0
  0
VERTEX
  5
1ED
330
1E8
100
AcDbEntity
  8
Default
100
AcDbVertex
100
AcDb2dVertex
 10
-8.11118397653405
 20
0.8425000000000011
 30
0.0
  0
SEQEND
  5
1EE
330
1E8
100
AcDbEntity
  8
Default
  0
SPLINE
  5
1EF
330
1F
100
AcDbEntity
  8
Default
100
AcDbSpline
210
0.0
220
0.0
230
1.0
 70
    24
 71
     2
 72
     6
 73
     3
 74
     0
 42
0.0000000001
 43
0.0000000001
 40
-0.34375
 40
-0.34375
 40
-0.34375
 40
0.0
 40
0.0
 40
0.0
 10
-8.50180897653405
 20
2.56
 30
0.0
 10
-8.32993397653405
 20
2.56
 30
0.0
 10
-8.15805897653405
 20
2.56
 30
0.0
  0
SPLINE
  5
1F0
330
1F
100
AcDbEntity
  8
Default
100
AcDbSpline
210
0.0
220
0.0
230
1.0
 70
    12
 71
     2
 72
     8
 73
     5
 74
     0
 42
0.0000000001
 43
0.0000000001
 40
0.0
 40
0.0
 40
0.0
 40
0.0245437074331711
 40
0.0245437074331711
 40
0.0490874148663426
 40
0.0490874148663426
 40
0.0490874148663426
 10
-8.15805897653405
 20
2.56
 30
0.0
 41
1.0
 10
-8.145114794024424
 20
2.559999999999998
 30
0.0
 41
0.9238794417265827
 10
-8.135961879137682
 20
2.550847076427806
 30
0.0
 41
1.0
 10
-8.126808964250975
 20
2.541694152855611
 30
0.0
 41
0.9238794417264897
 10
-8.12680897653405
 20
2.528749970346
 30
0.0
 41
1.0
  0
SPLINE
  5
1F1
330
1F
100
AcDbEntity
  8
Default
100
AcDbSpline
210
0.0
220
0.0
230
1.0
 70
    24
 71
     2
 72
     6
 73
     3
 74
     0
 42
0.0000000001
 43
0.0000000001
 40
0.0
 40
0.0
 40
0.0
 40
2.492448632942286
 40
2.492448632942286
 40
2.492448632942286
 10
-8.12680897653405
 20
2.528749970346
 30
0.0
 10
-8.12680897653405
 20
1.281262826937429
 30
0.0
 10
-8.12680897653405
 20
0.0337756835288575
 30
0.0
  0
SPLINE
  5
1F2
330
1F
100
AcDbEntity
  8
Default
100
AcDbSpline
210
0.0
220
0.0
230
1.0
 70
    12
 71
     2
 72
     8
 73
     5
 74
     0
 42
0.0000000001
 43
0.0000000001
 40
0.0
 40
0.0
 40
0.0
 40
0.0245437074331714
 40
0.0245437074331714
 40
0.0490874148663431
 40
0.0490874148663431
 40
0.0490874148663431
 10
-8.12680897653405
 20
0.0337756835288575
 30
0.0
 41
1.0
 10
-8.12680896425097
 20
0.0183058471443899
 30
0.0
 41
0.9238794417265142
 10
-8.135961879137682
 20
0.0091529235721945
 30
0.0
 41
1.0
 10
-8.14511479402444
 20
0.0
 30
0.0
 41
0.9238794417265332
 10
-8.15805897653405
 20
-0.0000000000000002
 30
0.0
 41
1.0
  0
SPLINE
  5
1F3
330
1F
100
AcDbEntity
  8
Default
100
AcDbSpline
210
0.0
220
0.0
230
1.0
 70
    24
 71
     2
 72
     6
 73
     3
 74
     0
 42
0.0000000001
 43
0.0000000001
 40
-0.34375
 40
-0.34375
 40
-0.34375
 40
0.0
 40
0.0
 40
0.0
 10
-8.15805897653405
 20
-0.0000000000000002
 30
0.0
 10
-8.32993397653405
 20
-0.0000000000000001
 30
0.0
 10
-8.50180897653405
 20
0.0
 30
0.0
  0
SPLINE
  5
1F4
330
1F
100
AcDbEntity
  8
Default
100
AcDbSpline
210
0.0
220
0.0
230
1.0
 70
    12
 71
     2
 72
     6
 73
     3
 74
     0
 42
0.0000000001
 43
0.0000000001
 40
0.0
 40
0.0
 40
0.0
 40
0.1963495408493663
 40
0.1963495408493663
 40
0.1963495408493663
 10
-8.50180897653405
 20
0.0
 30
0.0
 41
1.0
 10
-8.62680897653406
 20
-0.0000000000000089
 30
0.0
 41
0.7071067811864994
 10
-8.62680897653405
 20
0.125
 30
0.0
 41
1.0
  0
SPLINE
  5
1F5
330
1F
100
AcDbEntity
  8
Default
100
AcDbSpline
210
0.0
220
0.0
230
1.0
 70
    24
 71
     2
 72
     6
 73
     3
 74
     0
 42
0.0000000001
 43
0.0000000001
 40
0.0
 40
0.0
 40
0.0
 40
2.31
 40
2.31
 40
2.31
 10
-8.62680897653405
 20
0.125
 30
0.0
 10
-8.62680897653405
 20
1.28
 30
0.0
 10
-8.62680897653405
 20
2.435
 30
0.0
  0
SPLINE
  5
1F6
330
1F
100
AcDbEntity
  8
Default
100
AcDbSpline
210
0.0
220
0.0
230
1.0
 70
    12
 71
     2
 72
     6
 73
     3
 74
     0
 42
0.0000000001
 43
0.0000000001
 40
0.0
 40
0.0
 40
0.0
 40
0.1963495408493654
 40
0.1963495408493654
 40
0.1963495408493654
 10
-8.62680897653405
 20
2.435
 30
0.0
 41
1.0
 10
-8.626808976534052
 20
2.560000000000009
 30
0.0
 41
0.7071067811864986
 10
-8.50180897653405
 20
2.56
 30
0.0
 41
1.0
  0
SPLINE
  5
1F7
330
1F
100
AcDbEntity
  8
Default
100
AcDbSpline
210
0.0
220
0.0
230
1.0
 70
    24
 71
     2
 72
     6
 73
     3
 74
     0
 42
0.0000000001
 43
0.0000000001
 40
-0.0829573442459228
 40
-0.0829573442459228
 40
-0.0829573442459228
 40
0.0
 40
0.0
 40
0.0
 10
-7.408058976533965
 20
2.559999999999986
 30
0.0
 10
-7.401655628531955
 20
2.601584463637994
 30
0.0
 10
-7.395252280529945
 20
2.643168927276001
 30
0.0
  0
LINE
  5
1F8
330
1F
100
AcDbEntity
  8
Default
100
AcDbLine
 10
-7.395252280529945
 20
2.643168927276001
 30
0.0
 11
-8.108554121409384
 21
2.643168927201502
 31
0.0
  0
SPLINE
  5
1F9
330
1F
100
AcDbEntity
  8
Default
100
AcDbSpline
210
0.0
220
0.0
230
1.0
 70
    24
 71
     2
 72
     6
 73
     3
 74
     0
 42
0.0000000001
 43
0.0000000001
 40
-0.0829573442459228
 40
-0.0829573442459228
 40
-0.0829573442459228
 40
0.0
 40
0.0
 40
0.0
 10
-8.108554121409384
 20
2.643168927201502
 30
0.0
 10
-8.10205654897176
 20
2.601584463600744
 30
0.0
 10
-8.095558976534136
 20
2.559999999999986
 30
0.0
  0
SPLINE
  5
1FA
330
1F
100
AcDbEntity
  8
Default
100
AcDbSpline
210
0.0
220
0.0
230
1.0
 70
    24
 71
     2
 72
     6
 73
     3
 74
     0
 42
0.0000000001
 43
0.0000000001
 40
-0.34375
 40
-0.34375
 40
-0.34375
 40
0.0
 40
0.0
 40
0.0
 10
-11.79265278193904
 20
2.56
 30
0.0
 10
-11.96452778193904
 20
2.56
 30
0.0
 10
-12.13640278193904
 20
2.56
 30
0.0
  0
SPLINE
  5
1FB
330
1F
100
AcDbEntity
  8
Default
100
AcDbSpline
210
0.0
220
0.0
230
1.0
 70
    12
 71
     2
 72
     8
 73
     5
 74
     0
 42
0.0000000001
 43
0.0000000001
 40
0.0
 40
0.0
 40
0.0
 40
0.0245437074331711
 40
0.0245437074331711
 40
0.0490874148663426
 40
0.0490874148663426
 40
0.0490874148663426
 10
-12.13640278193904
 20
2.56
 30
0.0
 41
1.0
 10
-12.14934696444866
 20
2.559999999999998
 30
0.0
 41
0.9238794417265827
 10
-12.15849987933541
 20
2.550847076427806
 30
0.0
 41
1.0
 10
-12.16765279422212
 20
2.541694152855611
 30
0.0
 41
0.9238794417264897
 10
-12.16765278193904
 20
2.528749970346
 30
0.0
 41
1.0
  0
SPLINE
  5
1FC
330
1F
100
AcDbEntity
  8
Default
100
AcDbSpline
210
0.0
220
0.0
230
1.0
 70
    24
 71
     2
 72
     6
 73
     3
 74
     0
 42
0.0000000001
 43
0.0000000001
 40
0.0
 40
0.0
 40
0.0
 40
2.492448632942286
 40
2.492448632942286
 40
2.492448632942286
 10
-12.16765278193904
 20
2.528749970346
 30
0.0
 10
-12.16765278193904
 20
1.281262826937429
 30
0.0
 10
-12.16765278193904
 20
0.0337756835288575
 30
0.0
  0
SPLINE
  5
1FD
330
1F
100
AcDbEntity
  8
Default
100
AcDbSpline
210
0.0
220
0.0
230
1.0
 70
    12
 71
     2
 72
     8
 73
     5
 74
     0
 42
0.0000000001
 43
0.0000000001
 40
0.0
 40
0.0
 40
0.0
 40
0.0245437074331714
 40
0.0245437074331714
 40
0.0490874148663431
 40
0.0490874148663431
 40
0.0490874148663431
 10
-12.16765278193904
 20
0.0337756835288575
 30
0.0
 41
1.0
 10
-12.16765279422213
 20
0.0183058471443899
 30
0.0
 41
0.9238794417265142
 10
-12.15849987933541
 20
0.0091529235721945
 30
0.0
 41
1.0
 10
-12.14934696444865
 20
0.0
 30
0.0
 41
0.9238794417265332
 10
-12.13640278193904
 20
-0.0000000000000002
 30
0.0
 41
1.0
  0
SPLINE
  5
1FE
330
1F
100
AcDbEntity
  8
Default
100
AcDbSpline
210
0.0
220
0.0
230
1.0
 70
    24
 71
     2
 72
     6
 73
     3
 74
     0
 42
0.0000000001
 43
0.0000000001
 40
-0.34375
 40
-0.34375
 40
-0.34375
 40
0.0
 40
0.0
 40
0.0
 10
-12.13640278193904
 20
-0.0000000000000002
 30
0.0
 10
-11.96452778193904
 20
-0.0000000000000001
 30
0.0
 10
-11.79265278193904
 20
0.0
 30
0.0
  0
SPLINE
  5
1FF
330
1F
100
AcDbEntity
  8
Default
100
AcDbSpline
210
0.0
220
0.0
230
1.0
 70
    12
 71
     2
 72
     6
 73
     3
 74
     0
 42
0.0000000001
 43
0.0000000001
 40
0.0
 40
0.0
 40
0.0
 40
0.1963495408493663
 40
0.1963495408493663
 40
0.1963495408493663
 10
-11.79265278193904
 20
0.0
 30
0.0
 41
1.0
 10
-11.66765278193903
 20
-0.0000000000000089
 30
0.0
 41
0.7071067811864994
 10
-11.66765278193904
 20
0.125
 30
0.0
 41
1.0
  0
SPLINE
  5
200
330
1F
100
AcDbEntity
  8
Default
100
AcDbSpline
210
0.0
220
0.0
230
1.0
 70
    24
 71
     2
 72
     6
 73
     3
 74
     0
 42
0.0000000001
 43
0.0000000001
 40
0.0
 40
0.0
 40
0.0
 40
2.31
 40
2.31
 40
2.31
 10
-11.66765278193904
 20
0.125
 30
0.0
 10
-11.66765278193904
 20
1.28
 30
0.0
 10
-11.66765278193904
 20
2.435
 30
0.0
  0
SPLINE
  5
201
330
1F
100
AcDbEntity
  8
Default
100
AcDbSpline
210
0.0
220
0.0
230
1.0
 70
    12
 71
     2
 72
     6
 73
     3
 74
     0
 42
0.0000000001
 43
0.0000000001
 40
0.0
 40
0.0
 40
0.0
 40
0.1963495408493654
 40
0.1963495408493654
 40
0.1963495408493654
 10
-11.66765278193904
 20
2.435
 30
0.0
 41
1.0
 10
-11.66765278193905
 20
2.560000000000009
 30
0.0
 41
0.7071067811864986
 10
-11.79265278193904
 20
2.56
 30
0.0
 41
1.0
  0
POLYLINE
  5
202
330
1F
100
AcDbEntity
  8
Default
100
AcDb2dPolyline
 66
     1
 10
0.0
 20
0.0
 30
0.0
  0
VERTEX
  5
203
330
202
100
AcDbEntity
  8
Default
100
AcDbVertex
100
AcDb2dVertex
 10
-12.90202778193904
 20
0.8425000000000011
 30
0.0
  0
VERTEX
  5
204
330
202
100
AcDbEntity
  8
Default
100
AcDbVertex
100
AcDb2dVertex
 10
-12.18327778193904
 20
0.8425000000000011
 30
0.0
  0
VERTEX
  5
205
330
202
100
AcDbEntity
  8
Default
100
AcDbVertex
100
AcDb2dVertex
 10
-12.18327778193904
 20
2.559999999999986
 30
0.0
  0
VERTEX
  5
206
330
202
100
AcDbEntity
  8
Default
100
AcDbVertex
100
AcDb2dVertex
 10
-12.90202778193904
 20
2.559999999999986
 30
0.0
  0
VERTEX
  5
207
330
202
100
AcDbEntity
  8
Default
100
AcDbVertex
100
AcDb2dVertex
 10
-12.90202778193904
 20
0.8425000000000011
 30
0.0
  0
SEQEND
  5
208
330
202
100
AcDbEntity
  8
Default
  0
SPLINE
  5
209
330
1F
100
AcDbEntity
  8
Default
100
AcDbSpline
210
0.0
220
0.0
230
1.0
 70
    24
 71
     2
 72
     6
 73
     3
 74
     0
 42
0.0000000001
 43
0.0000000001
 40
-0.34375
 40
-0.34375
 40
-0.34375
 40
0.0
 40
0.0
 40
0.0
 10
-13.29265278193904
 20
2.56
 30
0.0
 10
-13.12077778193904
 20
2.56
 30
0.0
 10
-12.94890278193904
 20
2.56
 30
0.0
  0
SPLINE
  5
20A
330
1F
100
AcDbEntity
  8
Default
100
AcDbSpline
210
0.0
220
0.0
230
1.0
 70
    12
 71
     2
 72
     8
 73
     5
 74
     0
 42
0.0000000001
 43
0.0000000001
 40
0.0
 40
0.0
 40
0.0
 40
0.0245437074331711
 40
0.0245437074331711
 40
0.0490874148663426
 40
0.0490874148663426
 40
0.0490874148663426
 10
-12.94890278193904
 20
2.56
 30
0.0
 41
1.0
 10
-12.93595859942942
 20
2.559999999999998
 30
0.0
 41
0.9238794417265827
 10
-12.92680568454267
 20
2.550847076427806
 30
0.0
 41
1.0
 10
-12.91765276965596
 20
2.541694152855611
 30
0.0
 41
0.9238794417264897
 10
-12.91765278193904
 20
2.528749970346
 30
0.0
 41
1.0
  0
SPLINE
  5
20B
330
1F
100
AcDbEntity
  8
Default
100
AcDbSpline
210
0.0
220
0.0
230
1.0
 70
    24
 71
     2
 72
     6
 73
     3
 74
     0
 42
0.0000000001
 43
0.0000000001
 40
0.0
 40
0.0
 40
0.0
 40
2.492448632942286
 40
2.492448632942286
 40
2.492448632942286
 10
-12.91765278193904
 20
2.528749970346
 30
0.0
 10
-12.91765278193904
 20
1.281262826937429
 30
0.0
 10
-12.91765278193904
 20
0.0337756835288575
 30
0.0
  0
SPLINE
  5
20C
330
1F
100
AcDbEntity
  8
Default
100
AcDbSpline
210
0.0
220
0.0
230
1.0
 70
    12
 71
     2
 72
     8
 73
     5
 74
     0
 42
0.0000000001
 43
0.0000000001
 40
0.0
 40
0.0
 40
0.0
 40
0.0245437074331714
 40
0.0245437074331714
 40
0.0490874148663431
 40
0.0490874148663431
 40
0.0490874148663431
 10
-12.91765278193904
 20
0.0337756835288575
 30
0.0
 41
1.0
 10
-12.91765276965595
 20
0.0183058471443899
 30
0.0
 41
0.9238794417265142
 10
-12.92680568454267
 20
0.0091529235721945
 30
0.0
 41
1.0
 10
-12.93595859942942
 20
0.0
 30
0.0
 41
0.9238794417265332
 10
-12.94890278193904
 20
-0.0000000000000002
 30
0.0
 41
1.0
  0
SPLINE
  5
20D
330
1F
100
AcDbEntity
  8
Default
100
AcDbSpline
210
0.0
220
0.0
230
1.0
 70
    24
 71
     2
 72
     6
 73
     3
 74
     0
 42
0.0000000001
 43
0.0000000001
 40
-0.34375
 40
-0.34375
 40
-0.34375
 40
0.0
 40
0.0
 40
0.0
 10
-12.94890278193904
 20
-0.0000000000000002
 30
0.0
 10
-13.12077778193904
 20
-0.0000000000000001
 30
0.0
 10
-13.29265278193904
 20
0.0
 30
0.0
  0
SPLINE
  5
20E
330
1F
100
AcDbEntity
  8
Default
100
AcDbSpline
210
0.0
220
0.0
230
1.0
 70
    12
 71
     2
 72
     6
 73
     3
 74
     0
 42
0.0000000001
 43
0.0000000001
 40
0.0
 40
0.0
 40
0.0
 40
0.1963495408493663
 40
0.1963495408493663
 40
0.1963495408493663
 10
-13.29265278193904
 20
0.0
 30
0.0
 41
1.0
 10
-13.41765278193904
 20
-0.0000000000000089
 30
0.0
 41
0.7071067811864994
 10
-13.41765278193904
 20
0.125
 30
0.0
 41
1.0
  0
SPLINE
  5
20F
330
1F
100
AcDbEntity
  8
Default
100
AcDbSpline
210
0.0
220
0.0
230
1.0
 70
    24
 71
     2
 72
     6
 73
     3
 74
     0
 42
0.0000000001
 43
0.0000000001
 40
0.0
 40
0.0
 40
0.0
 40
2.31
 40
2.31
 40
2.31
 10
-13.41765278193904
 20
0.125
 30
0.0
 10
-13.41765278193904
 20
1.28
 30
0.0
 10
-13.41765278193904
 20
2.435
 30
0.0
  0
SPLINE
  5
210
330
1F
100
AcDbEntity
  8
Default
100
AcDbSpline
210
0.0
220
0.0
230
1.0
 70
    12
 71
     2
 72
     6
 73
     3
 74
     0
 42
0.0000000001
 43
0.0000000001
 40
0.0
 40
0.0
 40
0.0
 40
0.1963495408493654
 40
0.1963495408493654
 40
0.1963495408493654
 10
-13.41765278193904
 20
2.435
 30
0.0
 41
1.0
 10
-13.41765278193904
 20
2.560000000000009
 30
0.0
 41
0.7071067811864986
 10
-13.29265278193904
 20
2.56
 30
0.0
 41
1.0
  0
SPLINE
  5
211
330
1F
100
AcDbEntity
  8
Default
100
AcDbSpline
210
0.0
220
0.0
230
1.0
 70
    24
 71
     2
 72
     6
 73
     3
 74
     0
 42
0.0000000001
 43
0.0000000001
 40
-0.0829573442459228
 40
-0.0829573442459228
 40
-0.0829573442459228
 40
0.0
 40
0.0
 40
0.0
 10
-12.19890278193895
 20
2.559999999999986
 30
0.0
 10
-12.19249943393694
 20
2.601584463637994
 30
0.0
 10
-12.18609608593493
 20
2.643168927276001
 30
0.0
  0
LINE
  5
212
330
1F
100
AcDbEntity
  8
Default
100
AcDbLine
 10
-12.18609608593493
 20
2.643168927276001
 30
0.0
 11
-12.89939792681434
 21
2.643168927201502
 31
0.0
  0
SPLINE
  5
213
330
1F
100
AcDbEntity
  8
Default
100
AcDbSpline
210
0.0
220
0.0
230
1.0
 70
    24
 71
     2
 72
     6
 73
     3
 74
     0
 42
0.0000000001
 43
0.0000000001
 40
-0.0829573442459228
 40
-0.0829573442459228
 40
-0.0829573442459228
 40
0.0
 40
0.0
 40
0.0
 10
-12.89939792681434
 20
2.643168927201502
 30
0.0
 10
-12.89290035437674
 20
2.601584463600744
 30
0.0
 10
-12.88640278193913
 20
2.559999999999986
 30
0.0
  0
SPLINE
  5
214
330
1F
100
AcDbEntity
  8
Default
100
AcDbSpline
210
0.0
220
0.0
230
1.0
 70
    24
 71
     2
 72
     6
 73
     3
 74
     0
 42
0.0000000001
 43
0.0000000001
 40
-0.34375
 40
-0.34375
 40
-0.34375
 40
0.0
 40
0.0
 40
0.0
 10
7.001808976534051
 20
2.56
 30
0.0
 10
7.173683976534051
 20
2.56
 30
0.0
 10
7.345558976534051
 20
2.56
 30
0.0
  0
SPLINE
  5
215
330
1F
100
AcDbEntity
  8
Default
100
AcDbSpline
210
0.0
220
0.0
230
1.0
 70
    12
 71
     2
 72
     8
 73
     5
 74
     0
 42
0.0000000001
 43
0.0000000001
 40
0.0
 40
0.0
 40
0.0
 40
0.0245437074331711
 40
0.0245437074331711
 40
0.0490874148663426
 40
0.0490874148663426
 40
0.0490874148663426
 10
7.345558976534051
 20
2.56
 30
0.0
 41
1.0
 10
7.358503159043656
 20
2.559999999999998
 30
0.0
 41
0.9238794417265827
 10
7.367656073930419
 20
2.550847076427806
 30
0.0
 41
1.0
 10
7.376808988817126
 20
2.541694152855611
 30
0.0
 41
0.9238794417264897
 10
7.376808976534051
 20
2.528749970346
 30
0.0
 41
1.0
  0
SPLINE
  5
216
330
1F
100
AcDbEntity
  8
Default
100
AcDbSpline
210
0.0
220
0.0
230
1.0
 70
    24
 71
     2
 72
     6
 73
     3
 74
     0
 42
0.0000000001
 43
0.0000000001
 40
0.0
 40
0.0
 40
0.0
 40
2.492448632942286
 40
2.492448632942286
 40
2.492448632942286
 10
7.376808976534051
 20
2.528749970346
 30
0.0
 10
7.376808976534051
 20
1.281262826937429
 30
0.0
 10
7.376808976534051
 20
0.0337756835288575
 30
0.0
  0
SPLINE
  5
217
330
1F
100
AcDbEntity
  8
Default
100
AcDbSpline
210
0.0
220
0.0
230
1.0
 70
    12
 71
     2
 72
     8
 73
     5
 74
     0
 42
0.0000000001
 43
0.0000000001
 40
0.0
 40
0.0
 40
0.0
 40
0.0245437074331714
 40
0.0245437074331714
 40
0.0490874148663431
 40
0.0490874148663431
 40
0.0490874148663431
 10
7.376808976534051
 20
0.0337756835288575
 30
0.0
 41
1.0
 10
7.376808988817124
 20
0.0183058471443899
 30
0.0
 41
0.9238794417265142
 10
7.367656073930419
 20
0.0091529235721945
 30
0.0
 41
1.0
 10
7.35850315904367
 20
0.0
 30
0.0
 41
0.9238794417265332
 10
7.345558976534051
 20
-0.0000000000000002
 30
0.0
 41
1.0
  0
SPLINE
  5
218
330
1F
100
AcDbEntity
  8
Default
100
AcDbSpline
210
0.0
220
0.0
230
1.0
 70
    24
 71
     2
 72
     6
 73
     3
 74
     0
 42
0.0000000001
 43
0.0000000001
 40
-0.34375
 40
-0.34375
 40
-0.34375
 40
0.0
 40
0.0
 40
0.0
 10
7.345558976534051
 20
-0.0000000000000002
 30
0.0
 10
7.173683976534051
 20
-0.0000000000000001
 30
0.0
 10
7.001808976534051
 20
0.0
 30
0.0
  0
SPLINE
  5
219
330
1F
100
AcDbEntity
  8
Default
100
AcDbSpline
210
0.0
220
0.0
230
1.0
 70
    12
 71
     2
 72
     6
 73
     3
 74
     0
 42
0.0000000001
 43
0.0000000001
 40
0.0
 40
0.0
 40
0.0
 40
0.1963495408493663
 40
0.1963495408493663
 40
0.1963495408493663
 10
7.001808976534051
 20
0.0
 30
0.0
 41
1.0
 10
6.876808976534043
 20
-0.0000000000000089
 30
0.0
 41
0.7071067811864994
 10
6.876808976534051
 20
0.125
 30
0.0
 41
1.0
  0
SPLINE
  5
21A
330
1F
100
AcDbEntity
  8
Default
100
AcDbSpline
210
0.0
220
0.0
230
1.0
 70
    24
 71
     2
 72
     6
 73
     3
 74
     0
 42
0.0000000001
 43
0.0000000001
 40
0.0
 40
0.0
 40
0.0
 40
2.31
 40
2.31
 40
2.31
 10
6.876808976534051
 20
0.125
 30
0.0
 10
6.876808976534051
 20
1.28
 30
0.0
 10
6.876808976534051
 20
2.435
 30
0.0
  0
SPLINE
  5
21B
330
1F
100
AcDbEntity
  8
Default
100
AcDbSpline
210
0.0
220
0.0
230
1.0
 70
    12
 71
     2
 72
     6
 73
     3
 74
     0
 42
0.0000000001
 43
0.0000000001
 40
0.0
 40
0.0
 40
0.0
 40
0.1963495408493654
 40
0.1963495408493654
 40
0.1963495408493654
 10
6.876808976534051
 20
2.435
 30
0.0
 41
1.0
 10
6.876808976534046
 20
2.560000000000009
 30
0.0
 41
0.7071067811864986
 10
7.001808976534051
 20
2.56
 30
0.0
 41
1.0
  0
POLYLINE
  5
21C
330
1F
100
AcDbEntity
  8
Default
100
AcDb2dPolyline
 66
     1
 10
0.0
 20
0.0
 30
0.0
  0
VERTEX
  5
21D
330
21C
100
AcDbEntity
  8
Default
100
AcDbVertex
100
AcDb2dVertex
 10
8.11118397653405
 20
0.8425000000000011
 30
0.0
  0
VERTEX
  5
21E
330
21C
100
AcDbEntity
  8
Default
100
AcDbVertex
100
AcDb2dVertex
 10
7.392433976534051
 20
0.8425000000000011
 30
0.0
  0
VERTEX
  5
21F
330
21C
100
AcDbEntity
  8
Default
100
AcDbVertex
100
AcDb2dVertex
 10
7.392433976534051
 20
2.559999999999986
 30
0.0
  0
VERTEX
  5
220
330
21C
100
AcDbEntity
  8
Default
100
AcDbVertex
100
AcDb2dVertex
 10
8.11118397653405
 20
2.559999999999986
 30
0.0
  0
VERTEX
  5
221
330
21C
100
AcDbEntity
  8
Default
100
AcDbVertex
100
AcDb2dVertex
 10
8.11118397653405
 20
0.8425000000000011
 30
0.0
  0
SEQEND
  5
222
330
21C
100
AcDbEntity
  8
Default
  0
SPLINE
  5
223
330
1F
100
AcDbEntity
  8
Default
100
AcDbSpline
210
0.0
220
0.0
230
1.0
 70
    24
 71
     2
 72
     6
 73
     3
 74
     0
 42
0.0000000001
 43
0.0000000001
 40
-0.34375
 40
-0.34375
 40
-0.34375
 40
0.0
 40
0.0
 40
0.0
 10
8.50180897653405
 20
2.56
 30
0.0
 10
8.32993397653405
 20
2.56
 30
0.0
 10
8.15805897653405
 20
2.56
 30
0.0
  0
SPLINE
  5
224
330
1F
100
AcDbEntity
  8
Default
100
AcDbSpline
210
0.0
220
0.0
230
1.0
 70
    12
 71
     2
 72
     8
 73
     5
 74
     0
 42
0.0000000001
 43
0.0000000001
 40
0.0
 40
0.0
 40
0.0
 40
0.0245437074331711
 40
0.0245437074331711
 40
0.0490874148663426
 40
0.0490874148663426
 40
0.0490874148663426
 10
8.15805897653405
 20
2.56
 30
0.0
 41
1.0
 10
8.145114794024444
 20
2.559999999999998
 30
0.0
 41
0.9238794417265827
 10
8.135961879137682
 20
2.550847076427806
 30
0.0
 41
1.0
 10
8.12680896425097
 20
2.541694152855611
 30
0.0
 41
0.9238794417264897
 10
8.12680897653405
 20
2.528749970346
 30
0.0
 41
1.0
  0
SPLINE
  5
225
330
1F
100
AcDbEntity
  8
Default
100
AcDbSpline
210
0.0
220
0.0
230
1.0
 70
    24
 71
     2
 72
     6
 73
     3
 74
     0
 42
0.0000000001
 43
0.0000000001
 40
0.0
 40
0.0
 40
0.0
 40
2.492448632942286
 40
2.492448632942286
 40
2.492448632942286
 10
8.12680897653405
 20
2.528749970346
 30
0.0
 10
8.12680897653405
 20
1.281262826937429
 30
0.0
 10
8.12680897653405
 20
0.0337756835288575
 30
0.0
  0
SPLINE
  5
226
330
1F
100
AcDbEntity
  8
Default
100
AcDbSpline
210
0.0
220
0.0
230
1.0
 70
    12
 71
     2
 72
     8
 73
     5
 74
     0
 42
0.0000000001
 43
0.0000000001
 40
0.0
 40
0.0
 40
0.0
 40
0.0245437074331714
 40
0.0245437074331714
 40
0.0490874148663431
 40
0.0490874148663431
 40
0.0490874148663431
 10
8.12680897653405
 20
0.0337756835288575
 30
0.0
 41
1.0
 10
8.126808964250978
 20
0.0183058471443899
 30
0.0
 41
0.9238794417265142
 10
8.135961879137682
 20
0.0091529235721945
 30
0.0
 41
1.0
 10
8.145114794024439
 20
0.0
 30
0.0
 41
0.9238794417265332
 10
8.15805897653405
 20
-0.0000000000000002
 30
0.0
 41
1.0
  0
SPLINE
  5
227
330
1F
100
AcDbEntity
  8
Default
100
AcDbSpline
210
0.0
220
0.0
230
1.0
 70
    24
 71
     2
 72
     6
 73
     3
 74
     0
 42
0.0000000001
 43
0.0000000001
 40
-0.34375
 40
-0.34375
 40
-0.34375
 40
0.0
 40
0.0
 40
0.0
 10
8.15805897653405
 20
-0.0000000000000002
 30
0.0
 10
8.32993397653405
 20
-0.0000000000000001
 30
0.0
 10
8.50180897653405
 20
0.0
 30
0.0
  0
SPLINE
  5
228
330
1F
100
AcDbEntity
  8
Default
100
AcDbSpline
210
0.0
220
0.0
230
1.0
 70
    12
 71
     2
 72
     6
 73
     3
 74
     0
 42
0.0000000001
 43
0.0000000001
 40
0.0
 40
0.0
 40
0.0
 40
0.1963495408493663
 40
0.1963495408493663
 40
0.1963495408493663
 10
8.50180897653405
 20
0.0
 30
0.0
 41
1.0
 10
8.626808976534056
 20
-0.0000000000000089
 30
0.0
 41
0.7071067811864994
 10
8.62680897653405
 20
0.125
 30
0.0
 41
1.0
  0
SPLINE
  5
229
330
1F
100
AcDbEntity
  8
Default
100
AcDbSpline
210
0.0
220
0.0
230
1.0
 70
    24
 71
     2
 72
     6
 73
     3
 74
     0
 42
0.0000000001
 43
0.0000000001
 40
0.0
 40
0.0
 40
0.0
 40
2.31
 40
2.31
 40
2.31
 10
8.62680897653405
 20
0.125
 30
0.0
 10
8.62680897653405
 20
1.28
 30
0.0
 10
8.62680897653405
 20
2.435
 30
0.0
  0
SPLINE
  5
22A
330
1F
100
AcDbEntity
  8
Default
100
AcDbSpline
210
0.0
220
0.0
230
1.0
 70
    12
 71
     2
 72
     6
 73
     3
 74
     0
 42
0.0000000001
 43
0.0000000001
 40
0.0
 40
0.0
 40
0.0
 40
0.1963495408493654
 40
0.1963495408493654
 40
0.1963495408493654
 10
8.62680897653405
 20
2.435
 30
0.0
 41
1.0
 10
8.62680897653404
 20
2.560000000000009
 30
0.0
 41
0.7071067811864986
 10
8.50180897653405
 20
2.56
 30
0.0
 41
1.0
  0
SPLINE
  5
22B
330
1F
100
AcDbEntity
  8
Default
100
AcDbSpline
210
0.0
220
0.0
230
1.0
 70
    24
 71
     2
 72
     6
 73
     3
 74
     0
 42
0.0000000001
 43
0.0000000001
 40
-0.0829573442459228
 40
-0.0829573442459228
 40
-0.0829573442459228
 40
0.0
 40
0.0
 40
0.0
 10
7.408058976533965
 20
2.559999999999986
 30
0.0
 10
7.401655628531955
 20
2.601584463637994
 30
0.0
 10
7.395252280529945
 20
2.643168927276001
 30
0.0
  0
LINE
  5
22C
330
1F
100
AcDbEntity
  8
Default
100
AcDbLine
 10
7.395252280529945
 20
2.643168927276001
 30
0.0
 11
8.108554121409384
 21
2.643168927201502
 31
0.0
  0
SPLINE
  5
22D
330
1F
100
AcDbEntity
  8
Default
100
AcDbSpline
210
0.0
220
0.0
230
1.0
 70
    24
 71
     2
 72
     6
 73
     3
 74
     0
 42
0.0000000001
 43
0.0000000001
 40
-0.0829573442459228
 40
-0.0829573442459228
 40
-0.0829573442459228
 40
0.0
 40
0.0
 40
0.0
 10
8.108554121409384
 20
2.643168927201502
 30
0.0
 10
8.10205654897176
 20
2.601584463600744
 30
0.0
 10
8.095558976534136
 20
2.559999999999986
 30
0.0
  0
SPLINE
  5
22E
330
1F
100
AcDbEntity
  8
Default
100
AcDbSpline
210
0.0
220
0.0
230
1.0
 70
    24
 71
     2
 72
     6
 73
     3
 74
     0
 42
0.0000000001
 43
0.0000000001
 40
-0.34375
 40
-0.34375
 40
-0.34375
 40
0.0
 40
0.0
 40
0.0
 10
11.79265278193904
 20
2.56
 30
0.0
 10
11.96452778193904
 20
2.56
 30
0.0
 10
12.13640278193904
 20
2.56
 30
0.0
  0
SPLINE
  5
22F
330
1F
100
AcDbEntity
  8
Default
100
AcDbSpline
210
0.0
220
0.0
230
1.0
 70
    12
 71
     2
 72
     8
 73
     5
 74
     0
 42
0.0000000001
 43
0.0000000001
 40
0.0
 40
0.0
 40
0.0
 40
0.0245437074331711
 40
0.0245437074331711
 40
0.0490874148663426
 40
0.0490874148663426
 40
0.0490874148663426
 10
12.13640278193904
 20
2.56
 30
0.0
 41
1.0
 10
12.14934696444865
 20
2.559999999999998
 30
0.0
 41
0.9238794417265827
 10
12.15849987933541
 20
2.550847076427806
 30
0.0
 41
1.0
 10
12.16765279422214
 20
2.541694152855611
 30
0.0
 41
0.9238794417264897
 10
12.16765278193904
 20
2.528749970346
 30
0.0
 41
1.0
  0
SPLINE
  5
230
330
1F
100
AcDbEntity
  8
Default
100
AcDbSpline
210
0.0
220
0.0
230
1.0
 70
    24
 71
     2
 72
     6
 73
     3
 74
     0
 42
0.0000000001
 43
0.0000000001
 40
0.0
 40
0.0
 40
0.0
 40
2.492448632942286
 40
2.492448632942286
 40
2.492448632942286
 10
12.16765278193904
 20
2.528749970346
 30
0.0
 10
12.16765278193904
 20
1.281262826937429
 30
0.0
 10
12.16765278193904
 20
0.0337756835288575
 30
0.0
  0
SPLINE
  5
231
330
1F
100
AcDbEntity
  8
Default
100
AcDbSpline
210
0.0
220
0.0
230
1.0
 70
    12
 71
     2
 72
     8
 73
     5
 74
     0
 42
0.0000000001
 43
0.0000000001
 40
0.0
 40
0.0
 40
0.0
 40
0.0245437074331714
 40
0.0245437074331714
 40
0.0490874148663431
 40
0.0490874148663431
 40
0.0490874148663431
 10
12.16765278193904
 20
0.0337756835288575
 30
0.0
 41
1.0
 10
12.16765279422214
 20
0.0183058471443899
 30
0.0
 41
0.9238794417265142
 10
12.15849987933541
 20
0.0091529235721945
 30
0.0
 41
1.0
 10
12.14934696444864
 20
0.0
 30
0.0
 41
0.9238794417265332
 10
12.13640278193904
 20
-0.0000000000000002
 30
0.0
 41
1.0
  0
SPLINE
  5
232
330
1F
100
AcDbEntity
  8
Default
100
AcDbSpline
210
0.0
220
0.0
230
1.0
 70
    24
 71
     2
 72
     6
 73
     3
 74
     0
 42
0.0000000001
 43
0.0000000001
 40
-0.34375
 40
-0.34375
 40
-0.34375
 40
0.0
 40
0.0
 40
0.0
 10
12.13640278193904
 20
-0.0000000000000002
 30
0.0
 10
11.96452778193904
 20
-0.0000000000000001
 30
0.0
 10
11.79265278193904
 20
0.0
 30
0.0
  0
SPLINE
  5
233
330
1F
100
AcDbEntity
  8
Default
100
AcDbSpline
210
0.0
220
0.0
230
1.0
 70
    12
 71
     2
 72
     6
 73
     3
 74
     0
 42
0.0000000001
 43
0.0000000001
 40
0.0
 40
0.0
 40
0.0
 40
0.1963495408493663
 40
0.1963495408493663
 40
0.1963495408493663
 10
11.79265278193904
 20
0.0
 30
0.0
 41
1.0
 10
11.66765278193903
 20
-0.0000000000000089
 30
0.0
 41
0.7071067811864994
 10
11.66765278193904
 20
0.125
 30
0.0
 41
1.0
  0
SPLINE
  5
234
330
1F
100
AcDbEntity
  8
Default
100
AcDbSpline
210
0.0
220
0.0
230
1.0
 70
    24
 71
     2
 72
     6
 73
     3
 74
     0
 42
0.0000000001
 43
0.0000000001
 40
0.0
 40
0.0
 40
0.0
 40
2.31
 40
2.31
 40
2.31
 10
11.66765278193904
 20
0.125
 30
0.0
 10
11.66765278193904
 20
1.28
 30
0.0
 10
11.66765278193904
 20
2.435
 30
0.0
  0
SPLINE
  5
235
330
1F
100
AcDbEntity
  8
Default
100
AcDbSpline
210
0.0
220
0.0
230
1.0
 70
    12
 71
     2
 72
     6
 73
     3
 74
     0
 42
0.0000000001
 43
0.0000000001
 40
0.0
 40
0.0
 40
0.0
 40
0.1963495408493654
 40
0.1963495408493654
 40
0.1963495408493654
 10
11.66765278193904
 20
2.435
 30
0.0
 41
1.0
 10
11.66765278193904
 20
2.560000000000009
 30
0.0
 41
0.7071067811864986
 10
11.79265278193904
 20
2.56
 30
0.0
 41
1.0
  0
POLYLINE
  5
236
330
1F
100
AcDbEntity
  8
Default
100
AcDb2dPolyline
 66
     1
 10
0.0
 20
0.0
 30
0.0
  0
VERTEX
  5
237
330
236
100
AcDbEntity
  8
Default
100
AcDbVertex
100
AcDb2dVertex
 10
12.90202778193904
 20
0.8425000000000011
 30
0.0
  0
VERTEX
  5
238
330
236
100
AcDbEntity
  8
Default
100
AcDbVertex
100
AcDb2dVertex
 10
12.18327778193904
 20
0.8425000000000011
 30
0.0
  0
VERTEX
  5
239
330
236
100
AcDbEntity
  8
Default
100
AcDbVertex
100
AcDb2dVertex
 10
12.18327778193904
 20
2.559999999999986
 30
0.0
  0
VERTEX
  5
23A
330
236
100
AcDbEntity
  8
Default
100
AcDbVertex
100
AcDb2dVertex
 10
12.90202778193904
 20
2.559999999999986
 30
0.0
  0
VERTEX
  5
23B
330
236
100
AcDbEntity
  8
Default
100
AcDbVertex
100
AcDb2dVertex
 10
12.90202778193904
 20
0.8425000000000011
 30
0.0
  0
SEQEND
  5
23C
330
236
100
AcDbEntity
  8
Default
  0
SPLINE
  5
23D
330
1F
100
AcDbEntity
  8
Default
100
AcDbSpline
210
0.0
220
0.0
230
1.0
 70
    24
 71
     2
 72
     6
 73
     3
 74
     0
 42
0.0000000001
 43
0.0000000001
 40
-0.34375
 40
-0.34375
 40
-0.34375
 40
0.0
 40
0.0
 40
0.0
 10
13.29265278193904
 20
2.56
 30
0.0
 10
13.12077778193904
 20
2.56
 30
0.0
 10
12.94890278193904
 20
2.56
 30
0.0
  0
SPLINE
  5
23E
330
1F
100
AcDbEntity
  8
Default
100
AcDbSpline
210
0.0
220
0.0
230
1.0
 70
    12
 71
     2
 72
     8
 73
     5
 74
     0
 42
0.0000000001
 43
0.0000000001
 40
0.0
 40
0.0
 40
0.0
 40
0.0245437074331711
 40
0.0245437074331711
 40
0.0490874148663426
 40
0.0490874148663426
 40
0.0490874148663426
 10
12.94890278193904
 20
2.56
 30
0.0
 41
1.0
 10
12.93595859942941
 20
2.559999999999998
 30
0.0
 41
0.9238794417265827
 10
12.92680568454267
 20
2.550847076427806
 30
0.0
 41
1.0
 10
12.91765276965596
 20
2.541694152855611
 30
0.0
 41
0.9238794417264897
 10
12.91765278193904
 20
2.528749970346
 30
0.0
 41
1.0
  0
SPLINE
  5
23F
330
1F
100
AcDbEntity
  8
Default
100
AcDbSpline
210
0.0
220
0.0
230
1.0
 70
    24
 71
     2
 72
     6
 73
     3
 74
     0
 42
0.0000000001
 43
0.0000000001
 40
0.0
 40
0.0
 40
0.0
 40
2.492448632942286
 40
2.492448632942286
 40
2.492448632942286
 10
12.91765278193904
 20
2.528749970346
 30
0.0
 10
12.91765278193904
 20
1.281262826937429
 30
0.0
 10
12.91765278193904
 20
0.0337756835288575
 30
0.0
  0
SPLINE
  5
240
330
1F
100
AcDbEntity
  8
Default
100
AcDbSpline
210
0.0
220
0.0
230
1.0
 70
    12
 71
     2
 72
     8
 73
     5
 74
     0
 42
0.0000000001
 43
0.0000000001
 40
0.0
 40
0.0
 40
0.0
 40
0.0245437074331714
 40
0.0245437074331714
 40
0.0490874148663431
 40
0.0490874148663431
 40
0.0490874148663431
 10
12.91765278193904
 20
0.0337756835288575
 30
0.0
 41
1.0
 10
12.91765276965596
 20
0.0183058471443899
 30
0.0
 41
0.9238794417265142
 10
12.92680568454267
 20
0.0091529235721945
 30
0.0
 41
1.0
 10
12.93595859942941
 20
0.0
 30
0.0
 41
0.9238794417265332
 10
12.94890278193904
 20
-0.0000000000000002
 30
0.0
 41
1.0
  0
SPLINE
  5
241
330
1F
100
AcDbEntity
  8
Default
100
AcDbSpline
210
0.0
220
0.0
230
1.0
 70
    24
 71
     2
 72
     6
 73
     3
 74
     0
 42
0.0000000001
 43
0.0000000001
 40
-0.34375
 40
-0.34375
 40
-0.34375
 40
0.0
 40
0.0
 40
0.0
 10
12.94890278193904
 20
-0.0000000000000002
 30
0.0
 10
13.12077778193904
 20
-0.0000000000000001
 30
0.0
 10
13.29265278193904
 20
0.0
 30
0.0
  0
SPLINE
  5
242
330
1F
100
AcDbEntity
  8
Default
100
AcDbSpline
210
0.0
220
0.0
230
1.0
 70
    12
 71
     2
 72
     6
 73
     3
 74
     0
 42
0.0000000001
 43
0.0000000001
 40
0.0
 40
0.0
 40
0.0
 40
0.1963495408493663
 40
0.1963495408493663
 40
0.1963495408493663
 10
13.29265278193904
 20
0.0
 30
0.0
 41
1.0
 10
13.41765278193904
 20
-0.0000000000000089
 30
0.0
 41
0.7071067811864994
 10
13.41765278193904
 20
0.125
 30
0.0
 41
1.0
  0
SPLINE
  5
243
330
1F
100
AcDbEntity
  8
Default
100
AcDbSpline
210
0.0
220
0.0
230
1.0
 70
    24
 71
     2
 72
     6
 73
     3
 74
     0
 42
0.0000000001
 43
0.0000000001
 40
0.0
 40
0.0
 40
0.0
 40
2.31
 40
2.31
 40
2.31
 10
13.41765278193904
 20
0.125
 30
0.0
 10
13.41765278193904
 20
1.28
 30
0.0
 10
13.41765278193904
 20
2.435
 30
0.0
  0
SPLINE
  5
244
330
1F
100
AcDbEntity
  8
Default
100
AcDbSpline
210
0.0
220
0.0
230
1.0
 70
    12
 71
     2
 72
     6
 73
     3
 74
     0
 42
0.0000000001
 43
0.0000000001
 40
0.0
 40
0.0
 40
0.0
 40
0.1963495408493654
 40
0.1963495408493654
 40
0.1963495408493654
 10
13.41765278193904
 20
2.435
 30
0.0
 41
1.0
 10
13.41765278193903
 20
2.560000000000009
 30
0.0
 41
0.7071067811864986
 10
13.29265278193904
 20
2.56
 30
0.0
 41
1.0
  0
SPLINE
  5
245
330
1F
100
AcDbEntity
  8
Default
100
AcDbSpline
210
0.0
220
0.0
230
1.0
 70
    24
 71
     2
 72
     6
 73
     3
 74
     0
 42
0.0000000001
 43
0.0000000001
 40
-0.0829573442459228
 40
-0.0829573442459228
 40
-0.0829573442459228
 40
0.0
 40
0.0
 40
0.0
 10
12.19890278193895
 20
2.559999999999986
 30
0.0
 10
12.19249943393694
 20
2.601584463637994
 30
0.0
 10
12.18609608593493
 20
2.643168927276001
 30
0.0
  0
LINE
  5
246
330
1F
100
AcDbEntity
  8
Default
100
AcDbLine
 10
12.18609608593493
 20
2.643168927276001
 30
0.0
 11
12.89939792681434
 21
2.643168927201502
 31
0.0
  0
SPLINE
  5
247
330
1F
100
AcDbEntity
  8
Default
100
AcDbSpline
210
0.0
220
0.0
230
1.0
 70
    24
 71
     2
 72
     6
 73
     3
 74
     0
 42
0.0000000001
 43
0.0000000001
 40
-0.0829573442459228
 40
-0.0829573442459228
 40
-0.0829573442459228
 40
0.0
 40
0.0
 40
0.0
 10
12.89939792681434
 20
2.643168927201502
 30
0.0
 10
12.89290035437674
 20
2.601584463600744
 30
0.0
 10
12.88640278193913
 20
2.559999999999986
 30
0.0
  0
SPLINE
  5
248
330
1F
100
AcDbEntity
  8
Default
100
AcDbSpline
210
0.0
220
0.0
230
1.0
 70
     8
 71
     3
 72
    11
 73
     7
 74
     0
 42
0.0000000001
 43
0.0000000001
 40
-4.0
 40
-4.0
 40
-4.0
 40
-4.0
 40
-3.0
 40
-2.0
 40
-1.0
 40
0.0
 40
0.0
 40
0.0
 40
0.0
 10
-0.9348604348886056
 20
5.138123347955121
 30
0.0
 10
-1.428496823963343
 20
4.978037952198084
 30
0.0
 10
-2.418505990125738
 20
4.666311005015218
 30
0.0
 10
-3.901159384872159
 20
4.19058253180726
 30
0.0
 10
-5.388555979861053
 20
3.732531104798397
 30
0.0
 10
-6.369078750582702
 20
3.385450063614752
 30
0.0
 10
-6.819406690389712
 20
3.123152532142232
 30
0.0
  0
SPLINE
  5
249
330
1F
100
AcDbEntity
  8
Default
100
AcDbSpline
210
0.0
220
0.0
230
1.0
 70
     8
 71
     3
 72
     8
 73
     4
 74
     0
 42
0.0000000001
 43
0.0000000001
 40
-1.0
 40
-1.0
 40
-1.0
 40
-1.0
 40
0.0
 40
0.0
 40
0.0
 40
0.0
 10
-6.819406690389712
 20
3.123152532142232
 30
0.0
 10
-6.900882832868831
 20
3.075696025101316
 30
0.0
 10
-6.953786706553586
 20
2.983569504850824
 30
0.0
 10
-6.987126924758655
 20
2.895371365959808
 30
0.0
  0
SPLINE
  5
24A
330
1F
100
AcDbEntity
  8
Default
100
AcDbSpline
210
0.0
220
0.0
230
1.0
 70
    12
 71
     2
 72
     6
 73
     3
 74
     0
 42
0.0000000001
 43
0.0000000001
 40
0.0
 40
0.0
 40
0.0
 40
0.2250138153874603
 40
0.2250138153874603
 40
0.2250138153874603
 10
-6.987126924758655
 20
2.895371365959808
 30
0.0
 41
1.0
 10
-7.026909148349974
 20
2.790131560385678
 30
0.0
 41
0.9999859153302073
 10
-7.067905079519335
 20
2.685230771206736
 30
0.0
 41
1.0
  0
SPLINE
  5
24B
330
1F
100
AcDbEntity
  8
Default
100
AcDbSpline
210
0.0
220
0.0
230
1.0
 70
    12
 71
     2
 72
     6
 73
     3
 74
     0
 42
0.0000000001
 43
0.0000000001
 40
0.0
 40
0.0
 40
0.0
 40
0.0522878825032401
 40
0.0522878825032401
 40
0.0522878825032401
 10
-7.067905079519335
 20
2.685230771206736
 30
0.0
 41
1.0
 10
-7.08244260113875
 20
2.660266668835333
 30
0.0
 41
0.8689042862693989
 10
-7.111203084564949
 20
2.66000029771196
 30
0.0
 41
1.0
  0
POLYLINE
  5
24C
330
1F
100
AcDbEntity
  8
Default
100
AcDb2dPolyline
 66
     1
 10
0.0
 20
0.0
 30
0.0
  0
VERTEX
  5
24D
330
24C
100
AcDbEntity
  8
Default
100
AcDbVertex
100
AcDb2dVertex
 10
-7.111203084564949
 20
2.66000029771196
 30
0.0
  0
VERTEX
  5
24E
330
24C
100
AcDbEntity
  8
Default
100
AcDbVertex
100
AcDb2dVertex
 10
-8.335704636138786
 20
2.660000000007072
 30
0.0
  0
SEQEND
  5
24F
330
24C
100
AcDbEntity
  8
Default
  0
SPLINE
  5
250
330
1F
100
AcDbEntity
  8
Default
100
AcDbSpline
210
0.0
220
0.0
230
1.0
 70
    12
 71
     2
 72
     8
 73
     5
 74
     0
 42
0.0000000001
 43
0.0000000001
 40
0.0
 40
0.0
 40
0.0
 40
0.0656121709207247
 40
0.0656121709207247
 40
0.1312243418414493
 40
0.1312243418414493
 40
0.1312243418414493
 10
-8.335704636138786
 20
2.660000000007072
 30
0.0
 41
1.0
 10
-8.370480109776882
 20
2.660020433647109
 30
0.0
 41
0.9171775841282426
 10
-8.394196980835716
 20
2.685453561875208
 30
0.0
 41
1.0
 10
-8.417913851894522
 20
2.710886690103307
 30
0.0
 41
0.9171775841282426
 10
-8.415504843517226
 20
2.7456388903067
 30
0.0
 41
1.0
  0
SPLINE
  5
251
330
1F
100
AcDbEntity
  8
Default
100
AcDbSpline
210
0.0
220
0.0
230
1.0
 70
    12
 71
     2
 72
     6
 73
     3
 74
     0
 42
0.0000000001
 43
0.0000000001
 40
0.0
 40
0.0
 40
0.0
 40
1.023755484296237
 40
1.023755484296237
 40
1.023755484296237
 10
-8.415504843517226
 20
2.7456388903067
 30
0.0
 41
1.0
 10
-8.377821297449334
 20
3.256188018783275
 30
0.0
 41
0.9999997309287173
 10
-8.339216990190039
 20
3.768794098390993
 30
0.0
 41
1.0
  0
ARC
  5
252
330
1F
100
AcDbEntity
  8
Default
100
AcDbCircle
 10
-7.988399059061294
 20
3.735501340110976
 30
0.0
 40
0.3523941380831402
100
AcDbArc
 50
144.1430963100957
 51
174.5788437728514
  0
ARC
  5
253
330
1F
100
AcDbEntity
  8
Default
100
AcDbCircle
 10
-7.994828724617321
 20
3.740148275370657
 30
0.0
 40
0.3444610046246585
100
AcDbArc
 50
140.3986852727055
 51
144.1430963100957
  0
SPLINE
  5
254
330
1F
100
AcDbEntity
  8
Default
100
AcDbSpline
210
0.0
220
0.0
230
1.0
 70
     8
 71
     3
 72
     9
 73
     5
 74
     0
 42
0.0000000001
 43
0.0000000001
 40
-2.0
 40
-2.0
 40
-2.0
 40
-2.0
 40
-1.0
 40
0.0
 40
0.0
 40
0.0
 40
0.0
 10
-2.653460336707809
 20
5.07143313510629
 30
0.0
 10
-3.531543541593891
 20
4.781276960886567
 30
0.0
 10
-5.267487036774526
 20
4.154756073194898
 30
0.0
 10
-7.053987324645476
 20
3.643756700531216
 30
0.0
 10
-7.8562195853535
 20
3.174050745646266
 30
0.0
  0
SPLINE
  5
255
330
1F
100
AcDbEntity
  8
Default
100
AcDbSpline
210
0.0
220
0.0
230
1.0
 70
     8
 71
     3
 72
    11
 73
     7
 74
     0
 42
0.0000000001
 43
0.0000000001
 40
-0.4854906778123655
 40
-0.4854906778123655
 40
-0.4854906778123655
 40
-0.4854906778123655
 40
-0.3387307467635205
 40
-0.2651640397401903
 40
-0.0791861104613142
 40
0.0
 40
0.0
 40
0.0
 40
0.0
 10
-7.8562195853535
 20
3.174050745646266
 30
0.0
 10
-7.925088573872756
 20
3.129541097100286
 30
0.0
 10
-7.972996411310049
 20
3.07209130698932
 30
0.0
 10
-8.033645602602832
 20
2.950877835737859
 30
0.0
 10
-8.07217876352749
 20
2.844449930169419
 30
0.0
 10
-8.11399464082723
 20
2.766346247745584
 30
0.0
 10
-8.129300323095464
 20
2.74478470854692
 30
0.0
  0
SPLINE
  5
256
330
1F
100
AcDbEntity
  8
Default
100
AcDbSpline
210
0.0
220
0.0
230
1.0
 70
    24
 71
     2
 72
     6
 73
     3
 74
     0
 42
0.0000000001
 43
0.0000000001
 40
0.0
 40
0.0
 40
0.0
 40
0.9288483722712422
 40
0.9288483722712422
 40
0.9288483722712422
 10
-0.8000168225590301
 20
2.54955704893676
 30
0.0
 10
-0.8000168225590301
 20
3.013981235072381
 30
0.0
 10
-0.8000168225590301
 20
3.478405421208002
 30
0.0
  0
SPLINE
  5
257
330
1F
100
AcDbEntity
  8
Default
100
AcDbSpline
210
0.0
220
0.0
230
1.0
 70
    12
 71
     2
 72
     6
 73
     3
 74
     0
 42
0.0000000001
 43
0.0000000001
 40
-0.0828722016194424
 40
-0.0828722016194424
 40
-0.0828722016194424
 40
0.0
 40
0.0
 40
0.0
 10
-0.8000168225590301
 20
3.478405421208002
 30
0.0
 41
1.0
 10
-0.8000168225590304
 20
3.519865252893067
 30
0.0
 41
0.9991416475977534
 10
-0.8034599114722027
 20
3.561316849073632
 30
0.0
 41
1.0
  0
SPLINE
  5
258
330
1F
100
AcDbEntity
  8
Default
100
AcDbSpline
210
0.0
220
0.0
230
1.0
 70
    24
 71
     2
 72
     6
 73
     3
 74
     0
 42
0.0000000001
 43
0.0000000001
 40
0.0
 40
0.0
 40
0.0
 40
1.652633987892294
 40
1.652633987892294
 40
1.652633987892294
 10
-0.8034599114722027
 20
3.561316849073632
 30
0.0
 10
-0.8720873791667003
 20
4.38484657035001
 30
0.0
 10
-0.9407148468611979
 20
5.208376291626389
 30
0.0
  0
SPLINE
  5
259
330
1F
100
AcDbEntity
  8
Default
100
AcDbSpline
210
0.0
220
0.0
230
1.0
 70
     8
 71
     3
 72
     9
 73
     5
 74
     0
 42
0.0000000001
 43
0.0000000001
 40
-2.0
 40
-2.0
 40
-2.0
 40
-2.0
 40
-1.0
 40
0.0
 40
0.0
 40
0.0
 40
0.0
 10
-0.6494938790219749
 20
2.943388452758541
 30
0.0
 10
-0.6548666052106284
 20
3.316296967964139
 30
0.0
 10
-0.7335419764343669
 20
4.057479910335916
 30
0.0
 10
-0.8233028506814435
 20
4.797070913097536
 30
0.0
 10
-0.8691516759483591
 20
5.171403116553943
 30
0.0
  0
SPLINE
  5
25A
330
1F
100
AcDbEntity
  8
Default
100
AcDbSpline
210
0.0
220
0.0
230
1.0
 70
     8
 71
     3
 72
    12
 73
     8
 74
     0
 42
0.0000000001
 43
0.0000000001
 40
0.0
 40
0.0
 40
0.0
 40
0.0
 40
0.0762472758146101
 40
0.2174213754726994
 40
0.7112675176328244
 40
1.129739836349191
 40
1.563184277084196
 40
1.563184277084196
 40
1.563184277084196
 40
1.563184277084196
 10
-0.8691516759483591
 20
5.171403116553943
 30
0.0
 10
-0.8915949476885032
 20
5.193011400457243
 30
0.0
 10
-0.96180508653012
 20
5.214907965794016
 30
0.0
 10
-1.1980765484806
 20
5.236347721733787
 30
0.0
 10
-1.549661328639019
 20
5.232777585152977
 30
0.0
 10
-1.997544621518045
 20
5.204879044250919
 30
0.0
 10
-2.277237377806557
 20
5.150650512383529
 30
0.0
 10
-2.435513184737147
 20
5.115232068693839
 30
0.0
  0
SPLINE
  5
25B
330
1F
100
AcDbEntity
  8
Default
100
AcDbSpline
210
0.0
220
0.0
230
1.0
 70
     8
 71
     3
 72
     9
 73
     5
 74
     0
 42
0.0000000001
 43
0.0000000001
 40
-2.0
 40
-2.0
 40
-2.0
 40
-2.0
 40
-1.0
 40
0.0
 40
0.0
 40
0.0
 40
0.0
 10
-2.435513184737147
 20
5.115232068693839
 30
0.0
 10
-3.976769923485818
 20
4.813439031439117
 30
0.0
 10
-7.043757985679946
 20
4.149372983178742
 30
0.0
 10
-10.14955877529226
 20
3.636507032248433
 30
0.0
 10
-11.63785049034345
 20
3.124657080584178
 30
0.0
  0
SPLINE
  5
25C
330
1F
100
AcDbEntity
  8
Default
100
AcDbSpline
210
0.0
220
0.0
230
1.0
 70
     8
 71
     3
 72
    11
 73
     7
 74
     0
 42
0.0000000001
 43
0.0000000001
 40
0.0
 40
0.0
 40
0.0
 40
0.0
 40
0.0849541098213625
 40
0.1817376514505172
 40
0.265117739275689
 40
0.4157802434908372
 40
0.4157802434908372
 40
0.4157802434908372
 40
0.4157802434908372
 10
-11.63785049034345
 20
3.124657080584178
 30
0.0
 10
-11.74267737667915
 20
3.065999943928567
 30
0.0
 10
-11.77840396604125
 20
3.016965052391664
 30
0.0
 10
-11.81798554779823
 20
2.937279815683627
 30
0.0
 10
-11.84744754236536
 20
2.830866786906407
 30
0.0
 10
-11.86008914625242
 20
2.753758951900859
 30
0.0
 10
-11.86858869549366
 20
2.70334416576432
 30
0.0
  0
SPLINE
  5
25D
330
1F
100
AcDbEntity
  8
Default
100
AcDbSpline
210
0.0
220
0.0
230
1.0
 70
    12
 71
     2
 72
     6
 73
     3
 74
     0
 42
0.0000000001
 43
0.0000000001
 40
0.0
 40
0.0
 40
0.0
 40
0.0708374901125698
 40
0.0708374901125698
 40
0.0708374901125698
 10
-11.86858869549366
 20
2.70334416576432
 30
0.0
 41
1.0
 10
-11.87539622894317
 20
2.660196383895849
 30
0.0
 41
0.7616422102729029
 10
-11.91814180152215
 20
2.660000000666126
 30
0.0
 41
1.0
  0
POLYLINE
  5
25E
330
1F
100
AcDbEntity
  8
Default
100
AcDb2dPolyline
 66
     1
 10
0.0
 20
0.0
 30
0.0
  0
VERTEX
  5
25F
330
25E
100
AcDbEntity
  8
Default
100
AcDbVertex
100
AcDb2dVertex
 10
-11.91814180152215
 20
2.660000000666126
 30
0.0
  0
VERTEX
  5
260
330
25E
100
AcDbEntity
  8
Default
100
AcDbVertex
100
AcDb2dVertex
 10
-13.12933329540235
 20
2.660037474479959
 30
0.0
  0
SEQEND
  5
261
330
25E
100
AcDbEntity
  8
Default
  0
SPLINE
  5
262
330
1F
100
AcDbEntity
  8
Default
100
AcDbSpline
210
0.0
220
0.0
230
1.0
 70
    12
 71
     2
 72
     8
 73
     5
 74
     0
 42
0.0000000001
 43
0.0000000001
 40
0.0
 40
0.0
 40
0.0
 40
0.0644169010726275
 40
0.0644169010726275
 40
0.1288338021452549
 40
0.1288338021452549
 40
0.1288338021452549
 10
-13.12933329540235
 20
2.660037474479959
 30
0.0
 41
1.0
 10
-13.16338511716489
 20
2.661072069394713
 30
0.0
 41
0.920118721993147
 10
-13.18624545472034
 20
2.686330769259006
 30
0.0
 41
1.0
 10
-13.2091057922758
 20
2.711589469123299
 30
0.0
 41
0.920118721993147
 10
-13.20674437162475
 20
2.745646097624975
 30
0.0
 41
1.0
  0
SPLINE
  5
263
330
1F
100
AcDbEntity
  8
Default
100
AcDbSpline
210
0.0
220
0.0
230
1.0
 70
    12
 71
     2
 72
     6
 73
     3
 74
     0
 42
0.0000000001
 43
0.0000000001
 40
0.0
 40
0.0
 40
0.0
 40
0.9581386465001401
 40
0.9581386465001401
 40
0.9581386465001401
 10
-13.20674437162475
 20
2.745646097624975
 30
0.0
 41
1.0
 10
-13.17262557987482
 20
3.223569972874844
 30
0.0
 41
0.9999999859440947
 10
-13.13828050650324
 20
3.702319333028696
 30
0.0
 41
1.0
  0
SPLINE
  5
264
330
1F
100
AcDbEntity
  8
Default
100
AcDbSpline
210
0.0
220
0.0
230
1.0
 70
    12
 71
     2
 72
     6
 73
     3
 74
     0
 42
0.0000000001
 43
0.0000000001
 40
0.0
 40
0.0
 40
0.0
 40
0.2655856029909658
 40
0.2655856029909658
 40
0.2655856029909658
 10
-13.13828050650324
 20
3.702319333028696
 30
0.0
 41
1.0
 10
-13.12313447385115
 20
3.844922791839252
 30
0.0
 41
0.9009240396863017
 10
-13.00293722273733
 20
3.921457641423499
 30
0.0
 41
1.0
  0
ARC
  5
265
330
1F
100
AcDbEntity
  8
Default
100
AcDbCircle
 10
-11.31815004286636
 20
1.547550452192785
 30
0.0
 40
2.911003810464506
100
AcDbArc
 50
107.9406916531825
 51
125.3637275571264
  0
LINE
  5
266
330
1F
100
AcDbEntity
  8
Default
100
AcDbLine
 10
-12.21483343328234
 20
4.317009258871622
 30
0.0
 11
-2.769787294947577
 21
7.165077811437554
 31
0.0
  0
SPLINE
  5
267
330
1F
100
AcDbEntity
  8
Default
100
AcDbSpline
210
0.0
220
0.0
230
1.0
 70
     8
 71
     3
 72
     8
 73
     4
 74
     0
 42
0.0000000001
 43
0.0000000001
 40
0.0
 40
0.0
 40
0.0
 40
0.0
 40
1.0
 40
1.0
 40
1.0
 40
1.0
 10
-2.769787294947577
 20
7.165077811437554
 30
0.0
 10
-2.404232906566392
 20
7.275307443199257
 30
0.0
 10
-2.048667985654276
 20
7.433128947376277
 30
0.0
 10
-1.670826034641578
 20
7.488047456441935
 30
0.0
  0
SPLINE
  5
268
330
1F
100
AcDbEntity
  8
Default
100
AcDbSpline
210
0.0
220
0.0
230
1.0
 70
    12
 71
     2
 72
     6
 73
     3
 74
     0
 42
0.0000000001
 43
0.0000000001
 40
0.0
 40
0.0
 40
0.0
 40
0.6278042356401607
 40
0.6278042356401607
 40
0.6278042356401607
 10
-1.670826034641578
 20
7.488047456441935
 30
0.0
 41
1.0
 10
-1.360112358375941
 20
7.533209016192205
 30
0.0
 41
0.999634701259968
 10
-1.047412332379736
 20
7.561515355403906
 30
0.0
 41
1.0
  0
POLYLINE
  5
269
330
1F
100
AcDbEntity
  8
Default
100
AcDb2dPolyline
 66
     1
 10
0.0
 20
0.0
 30
0.0
  0
VERTEX
  5
26A
330
269
100
AcDbEntity
  8
Default
100
AcDbVertex
100
AcDb2dVertex
 10
-1.047412332379736
 20
7.561515355403906
 30
0.0
  0
VERTEX
  5
26B
330
269
100
AcDbEntity
  8
Default
100
AcDbVertex
100
AcDb2dVertex
 10
1.047412332379736
 20
7.561515355403906
 30
0.0
  0
SEQEND
  5
26C
330
269
100
AcDbEntity
  8
Default
  0
SPLINE
  5
26D
330
1F
100
AcDbEntity
  8
Default
100
AcDbSpline
210
0.0
220
0.0
230
1.0
 70
    12
 71
     2
 72
     6
 73
     3
 74
     0
 42
0.0000000001
 43
0.0000000001
 40
-0.6278042356401607
 40
-0.6278042356401607
 40
-0.6278042356401607
 40
0.0
 40
0.0
 40
0.0
 10
1.047412332379736
 20
7.561515355403906
 30
0.0
 41
1.0
 10
1.360112358375934
 20
7.533209016192205
 30
0.0
 41
0.999634701259968
 10
1.670826034641578
 20
7.488047456441935
 30
0.0
 41
1.0
  0
SPLINE
  5
26E
330
1F
100
AcDbEntity
  8
Default
100
AcDbSpline
210
0.0
220
0.0
230
1.0
 70
     8
 71
     3
 72
     8
 73
     4
 74
     0
 42
0.0000000001
 43
0.0000000001
 40
-1.0
 40
-1.0
 40
-1.0
 40
-1.0
 40
0.0
 40
0.0
 40
0.0
 40
0.0
 10
1.670826034641578
 20
7.488047456441935
 30
0.0
 10
2.048667985654276
 20
7.433128947376277
 30
0.0
 10
2.404232906566392
 20
7.275307443199257
 30
0.0
 10
2.769787294947577
 20
7.165077811437554
 30
0.0
  0
LINE
  5
26F
330
1F
100
AcDbEntity
  8
Default
100
AcDbLine
 10
2.769787294947577
 20
7.165077811437554
 30
0.0
 11
12.21483343328234
 21
4.317009258871622
 31
0.0
  0
ARC
  5
270
330
1F
100
AcDbEntity
  8
Default
100
AcDbCircle
 10
11.31815004286636
 20
1.547550452192785
 30
0.0
 40
2.911003810464506
100
AcDbArc
 50
54.63627244287359
 51
72.05930834681746
  0
SPLINE
  5
271
330
1F
100
AcDbEntity
  8
Default
100
AcDbSpline
210
0.0
220
0.0
230
1.0
 70
    12
 71
     2
 72
     6
 73
     3
 74
     0
 42
0.0000000001
 43
0.0000000001
 40
-0.2655856029909658
 40
-0.2655856029909658
 40
-0.2655856029909658
 40
0.0
 40
0.0
 40
0.0
 10
13.00293722273733
 20
3.921457641423499
 30
0.0
 41
1.0
 10
13.12313447385113
 20
3.844922791839252
 30
0.0
 41
0.9009240396863017
 10
13.13828050650324
 20
3.702319333028696
 30
0.0
 41
1.0
  0
SPLINE
  5
272
330
1F
100
AcDbEntity
  8
Default
100
AcDbSpline
210
0.0
220
0.0
230
1.0
 70
    12
 71
     2
 72
     6
 73
     3
 74
     0
 42
0.0000000001
 43
0.0000000001
 40
-0.9581386465001401
 40
-0.9581386465001401
 40
-0.9581386465001401
 40
0.0
 40
0.0
 40
0.0
 10
13.13828050650324
 20
3.702319333028696
 30
0.0
 41
1.0
 10
13.17262557987481
 20
3.223569972874844
 30
0.0
 41
0.9999999859440947
 10
13.20674437162475
 20
2.745646097624975
 30
0.0
 41
1.0
  0
SPLINE
  5
273
330
1F
100
AcDbEntity
  8
Default
100
AcDbSpline
210
0.0
220
0.0
230
1.0
 70
    12
 71
     2
 72
     8
 73
     5
 74
     0
 42
0.0000000001
 43
0.0000000001
 40
-0.1288338021452549
 40
-0.1288338021452549
 40
-0.1288338021452549
 40
-0.0644169010726275
 40
-0.0644169010726275
 40
0.0
 40
0.0
 40
0.0
 10
13.20674437162475
 20
2.745646097624975
 30
0.0
 41
1.0
 10
13.20910579227578
 20
2.711589469123299
 30
0.0
 41
0.920118721993147
 10
13.18624545472034
 20
2.686330769259006
 30
0.0
 41
1.0
 10
13.16338511716487
 20
2.661072069394713
 30
0.0
 41
0.920118721993147
 10
13.12933329540235
 20
2.660037474479959
 30
0.0
 41
1.0
  0
POLYLINE
  5
274
330
1F
100
AcDbEntity
  8
Default
100
AcDb2dPolyline
 66
     1
 10
0.0
 20
0.0
 30
0.0
  0
VERTEX
  5
275
330
274
100
AcDbEntity
  8
Default
100
AcDbVertex
100
AcDb2dVertex
 10
13.12933329540235
 20
2.660037474479959
 30
0.0
  0
VERTEX
  5
276
330
274
100
AcDbEntity
  8
Default
100
AcDbVertex
100
AcDb2dVertex
 10
11.91814180152215
 20
2.660000000666126
 30
0.0
  0
SEQEND
  5
277
330
274
100
AcDbEntity
  8
Default
  0
SPLINE
  5
278
330
1F
100
AcDbEntity
  8
Default
100
AcDbSpline
210
0.0
220
0.0
230
1.0
 70
    12
 71
     2
 72
     6
 73
     3
 74
     0
 42
0.0000000001
 43
0.0000000001
 40
-0.0708374901125698
 40
-0.0708374901125698
 40
-0.0708374901125698
 40
0.0
 40
0.0
 40
0.0
 10
11.91814180152215
 20
2.660000000666126
 30
0.0
 41
1.0
 10
11.87539622894315
 20
2.660196383895849
 30
0.0
 41
0.7616422102729029
 10
11.86858869549366
 20
2.70334416576432
 30
0.0
 41
1.0
  0
SPLINE
  5
279
330
1F
100
AcDbEntity
  8
Default
100
AcDbSpline
210
0.0
220
0.0
230
1.0
 70
     8
 71
     3
 72
    11
 73
     7
 74
     0
 42
0.0000000001
 43
0.0000000001
 40
-0.4157802434908372
 40
-0.4157802434908372
 40
-0.4157802434908372
 40
-0.4157802434908372
 40
-0.265117739275689
 40
-0.1817376514505172
 40
-0.0849541098213625
 40
0.0
 40
0.0
 40
0.0
 40
0.0
 10
11.86858869549366
 20
2.70334416576432
 30
0.0
 10
11.86008914625242
 20
2.753758951900859
 30
0.0
 10
11.84744754236536
 20
2.830866786906407
 30
0.0
 10
11.81798554779823
 20
2.937279815683627
 30
0.0
 10
11.77840396604125
 20
3.016965052391664
 30
0.0
 10
11.74267737667915
 20
3.065999943928567
 30
0.0
 10
11.63785049034345
 20
3.124657080584178
 30
0.0
  0
SPLINE
  5
27A
330
1F
100
AcDbEntity
  8
Default
100
AcDbSpline
210
0.0
220
0.0
230
1.0
 70
     8
 71
     3
 72
     9
 73
     5
 74
     0
 42
0.0000000001
 43
0.0000000001
 40
0.0
 40
0.0
 40
0.0
 40
0.0
 40
1.0
 40
2.0
 40
2.0
 40
2.0
 40
2.0
 10
11.63785049034345
 20
3.124657080584178
 30
0.0
 10
10.14955877529226
 20
3.636507032248433
 30
0.0
 10
7.043757985679946
 20
4.149372983178742
 30
0.0
 10
3.976769923485818
 20
4.813439031439117
 30
0.0
 10
2.435513184737147
 20
5.115232068693839
 30
0.0
  0
SPLINE
  5
27B
330
1F
100
AcDbEntity
  8
Default
100
AcDbSpline
210
0.0
220
0.0
230
1.0
 70
     8
 71
     3
 72
    12
 73
     8
 74
     0
 42
0.0000000001
 43
0.0000000001
 40
-1.563184277084196
 40
-1.563184277084196
 40
-1.563184277084196
 40
-1.563184277084196
 40
-1.129739836349191
 40
-0.7112675176328244
 40
-0.2174213754726994
 40
-0.0762472758146101
 40
0.0
 40
0.0
 40
0.0
 40
0.0
 10
2.435513184737147
 20
5.115232068693839
 30
0.0
 10
2.277237377806557
 20
5.150650512383529
 30
0.0
 10
1.997544621518045
 20
5.204879044250919
 30
0.0
 10
1.549661328639019
 20
5.232777585152977
 30
0.0
 10
1.1980765484806
 20
5.236347721733787
 30
0.0
 10
0.96180508653012
 20
5.214907965794016
 30
0.0
 10
0.8915949476885032
 20
5.193011400457243
 30
0.0
 10
0.8691516759483591
 20
5.171403116553943
 30
0.0
  0
SPLINE
  5
27C
330
1F
100
AcDbEntity
  8
Default
100
AcDbSpline
210
0.0
220
0.0
230
1.0
 70
     8
 71
     3
 72
     9
 73
     5
 74
     0
 42
0.0000000001
 43
0.0000000001
 40
0.0
 40
0.0
 40
0.0
 40
0.0
 40
1.0
 40
2.0
 40
2.0
 40
2.0
 40
2.0
 10
0.8691516759483591
 20
5.171403116553943
 30
0.0
 10
0.8233028506814435
 20
4.797070913097536
 30
0.0
 10
0.7335419764343669
 20
4.057479910335916
 30
0.0
 10
0.6548666052106284
 20
3.316296967964139
 30
0.0
 10
0.6494938790219749
 20
2.943388452758541
 30
0.0
  0
SPLINE
  5
27D
330
1F
100
AcDbEntity
  8
Default
100
AcDbSpline
210
0.0
220
0.0
230
1.0
 70
    24
 71
     2
 72
     6
 73
     3
 74
     0
 42
0.0000000001
 43
0.0000000001
 40
0.0
 40
0.0
 40
0.0
 40
0.9288483722712422
 40
0.9288483722712422
 40
0.9288483722712422
 10
0.8000168225590301
 20
2.54955704893676
 30
0.0
 10
0.8000168225590301
 20
3.013981235072381
 30
0.0
 10
0.8000168225590301
 20
3.478405421208002
 30
0.0
  0
SPLINE
  5
27E
330
1F
100
AcDbEntity
  8
Default
100
AcDbSpline
210
0.0
220
0.0
230
1.0
 70
    12
 71
     2
 72
     6
 73
     3
 74
     0
 42
0.0000000001
 43
0.0000000001
 40
-0.0828722016194424
 40
-0.0828722016194424
 40
-0.0828722016194424
 40
0.0
 40
0.0
 40
0.0
 10
0.8000168225590301
 20
3.478405421208002
 30
0.0
 41
1.0
 10
0.8000168225590528
 20
3.519865252893067
 30
0.0
 41
0.9991416475977534
 10
0.8034599114722027
 20
3.561316849073632
 30
0.0
 41
1.0
  0
SPLINE
  5
27F
330
1F
100
AcDbEntity
  8
Default
100
AcDbSpline
210
0.0
220
0.0
230
1.0
 70
    24
 71
     2
 72
     6
 73
     3
 74
     0
 42
0.0000000001
 43
0.0000000001
 40
0.0
 40
0.0
 40
0.0
 40
1.652633987892294
 40
1.652633987892294
 40
1.652633987892294
 10
0.8034599114722027
 20
3.561316849073632
 30
0.0
 10
0.8720873791667003
 20
4.38484657035001
 30
0.0
 10
0.9407148468611979
 20
5.208376291626389
 30
0.0
  0
SPLINE
  5
280
330
1F
100
AcDbEntity
  8
Default
100
AcDbSpline
210
0.0
220
0.0
230
1.0
 70
    24
 71
     2
 72
     6
 73
     3
 74
     0
 42
0.0000000001
 43
0.0000000001
 40
-1.10621948028922
 40
-1.10621948028922
 40
-1.10621948028922
 40
0.0
 40
0.0
 40
0.0
 10
-0.5861385881102876
 20
3.849105347536227
 30
0.0
 10
-0.6247345445592885
 20
3.297343862120088
 30
0.0
 10
-0.6633305010082893
 20
2.745582376703949
 30
0.0
  0
SPLINE
  5
281
330
1F
100
AcDbEntity
  8
Default
100
AcDbSpline
210
0.0
220
0.0
230
1.0
 70
    12
 71
     2
 72
     8
 73
     5
 74
     0
 42
0.0000000001
 43
0.0000000001
 40
0.0
 40
0.0
 40
0.0
 40
0.0656253115149627
 40
0.0656253115149627
 40
0.1312506230299254
 40
0.1312506230299254
 40
0.1312506230299254
 10
-0.6633305010082893
 20
2.745582376703949
 30
0.0
 41
1.0
 10
-0.6657578261505751
 20
2.71088162518006
 30
0.0
 41
0.9170577524687132
 10
-0.64203443855763
 20
2.685440812599038
 30
0.0
 41
1.0
 10
-0.6183110509646529
 20
2.660000000018016
 30
0.0
 41
0.9170577524687132
 10
-0.5835255070754215
 20
2.660000000000002
 30
0.0
 41
1.0
  0
POLYLINE
  5
282
330
1F
100
AcDbEntity
  8
Default
100
AcDb2dPolyline
 66
     1
 10
0.0
 20
0.0
 30
0.0
  0
VERTEX
  5
283
330
282
100
AcDbEntity
  8
Default
100
AcDbVertex
100
AcDb2dVertex
 10
-0.5835255070754215
 20
2.660000000000002
 30
0.0
  0
VERTEX
  5
284
330
282
100
AcDbEntity
  8
Default
100
AcDbVertex
100
AcDb2dVertex
 10
0.5835255070754215
 20
2.660000000000002
 30
0.0
  0
SEQEND
  5
285
330
282
100
AcDbEntity
  8
Default
  0
SPLINE
  5
286
330
1F
100
AcDbEntity
  8
Default
100
AcDbSpline
210
0.0
220
0.0
230
1.0
 70
    12
 71
     2
 72
     8
 73
     5
 74
     0
 42
0.0000000001
 43
0.0000000001
 40
-0.1312506230299254
 40
-0.1312506230299254
 40
-0.1312506230299254
 40
-0.0656253115149627
 40
-0.0656253115149627
 40
0.0
 40
0.0
 40
0.0
 10
0.5835255070754215
 20
2.660000000000002
 30
0.0
 41
1.0
 10
0.6183110509646514
 20
2.660000000018016
 30
0.0
 41
0.9170577524687132
 10
0.64203443855763
 20
2.685440812599038
 30
0.0
 41
1.0
 10
0.6657578261505737
 20
2.71088162518006
 30
0.0
 41
0.9170577524687132
 10
0.6633305010082893
 20
2.745582376703949
 30
0.0
 41
1.0
  0
SPLINE
  5
287
330
1F
100
AcDbEntity
  8
Default
100
AcDbSpline
210
0.0
220
0.0
230
1.0
 70
    24
 71
     2
 72
     6
 73
     3
 74
     0
 42
0.0000000001
 43
0.0000000001
 40
0.0
 40
0.0
 40
0.0
 40
1.10621948028922
 40
1.10621948028922
 40
1.10621948028922
 10
0.6633305010082893
 20
2.745582376703949
 30
0.0
 10
0.6247345445592885
 20
3.297343862120088
 30
0.0
 10
0.5861385881102876
 20
3.849105347536227
 30
0.0
  0
SPLINE
  5
288
330
1F
100
AcDbEntity
  8
Default
100
AcDbSpline
210
0.0
220
0.0
230
1.0
 70
     8
 71
     3
 72
    11
 73
     7
 74
     0
 42
0.0000000001
 43
0.0000000001
 40
-4.0
 40
-4.0
 40
-4.0
 40
-4.0
 40
-3.0
 40
-2.0
 40
-1.0
 40
0.0
 40
0.0
 40
0.0
 40
0.0
 10
0.9348604348886056
 20
5.138123347955121
 30
0.0
 10
1.428496823963343
 20
4.978037952198084
 30
0.0
 10
2.418505990125738
 20
4.666311005015218
 30
0.0
 10
3.901159384872159
 20
4.19058253180726
 30
0.0
 10
5.388555979861053
 20
3.732531104798397
 30
0.0
 10
6.369078750582702
 20
3.385450063614752
 30
0.0
 10
6.819406690389712
 20
3.123152532142232
 30
0.0
  0
SPLINE
  5
289
330
1F
100
AcDbEntity
  8
Default
100
AcDbSpline
210
0.0
220
0.0
230
1.0
 70
     8
 71
     3
 72
     8
 73
     4
 74
     0
 42
0.0000000001
 43
0.0000000001
 40
-1.0
 40
-1.0
 40
-1.0
 40
-1.0
 40
0.0
 40
0.0
 40
0.0
 40
0.0
 10
6.819406690389712
 20
3.123152532142232
 30
0.0
 10
6.900882832868831
 20
3.075696025101316
 30
0.0
 10
6.953786706553586
 20
2.983569504850824
 30
0.0
 10
6.987126924758655
 20
2.895371365959808
 30
0.0
  0
SPLINE
  5
28A
330
1F
100
AcDbEntity
  8
Default
100
AcDbSpline
210
0.0
220
0.0
230
1.0
 70
    12
 71
     2
 72
     6
 73
     3
 74
     0
 42
0.0000000001
 43
0.0000000001
 40
0.0
 40
0.0
 40
0.0
 40
0.2250138153874603
 40
0.2250138153874603
 40
0.2250138153874603
 10
6.987126924758655
 20
2.895371365959808
 30
0.0
 41
1.0
 10
7.026909148349956
 20
2.790131560385678
 30
0.0
 41
0.9999859153302073
 10
7.067905079519335
 20
2.685230771206736
 30
0.0
 41
1.0
  0
SPLINE
  5
28B
330
1F
100
AcDbEntity
  8
Default
100
AcDbSpline
210
0.0
220
0.0
230
1.0
 70
    12
 71
     2
 72
     6
 73
     3
 74
     0
 42
0.0000000001
 43
0.0000000001
 40
0.0
 40
0.0
 40
0.0
 40
0.0522878825032401
 40
0.0522878825032401
 40
0.0522878825032401
 10
7.067905079519335
 20
2.685230771206736
 30
0.0
 41
1.0
 10
7.08244260113877
 20
2.660266668835333
 30
0.0
 41
0.8689042862693989
 10
7.111203084564949
 20
2.66000029771196
 30
0.0
 41
1.0
  0
POLYLINE
  5
28C
330
1F
100
AcDbEntity
  8
Default
100
AcDb2dPolyline
 66
     1
 10
0.0
 20
0.0
 30
0.0
  0
VERTEX
  5
28D
330
28C
100
AcDbEntity
  8
Default
100
AcDbVertex
100
AcDb2dVertex
 10
7.111203084564949
 20
2.66000029771196
 30
0.0
  0
VERTEX
  5
28E
330
28C
100
AcDbEntity
  8
Default
100
AcDbVertex
100
AcDb2dVertex
 10
8.335704636138786
 20
2.660000000007072
 30
0.0
  0
SEQEND
  5
28F
330
28C
100
AcDbEntity
  8
Default
  0
SPLINE
  5
290
330
1F
100
AcDbEntity
  8
Default
100
AcDbSpline
210
0.0
220
0.0
230
1.0
 70
    12
 71
     2
 72
     8
 73
     5
 74
     0
 42
0.0000000001
 43
0.0000000001
 40
0.0
 40
0.0
 40
0.0
 40
0.0656121709207247
 40
0.0656121709207247
 40
0.1312243418414493
 40
0.1312243418414493
 40
0.1312243418414493
 10
8.335704636138786
 20
2.660000000007072
 30
0.0
 41
1.0
 10
8.370480109776878
 20
2.660020433647109
 30
0.0
 41
0.9171775841282426
 10
8.394196980835716
 20
2.685453561875208
 30
0.0
 41
1.0
 10
8.417913851894518
 20
2.710886690103307
 30
0.0
 41
0.9171775841282426
 10
8.415504843517226
 20
2.7456388903067
 30
0.0
 41
1.0
  0
SPLINE
  5
291
330
1F
100
AcDbEntity
  8
Default
100
AcDbSpline
210
0.0
220
0.0
230
1.0
 70
    12
 71
     2
 72
     6
 73
     3
 74
     0
 42
0.0000000001
 43
0.0000000001
 40
0.0
 40
0.0
 40
0.0
 40
1.023755484296237
 40
1.023755484296237
 40
1.023755484296237
 10
8.415504843517226
 20
2.7456388903067
 30
0.0
 41
1.0
 10
8.377821297449334
 20
3.256188018783275
 30
0.0
 41
0.9999997309287173
 10
8.339216990190039
 20
3.768794098390993
 30
0.0
 41
1.0
  0
ARC
  5
292
330
1F
100
AcDbEntity
  8
Default
100
AcDbCircle
 10
7.988399059061294
 20
3.735501340110976
 30
0.0
 40
0.3523941380831402
100
AcDbArc
 50
5.421156227148632
 51
35.85690368990431
  0
ARC
  5
293
330
1F
100
AcDbEntity
  8
Default
100
AcDbCircle
 10
7.994828724617321
 20
3.740148275370657
 30
0.0
 40
0.3444610046246585
100
AcDbArc
 50
35.8569036899043
 51
39.60131472729449
  0
SPLINE
  5
294
330
1F
100
AcDbEntity
  8
Default
100
AcDbSpline
210
0.0
220
0.0
230
1.0
 70
     8
 71
     3
 72
     9
 73
     5
 74
     0
 42
0.0000000001
 43
0.0000000001
 40
-2.0
 40
-2.0
 40
-2.0
 40
-2.0
 40
-1.0
 40
0.0
 40
0.0
 40
0.0
 40
0.0
 10
2.653460336707809
 20
5.07143313510629
 30
0.0
 10
3.531543541593891
 20
4.781276960886567
 30
0.0
 10
5.267487036774526
 20
4.154756073194898
 30
0.0
 10
7.053987324645476
 20
3.643756700531216
 30
0.0
 10
7.8562195853535
 20
3.174050745646266
 30
0.0
  0
SPLINE
  5
295
330
1F
100
AcDbEntity
  8
Default
100
AcDbSpline
210
0.0
220
0.0
230
1.0
 70
     8
 71
     3
 72
    11
 73
     7
 74
     0
 42
0.0000000001
 43
0.0000000001
 40
-0.4854906778123655
 40
-0.4854906778123655
 40
-0.4854906778123655
 40
-0.4854906778123655
 40
-0.3387307467635205
 40
-0.2651640397401903
 40
-0.0791861104613142
 40
0.0
 40
0.0
 40
0.0
 40
0.0
 10
7.8562195853535
 20
3.174050745646266
 30
0.0
 10
7.925088573872756
 20
3.129541097100286
 30
0.0
 10
7.972996411310049
 20
3.07209130698932
 30
0.0
 10
8.033645602602832
 20
2.950877835737859
 30
0.0
 10
8.07217876352749
 20
2.844449930169419
 30
0.0
 10
8.11399464082723
 20
2.766346247745584
 30
0.0
 10
8.129300323095464
 20
2.74478470854692
 30
0.0
  0
ARC
  5
296
330
1F
100
AcDbEntity
  8
Default
100
AcDbCircle
 10
-0.0000024599721655
 20
3.169754116000515
 30
0.0
 40
0.9098637576825879
100
AcDbArc
 50
49.9953963168679
 51
130.0046036831319
  0
LINE
  5
297
330
1F
100
AcDbEntity
  8
Default
100
AcDbLine
 10
-0.5754663379735234
 20
3.874518887156495
 30
0.0
 11
-0.7459905706734844
 21
6.88746221275908
 31
0.0
  0
ARC
  5
298
330
1F
100
AcDbEntity
  8
Default
100
AcDbCircle
 10
-1.245191502467691
 20
6.859205714466122
 30
0.0
 40
0.5
100
AcDbArc
 50
3.239682193978395
 51
91.248787440504
  0
SPLINE
  5
299
330
1F
100
AcDbEntity
  8
Default
100
AcDbSpline
210
0.0
220
0.0
230
1.0
 70
    12
 71
     3
 72
    10
 73
     6
 74
     0
 42
0.0000000001
 43
0.0000000001
 40
0.0314139243557747
 40
0.0314139243557747
 40
0.0314139243557747
 40
0.0314139243557747
 40
0.4896359139069521
 40
0.4896359139069521
 40
1.0
 40
1.0
 40
1.0
 40
1.0
 10
-1.256088365922864
 20
7.359086958730036
 30
0.0
 41
1.0
 10
-1.430065917666582
 20
7.355294438711859
 30
0.0
 41
1.0
 10
-1.629352709067859
 20
7.324759031622224
 30
0.0
 41
1.0
 10
-2.088679978777805
 20
7.242785826788335
 30
0.0
 41
1.0
 10
-2.300283015828427
 20
7.190274963867086
 30
0.0
 41
1.0
 10
-2.57520333669413
 20
7.106892787834387
 30
0.0
 41
1.0
  0
SPLINE
  5
29A
330
1F
100
AcDbEntity
  8
Default
100
AcDbSpline
210
0.0
220
0.0
230
1.0
 70
    12
 71
     2
 72
     6
 73
     3
 74
     0
 42
0.0000000001
 43
0.0000000001
 40
-9.876318496713573
 40
-9.876318496713573
 40
-9.876318496713573
 40
0.0
 40
0.0
 40
0.0
 10
-2.57520333669413
 20
7.106892787834387
 30
0.0
 41
1.0
 10
-7.309353086738255
 20
5.70217114044171
 30
0.0
 41
0.9999999999851298
 10
-12.04351815777619
 20
4.297501128337122
 30
0.0
 41
1.0
  0
SPLINE
  5
29B
330
1F
100
AcDbEntity
  8
Default
100
AcDbSpline
210
0.0
220
0.0
230
1.0
 70
     8
 71
     3
 72
     9
 73
     5
 74
     0
 42
0.0000000001
 43
0.0000000001
 40
-2.0
 40
-2.0
 40
-2.0
 40
-2.0
 40
-1.000000000003721
 40
0.0
 40
0.0
 40
0.0
 40
0.0
 10
-12.04351815777619
 20
4.297501128337122
 30
0.0
 10
-12.2112886895174
 20
4.25281179965044
 30
0.0
 10
-12.51080014166547
 20
4.083799824423187
 30
0.0
 10
-12.81722150219835
 20
3.921848446404307
 30
0.0
 10
-12.98938971618597
 20
3.896955803961847
 30
0.0
  0
LINE
  5
29C
330
1F
100
AcDbEntity
  8
Default
100
AcDbLine
 10
0.5754663379735234
 20
3.874518887156495
 30
0.0
 11
0.7459905706734844
 21
6.88746221275908
 31
0.0
  0
ARC
  5
29D
330
1F
100
AcDbEntity
  8
Default
100
AcDbCircle
 10
1.245191502467691
 20
6.859205714466122
 30
0.0
 40
0.5
100
AcDbArc
 50
88.751212559496
 51
176.7603178060216
  0
SPLINE
  5
29E
330
1F
100
AcDbEntity
  8
Default
100
AcDbSpline
210
0.0
220
0.0
230
1.0
 70
    12
 71
     3
 72
    10
 73
     6
 74
     0
 42
0.0000000001
 43
0.0000000001
 40
0.0314139243557747
 40
0.0314139243557747
 40
0.0314139243557747
 40
0.0314139243557747
 40
0.4896359139069521
 40
0.4896359139069521
 40
1.0
 40
1.0
 40
1.0
 40
1.0
 10
1.256088365922864
 20
7.359086958730036
 30
0.0
 41
1.0
 10
1.430065917666582
 20
7.355294438711859
 30
0.0
 41
1.0
 10
1.629352709067859
 20
7.324759031622224
 30
0.0
 41
1.0
 10
2.088679978777805
 20
7.242785826788335
 30
0.0
 41
1.0
 10
2.300283015828427
 20
7.190274963867086
 30
0.0
 41
1.0
 10
2.57520333669413
 20
7.106892787834387
 30
0.0
 41
1.0
  0
SPLINE
  5
29F
330
1F
100
AcDbEntity
  8
Default
100
AcDbSpline
210
0.0
220
0.0
230
1.0
 70
    12
 71
     2
 72
     6
 73
     3
 74
     0
 42
0.0000000001
 43
0.0000000001
 40
-9.876318496713573
 40
-9.876318496713573
 40
-9.876318496713573
 40
0.0
 40
0.0
 40
0.0
 10
2.57520333669413
 20
7.106892787834387
 30
0.0
 41
1.0
 10
7.309353086738244
 20
5.70217114044171
 30
0.0
 41
0.9999999999851298
 10
12.04351815777619
 20
4.297501128337122
 30
0.0
 41
1.0
  0
SPLINE
  5
2A0
330
1F
100
AcDbEntity
  8
Default
100
AcDbSpline
210
0.0
220
0.0
230
1.0
 70
     8
 71
     3
 72
     9
 73
     5
 74
     0
 42
0.0000000001
 43
0.0000000001
 40
-2.0
 40
-2.0
 40
-2.0
 40
-2.0
 40
-1.000000000003721
 40
0.0
 40
0.0
 40
0.0
 40
0.0
 10
12.04351815777619
 20
4.297501128337122
 30
0.0
 10
12.2112886895174
 20
4.25281179965044
 30
0.0
 10
12.51080014166547
 20
4.083799824423187
 30
0.0
 10
12.81722150219835
 20
3.921848446404307
 30
0.0
 10
12.98938971618597
 20
3.896955803961847
 30
0.0
  0
SPLINE
  5
2A1
330
1F
100
AcDbEntity
  8
Default
100
AcDbSpline
210
0.0
220
0.0
230
1.0
 70
    24
 71
     2
 72
     6
 73
     3
 74
     0
 42
0.0000000001
 43
0.0000000001
 40
0.0
 40
0.0
 40
0.0
 40
0.0829573442458843
 40
0.0829573442458843
 40
0.0829573442458843
 10
52.28900520866142
 20
2.559999999999992
 30
0.0
 10
52.29540855666166
 20
2.600981427201475
 30
0.0
 10
52.30181190466189
 20
2.641962854402959
 30
0.0
  0
POLYLINE
  5
2A2
330
1F
100
AcDbEntity
  8
Default
100
AcDb2dPolyline
 66
     1
 10
0.0
 20
0.0
 30
0.0
  0
VERTEX
  5
2A3
330
2A2
100
AcDbEntity
  8
Default
100
AcDbVertex
100
AcDb2dVertex
 10
52.30181190466189
 20
2.641962854402959
 30
0.0
  0
VERTEX
  5
2A4
330
2A2
100
AcDbEntity
  8
Default
100
AcDbVertex
100
AcDb2dVertex
 10
51.58869851266084
 20
2.641962854402998
 30
0.0
  0
SEQEND
  5
2A5
330
2A2
100
AcDbEntity
  8
Default
  0
SPLINE
  5
2A6
330
1F
100
AcDbEntity
  8
Default
100
AcDbSpline
210
0.0
220
0.0
230
1.0
 70
    24
 71
     2
 72
     6
 73
     3
 74
     0
 42
0.0000000001
 43
0.0000000001
 40
0.0
 40
0.0
 40
0.0
 40
0.0829573442459229
 40
0.0829573442459229
 40
0.0829573442459229
 10
51.58869851266084
 20
2.641962854402998
 30
0.0
 10
51.59510186066107
 20
2.600981427201495
 30
0.0
 10
51.60150520866131
 20
2.559999999999992
 30
0.0
  0
LINE
  5
2A7
330
1F
100
AcDbEntity
  8
Default
100
AcDbLine
 10
51.13964388917043
 20
2.56
 30
0.0
 11
52.30463020866137
 21
2.56
 31
0.0
  0
SPLINE
  5
2A8
330
1F
100
AcDbEntity
  8
Default
100
AcDbSpline
210
0.0
220
0.0
230
1.0
 70
    24
 71
     2
 72
     6
 73
     3
 74
     0
 42
0.0000000001
 43
0.0000000001
 40
-1.16498631949094
 40
-1.16498631949094
 40
-1.16498631949094
 40
0.0
 40
0.0
 40
0.0
 10
52.30463020866137
 20
2.56
 30
0.0
 10
52.30463020866137
 20
1.977506840254531
 30
0.0
 10
52.30463020866137
 20
1.395013680509061
 30
0.0
  0
SPLINE
  5
2A9
330
1F
100
AcDbEntity
  8
Default
100
AcDbSpline
210
0.0
220
0.0
230
1.0
 70
    24
 71
     2
 72
     6
 73
     3
 74
     0
 42
0.0000000001
 43
0.0000000001
 40
-6.854073546591319
 40
-6.854073546591319
 40
-6.854073546591319
 40
0.0
 40
0.0
 40
0.0
 10
42.44588562345345
 20
4.949157620436264
 30
0.0
 10
45.81112243650122
 20
4.301267014215739
 30
0.0
 10
49.17635924954899
 20
3.653376407995214
 30
0.0
  0
SPLINE
  5
2AA
330
1F
100
AcDbEntity
  8
Default
100
AcDbSpline
210
0.0
220
0.0
230
1.0
 70
    12
 71
     2
 72
     6
 73
     3
 74
     0
 42
0.0000000001
 43
0.0000000001
 40
-2.090936080365765
 40
-2.090936080365765
 40
-2.090936080365765
 40
-0.1184497281738283
 40
-0.1184497281738283
 40
-0.1184497281738283
 10
49.17635924954899
 20
3.653376407995214
 30
0.0
 41
1.0
 10
50.14590486855271
 20
3.4657543060015
 30
0.0
 41
0.9979820033929416
 10
51.08497369829507
 20
3.160188448137491
 30
0.0
 41
0.9997713644603425
  0
LINE
  5
2AB
330
1F
100
AcDbEntity
  8
Default
100
AcDbLine
 10
51.08497369829507
 20
3.160188448137491
 30
0.0
 11
51.09563967060126
 21
3.15395291849355
 31
0.0
  0
SPLINE
  5
2AC
330
1F
100
AcDbEntity
  8
Default
100
AcDbSpline
210
0.0
220
0.0
230
1.0
 70
     8
 71
     2
 72
     8
 73
     5
 74
     0
 42
0.0000000001
 43
0.0000000001
 40
0.0
 40
0.0
 40
0.0
 40
1.0
 40
2.0
 40
3.0
 40
3.0
 40
3.0
 10
51.09563967060126
 20
3.15395291849355
 30
0.0
 10
51.17020238500487
 20
3.110362141895778
 30
0.0
 10
51.26314543306765
 20
2.964445921513677
 30
0.0
 10
51.27734797604904
 20
2.79308509632571
 30
0.0
 10
51.27548747958664
 20
2.708618522286542
 30
0.0
  0
SPLINE
  5
2AD
330
1F
100
AcDbEntity
  8
Default
100
AcDbSpline
210
0.0
220
0.0
230
1.0
 70
    12
 71
     2
 72
     6
 73
     3
 74
     0
 42
0.0000000001
 43
0.0000000001
 40
0.0
 40
0.0
 40
0.0
 40
0.0771581621093029
 40
0.0771581621093029
 40
0.0771581621093029
 10
51.27548747958664
 20
2.708618522286542
 30
0.0
 41
1.0
 10
51.27683129908274
 20
2.659999999707501
 30
0.0
 41
0.7168087313008373
 10
51.32546838975031
 20
2.66
 30
0.0
 41
1.0
  0
LINE
  5
2AE
330
1F
100
AcDbEntity
  8
Default
100
AcDbLine
 10
51.32546838975031
 20
2.66
 30
0.0
 11
52.52962890366027
 21
2.659999999999999
 31
0.0
  0
SPLINE
  5
2AF
330
1F
100
AcDbEntity
  8
Default
100
AcDbSpline
210
0.0
220
0.0
230
1.0
 70
    12
 71
     2
 72
     8
 73
     5
 74
     0
 42
0.0000000001
 43
0.0000000001
 40
-0.1312418974498821
 40
-0.1312418974498821
 40
-0.1312418974498821
 40
-0.0656209487249411
 40
-0.0656209487249411
 40
0.0
 40
0.0
 40
0.0
 10
52.52962890366027
 20
2.659999999999999
 30
0.0
 41
1.0
 10
52.56441185375351
 20
2.659999999982475
 30
0.0
 41
0.9170686251440676
 10
52.58813485970342
 20
2.685437621842381
 30
0.0
 41
1.0
 10
52.61185786565335
 20
2.710875243702286
 30
0.0
 41
0.9170686251440676
 10
52.60942666132064
 20
2.745685996062573
 30
0.0
 41
1.0
  0
SPLINE
  5
2B0
330
1F
100
AcDbEntity
  8
Default
100
AcDbSpline
210
0.0
220
0.0
230
1.0
 70
    12
 71
     2
 72
     6
 73
     3
 74
     0
 42
0.0000000001
 43
0.0000000001
 40
0.0
 40
0.0
 40
0.0
 40
0.9522035080094
 40
0.9522035080094
 40
0.9522035080094
 10
52.60942666132064
 20
2.745685996062573
 30
0.0
 41
1.0
 10
52.57627073730694
 20
3.220744722471785
 30
0.0
 41
0.9999999988183028
 10
52.54316883701233
 20
3.695694345821771
 30
0.0
 41
1.0
  0
SPLINE
  5
2B1
330
1F
100
AcDbEntity
  8
Default
100
AcDbSpline
210
0.0
220
0.0
230
1.0
 70
    12
 71
     2
 72
     6
 73
     3
 74
     0
 42
0.0000000001
 43
0.0000000001
 40
0.0
 40
0.0
 40
0.0
 40
0.2487553277819785
 40
0.2487553277819785
 40
0.2487553277819785
 10
52.54316883701233
 20
3.695694345821771
 30
0.0
 41
1.0
 10
52.53372280953157
 20
3.831133994138056
 30
0.0
 41
0.8787732984471257
 10
52.414976798553
 20
3.896955803957431
 30
0.0
 41
1.0
  0
SPLINE
  5
2B2
330
1F
100
AcDbEntity
  8
Default
100
AcDbSpline
210
0.0
220
0.0
230
1.0
 70
    12
 71
     2
 72
    20
 73
    17
 74
     0
 42
0.0000000001
 43
0.0000000001
 40
0.0
 40
0.0
 40
0.0
 40
0.4643734255394482
 40
0.4643734255394482
 40
0.9222224345378158
 40
0.9222224345378158
 40
11.27930755387938
 40
12.47712251619995
 40
12.47712251619995
 40
13.10585240426605
 40
13.10585240426605
 40
15.19995564663804
 40
15.19995564663804
 40
15.8477962145331
 40
15.8477962145331
 40
16.88631587994969
 40
25.27634439949363
 40
25.27634439949363
 40
25.27634439949363
 10
52.414976798553
 20
3.896955803957431
 30
0.0
 41
1.0
 10
52.21131448341967
 20
4.009847361859968
 30
0.0
 41
1.0
 10
51.96303264485539
 20
4.147471854514516
 30
0.0
 41
1.0
 10
51.76075685081033
 20
4.259593510138113
 30
0.0
 41
0.9934565288642211
 10
51.53960527768183
 20
4.322518529943504
 30
0.0
 41
1.0
 10
46.56125585582421
 20
5.748471527330162
 30
0.0
 41
1.0
 10
41.0081890945668
 20
7.342955909076033
 30
0.0
 41
1.0
 10
40.42858935847593
 20
7.487954687550683
 30
0.0
 41
1.0
 10
40.11741898541288
 20
7.533193335811984
 30
0.0
 41
0.999634201029002
 10
39.80425786984699
 20
7.561542093567248
 30
0.0
 41
0.9999998524176973
 10
38.75720575747876
 20
7.561542034970172
 30
0.0
 41
0.9999998524176973
 10
37.71015364511052
 20
7.561541976373098
 30
0.0
 41
0.9999998524176973
 10
37.38746741946249
 20
7.532335734027783
 30
0.0
 41
0.9996110882515188
 10
37.06691186136779
 20
7.485188095637477
 30
0.0
 41
0.9999998524176973
 10
36.59281583519253
 20
7.280765644897766
 30
0.0
 41
0.9999998524176973
 10
32.15069101777783
 20
5.702188017485591
 30
0.0
 41
0.9999998524176973
 10
28.19784356009061
 20
4.297502424094267
 30
0.0
 41
0.9999998524176973
  0
SPLINE
  5
2B3
330
1F
100
AcDbEntity
  8
Default
100
AcDbSpline
210
0.0
220
0.0
230
1.0
 70
     8
 71
     3
 72
     8
 73
     4
 74
     0
 42
0.0000000001
 43
0.0000000001
 40
0.0
 40
0.0
 40
0.0
 40
0.0
 40
1.0
 40
1.0
 40
1.0
 40
1.0
 10
28.1978435600906
 20
4.297502424094266
 30
0.0
 10
28.03235730261275
 20
4.238695155594359
 30
0.0
 10
27.87929844734558
 20
4.145864560215716
 30
0.0
 10
27.73502517503675
 20
4.045718571081129
 30
0.0
  0
SPLINE
  5
2B4
330
1F
100
AcDbEntity
  8
Default
100
AcDbSpline
210
0.0
220
0.0
230
1.0
 70
     8
 71
     3
 72
    11
 73
     7
 74
     0
 42
0.0000000001
 43
0.0000000001
 40
0.0
 40
0.0
 40
0.0
 40
0.0
 40
0.1314236413480431
 40
0.2346101477028872
 40
0.3239100364253512
 40
0.4110019264731688
 40
0.4110019264731688
 40
0.4110019264731688
 40
0.4110019264731688
 10
27.73502517503675
 20
4.045718571081129
 30
0.0
 10
27.69902467410793
 20
4.020729148458626
 30
0.0
 10
27.63639101724189
 20
3.973752562814968
 30
0.0
 10
27.56058342844975
 20
3.896130806040171
 30
0.0
 10
27.51300024945709
 20
3.814985866274454
 30
0.0
 10
27.49925483131517
 20
3.757068550402222
 30
0.0
 10
27.49694234800299
 20
3.728150080667853
 30
0.0
  0
SPLINE
  5
2B5
330
1F
100
AcDbEntity
  8
Default
100
AcDbSpline
210
0.0
220
0.0
230
1.0
 70
    12
 71
     3
 72
    70
 73
    66
 74
     0
 42
0.0000000001
 43
0.0000000001
 40
0.0
 40
0.0
 40
0.0
 40
0.0
 40
0.9733358469104075
 40
0.9733358469104075
 40
0.9733358469104075
 40
1.038942553595811
 40
1.038942553595811
 40
1.038942553595811
 40
1.104549260281215
 40
1.104549260281215
 40
1.104549260281215
 40
2.322215484563071
 40
2.322215484563071
 40
2.322215484563071
 40
2.382163434467255
 40
2.382163434467255
 40
2.382163434467255
 40
2.595278793662235
 40
2.701076059324852
 40
2.701076059324852
 40
2.701076059324852
 40
3.701076059324852
 40
3.701076059324852
 40
3.701076059324852
 40
4.701076059324851
 40
4.701076059324851
 40
5.701076059324851
 40
5.701076059324851
 40
6.701076059324851
 40
6.701076059324851
 40
6.701076059324851
 40
7.701076059324851
 40
7.701076059324851
 40
7.701076059324851
 40
10.58956476235931
 40
10.58956476235931
 40
10.58956476235931
 40
11.41952517875065
 40
11.41952517875065
 40
11.41952517875065
 40
11.85084035962133
 40
11.85084035962133
 40
11.85084035962133
 40
11.96600976270871
 40
11.96600976270871
 40
11.96600976270871
 40
13.18268738209123
 40
13.18268738209123
 40
13.18268738209123
 40
13.24830052978707
 40
13.24830052978707
 40
13.24830052978707
 40
13.31391367748291
 40
13.31391367748291
 40
13.31391367748291
 40
14.38661485551377
 40
14.38661485551377
 40
14.38661485551377
 40
14.56001544671149
 40
14.56001544671149
 40
14.56001544671149
 40
15.56001544671149
 40
15.56001544671149
 40
15.56001544671149
 40
19.58477574569441
 40
19.58477574569441
 40
19.58477574569441
 40
19.58477574569441
 10
27.49694234800299
 20
3.728150080667853
 30
0.0
 41
1.0
 10
27.47170838780442
 20
3.39290389311721
 30
0.0
 41
0.9999997380155814
 10
27.44762895466608
 20
3.069319170865574
 30
0.0
 41
0.9999997380155814
 10
27.42383425607341
 20
2.745679201995566
 30
0.0
 41
1.0
 10
27.42227780855268
 20
2.723162717945524
 30
0.0
 41
0.9448107965438592
 10
27.42979575498942
 20
2.70191638111808
 30
0.0
 41
0.9448107965438592
 10
27.44514336695727
 20
2.685457896730837
 30
0.0
 41
1.0
 10
27.46049097892509
 20
2.668999412343593
 30
0.0
 41
0.9448107965438592
 10
27.48112494987414
 20
2.660017756354119
 30
0.0
 41
0.9448107965438592
 10
27.50362896254202
 20
2.660000000081741
 30
0.0
 41
1.0
 10
27.9095177039693
 20
2.660000000054494
 30
0.0
 41
1.0
 10
28.3154064453966
 20
2.660000000027247
 30
0.0
 41
1.0
 10
28.72129518682388
 20
2.66
 30
0.0
 41
1.0
 10
28.74254738633218
 20
2.660171995231419
 30
0.0
 41
0.8860027821911703
 10
28.76010521216572
 20
2.67226152568667
 30
0.0
 41
0.8860027821911703
 10
28.76796403443706
 20
2.692134072856212
 30
0.0
 41
1.0
 10
28.79488646989796
 20
2.758184590910365
 30
0.0
 41
1.0
 10
28.81779104512518
 20
2.86264168468771
 30
0.0
 41
1.0
 10
28.86241371824192
 20
2.959679166605115
 30
0.0
 41
1.0
 10
28.88084368014813
 20
2.989759784919145
 30
0.0
 41
1.0
 10
28.92033958515492
 20
3.05422336056422
 30
0.0
 41
1.0
 10
28.99140946765186
 20
3.099164578127106
 30
0.0
 41
1.0
 10
29.0620057478196
 20
3.126213502758872
 30
0.0
 41
1.0
 10
29.90711556154923
 20
3.450016847677774
 30
0.0
 41
1.0
 10
30.77211915837697
 20
3.706312953557234
 30
0.0
 41
1.0
 10
32.54191391822857
 20
4.083890687237267
 30
0.0
 41
1.0
 10
33.42373801740112
 20
4.282871617828673
 30
0.0
 41
1.0
 10
35.1812396542397
 20
4.701217606514262
 30
0.0
 41
1.0
 10
36.06228082705616
 20
4.908571612855071
 30
0.0
 41
1.0
 10
36.94561235426971
 20
5.114106631193899
 30
0.0
 41
1.0
 10
37.56141827855427
 20
5.257773894377562
 30
0.0
 41
1.0
 10
38.29052308053755
 20
5.436591419349244
 30
0.0
 41
1.0
 10
38.83252293601424
 20
5.120777261808773
 30
0.0
 41
1.0
 10
39.6644301350934
 20
4.636038993755232
 30
0.0
 41
1.0
 10
40.49633733417258
 20
4.151300725701691
 30
0.0
 41
1.0
 10
41.32824453325173
 20
3.66656245764815
 30
0.0
 41
1.0
 10
41.57250097563004
 20
3.522085839479792
 30
0.0
 41
0.9933765536404024
 10
41.79401559555412
 20
3.344699323643473
 30
0.0
 41
0.9933765536404024
 10
41.98838682241524
 20
3.137927640356867
 30
0.0
 41
1.0
 10
42.08948321697339
 20
3.03038151835839
 30
0.0
 41
0.9491499727381721
 10
42.14167225037018
 20
2.892312861007494
 30
0.0
 41
0.9491499727381721
 10
42.13699248129259
 20
2.744784053275071
 30
0.0
 41
1.0
 10
42.13269331953011
 20
2.702707148756911
 30
0.0
 41
0.8282968271422514
 10
42.15768903003698
 20
2.668587313733398
 30
0.0
 41
0.8282968271422514
 10
42.19910408440757
 20
2.659999999997294
 30
0.0
 41
1.0
 10
42.60477365729872
 20
2.659999999999125
 30
0.0
 41
1.0
 10
43.01044323018985
 20
2.660000000000956
 30
0.0
 41
1.0
 10
43.41611280308101
 20
2.660000000002787
 30
0.0
 41
1.0
 10
43.43868925522164
 20
2.660013172304279
 30
0.0
 41
0.9447834927321687
 10
43.45936456616524
 20
2.668993758391062
 30
0.0
 41
0.9447834927321687
 10
43.47471388054092
 20
2.685454128472346
 30
0.0
 41
1.0
 10
43.49006319491656
 20
2.701914498553629
 30
0.0
 41
0.9447834927321687
 10
43.49758136753724
 20
2.723137000690925
 30
0.0
 41
0.9447834927321687
 10
43.49602301670348
 20
2.745606137553717
 30
0.0
 41
1.0
 10
43.47040767108514
 20
3.102271596537205
 30
0.0
 41
0.9999999994382733
 10
43.4447569233174
 20
3.459222618605346
 30
0.0
 41
0.9999999994382733
 10
43.41907077344345
 20
3.816459203156611
 30
0.0
 41
1.0
 10
43.41413195335348
 20
3.875195613287665
 30
0.0
 41
0.9810402261245104
 10
43.39558302446355
 20
3.930835040768761
 30
0.0
 41
0.9810402261245104
 10
43.36447903726585
 20
3.980212752709089
 30
0.0
 41
1.0
 10
43.30462814260824
 20
4.075226302482908
 30
0.0
 41
1.0
 10
43.24740041743027
 20
4.174844520131929
 30
0.0
 41
1.0
 10
43.16668083571287
 20
4.252908938142355
 30
0.0
 41
1.0
 10
42.20230744558534
 20
5.185560543159535
 30
0.0
 41
0.999999999810432
 10
41.23795629715842
 20
6.118235145823858
 30
0.0
 41
0.999999999810432
 10
40.27362739098052
 20
7.050932745604913
 30
0.0
 41
1.0
  0
SPLINE
  5
2B6
330
1F
100
AcDbEntity
  8
Default
100
AcDbSpline
210
0.0
220
0.0
230
1.0
 70
    24
 71
     2
 72
     6
 73
     3
 74
     0
 42
0.0000000001
 43
0.0000000001
 40
0.0
 40
0.0
 40
0.0
 40
2.133459288680166
 40
2.133459288680166
 40
2.133459288680166
 10
39.73714183901137
 20
7.561540711319834
 30
0.0
 10
39.73664631531645
 20
8.628765879354848
 30
0.0
 10
39.73615079162153
 20
9.69599104738986
 30
0.0
  0
SPLINE
  5
2B7
330
1F
100
AcDbEntity
  8
Default
100
AcDbSpline
210
0.0
220
0.0
230
1.0
 70
    24
 71
     2
 72
     6
 73
     3
 74
     0
 42
0.0000000001
 43
0.0000000001
 40
0.0
 40
0.0
 40
0.0
 40
0.1739735899772819
 40
0.1739735899772819
 40
0.1739735899772819
 10
39.73615079162153
 20
9.69599104738986
 30
0.0
 10
39.67328167703246
 20
9.757995523694941
 30
0.0
 10
39.6104125624434
 20
9.820000000000022
 30
0.0
  0
LINE
  5
2B8
330
1F
100
AcDbEntity
  8
Default
100
AcDbLine
 10
39.6104125624434
 20
9.820000000000022
 30
0.0
 11
37.90214183901134
 21
9.820000000000022
 31
0.0
  0
SPLINE
  5
2B9
330
1F
100
AcDbEntity
  8
Default
100
AcDbSpline
210
0.0
220
0.0
230
1.0
 70
    24
 71
     2
 72
     6
 73
     3
 74
     0
 42
0.0000000001
 43
0.0000000001
 40
0.0
 40
0.0
 40
0.0
 40
0.1739735899772856
 40
0.1739735899772856
 40
0.1739735899772856
 10
37.90214183901134
 20
9.820000000000022
 30
0.0
 10
37.84013736270627
 20
9.757995523694937
 30
0.0
 10
37.77813288640121
 20
9.695991047389855
 30
0.0
  0
SPLINE
  5
2BA
330
1F
100
AcDbEntity
  8
Default
100
AcDbSpline
210
0.0
220
0.0
230
1.0
 70
    24
 71
     2
 72
     6
 73
     3
 74
     0
 42
0.0000000001
 43
0.0000000001
 40
0.0
 40
0.0
 40
0.0
 40
2.133457839906034
 40
2.133457839906034
 40
2.133457839906034
 10
37.77813288640121
 20
9.695991047389855
 30
0.0
 10
37.77763736270629
 20
8.628766603741909
 30
0.0
 10
37.77714183901136
 20
7.561542160093962
 30
0.0
  0
SPLINE
  5
2BB
330
1F
100
AcDbEntity
  8
Default
100
AcDbSpline
210
0.0
220
0.0
230
1.0
 70
    24
 71
     2
 72
     6
 73
     3
 74
     0
 42
0.0000000001
 43
0.0000000001
 40
0.0
 40
0.0
 40
0.0
 40
0.0829573442458832
 40
0.0829573442458832
 40
0.0829573442458832
 10
43.17622699477144
 20
2.559999999999992
 30
0.0
 10
43.18263034277166
 20
2.600981427201475
 30
0.0
 10
43.18903369077188
 20
2.641962854402959
 30
0.0
  0
POLYLINE
  5
2BC
330
1F
100
AcDbEntity
  8
Default
100
AcDb2dPolyline
 66
     1
 10
0.0
 20
0.0
 30
0.0
  0
VERTEX
  5
2BD
330
2BC
100
AcDbEntity
  8
Default
100
AcDbVertex
100
AcDb2dVertex
 10
43.18903369077188
 20
2.641962854402959
 30
0.0
  0
VERTEX
  5
2BE
330
2BC
100
AcDbEntity
  8
Default
100
AcDbVertex
100
AcDb2dVertex
 10
42.47592029877086
 20
2.641962854402998
 30
0.0
  0
SEQEND
  5
2BF
330
2BC
100
AcDbEntity
  8
Default
  0
SPLINE
  5
2C0
330
1F
100
AcDbEntity
  8
Default
100
AcDbSpline
210
0.0
220
0.0
230
1.0
 70
    24
 71
     2
 72
     6
 73
     3
 74
     0
 42
0.0000000001
 43
0.0000000001
 40
0.0
 40
0.0
 40
0.0
 40
0.0829573442459229
 40
0.0829573442459229
 40
0.0829573442459229
 10
42.47592029877086
 20
2.641962854402998
 30
0.0
 10
42.48232364677108
 20
2.600981427201495
 30
0.0
 10
42.4887269947713
 20
2.559999999999992
 30
0.0
  0
LINE
  5
2C1
330
1F
100
AcDbEntity
  8
Default
100
AcDbLine
 10
42.02686567528045
 20
2.56
 30
0.0
 11
43.19185199477138
 21
2.56
 31
0.0
  0
SPLINE
  5
2C2
330
1F
100
AcDbEntity
  8
Default
100
AcDbSpline
210
0.0
220
0.0
230
1.0
 70
    24
 71
     2
 72
     6
 73
     3
 74
     0
 42
0.0000000001
 43
0.0000000001
 40
-1.16498631949094
 40
-1.16498631949094
 40
-1.16498631949094
 40
0.0
 40
0.0
 40
0.0
 10
43.19185199477138
 20
2.56
 30
0.0
 10
43.19185199477138
 20
1.977506840254531
 30
0.0
 10
43.19185199477138
 20
1.395013680509061
 30
0.0
  0
SPLINE
  5
2C3
330
1F
100
AcDbEntity
  8
Default
100
AcDbSpline
210
0.0
220
0.0
230
1.0
 70
    24
 71
     2
 72
     6
 73
     3
 74
     0
 42
0.0000000001
 43
0.0000000001
 40
0.0
 40
0.0
 40
0.0
 40
0.0829542912717206
 40
0.0829542912717206
 40
0.0829542912717206
 10
28.43147458248006
 20
2.560003016375203
 30
0.0
 10
28.43787769482597
 20
2.600982935389081
 30
0.0
 10
28.44428080717188
 20
2.641962854402959
 30
0.0
  0
POLYLINE
  5
2C4
330
1F
100
AcDbEntity
  8
Default
100
AcDb2dPolyline
 66
     1
 10
0.0
 20
0.0
 30
0.0
  0
VERTEX
  5
2C5
330
2C4
100
AcDbEntity
  8
Default
100
AcDbVertex
100
AcDb2dVertex
 10
28.44428080717188
 20
2.641962854402959
 30
0.0
  0
VERTEX
  5
2C6
330
2C4
100
AcDbEntity
  8
Default
100
AcDbVertex
100
AcDb2dVertex
 10
27.73116788647948
 20
2.641959838027782
 30
0.0
  0
SEQEND
  5
2C7
330
2C4
100
AcDbEntity
  8
Default
  0
SPLINE
  5
2C8
330
1F
100
AcDbEntity
  8
Default
100
AcDbSpline
210
0.0
220
0.0
230
1.0
 70
    24
 71
     2
 72
     6
 73
     3
 74
     0
 42
0.0000000001
 43
0.0000000001
 40
0.0
 40
0.0
 40
0.0
 40
0.0829542912717557
 40
0.0829542912717557
 40
0.0829542912717557
 10
27.73116788647948
 20
2.641959838027782
 30
0.0
 10
27.73757099882539
 20
2.600979919013887
 30
0.0
 10
27.7439741111713
 20
2.559999999999992
 30
0.0
  0
LINE
  5
2C9
330
1F
100
AcDbEntity
  8
Default
100
AcDbLine
 10
27.28211279168045
 20
2.56
 30
0.0
 11
28.44709911117135
 21
2.56
 31
0.0
  0
SPLINE
  5
2CA
330
1F
100
AcDbEntity
  8
Default
100
AcDbSpline
210
0.0
220
0.0
230
1.0
 70
    24
 71
     2
 72
     6
 73
     3
 74
     0
 42
0.0000000001
 43
0.0000000001
 40
-1.16498631949094
 40
-1.16498631949094
 40
-1.16498631949094
 40
0.0
 40
0.0
 40
0.0
 10
28.44709911117135
 20
2.56
 30
0.0
 10
28.44709911117135
 20
1.977506840254531
 30
0.0
 10
28.44709911117135
 20
1.395013680509061
 30
0.0
  0
SPLINE
  5
2CB
330
1F
100
AcDbEntity
  8
Default
100
AcDbSpline
210
0.0
220
0.0
230
1.0
 70
    12
 71
     2
 72
     6
 73
     3
 74
     0
 42
0.0000000001
 43
0.0000000001
 40
0.0
 40
0.0
 40
0.0
 40
4.277042200853588
 40
4.277042200853588
 40
4.277042200853588
 10
42.35581851262552
 20
4.297503139183391
 30
0.0
 41
1.0
 10
40.74330102594421
 20
5.70215962881618
 30
0.0
 41
0.9999999997181311
 10
39.13085024307088
 20
7.10689268939271
 30
0.0
 41
1.0
  0
SPLINE
  5
2CC
330
1F
100
AcDbEntity
  8
Default
100
AcDbSpline
210
0.0
220
0.0
230
1.0
 70
     8
 71
     2
 72
     9
 73
     6
 74
     0
 42
0.0000000001
 43
0.0000000001
 40
0.0
 40
0.0
 40
0.0
 40
1.0
 40
2.0
 40
3.0
 40
4.0
 40
4.0
 40
4.0
 10
39.13085024307088
 20
7.10689268939271
 30
0.0
 10
38.90368812249247
 20
7.30479153026062
 30
0.0
 10
38.25789008943539
 20
7.370163209068004
 30
0.0
 10
37.66238952152375
 20
7.331303246823572
 30
0.0
 10
37.02612953970865
 20
7.204827559217165
 30
0.0
 10
36.74340177098358
 20
7.106896327692084
 30
0.0
  0
SPLINE
  5
2CD
330
1F
100
AcDbEntity
  8
Default
100
AcDbSpline
210
0.0
220
0.0
230
1.0
 70
    12
 71
     2
 72
     6
 73
     3
 74
     0
 42
0.0000000001
 43
0.0000000001
 40
0.0
 40
0.0
 40
0.0
 40
8.583727431647358
 40
8.583727431647358
 40
8.583727431647358
 10
36.74340177098358
 20
7.106896327692084
 30
0.0
 41
1.0
 10
32.68793386311458
 20
5.702163540322066
 30
0.0
 41
0.99999999997041
 10
28.63244434295544
 20
4.297493149142145
 30
0.0
 41
1.0
  0
SPLINE
  5
2CE
330
1F
100
AcDbEntity
  8
Default
100
AcDbSpline
210
0.0
220
0.0
230
1.0
 70
     8
 71
     3
 72
     8
 73
     4
 74
     0
 42
0.0000000001
 43
0.0000000001
 40
0.0
 40
0.0
 40
0.0
 40
0.0
 40
1.0
 40
1.0
 40
1.0
 40
1.0
 10
28.63244434295544
 20
4.297493149142145
 30
0.0
 10
28.47933157037033
 20
4.244460592383539
 30
0.0
 10
28.34070721400707
 20
4.154606121166153
 30
0.0
 10
28.20474937346023
 20
4.066450356755091
 30
0.0
  0
SPLINE
  5
2CF
330
1F
100
AcDbEntity
  8
Default
100
AcDbSpline
210
0.0
220
0.0
230
1.0
 70
     8
 71
     2
 72
     6
 73
     3
 74
     0
 42
0.0000000001
 43
0.0000000001
 40
0.0
 40
0.0
 40
0.0
 40
1.0
 40
1.0
 40
1.0
 10
28.20474937346023
 20
4.066450356755091
 30
0.0
 10
27.97756853808681
 20
3.919145132419843
 30
0.0
 10
27.70772116838003
 20
3.89695580395986
 30
0.0
  0
SPLINE
  5
2D0
330
1F
100
AcDbEntity
  8
Default
100
AcDbSpline
210
0.0
220
0.0
230
1.0
 70
     8
 71
     2
 72
    12
 73
     9
 74
     0
 42
0.0000000001
 43
0.0000000001
 40
0.0
 40
0.0
 40
0.0
 40
1.0
 40
2.0
 40
3.0
 40
4.0
 40
5.0
 40
6.0
 40
7.0
 40
7.0
 40
7.0
 10
27.70772116838003
 20
3.89695580395986
 30
0.0
 10
27.68799700023274
 20
3.896507285348974
 30
0.0
 10
27.64421162885733
 20
3.904647033547472
 30
0.0
 10
27.63788789395326
 20
3.94608889502837
 30
0.0
 10
27.66565956014153
 20
3.97822525325443
 30
0.0
 10
27.69476492405096
 20
4.006056813959598
 30
0.0
 10
27.72646006000693
 20
4.031494342297836
 30
0.0
 10
27.75943548156351
 20
4.055113701821941
 30
0.0
 10
27.77625480504219
 20
4.066455028217183
 30
0.0
  0
ARC
  5
2D1
330
1F
100
AcDbEntity
  8
Default
100
AcDbCircle
 10
46.89193121143506
 20
-5.86655450315541
 30
0.0
 40
11.20079460922019
100
AcDbArc
 50
60.81255328373442
 51
64.26031593060341
  0
ARC
  5
2D2
330
1F
100
AcDbEntity
  8
Default
100
AcDbCircle
 10
51.00272811169037
 20
2.394356287640333
 30
0.0
 40
1.977677157831372
100
AcDbArc
 50
67.6036183114631
 51
74.21926851449611
  0
SPLINE
  5
2D3
330
1F
100
AcDbEntity
  8
Default
100
AcDbSpline
210
0.0
220
0.0
230
1.0
 70
    12
 71
     2
 72
     6
 73
     3
 74
     0
 42
0.0000000001
 43
0.0000000001
 40
-10.28975635970554
 40
-10.28975635970554
 40
-10.28975635970554
 40
0.0
 40
0.0
 40
0.0
 10
51.5405705439313
 20
4.297493817796553
 30
0.0
 41
1.0
 10
46.51894171745764
 20
5.674667899963371
 30
0.0
 41
0.9999999999913883
 10
41.58231637575926
 20
7.12363364191873
 30
0.0
 41
1.0
  0
SPLINE
  5
2D4
330
1F
100
AcDbEntity
  8
Default
100
AcDbSpline
210
0.0
220
0.0
230
1.0
 70
     8
 71
     3
 72
    18
 73
    14
 74
     0
 42
0.0000000001
 43
0.0000000001
 40
0.0
 40
0.0
 40
0.0
 40
0.0
 40
1.0
 40
2.0
 40
3.0
 40
4.0
 40
5.0
 40
6.0
 40
7.0
 40
8.0
 40
9.0
 40
10.0
 40
11.0
 40
11.0
 40
11.0
 40
11.0
 10
41.58231637575926
 20
7.12363364191873
 30
0.0
 10
41.53319267303254
 20
7.13805210745789
 30
0.0
 10
41.43473578371172
 20
7.166177327604867
 30
0.0
 10
41.28633978405307
 20
7.205803069916706
 30
0.0
 10
41.13720159332286
 20
7.242527833278234
 30
0.0
 10
40.987271390426
 20
7.275951031045022
 30
0.0
 10
40.8367827018383
 20
7.306420096925582
 30
0.0
 10
40.68571426395758
 20
7.335188390531428
 30
0.0
 10
40.53441651680106
 20
7.357604048846451
 30
0.0
 10
40.37763591567926
 20
7.362403818396249
 30
0.0
 10
40.23576849544321
 20
7.335613019860904
 30
0.0
 10
40.05411116745944
 20
7.276913261765134
 30
0.0
 10
40.11193300445802
 20
7.154219603389409
 30
0.0
 10
40.14926900076543
 20
7.123636369765254
 30
0.0
  0
SPLINE
  5
2D5
330
1F
100
AcDbEntity
  8
Default
100
AcDbSpline
210
0.0
220
0.0
230
1.0
 70
    12
 71
     2
 72
     6
 73
     3
 74
     0
 42
0.0000000001
 43
0.0000000001
 40
0.0
 40
0.0
 40
0.0
 40
4.032539305065463
 40
4.032539305065463
 40
4.032539305065463
 10
40.14926900076543
 20
7.123636369765254
 30
0.0
 41
1.0
 10
41.6126348552831
 20
5.702207178856789
 30
0.0
 41
0.9999999999674203
 10
43.05905327674586
 20
4.297494730727383
 30
0.0
 41
1.0
  0
SPLINE
  5
2D6
330
1F
100
AcDbEntity
  8
Default
100
AcDbSpline
210
0.0
220
0.0
230
1.0
 70
    24
 71
     2
 72
     6
 73
     3
 74
     0
 42
0.0000000001
 43
0.0000000001
 40
-1.086278562123957
 40
-1.086278562123957
 40
-1.086278562123957
 40
0.0
 40
0.0
 40
0.0
 10
39.65080660521286
 20
4.643977194417977
 30
0.0
 10
39.60569576630031
 20
4.102647019628606
 30
0.0
 10
39.56058492738777
 20
3.561316844839234
 30
0.0
  0
SPLINE
  5
2D7
330
1F
100
AcDbEntity
  8
Default
100
AcDbSpline
210
0.0
220
0.0
230
1.0
 70
    12
 71
     2
 72
     6
 73
     3
 74
     0
 42
0.0000000001
 43
0.0000000001
 40
-0.0828723162712908
 40
-0.0828723162712908
 40
-0.0828723162712908
 40
0.0
 40
0.0
 40
0.0
 10
39.56058492738777
 20
3.561316844839234
 30
0.0
 41
1.0
 10
39.55713738392669
 20
3.51986543332846
 30
0.0
 41
0.9991371909500295
 10
39.55714183901136
 20
3.478405421208
 30
0.0
 41
1.0
  0
SPLINE
  5
2D8
330
1F
100
AcDbEntity
  8
Default
100
AcDbSpline
210
0.0
220
0.0
230
1.0
 70
    24
 71
     2
 72
     6
 73
     3
 74
     0
 42
0.0000000001
 43
0.0000000001
 40
-2.318405421208
 40
-2.318405421208
 40
-2.318405421208
 40
0.0
 40
0.0
 40
0.0
 10
39.55714183901136
 20
3.478405421208
 30
0.0
 10
39.55633282073394
 20
2.319202710604
 30
0.0
 10
39.55552380245652
 20
1.16
 30
0.0
  0
LINE
  5
2D9
330
1F
100
AcDbEntity
  8
Default
100
AcDbLine
 10
39.55552380245652
 20
1.16
 30
0.0
 11
37.95714183901137
 21
1.16
 31
0.0
  0
SPLINE
  5
2DA
330
1F
100
AcDbEntity
  8
Default
100
AcDbSpline
210
0.0
220
0.0
230
1.0
 70
    24
 71
     2
 72
     6
 73
     3
 74
     0
 42
0.0000000001
 43
0.0000000001
 40
-2.318405421208
 40
-2.318405421208
 40
-2.318405421208
 40
0.0
 40
0.0
 40
0.0
 10
37.95714183901137
 20
1.16
 30
0.0
 10
37.95714183901137
 20
2.319202710604
 30
0.0
 10
37.95714183901137
 20
3.478405421208
 30
0.0
  0
SPLINE
  5
2DB
330
1F
100
AcDbEntity
  8
Default
100
AcDbSpline
210
0.0
220
0.0
230
1.0
 70
    12
 71
     2
 72
     6
 73
     3
 74
     0
 42
0.0000000001
 43
0.0000000001
 40
-0.0828723162712908
 40
-0.0828723162712908
 40
-0.0828723162712908
 40
0.0
 40
0.0
 40
0.0
 10
37.95714183901137
 20
3.478405421208
 30
0.0
 41
1.0
 10
37.95714629409603
 20
3.51986543332846
 30
0.0
 41
0.9991371909500295
 10
37.95369875063497
 20
3.561316844839234
 30
0.0
 41
1.0
  0
SPLINE
  5
2DC
330
1F
100
AcDbEntity
  8
Default
100
AcDbSpline
210
0.0
220
0.0
230
1.0
 70
    24
 71
     2
 72
     6
 73
     3
 74
     0
 42
0.0000000001
 43
0.0000000001
 40
-1.672807390656564
 40
-1.672807390656564
 40
-1.672807390656564
 40
0.0
 40
0.0
 40
0.0
 10
37.95369875063497
 20
3.561316844839234
 30
0.0
 10
37.88423362771564
 20
4.394898427709859
 30
0.0
 10
37.81476850479632
 20
5.228480010580484
 30
0.0
  0
SPLINE
  5
2DD
330
1F
100
AcDbEntity
  8
Default
100
AcDbSpline
210
0.0
220
0.0
230
1.0
 70
    12
 71
     2
 72
     8
 73
     5
 74
     0
 42
0.0000000001
 43
0.0000000001
 40
0.0
 40
0.0
 40
0.0
 40
1.570796326794905
 40
1.570796326794905
 40
3.141592653589806
 40
3.141592653589806
 40
3.141592653589806
 10
51.02463020866136
 20
2.280000000000001
 30
0.0
 41
1.0
 10
50.02463020866134
 20
2.280000000000015
 30
0.0
 41
0.7071067811865387
 10
50.02463020866136
 20
1.280000000000001
 30
0.0
 41
1.0
 10
50.02463020866136
 20
0.2799999999999876
 30
0.0
 41
0.7071067811865377
 10
51.02463020866136
 20
0.2800000000000018
 30
0.0
 41
1.0
  0
SPLINE
  5
2DE
330
1F
100
AcDbEntity
  8
Default
100
AcDbSpline
210
0.0
220
0.0
230
1.0
 70
    12
 71
     2
 72
     8
 73
     5
 74
     0
 42
0.0000000001
 43
0.0000000001
 40
0.0
 40
0.0
 40
0.0
 40
1.668971097219569
 40
1.668971097219569
 40
3.337942194439146
 40
3.337942194439146
 40
3.337942194439146
 10
41.91185199477138
 20
2.342500000000001
 30
0.0
 41
1.0
 10
42.97435199477133
 20
2.342499999999987
 30
0.0
 41
0.7071067811865555
 10
42.97435199477135
 20
1.280000000000001
 30
0.0
 41
1.0
 10
42.97435199477138
 20
0.217500000000014
 30
0.0
 41
0.7071067811865589
 10
41.91185199477138
 20
0.2174999999999925
 30
0.0
 41
1.0
  0
SPLINE
  5
2DF
330
1F
100
AcDbEntity
  8
Default
100
AcDbSpline
210
0.0
220
0.0
230
1.0
 70
    12
 71
     2
 72
     8
 73
     5
 74
     0
 42
0.0000000001
 43
0.0000000001
 40
0.0
 40
0.0
 40
0.0
 40
1.570796326794891
 40
1.570796326794891
 40
3.141592653589781
 40
3.141592653589781
 40
3.141592653589781
 10
27.16709911117138
 20
0.2800000000000011
 30
0.0
 41
1.0
 10
28.16709911117139
 20
0.2800000000000154
 30
0.0
 41
0.7071067811865578
 10
28.16709911117138
 20
1.280000000000001
 30
0.0
 41
1.0
 10
28.16709911117135
 20
2.279999999999986
 30
0.0
 41
0.7071067811865578
 10
27.16709911117138
 20
2.280000000000001
 30
0.0
 41
1.0
  0
SPLINE
  5
2E0
330
1F
100
AcDbEntity
  8
Default
100
AcDbSpline
210
0.0
220
0.0
230
1.0
 70
    12
 71
     2
 72
     8
 73
     5
 74
     0
 42
0.0000000001
 43
0.0000000001
 40
0.0
 40
0.0
 40
0.0
 40
1.57079632679489
 40
1.57079632679489
 40
3.141592653589781
 40
3.141592653589781
 40
3.141592653589781
 10
51.02463020866136
 20
0.2800000000000011
 30
0.0
 41
1.0
 10
52.02463020866134
 20
0.2800000000000155
 30
0.0
 41
0.7071067811865576
 10
52.02463020866136
 20
1.280000000000001
 30
0.0
 41
1.0
 10
52.02463020866136
 20
2.279999999999982
 30
0.0
 41
0.7071067811865617
 10
51.02463020866136
 20
2.280000000000004
 30
0.0
 41
1.0
  0
SPLINE
  5
2E1
330
1F
100
AcDbEntity
  8
Default
100
AcDbSpline
210
0.0
220
0.0
230
1.0
 70
    12
 71
     2
 72
     8
 73
     5
 74
     0
 42
0.0000000001
 43
0.0000000001
 40
0.0
 40
0.0
 40
0.0
 40
1.570796326794905
 40
1.570796326794905
 40
3.141592653589806
 40
3.141592653589806
 40
3.141592653589806
 10
27.16709911117138
 20
2.280000000000001
 30
0.0
 41
1.0
 10
26.16709911117135
 20
2.280000000000015
 30
0.0
 41
0.7071067811865388
 10
26.16709911117138
 20
1.280000000000001
 30
0.0
 41
1.0
 10
26.16709911117136
 20
0.279999999999989
 30
0.0
 41
0.7071067811865381
 10
27.16709911117138
 20
0.2800000000000029
 30
0.0
 41
1.0
  0
SPLINE
  5
2E2
330
1F
100
AcDbEntity
  8
Default
100
AcDbSpline
210
0.0
220
0.0
230
1.0
 70
    12
 71
     2
 72
     8
 73
     5
 74
     0
 42
0.0000000001
 43
0.0000000001
 40
0.0
 40
0.0
 40
0.0
 40
1.668971097219588
 40
1.668971097219588
 40
3.337942194439166
 40
3.337942194439166
 40
3.337942194439166
 10
27.16709911117138
 20
0.2175000000000011
 30
0.0
 41
1.0
 10
26.10459911117137
 20
0.2174999999999868
 30
0.0
 41
0.7071067811865404
 10
26.10459911117138
 20
1.280000000000001
 30
0.0
 41
1.0
 10
26.10459911117139
 20
2.342500000000001
 30
0.0
 41
0.7071067811865475
 10
27.16709911117138
 20
2.342500000000001
 30
0.0
 41
1.0
  0
SPLINE
  5
2E3
330
1F
100
AcDbEntity
  8
Default
100
AcDbSpline
210
0.0
220
0.0
230
1.0
 70
    12
 71
     2
 72
     8
 73
     5
 74
     0
 42
0.0000000001
 43
0.0000000001
 40
0.0
 40
0.0
 40
0.0
 40
1.668971097219579
 40
1.668971097219579
 40
3.337942194439159
 40
3.337942194439159
 40
3.337942194439159
 10
41.91185199477138
 20
0.2175000000000011
 30
0.0
 41
1.0
 10
40.84935199477138
 20
0.2175000000000011
 30
0.0
 41
0.707106781186548
 10
40.84935199477138
 20
1.280000000000001
 30
0.0
 41
1.0
 10
40.84935199477138
 20
2.342500000000011
 30
0.0
 41
0.7071067811865392
 10
41.91185199477138
 20
2.342499999999998
 30
0.0
 41
1.0
  0
SPLINE
  5
2E4
330
1F
100
AcDbEntity
  8
Default
100
AcDbSpline
210
0.0
220
0.0
230
1.0
 70
    12
 71
     3
 72
    12
 73
     8
 74
     0
 42
0.0000000001
 43
0.0000000001
 40
-0.7506706675552426
 40
-0.7506706675552426
 40
-0.7506706675552426
 40
-0.7506706675552426
 40
-0.5013413351104851
 40
-0.5013413351104851
 40
-0.2509175625619049
 40
-0.2509175625619049
 40
0.0
 40
0.0
 40
0.0
 40
0.0
 10
43.41950489719423
 20
3.817382695361858
 30
0.0
 41
1.0
 10
43.4214604017325
 20
3.800134472448533
 30
0.0
 41
1.0
 10
43.4134499337213
 20
3.782344806175977
 30
0.0
 41
1.0
 10
43.36741815587771
 20
3.747185174082857
 30
0.0
 41
1.0
 10
43.32773732178373
 20
3.729973746534604
 30
0.0
 41
1.0
 10
43.20435937841503
 20
3.704084882030646
 30
0.0
 41
1.0
 10
43.12046160284353
 20
3.695674074752883
 30
0.0
 41
1.0
 10
43.0172448064493
 20
3.695694345738939
 30
0.0
 41
1.0
  0
SPLINE
  5
2E5
330
1F
100
AcDbEntity
  8
Default
100
AcDbSpline
210
0.0
220
0.0
230
1.0
 70
    12
 71
     2
 72
     8
 73
     5
 74
     0
 42
0.0000000001
 43
0.0000000001
 40
0.0
 40
0.0
 40
0.0
 40
1.668971097219578
 40
1.668971097219578
 40
3.337942194439155
 40
3.337942194439155
 40
3.337942194439155
 10
51.02463020866136
 20
0.2175000000000011
 30
0.0
 41
1.0
 10
49.96213020866138
 20
0.2175000000000012
 30
0.0
 41
0.7071067811865476
 10
49.96213020866136
 20
1.280000000000001
 30
0.0
 41
1.0
 10
49.96213020866137
 20
2.342500000000001
 30
0.0
 41
0.7071067811865475
 10
51.02463020866136
 20
2.342500000000001
 30
0.0
 41
1.0
  0
SPLINE
  5
2E6
330
1F
100
AcDbEntity
  8
Default
100
AcDbSpline
210
0.0
220
0.0
230
1.0
 70
    12
 71
     2
 72
     6
 73
     3
 74
     0
 42
0.0000000001
 43
0.0000000001
 40
0.0
 40
0.0
 40
0.0
 40
0.1200599219472092
 40
0.1200599219472092
 40
0.1200599219472092
 10
42.49505475990642
 20
4.124804394423492
 30
0.0
 41
1.0
 10
42.46428677781461
 20
4.176487352524973
 30
0.0
 41
0.9970557903464687
 10
42.42597789753225
 20
4.222857888122846
 30
0.0
 41
1.0
  0
SPLINE
  5
2E7
330
1F
100
AcDbEntity
  8
Default
100
AcDbSpline
210
0.0
220
0.0
230
1.0
 70
    12
 71
     2
 72
     8
 73
     5
 74
     0
 42
0.0000000001
 43
0.0000000001
 40
0.0
 40
0.0
 40
0.0
 40
2.010619298297466
 40
2.010619298297466
 40
4.021218817798436
 40
4.021218817798436
 40
4.021218817798436
 10
27.16709911117138
 20
0.0
 30
0.0
 41
1.0
 10
28.44709911117137
 20
0.0
 30
0.0
 41
0.7071067811865458
 10
28.44709911117138
 20
1.280000000000001
 30
0.0
 41
1.0
 10
28.44709911117137
 20
2.559980221356322
 30
0.0
 41
0.7071122443377527
 10
27.16711888996787
 20
2.559999999847184
 30
0.0
 41
1.0
  0
SPLINE
  5
2E8
330
1F
100
AcDbEntity
  8
Default
100
AcDbSpline
210
0.0
220
0.0
230
1.0
 70
     8
 71
     3
 72
    12
 73
     8
 74
     0
 42
0.0000000001
 43
0.0000000001
 40
0.0
 40
0.0
 40
0.0
 40
0.0
 40
0.0390599208682526
 40
0.0683789205482023
 40
0.1390273096120435
 40
0.2351558596793048
 40
0.3634001376436689
 40
0.3634001376436689
 40
0.3634001376436689
 40
0.3634001376436689
 10
43.2162932963563
 20
4.06645036891404
 30
0.0
 10
43.22305310577718
 20
4.054919564402835
 30
0.0
 10
43.23346649129428
 20
4.035452266000479
 30
0.0
 10
43.23614236472793
 20
3.985968219913318
 30
0.0
 10
43.19018351626167
 20
3.933636697624267
 30
0.0
 10
43.09481252629968
 20
3.90407947279546
 30
0.0
 10
43.02064124742378
 20
3.896279698684061
 30
0.0
 10
42.97764481515807
 20
3.896955803960124
 30
0.0
  0
SPLINE
  5
2E9
330
1F
100
AcDbEntity
  8
Default
100
AcDbSpline
210
0.0
220
0.0
230
1.0
 70
     8
 71
     3
 72
    12
 73
     8
 74
     0
 42
0.0000000001
 43
0.0000000001
 40
0.0
 40
0.0
 40
0.0
 40
0.0
 40
0.0756631192125829
 40
0.1533030128895928
 40
0.2957591290460643
 40
0.4162413172123314
 40
0.5037352283214283
 40
0.5037352283214283
 40
0.5037352283214283
 40
0.5037352283214283
 10
42.97764481515807
 20
3.896955803960124
 30
0.0
 10
42.95235585241244
 20
3.89679128461335
 30
0.0
 10
42.90144014416595
 20
3.899704146148524
 30
0.0
 10
42.80343507401412
 20
3.912653737481822
 30
0.0
 10
42.69347326434632
 20
3.941370914699001
 30
0.0
 10
42.58655880419934
 20
3.990853220791773
 30
0.0
 10
42.53529916621326
 20
4.039357301730401
 30
0.0
 10
42.52297498713918
 20
4.066455084881323
 30
0.0
  0
SPLINE
  5
2EA
330
1F
100
AcDbEntity
  8
Default
100
AcDbSpline
210
0.0
220
0.0
230
1.0
 70
    12
 71
     2
 72
     6
 73
     3
 74
     0
 42
0.0000000001
 43
0.0000000001
 40
0.0
 40
0.0
 40
0.0
 40
0.0608528141656966
 40
0.0608528141656966
 40
0.0608528141656966
 10
42.27620304836827
 20
3.866722555164484
 30
0.0
 41
1.0
 10
42.26065763800163
 20
3.89295168371463
 30
0.0
 41
0.9968849407324015
 10
42.24943009944477
 20
3.921298982455824
 30
0.0
 41
1.0
  0
SPLINE
  5
2EB
330
1F
100
AcDbEntity
  8
Default
100
AcDbSpline
210
0.0
220
0.0
230
1.0
 70
    12
 71
     2
 72
     8
 73
     5
 74
     0
 42
0.0000000001
 43
0.0000000001
 40
0.0
 40
0.0
 40
0.0
 40
2.010619298297478
 40
2.010619298297478
 40
4.021238596594946
 40
4.021238596594946
 40
4.021238596594946
 10
41.91185199477138
 20
0.0
 30
0.0
 41
1.0
 10
43.19185199477142
 20
-0.0000000000000142
 30
0.0
 41
0.7071067811865407
 10
43.19185199477138
 20
1.280000000000001
 30
0.0
 41
1.0
 10
43.19185199477139
 20
2.560000000000006
 30
0.0
 41
0.7071067811865446
 10
41.91185199477138
 20
2.559999999999999
 30
0.0
 41
1.0
  0
SPLINE
  5
2EC
330
1F
100
AcDbEntity
  8
Default
100
AcDbSpline
210
0.0
220
0.0
230
1.0
 70
    12
 71
     2
 72
     8
 73
     5
 74
     0
 42
0.0000000001
 43
0.0000000001
 40
0.0
 40
0.0
 40
0.0
 40
1.570796326794885
 40
1.570796326794885
 40
3.141592653589778
 40
3.141592653589778
 40
3.141592653589778
 10
41.91185199477138
 20
0.2800000000000011
 30
0.0
 41
1.0
 10
42.91185199477135
 20
0.2800000000000226
 30
0.0
 41
0.7071067811865612
 10
42.91185199477135
 20
1.280000000000001
 30
0.0
 41
1.0
 10
42.91185199477139
 20
2.279999999999989
 30
0.0
 41
0.7071067811865569
 10
41.91185199477138
 20
2.280000000000003
 30
0.0
 41
1.0
  0
SPLINE
  5
2ED
330
1F
100
AcDbEntity
  8
Default
100
AcDbSpline
210
0.0
220
0.0
230
1.0
 70
    12
 71
     2
 72
     8
 73
     5
 74
     0
 42
0.0000000001
 43
0.0000000001
 40
0.0
 40
0.0
 40
0.0
 40
2.010619298297474
 40
2.010619298297474
 40
4.021238596594946
 40
4.021238596594946
 40
4.021238596594946
 10
27.16709911117138
 20
2.56
 30
0.0
 41
1.0
 10
25.88709911117138
 20
2.560000000000015
 30
0.0
 41
0.7071067811865404
 10
25.88709911117138
 20
1.280000000000001
 30
0.0
 41
1.0
 10
25.88709911117138
 20
-0.00000000000001
 30
0.0
 41
0.7071067811865408
 10
27.16709911117138
 20
0.000000000000004
 30
0.0
 41
1.0
  0
SPLINE
  5
2EE
330
1F
100
AcDbEntity
  8
Default
100
AcDbSpline
210
0.0
220
0.0
230
1.0
 70
    12
 71
     2
 72
     8
 73
     5
 74
     0
 42
0.0000000001
 43
0.0000000001
 40
0.0
 40
0.0
 40
0.0
 40
2.01061929829747
 40
2.01061929829747
 40
4.021238596594942
 40
4.021238596594942
 40
4.021238596594942
 10
41.91185199477138
 20
2.56
 30
0.0
 41
1.0
 10
40.63185199477135
 20
2.560000000000008
 30
0.0
 41
0.7071067811865439
 10
40.63185199477138
 20
1.280000000000001
 30
0.0
 41
1.0
 10
40.63185199477138
 20
-0.0000000000000025
 30
0.0
 41
0.7071067811865468
 10
41.91185199477138
 20
-0.0000000000000024
 30
0.0
 41
1.0
  0
SPLINE
  5
2EF
330
1F
100
AcDbEntity
  8
Default
100
AcDbSpline
210
0.0
220
0.0
230
1.0
 70
    12
 71
     2
 72
     6
 73
     3
 74
     0
 42
0.0000000001
 43
0.0000000001
 40
0.0
 40
0.0
 40
0.0
 40
0.0646915628535234
 40
0.0646915628535234
 40
0.0646915628535234
 10
42.52297498713918
 20
4.066455084881323
 30
0.0
 41
1.0
 10
42.50972120577676
 20
4.095967720636024
 30
0.0
 41
0.9997070552220858
 10
42.49505475990642
 20
4.124804394423492
 30
0.0
 41
1.0
  0
SPLINE
  5
2F0
330
1F
100
AcDbEntity
  8
Default
100
AcDbSpline
210
0.0
220
0.0
230
1.0
 70
    12
 71
     2
 72
     8
 73
     5
 74
     0
 42
0.0000000001
 43
0.0000000001
 40
0.0
 40
0.0
 40
0.0
 40
1.570796326794899
 40
1.570796326794899
 40
3.1415926535898
 40
3.1415926535898
 40
3.1415926535898
 10
41.91185199477138
 20
2.280000000000001
 30
0.0
 41
1.0
 10
40.91185199477139
 20
2.280000000000008
 30
0.0
 41
0.7071067811865418
 10
40.91185199477138
 20
1.280000000000001
 30
0.0
 41
1.0
 10
40.91185199477136
 20
0.2799999999999923
 30
0.0
 41
0.7071067811865419
 10
41.91185199477138
 20
0.2799999999999994
 30
0.0
 41
1.0
  0
SPLINE
  5
2F1
330
1F
100
AcDbEntity
  8
Default
100
AcDbSpline
210
0.0
220
0.0
230
1.0
 70
    12
 71
     2
 72
     8
 73
     5
 74
     0
 42
0.0000000001
 43
0.0000000001
 40
0.0
 40
0.0
 40
0.0
 40
1.668971097219553
 40
1.668971097219553
 40
3.337942194439139
 40
3.337942194439139
 40
3.337942194439139
 10
27.16709911117138
 20
2.342500000000001
 30
0.0
 41
1.0
 10
28.22959911117137
 20
2.342499999999973
 30
0.0
 41
0.7071067811865591
 10
28.22959911117135
 20
1.280000000000001
 30
0.0
 41
1.0
 10
28.22959911117137
 20
0.2175000000000017
 30
0.0
 41
0.7071067811865525
 10
27.16709911117138
 20
0.2174999999999874
 30
0.0
 41
1.0
  0
SPLINE
  5
2F2
330
1F
100
AcDbEntity
  8
Default
100
AcDbSpline
210
0.0
220
0.0
230
1.0
 70
    12
 71
     2
 72
     6
 73
     3
 74
     0
 42
0.0000000001
 43
0.0000000001
 40
0.0
 40
0.0
 40
0.0
 40
0.10260707896274
 40
0.10260707896274
 40
0.10260707896274
 10
42.42597789753225
 20
4.222857888122846
 30
0.0
 41
1.0
 10
42.39458394578273
 20
4.263644756823613
 30
0.0
 41
0.9951592485373295
 10
42.35581851261495
 20
4.2975031391857
 30
0.0
 41
1.0
  0
SPLINE
  5
2F3
330
1F
100
AcDbEntity
  8
Default
100
AcDbSpline
210
0.0
220
0.0
230
1.0
 70
    12
 71
     2
 72
     6
 73
     3
 74
     0
 42
0.0000000001
 43
0.0000000001
 40
0.0
 40
0.0
 40
0.0
 40
0.1137680292301657
 40
0.1137680292301657
 40
0.1137680292301657
 10
43.12221581469976
 20
4.222861706829246
 30
0.0
 41
1.0
 10
43.15380631545661
 20
4.175482275336866
 30
0.0
 41
0.9983857494307745
 10
43.17981967292965
 20
4.124825829551666
 30
0.0
 41
1.0
  0
SPLINE
  5
2F4
330
1F
100
AcDbEntity
  8
Default
100
AcDbSpline
210
0.0
220
0.0
230
1.0
 70
    12
 71
     2
 72
     6
 73
     3
 74
     0
 42
0.0000000001
 43
0.0000000001
 40
0.0
 40
0.0
 40
0.0
 40
0.0978958200670163
 40
0.0978958200670163
 40
0.0978958200670163
 10
43.12221581469976
 20
4.222861706829246
 30
0.0
 41
1.0
 10
43.09387857960502
 20
4.262923671147002
 30
0.0
 41
0.9962426159533742
 10
43.05905327674176
 20
4.297494730695343
 30
0.0
 41
1.0
  0
SPLINE
  5
2F5
330
1F
100
AcDbEntity
  8
Default
100
AcDbSpline
210
0.0
220
0.0
230
1.0
 70
    12
 71
     2
 72
     8
 73
     5
 74
     0
 42
0.0000000001
 43
0.0000000001
 40
0.0
 40
0.0
 40
0.0
 40
2.010619298297471
 40
2.010619298297471
 40
4.021238596594943
 40
4.021238596594943
 40
4.021238596594943
 10
51.02463020866136
 20
2.56
 30
0.0
 41
1.0
 10
49.74463020866136
 20
2.560000000000008
 30
0.0
 41
0.707106781186544
 10
49.74463020866136
 20
1.280000000000001
 30
0.0
 41
1.0
 10
49.74463020866136
 20
-0.00000000000001
 30
0.0
 41
0.7071067811865408
 10
51.02463020866136
 20
0.000000000000004
 30
0.0
 41
1.0
  0
SPLINE
  5
2F6
330
1F
100
AcDbEntity
  8
Default
100
AcDbSpline
210
0.0
220
0.0
230
1.0
 70
    12
 71
     3
 72
    12
 73
     8
 74
     0
 42
0.0000000001
 43
0.0000000001
 40
-1.0
 40
-1.0
 40
-1.0
 40
-1.0
 40
-0.4994646976824853
 40
-0.4994646976824853
 40
-0.2491693735934267
 40
-0.2491693735934267
 40
-0.000960095683646
 40
-0.000960095683646
 40
-0.000960095683646
 40
-0.000960095683646
 10
43.0172448064493
 20
3.695694345738939
 30
0.0
 41
1.0
 10
42.81075685055151
 20
3.695662698911317
 30
0.0
 41
1.0
 10
42.61292677014799
 20
3.729312675448694
 30
0.0
 41
1.0
 10
42.42843512622031
 20
3.78241355633619
 30
0.0
 41
1.0
 10
42.38269982406067
 20
3.800433369117865
 30
0.0
 41
1.0
 10
42.3138552798988
 20
3.835004338480922
 30
0.0
 41
1.0
 10
42.29131432875454
 20
3.851070290350116
 30
0.0
 41
1.0
 10
42.27637605508644
 20
3.866543031915286
 30
0.0
 41
1.0
  0
SPLINE
  5
2F7
330
1F
100
AcDbEntity
  8
Default
100
AcDbSpline
210
0.0
220
0.0
230
1.0
 70
    12
 71
     2
 72
     8
 73
     5
 74
     0
 42
0.0000000001
 43
0.0000000001
 40
0.0
 40
0.0
 40
0.0
 40
1.668971097219574
 40
1.668971097219574
 40
3.337942194439149
 40
3.337942194439149
 40
3.337942194439149
 10
51.02463020866136
 20
2.342500000000001
 30
0.0
 41
1.0
 10
52.08713020866139
 20
2.342499999999994
 30
0.0
 41
0.7071067811865517
 10
52.08713020866136
 20
1.280000000000001
 30
0.0
 41
1.0
 10
52.08713020866138
 20
0.2175000000000034
 30
0.0
 41
0.7071067811865482
 10
51.02463020866136
 20
0.2175000000000034
 30
0.0
 41
1.0
  0
SPLINE
  5
2F8
330
1F
100
AcDbEntity
  8
Default
100
AcDbSpline
210
0.0
220
0.0
230
1.0
 70
    12
 71
     2
 72
     8
 73
     5
 74
     0
 42
0.0000000001
 43
0.0000000001
 40
0.0
 40
0.0
 40
0.0
 40
2.010619298297466
 40
2.010619298297466
 40
4.021238596594925
 40
4.021238596594925
 40
4.021238596594925
 10
51.02463020866136
 20
0.0
 30
0.0
 41
1.0
 10
52.30463020866133
 20
0.0000000000000142
 30
0.0
 41
0.7071067811865562
 10
52.30463020866137
 20
1.280000000000001
 30
0.0
 41
1.0
 10
52.30463020866135
 20
2.559999999999984
 30
0.0
 41
0.7071067811865566
 10
51.02463020866136
 20
2.559999999999998
 30
0.0
 41
1.0
  0
SPLINE
  5
2F9
330
1F
100
AcDbEntity
  8
Default
100
AcDbSpline
210
0.0
220
0.0
230
1.0
 70
    12
 71
     2
 72
     6
 73
     3
 74
     0
 42
0.0000000001
 43
0.0000000001
 40
0.0
 40
0.0
 40
0.0
 40
0.0688371162936112
 40
0.0688371162936112
 40
0.0688371162936112
 10
43.17981967292965
 20
4.124825829551666
 30
0.0
 41
1.0
 10
43.19752227513002
 20
4.095304319312432
 30
0.0
 41
0.9998325506387339
 10
43.2162932963563
 20
4.06645036891404
 30
0.0
 41
1.0
  0
ENDSEC
  0
SECTION
  2
OBJECTS
  0
DICTIONARY
  5
C
330
0
100
AcDbDictionary
281
     1
  3
ACAD_GROUP
350
D
  3
ACAD_LAYOUT
350
1A
  3
ACAD_MLEADERSTYLE
350
2FB
  3
ACAD_MLINESTYLE
350
17
  3
ACAD_PLOTSETTINGS
350
19
  3
ACAD_PLOTSTYLENAME
350
E
  3
ACAD_TABLESTYLE
350
2FA
  3
ACAD_VISUALSTYLE
350
2A
  0
DICTIONARY
  5
D
102
{ACAD_REACTORS
330
C
102
}
330
C
100
AcDbDictionary
281
     1
  0
DICTIONARY
  5
1A
102
{ACAD_REACTORS
330
C
102
}
330
C
100
AcDbDictionary
281
     1
  3
Layout1
350
1E
  3
Layout2
350
26
  3
Model
350
22
  0
DICTIONARY
  5
2FB
102
{ACAD_REACTORS
330
C
102
}
330
C
100
AcDbDictionary
281
     1
  0
DICTIONARY
  5
17
102
{ACAD_REACTORS
330
C
102
}
330
C
100
AcDbDictionary
281
     1
  3
Standard
350
18
  0
DICTIONARY
  5
19
102
{ACAD_REACTORS
330
C
102
}
330
C
100
AcDbDictionary
281
     1
  0
ACDBDICTIONARYWDFLT
  5
E
102
{ACAD_REACTORS
330
C
102
}
330
C
100
AcDbDictionary
281
     1
  3
Normal
350
F
100
AcDbDictionaryWithDefault
340
F
  0
DICTIONARY
  5
2FA
102
{ACAD_REACTORS
330
C
102
}
330
C
100
AcDbDictionary
281
     1
  0
DICTIONARY
  5
2A
102
{ACAD_REACTORS
330
C
102
}
330
C
100
AcDbDictionary
281
     1
  3
2dWireframe
350
2F
  3
3D Hidden
350
31
  3
3dWireframe
350
30
  3
Basic
350
32
  3
Brighten
350
36
  3
ColorChange
350
3A
  3
Conceptual
350
34
  3
Dim
350
35
  3
Facepattern
350
39
  3
Flat
350
2B
  3
FlatWithEdges
350
2C
  3
Gouraud
350
2D
  3
GouraudWithEdges
350
2E
  3
Linepattern
350
38
  3
Realistic
350
33
  3
Thicken
350
37
  0
LAYOUT
  5
1E
102
{ACAD_REACTORS
330
1A
102
}
330
1A
100
AcDbPlotSettings
  1

  2
none_device
  4

  6

 40
0.0
 41
0.0
 42
0.0
 43
0.0
 44
0.0
 45
0.0
 46
0.0
 47
0.0
 48
0.0
 49
0.0
140
0.0
141
0.0
142
1.0
143
1.0
 70
   688
 72
     0
 73
     0
 74
     5
  7

 75
    16
 76
     0
 77
     2
 78
   300
147
1.0
148
0.0
149
0.0
100
AcDbLayout
  1
Layout1
 70
     1
 71
     1
 10
0.0
 20
0.0
 11
12.0
 21
9.0
 12
0.0
 22
0.0
 32
0.0
 14
1.000000000000000E+20
 24
1.000000000000000E+20
 34
1.000000000000000E+20
 15
-1.000000000000000E+20
 25
-1.000000000000000E+20
 35
-1.000000000000000E+20
146
0.0
 13
0.0
 23
0.0
 33
0.0
 16
1.0
 26
0.0
 36
0.0
 17
0.0
 27
1.0
 37
0.0
 76
     0
330
1B
  0
LAYOUT
  5
26
102
{ACAD_REACTORS
330
1A
102
}
330
1A
100
AcDbPlotSettings
  1

  2
none_device
  4

  6

 40
0.0
 41
0.0
 42
0.0
 43
0.0
 44
0.0
 45
0.0
 46
0.0
 47
0.0
 48
0.0
 49
0.0
140
0.0
141
0.0
142
1.0
143
1.0
 70
   688
 72
     0
 73
     0
 74
     5
  7

 75
    16
 76
     0
 77
     2
 78
   300
147
1.0
148
0.0
149
0.0
100
AcDbLayout
  1
Layout2
 70
     1
 71
     2
 10
0.0
 20
0.0
 11
0.0
 21
0.0
 12
0.0
 22
0.0
 32
0.0
 14
0.0
 24
0.0
 34
0.0
 15
0.0
 25
0.0
 35
0.0
146
0.0
 13
0.0
 23
0.0
 33
0.0
 16
1.0
 26
0.0
 36
0.0
 17
0.0
 27
1.0
 37
0.0
 76
     0
330
23
  0
LAYOUT
  5
22
102
{ACAD_REACTORS
330
1A
102
}
330
1A
100
AcDbPlotSettings
  1

  2
none_device
  4

  6

 40
0.0
 41
0.0
 42
0.0
 43
0.0
 44
0.0
 45
0.0
 46
0.0
 47
0.0
 48
0.0
 49
0.0
140
0.0
141
0.0
142
1.0
143
1.0
 70
  1712
 72
     0
 73
     0
 74
     0
  7

 75
     0
 76
     0
 77
     2
 78
   300
147
1.0
148
0.0
149
0.0
100
AcDbLayout
  1
Model
 70
     1
 71
     0
 10
0.0
 20
0.0
 11
12.0
 21
9.0
 12
0.0
 22
0.0
 32
0.0
 14
-13.41765278193904
 24
-0.0000000000000024
 34
0.0
 15
52.60942666132744
 25
76.78234200740361
 35
0.0
146
0.0
 13
0.0
 23
0.0
 33
0.0
 16
1.0
 26
0.0
 36
0.0
 17
0.0
 27
1.0
 37
0.0
 76
     0
330
1F
331
29
  0
MLINESTYLE
  5
18
102
{ACAD_REACTORS
330
17
102
}
330
17
100
AcDbMlineStyle
  2
Standard
 70
     0
  3

 62
   256
 51
90.0
 52
90.0
 71
     2
 49
0.5
 62
   256
  6
BYLAYER
 49
-0.5
 62
   256
  6
BYLAYER
  0
ACDBPLACEHOLDER
  5
F
102
{ACAD_REACTORS
330
E
102
}
330
E
  0
VISUALSTYLE
  5
2F
102
{ACAD_REACTORS
330
2A
102
}
330
2A
100
AcDbVisualStyle
  2
2dWireframe
 70
     4
 71
     0
 72
     2
 73
     0
 90
        0
 40
-0.6
 41
-30.0
 62
     5
 63
     7
421
 16777215
 74
     1
 91
        4
 64
     7
 65
   257
 75
     1
175
     1
 42
1.0
 92
        0
 66
   257
 43
1.0
 76
     1
 77
     6
 78
     2
 67
     7
 79
     5
170
     0
171
     0
290
     0
174
     0
 93
        1
 44
0.0
173
     0
291
     0
 45
0.0
1001
ACAD
1000
AcDbSavedByObjectVersion
1070
     0
  0
VISUALSTYLE
  5
31
102
{ACAD_REACTORS
330
2A
102
}
330
2A
100
AcDbVisualStyle
  2
3D Hidden
 70
     6
 71
     1
 72
     2
 73
     2
 90
        0
 40
-0.6
 41
-30.0
 62
     5
 63
     7
421
 16777215
 74
     2
 91
        2
 64
     7
 65
   257
 75
     2
175
     1
 42
40.0
 92
        0
 66
   257
 43
1.0
 76
     1
 77
     6
 78
     2
 67
     7
 79
     3
170
     0
171
     0
290
     0
174
     0
 93
        1
 44
0.0
173
     0
291
     0
 45
0.0
1001
ACAD
1000
AcDbSavedByObjectVersion
1070
     0
  0
VISUALSTYLE
  5
30
102
{ACAD_REACTORS
330
2A
102
}
330
2A
100
AcDbVisualStyle
  2
3dWireframe
 70
     5
 71
     0
 72
     2
 73
     0
 90
        0
 40
-0.6
 41
-30.0
 62
     5
 63
     7
421
 16777215
 74
     1
 91
        4
 64
     7
 65
   257
 75
     1
175
     1
 42
1.0
 92
        0
 66
   257
 43
1.0
 76
     1
 77
     6
 78
     2
 67
     7
 79
     5
170
     0
171
     0
290
     0
174
     0
 93
        1
 44
0.0
173
     0
291
     0
 45
0.0
1001
ACAD
1000
AcDbSavedByObjectVersion
1070
     0
  0
VISUALSTYLE
  5
32
102
{ACAD_REACTORS
330
2A
102
}
330
2A
100
AcDbVisualStyle
  2
Basic
 70
     7
 71
     1
 72
     0
 73
     1
 90
        0
 40
-0.6
 41
-30.0
 62
     5
 63
     7
421
 16777215
 74
     0
 91
        4
 64
     7
 65
   257
 75
     1
175
     1
 42
1.0
 92
        8
 66
     7
 43
1.0
 76
     1
 77
     6
 78
     2
 67
     7
 79
     5
170
     0
171
     0
290
     0
174
     0
 93
        1
 44
0.0
173
     0
291
     1
 45
0.0
1001
ACAD
1000
AcDbSavedByObjectVersion
1070
     0
  0
VISUALSTYLE
  5
36
102
{ACAD_REACTORS
330
2A
102
}
330
2A
100
AcDbVisualStyle
  2
Brighten
 70
    12
 71
     2
 72
     2
 73
     0
 90
        0
 40
-0.6
 41
-30.0
 62
     5
 63
     7
421
 16777215
 74
     1
 91
        4
 64
     7
 65
   257
 75
     1
175
     1
 42
1.0
 92
        8
 66
     7
 43
1.0
 76
     1
 77
     6
 78
     2
 67
     7
 79
     5
170
     0
171
     0
290
     0
174
     0
 93
        1
 44
50.0
173
     0
291
     1
 45
0.0
1001
ACAD
1000
AcDbSavedByObjectVersion
1070
     0
  0
VISUALSTYLE
  5
3A
102
{ACAD_REACTORS
330
2A
102
}
330
2A
100
AcDbVisualStyle
  2
ColorChange
 70
    16
 71
     2
 72
     2
 73
     3
 90
        0
 40
-0.6
 41
-30.0
 62
     5
 63
     8
421
  8421504
 74
     1
 91
        4
 64
     7
 65
   257
 75
     1
175
     1
 42
1.0
 92
        8
 66
     8
424
  8421504
 43
1.0
 76
     1
 77
     6
 78
     2
 67
     7
 79
     5
170
     0
171
     0
290
     0
174
     0
 93
        1
 44
0.0
173
     0
291
     1
 45
0.0
1001
ACAD
1000
AcDbSavedByObjectVersion
1070
     0
  0
VISUALSTYLE
  5
34
102
{ACAD_REACTORS
330
2A
102
}
330
2A
100
AcDbVisualStyle
  2
Conceptual
 70
     9
 71
     3
 72
     2
 73
     0
 90
        0
 40
-0.6
 41
-30.0
 62
     5
 63
     7
421
 16777215
 74
     2
 91
        2
 64
     7
 65
   257
 75
     1
175
     1
 42
40.0
 92
        8
 66
     7
 43
1.0
 76
     1
 77
     6
 78
     2
 67
     7
 79
     3
170
     0
171
     0
290
     0
174
     0
 93
        1
 44
0.0
173
     0
291
     0
 45
0.0
1001
ACAD
1000
AcDbSavedByObjectVersion
1070
     0
  0
VISUALSTYLE
  5
35
102
{ACAD_REACTORS
330
2A
102
}
330
2A
100
AcDbVisualStyle
  2
Dim
 70
    11
 71
     2
 72
     2
 73
     0
 90
        0
 40
-0.6
 41
-30.0
 62
     5
 63
     7
421
 16777215
 74
     1
 91
        4
 64
     7
 65
   257
 75
     1
175
     1
 42
1.0
 92
        8
 66
     7
 43
1.0
 76
     1
 77
     6
 78
     2
 67
     7
 79
     5
170
     0
171
     0
290
     0
174
     0
 93
        1
 44
-50.0
173
     0
291
     1
 45
0.0
1001
ACAD
1000
AcDbSavedByObjectVersion
1070
     0
  0
VISUALSTYLE
  5
39
102
{ACAD_REACTORS
330
2A
102
}
330
2A
100
AcDbVisualStyle
  2
Facepattern
 70
    15
 71
     2
 72
     2
 73
     0
 90
        0
 40
-0.6
 41
-30.0
 62
     5
 63
     7
421
 16777215
 74
     1
 91
        4
 64
     7
 65
   257
 75
     1
175
     1
 42
1.0
 92
        8
 66
     7
 43
1.0
 76
     1
 77
     6
 78
     2
 67
     7
 79
     5
170
     0
171
     0
290
     0
174
     0
 93
        1
 44
0.0
173
     0
291
     1
 45
0.0
1001
ACAD
1000
AcDbSavedByObjectVersion
1070
     0
  0
VISUALSTYLE
  5
2B
102
{ACAD_REACTORS
330
2A
102
}
330
2A
100
AcDbVisualStyle
  2
Flat
 70
     0
 71
     2
 72
     1
 73
     1
 90
        2
 40
-0.6
 41
30.0
 62
     5
 63
     7
421
 16777215
 74
     0
 91
        4
 64
     7
 65
   257
 75
     1
175
     1
 42
1.0
 92
        8
 66
     7
 43
1.0
 76
     1
 77
     6
 78
     2
 67
     7
 79
     5
170
     0
171
     0
290
     0
174
     0
 93
       13
 44
0.0
173
     0
291
     1
 45
0.0
1001
ACAD
1000
AcDbSavedByObjectVersion
1070
     0
  0
VISUALSTYLE
  5
2C
102
{ACAD_REACTORS
330
2A
102
}
330
2A
100
AcDbVisualStyle
  2
FlatWithEdges
 70
     1
 71
     2
 72
     1
 73
     1
 90
        2
 40
-0.6
 41
30.0
 62
     5
 63
     7
421
 16777215
 74
     1
 91
        4
 64
     7
 65
   257
 75
     1
175
     1
 42
1.0
 92
        0
 66
   257
 43
1.0
 76
     1
 77
     6
 78
     2
 67
     7
 79
     5
170
     0
171
     0
290
     0
174
     0
 93
       13
 44
0.0
173
     0
291
     1
 45
0.0
1001
ACAD
1000
AcDbSavedByObjectVersion
1070
     0
  0
VISUALSTYLE
  5
2D
102
{ACAD_REACTORS
330
2A
102
}
330
2A
100
AcDbVisualStyle
  2
Gouraud
 70
     2
 71
     2
 72
     2
 73
     1
 90
        2
 40
-0.6
 41
30.0
 62
     5
 63
     7
421
 16777215
 74
     0
 91
        4
 64
     7
 65
   257
 75
     1
175
     1
 42
1.0
 92
        0
 66
     7
 43
1.0
 76
     1
 77
     6
 78
     2
 67
     7
 79
     5
170
     0
171
     0
290
     0
174
     0
 93
       13
 44
0.0
173
     0
291
     1
 45
0.0
1001
ACAD
1000
AcDbSavedByObjectVersion
1070
     0
  0
VISUALSTYLE
  5
2E
102
{ACAD_REACTORS
330
2A
102
}
330
2A
100
AcDbVisualStyle
  2
GouraudWithEdges
 70
     3
 71
     2
 72
     2
 73
     1
 90
        2
 40
-0.6
 41
30.0
 62
     5
 63
     7
421
 16777215
 74
     1
 91
        4
 64
     7
 65
   257
 75
     1
175
     1
 42
1.0
 92
        0
 66
   257
 43
1.0
 76
     1
 77
     6
 78
     2
 67
     7
 79
     5
170
     0
171
     0
290
     0
174
     0
 93
       13
 44
0.0
173
     0
291
     1
 45
0.0
1001
ACAD
1000
AcDbSavedByObjectVersion
1070
     0
  0
VISUALSTYLE
  5
38
102
{ACAD_REACTORS
330
2A
102
}
330
2A
100
AcDbVisualStyle
  2
Linepattern
 70
    14
 71
     2
 72
     2
 73
     0
 90
        0
 40
-0.6
 41
-30.0
 62
     5
 63
     7
421
 16777215
 74
     1
 91
        4
 64
     7
 65
   257
 75
     7
175
     7
 42
1.0
 92
        8
 66
     7
 43
1.0
 76
     1
 77
     6
 78
     2
 67
     7
 79
     5
170
     0
171
     0
290
     0
174
     0
 93
        1
 44
0.0
173
     0
291
     1
 45
0.0
1001
ACAD
1000
AcDbSavedByObjectVersion
1070
     0
  0
VISUALSTYLE
  5
33
102
{ACAD_REACTORS
330
2A
102
}
330
2A
100
AcDbVisualStyle
  2
Realistic
 70
     8
 71
     2
 72
     2
 73
     0
 90
        0
 40
-0.6
 41
-30.0
 62
     5
 63
     7
421
 16777215
 74
     1
 91
        0
 64
     7
 65
   257
 75
     1
175
     1
 42
1.0
 92
        8
 66
     8
424
  7895160
 43
1.0
 76
     1
 77
     6
 78
     2
 67
     7
 79
     5
170
     0
171
     0
290
     0
174
     0
 93
       13
 44
0.0
173
     0
291
     0
 45
0.0
1001
ACAD
1000
AcDbSavedByObjectVersion
1070
     0
  0
VISUALSTYLE
  5
37
102
{ACAD_REACTORS
330
2A
102
}
330
2A
100
AcDbVisualStyle
  2
Thicken
 70
    13
 71
     2
 72
     2
 73
     0
 90
        0
 40
-0.6
 41
-30.0
 62
     5
 63
     7
421
 16777215
 74
     1
 91
        4
 64
     7
 65
   257
 75
     1
175
     1
 42
1.0
 92
       12
 66
     7
 43
1.0
 76
     1
 77
     6
 78
     2
 67
     7
 79
     5
170
     0
171
     0
290
     0
174
     0
 93
        1
 44
0.0
173
     0
291
     1
 45
0.0
1001
ACAD
1000
AcDbSavedByObjectVersion
1070
     0
  0
ENDSEC
  0
EOF
