  0
SECTION
  2
HEADER
  9
$ACADVER
  1
AC1018
  9
$ACADMAINTVER
 70
     0
  9
$DWGCODEPAGE
  3
ANSI_1252
  9
$INSBASE
 10
0.0
 20
0.0
 30
0.0
  9
$EXTMIN
 10
-13.41765278193904
 20
-0.0000000000000024
 30
0.0
  9
$EXTMAX
 10
52.60942666132747
 20
78.07006139280276
 30
0.0
  9
$LIMMIN
 10
0.0
 20
0.0
  9
$LIMMAX
 10
12.0
 20
9.0
  9
$ORTHOMODE
 70
     0
  9
$REGENMODE
 70
     1
  9
$FILLMODE
 70
     1
  9
$QTEXTMODE
 70
     0
  9
$MIRRTEXT
 70
     1
  9
$LTSCALE
 40
0.0393700787401575
  9
$ATTMODE
 70
     1
  9
$TEXTSIZE
 40
0.2
  9
$TRACEWID
 40
0.05
  9
$TEXTSTYLE
  7
Standard
  9
$CLAYER
  8
Default
  9
$CELTYPE
  6
ByLayer
  9
$CECOLOR
 62
   256
  9
$CELTSCALE
 40
1.0
  9
$DISPSILH
 70
     0
  9
$DIMSCALE
 40
1.0
  9
$DIMASZ
 40
0.18
  9
$DIMEXO
 40
0.0625
  9
$DIMDLI
 40
0.38
  9
$DIMRND
 40
0.0
  9
$DIMDLE
 40
0.0
  9
$DIMEXE
 40
0.18
  9
$DIMTP
 40
0.0
  9
$DIMTM
 40
0.0
  9
$DIMTXT
 40
0.18
  9
$DIMCEN
 40
0.09
  9
$DIMTSZ
 40
0.0
  9
$DIMTOL
 70
     0
  9
$DIMLIM
 70
     0
  9
$DIMTIH
 70
     1
  9
$DIMTOH
 70
     1
  9
$DIMSE1
 70
     0
  9
$DIMSE2
 70
     0
  9
$DIMTAD
 70
     0
  9
$DIMZIN
 70
     0
  9
$DIMBLK
  1

  9
$DIMASO
 70
     1
  9
$DIMSHO
 70
     1
  9
$DIMPOST
  1

  9
$DIMAPOST
  1

  9
$DIMALT
 70
     0
  9
$DIMALTD
 70
     2
  9
$DIMALTF
 40
25.4
  9
$DIMLFAC
 40
1.0
  9
$DIMTOFL
 70
     0
  9
$DIMTVP
 40
0.0
  9
$DIMTIX
 70
     0
  9
$DIMSOXD
 70
     0
  9
$DIMSAH
 70
     0
  9
$DIMBLK1
  1

  9
$DIMBLK2
  1

  9
$DIMSTYLE
  2
Standard
  9
$DIMCLRD
 70
     0
  9
$DIMCLRE
 70
     0
  9
$DIMCLRT
 70
     0
  9
$DIMTFAC
 40
1.0
  9
$DIMGAP
 40
0.09
  9
$DIMJUST
 70
     0
  9
$DIMSD1
 70
     0
  9
$DIMSD2
 70
     0
  9
$DIMTOLJ
 70
     1
  9
$DIMTZIN
 70
     0
  9
$DIMALTZ
 70
     0
  9
$DIMALTTZ
 70
     0
  9
$DIMUPT
 70
     0
  9
$DIMDEC
 70
     4
  9
$DIMTDEC
 70
     4
  9
$DIMALTU
 70
     2
  9
$DIMALTTD
 70
     2
  9
$DIMTXSTY
  7
Standard
  9
$DIMAUNIT
 70
     0
  9
$DIMADEC
 70
     0
  9
$DIMALTRND
 40
0.0
  9
$DIMAZIN
 70
     0
  9
$DIMDSEP
 70
    46
  9
$DIMATFIT
 70
     3
  9
$DIMFRAC
 70
     0
  9
$DIMLDRBLK
  1

  9
$DIMLUNIT
 70
     2
  9
$DIMLWD
 70
    -2
  9
$DIMLWE
 70
    -2
  9
$DIMTMOVE
 70
     2
  9
$LUNITS
 70
     2
  9
$LUPREC
 70
     3
  9
$SKETCHINC
 40
0.1
  9
$FILLETRAD
 40
0.5
  9
$AUNITS
 70
     0
  9
$AUPREC
 70
     0
  9
$MENU
  1
.
  9
$ELEVATION
 40
0.0
  9
$PELEVATION
 40
0.0
  9
$THICKNESS
 40
0.0
  9
$LIMCHECK
 70
     0
  9
$CHAMFERA
 40
0.5
  9
$CHAMFERB
 40
0.5
  9
$CHAMFERC
 40
1.0
  9
$CHAMFERD
 40
0.0
  9
$SKPOLY
 70
     0
  9
$TDCREATE
 40
2457317.882870602
  9
$TDUCREATE
 40
2457318.049537268
  9
$TDUPDATE
 40
2457317.882870614
  9
$TDUUPDATE
 40
2457318.04953728
  9
$TDINDWG
 40
0.0000000116
  9
$TDUSRTIMER
 40
0.0000000116
  9
$USRTIMER
 70
     1
  9
$ANGBASE
 50
0.0
  9
$ANGDIR
 70
     0
  9
$PDMODE
 70
     0
  9
$PDSIZE
 40
0.0
  9
$PLINEWID
 40
0.0
  9
$SPLFRAME
 70
     0
  9
$SPLINETYPE
 70
     6
  9
$SPLINESEGS
 70
     8
  9
$HANDSEED
  5
2F6
  9
$SURFTAB1
 70
     6
  9
$SURFTAB2
 70
     6
  9
$SURFTYPE
 70
     6
  9
$SURFU
 70
     6
  9
$SURFV
 70
     6
  9
$UCSBASE
  2

  9
$UCSNAME
  2

  9
$UCSORG
 10
0.0
 20
0.0
 30
0.0
  9
$UCSXDIR
 10
1.0
 20
0.0
 30
0.0
  9
$UCSYDIR
 10
0.0
 20
1.0
 30
0.0
  9
$UCSORTHOREF
  2

  9
$UCSORTHOVIEW
 70
     0
  9
$UCSORGTOP
 10
0.0
 20
0.0
 30
0.0
  9
$UCSORGBOTTOM
 10
0.0
 20
0.0
 30
0.0
  9
$UCSORGLEFT
 10
0.0
 20
0.0
 30
0.0
  9
$UCSORGRIGHT
 10
0.0
 20
0.0
 30
0.0
  9
$UCSORGFRONT
 10
0.0
 20
0.0
 30
0.0
  9
$UCSORGBACK
 10
0.0
 20
0.0
 30
0.0
  9
$PUCSBASE
  2

  9
$PUCSNAME
  2

  9
$PUCSORG
 10
0.0
 20
0.0
 30
0.0
  9
$PUCSXDIR
 10
1.0
 20
0.0
 30
0.0
  9
$PUCSYDIR
 10
0.0
 20
1.0
 30
0.0
  9
$PUCSORTHOREF
  2

  9
$PUCSORTHOVIEW
 70
     0
  9
$PUCSORGTOP
 10
0.0
 20
0.0
 30
0.0
  9
$PUCSORGBOTTOM
 10
0.0
 20
0.0
 30
0.0
  9
$PUCSORGLEFT
 10
0.0
 20
0.0
 30
0.0
  9
$PUCSORGRIGHT
 10
0.0
 20
0.0
 30
0.0
  9
$PUCSORGFRONT
 10
0.0
 20
0.0
 30
0.0
  9
$PUCSORGBACK
 10
0.0
 20
0.0
 30
0.0
  9
$USERI1
 70
     0
  9
$USERI2
 70
     0
  9
$USERI3
 70
     0
  9
$USERI4
 70
     0
  9
$USERI5
 70
     0
  9
$USERR1
 40
0.0
  9
$USERR2
 40
0.0
  9
$USERR3
 40
0.0
  9
$USERR4
 40
0.0
  9
$USERR5
 40
0.0
  9
$WORLDVIEW
 70
     1
  9
$SHADEDGE
 70
     3
  9
$SHADEDIF
 70
    70
  9
$TILEMODE
 70
     1
  9
$MAXACTVP
 70
    64
  9
$PINSBASE
 10
0.0
 20
0.0
 30
0.0
  9
$PLIMCHECK
 70
     0
  9
$PEXTMIN
 10
1.000000000000000E+20
 20
1.000000000000000E+20
 30
1.000000000000000E+20
  9
$PEXTMAX
 10
-1.000000000000000E+20
 20
-1.000000000000000E+20
 30
-1.000000000000000E+20
  9
$PLIMMIN
 10
0.0
 20
0.0
  9
$PLIMMAX
 10
12.0
 20
9.0
  9
$UNITMODE
 70
     0
  9
$VISRETAIN
 70
     1
  9
$PLINEGEN
 70
     0
  9
$PSLTSCALE
 70
     1
  9
$TREEDEPTH
 70
  3020
  9
$CMLSTYLE
  2
Standard
  9
$CMLJUST
 70
     0
  9
$CMLSCALE
 40
1.0
  9
$PROXYGRAPHICS
 70
     1
  9
$MEASUREMENT
 70
     0
  9
$CELWEIGHT
370
    -1
  9
$ENDCAPS
280
     0
  9
$JOINSTYLE
280
     0
  9
$LWDISPLAY
290
     0
  9
$INSUNITS
 70
     1
  9
$HYPERLINKBASE
  1

  9
$STYLESHEET
  1

  9
$XEDIT
290
     1
  9
$CEPSNTYPE
380
     0
  9
$PSTYLEMODE
290
     1
  9
$FINGERPRINTGUID
  2
{B29AF743-F977-4B82-B4F8-A83FAA81ACFA}
  9
$VERSIONGUID
  2
{FAEB1C32-E019-11D5-929B-00C0DF256EC4}
  9
$EXTNAMES
290
     1
  9
$PSVPSCALE
 40
0.0
  9
$OLESTARTUP
290
     0
  9
$SORTENTS
280
   127
  9
$INDEXCTL
280
     0
  9
$HIDETEXT
280
     1
  9
$XCLIPFRAME
290
     0
  9
$HALOGAP
280
     0
  9
$OBSCOLOR
 70
   257
  9
$OBSLTYPE
280
     0
  9
$INTERSECTIONDISPLAY
280
     0
  9
$INTERSECTIONCOLOR
 70
   257
  9
$DIMASSOC
280
     2
  9
$PROJECTNAME
  1

  0
ENDSEC
  0
SECTION
  2
CLASSES
  0
CLASS
  1
ACDBDICTIONARYWDFLT
  2
AcDbDictionaryWithDefault
  3
ObjectDBX Classes
 90
        0
 91
        4
280
     0
281
     0
  0
CLASS
  1
VISUALSTYLE
  2
AcDbVisualStyle
  3
ObjectDBX Classes
 90
     4095
 91
        4
280
     0
281
     0
  0
ENDSEC
  0
SECTION
  2
TABLES
  0
TABLE
  2
VPORT
  5
8
330
0
100
AcDbSymbolTable
 70
     1
  0
VPORT
  5
29
330
8
100
AcDbSymbolTableRecord
100
AcDbViewportTableRecord
  2
*Active
 70
     0
 10
0.0
 20
0.0
 11
1.0
 21
1.0
 12
19.59588693969422
 22
39.03503069640138
 13
0.0
 23
0.0
 14
0.5
 24
0.5
 15
0.5
 25
0.5
 16
0.0
 26
0.0
 36
1.0
 17
0.0
 27
0.0
 37
0.0
 40
79.63146262065881
 41
0.8457413541800228
 42
50.0
 43
0.0
 44
0.0
 50
0.0
 51
0.0
 71
     0
 72
   100
 73
     1
 74
     3
 75
     0
 76
     0
 77
     0
 78
     0
281
     0
 65
     1
110
0.0
120
0.0
130
0.0
111
1.0
121
0.0
131
0.0
112
0.0
122
1.0
132
0.0
 79
     0
146
0.0
  0
ENDTAB
  0
TABLE
  2
LTYPE
  5
5
330
0
100
AcDbSymbolTable
 70
     1
  0
LTYPE
  5
14
330
5
100
AcDbSymbolTableRecord
100
AcDbLinetypeTableRecord
  2
ByBlock
 70
     0
  3

 72
    65
 73
     0
 40
0.0
  0
LTYPE
  5
15
330
5
100
AcDbSymbolTableRecord
100
AcDbLinetypeTableRecord
  2
ByLayer
 70
     0
  3

 72
    65
 73
     0
 40
0.0
  0
LTYPE
  5
16
330
5
100
AcDbSymbolTableRecord
100
AcDbLinetypeTableRecord
  2
Continuous
 70
     0
  3
Solid line
 72
    65
 73
     0
 40
0.0
  0
ENDTAB
  0
TABLE
  2
LAYER
  5
2
330
0
100
AcDbSymbolTable
 70
     2
  0
LAYER
  5
10
330
2
100
AcDbSymbolTableRecord
100
AcDbLayerTableRecord
  2
0
 70
     0
 62
     7
  6
Continuous
370
    -3
390
F
  0
LAYER
  5
3B
330
2
100
AcDbSymbolTableRecord
100
AcDbLayerTableRecord
  2
Default
 70
     0
 62
     7
  6
Continuous
370
    -3
390
F
  0
ENDTAB
  0
TABLE
  2
STYLE
  5
3
330
0
100
AcDbSymbolTable
 70
     1
  0
STYLE
  5
11
330
3
100
AcDbSymbolTableRecord
100
AcDbTextStyleTableRecord
  2
Standard
 70
     0
 40
0.0
 41
1.0
 50
0.0
 71
     0
 42
0.2
  3
txt
  4

  0
ENDTAB
  0
TABLE
  2
VIEW
  5
6
330
0
100
AcDbSymbolTable
 70
     0
  0
ENDTAB
  0
TABLE
  2
UCS
  5
7
330
0
100
AcDbSymbolTable
 70
     0
  0
ENDTAB
  0
TABLE
  2
APPID
  5
9
330
0
100
AcDbSymbolTable
 70
     1
  0
APPID
  5
12
330
9
100
AcDbSymbolTableRecord
100
AcDbRegAppTableRecord
  2
ACAD
 70
     0
  0
ENDTAB
  0
TABLE
  2
DIMSTYLE
  5
A
330
0
100
AcDbSymbolTable
 70
     1
100
AcDbDimStyleTable
  0
DIMSTYLE
105
27
330
A
100
AcDbSymbolTableRecord
100
AcDbDimStyleTableRecord
  2
Standard
 70
     0
340
11
  0
ENDTAB
  0
TABLE
  2
BLOCK_RECORD
  5
1
330
0
100
AcDbSymbolTable
 70
     1
  0
BLOCK_RECORD
  5
1F
330
1
100
AcDbSymbolTableRecord
100
AcDbBlockTableRecord
  2
*Model_Space
340
22
  0
BLOCK_RECORD
  5
1B
330
1
100
AcDbSymbolTableRecord
100
AcDbBlockTableRecord
  2
*Paper_Space
340
1E
  0
BLOCK_RECORD
  5
23
330
1
100
AcDbSymbolTableRecord
100
AcDbBlockTableRecord
  2
*Paper_Space0
340
26
  0
ENDTAB
  0
ENDSEC
  0
SECTION
  2
BLOCKS
  0
BLOCK
  5
20
330
1F
100
AcDbEntity
  8
0
100
AcDbBlockBegin
  2
*Model_Space
 70
     0
 10
0.0
 20
0.0
 30
0.0
  3
*Model_Space
  1

  0
ENDBLK
  5
21
330
1F
100
AcDbEntity
  8
0
100
AcDbBlockEnd
  0
BLOCK
  5
1C
330
1B
100
AcDbEntity
 67
     1
  8
0
100
AcDbBlockBegin
  2
*Paper_Space
 70
     0
 10
0.0
 20
0.0
 30
0.0
  3
*Paper_Space
  1

  0
ENDBLK
  5
1D
330
1B
100
AcDbEntity
 67
     1
  8
0
100
AcDbBlockEnd
  0
BLOCK
  5
24
330
23
100
AcDbEntity
  8
0
100
AcDbBlockBegin
  2
*Paper_Space0
 70
     0
 10
0.0
 20
0.0
 30
0.0
  3
*Paper_Space0
  1

  0
ENDBLK
  5
25
330
23
100
AcDbEntity
  8
0
100
AcDbBlockEnd
  0
ENDSEC
  0
SECTION
  2
ENTITIES
  0
SPLINE
  5
3C
330
1F
100
AcDbEntity
  8
Default
100
AcDbSpline
210
0.0
220
0.0
230
1.0
 70
    24
 71
     2
 72
     6
 73
     3
 74
     0
 42
0.0000000001
 43
0.0000000001
 40
0.0
 40
0.0
 40
0.0
 40
0.1249999999999801
 40
0.1249999999999801
 40
0.1249999999999801
 10
44.03457041489432
 20
14.78033617303269
 30
0.0
 10
44.03184420318401
 20
14.84277668688155
 30
0.0
 10
44.02911799147371
 20
14.90521720073041
 30
0.0
  0
LINE
  5
3D
330
1F
100
AcDbEntity
  8
Default
100
AcDbLine
 10
40.48685680267465
 20
14.62543965155377
 30
0.0
 11
44.03457041489432
 21
14.78033617303269
 31
0.0
  0
SPLINE
  5
3E
330
1F
100
AcDbEntity
  8
Default
100
AcDbSpline
210
0.0
220
0.0
230
1.0
 70
    24
 71
     2
 72
     6
 73
     3
 74
     0
 42
0.0000000001
 43
0.0000000001
 40
0.1954970958320944
 40
0.1954970958320944
 40
0.1954970958320944
 40
0.4671554945533157
 40
0.4671554945533157
 40
0.4671554945533157
 10
36.09067945865678
 20
14.23890665777374
 30
0.0
 10
36.11555560522639
 20
14.10480709705826
 30
0.0
 10
36.140431751796
 20
13.97070753634277
 30
0.0
  0
SPLINE
  5
3F
330
1F
100
AcDbEntity
  8
Default
100
AcDbSpline
210
0.0
220
0.0
230
1.0
 70
    12
 71
     2
 72
     6
 73
     3
 74
     0
 42
0.0000000001
 43
0.0000000001
 40
0.0
 40
0.0
 40
0.0
 40
0.0611424753167777
 40
0.0611424753167777
 40
0.0611424753167777
 10
36.140431751796
 20
13.97070753634277
 30
0.0
 41
1.0
 10
36.14989158395409
 20
13.93497688760219
 30
0.0
 41
0.8191713151052452
 10
36.18667961526813
 20
13.93170743721443
 30
0.0
 41
1.0
  0
SPLINE
  5
40
330
1F
100
AcDbEntity
  8
Default
100
AcDbSpline
210
0.0
220
0.0
230
1.0
 70
     8
 71
     3
 72
    18
 73
    14
 74
     0
 42
0.0000000001
 43
0.0000000001
 40
0.0
 40
0.0
 40
0.0
 40
0.0
 40
1.0
 40
2.0
 40
3.0
 40
4.0
 40
5.0
 40
6.0
 40
7.0
 40
8.0
 40
9.0
 40
10.0
 40
11.0
 40
11.0
 40
11.0
 40
11.0
 10
36.18667961526813
 20
13.93170743721443
 30
0.0
 10
36.38998975788815
 20
13.91254624674223
 30
0.0
 10
36.82905426383363
 20
13.87664397213218
 30
0.0
 10
37.47428806434961
 20
13.84031329595147
 30
0.0
 10
38.12411509281733
 20
13.81988861513593
 30
0.0
 10
38.77320819485179
 20
13.81563973237541
 30
0.0
 10
39.42248098382565
 20
13.82767819562008
 30
0.0
 10
40.07118876177944
 20
13.85562621785751
 30
0.0
 10
40.71900316725281
 20
13.90002063431897
 30
0.0
 10
41.36547629764685
 20
13.96080668349849
 30
0.0
 10
42.01025780139216
 20
14.03749733897494
 30
0.0
 10
42.65291901309773
 20
14.13029744762253
 30
0.0
 10
43.07969318006761
 20
14.20276915559276
 30
0.0
 10
43.29284192348673
 20
14.24173895873547
 30
0.0
  0
SPLINE
  5
41
330
1F
100
AcDbEntity
  8
Default
100
AcDbSpline
210
0.0
220
0.0
230
1.0
 70
    12
 71
     2
 72
     6
 73
     3
 74
     0
 42
0.0000000001
 43
0.0000000001
 40
0.0
 40
0.0
 40
0.0
 40
0.0642383708293354
 40
0.0642383708293354
 40
0.0642383708293354
 10
43.29284192348673
 20
14.24173895873547
 30
0.0
 41
1.0
 10
43.32937122614388
 20
14.24738544960126
 30
0.0
 41
0.8226493155637911
 10
43.33722403591926
 20
14.28506113854
 30
0.0
 41
1.0
  0
SPLINE
  5
42
330
1F
100
AcDbEntity
  8
Default
100
AcDbSpline
210
0.0
220
0.0
230
1.0
 70
    24
 71
     2
 72
     6
 73
     3
 74
     0
 42
0.0000000001
 43
0.0000000001
 40
0.0
 40
0.0
 40
0.0
 40
0.4664155290576648
 40
0.4664155290576648
 40
0.4664155290576648
 10
43.33722403591926
 20
14.28506113854
 30
0.0
 10
43.35970940204637
 20
14.51807587479505
 30
0.0
 10
43.38219476817348
 20
14.75109061105009
 30
0.0
  0
LINE
  5
43
330
1F
100
AcDbEntity
  8
Default
100
AcDbLine
 10
39.30454792415935
 20
11.91000000000011
 30
0.0
 11
39.30454792415935
 21
9.820000000000004
 31
0.0
  0
LINE
  5
44
330
1F
100
AcDbEntity
  8
Default
100
AcDbLine
 10
38.20454792415936
 20
9.820000000000004
 30
0.0
 11
38.20454792415936
 21
11.91000000000023
 31
0.0
  0
LINE
  5
45
330
1F
100
AcDbEntity
  8
Default
100
AcDbLine
 10
-0.5500168225590585
 20
9.82
 30
0.0
 11
-0.5500168225590585
 21
11.9100000335869
 31
0.0
  0
LINE
  5
46
330
1F
100
AcDbEntity
  8
Default
100
AcDbLine
 10
0.5499831774409358
 20
11.91000013914194
 30
0.0
 11
0.5499831774409358
 21
9.82
 31
0.0
  0
POLYLINE
  5
47
330
1F
100
AcDbEntity
  8
Default
100
AcDb2dPolyline
 66
     1
 10
0.0
 20
0.0
 30
0.0
  0
VERTEX
  5
48
330
47
100
AcDbEntity
  8
Default
100
AcDbVertex
100
AcDb2dVertex
 10
6.698228256639965
 20
73.22577440948399
 30
0.0
  0
VERTEX
  5
49
330
47
100
AcDbEntity
  8
Default
100
AcDbVertex
100
AcDb2dVertex
 10
8.28892387937961
 20
75.48024362132037
 30
0.0
  0
SEQEND
  5
4A
330
47
100
AcDbEntity
  8
Default
  0
SPLINE
  5
4B
330
1F
100
AcDbEntity
  8
Default
100
AcDbSpline
210
0.0
220
0.0
230
1.0
 70
    12
 71
     2
 72
     6
 73
     3
 74
     0
 42
0.0000000001
 43
0.0000000001
 40
0.0
 40
0.0
 40
0.0
 40
1.041827519740055
 40
1.041827519740055
 40
1.041827519740055
 10
8.28892387937961
 20
75.48024362132037
 30
0.0
 41
1.0
 10
8.678437229903116
 20
76.01681609959466
 30
0.0
 41
0.7074024770456415
 10
8.142190778607613
 20
76.40677817230235
 30
0.0
 41
1.0
  0
SPLINE
  5
4C
330
1F
100
AcDbEntity
  8
Default
100
AcDbSpline
210
0.0
220
0.0
230
1.0
 70
    12
 71
     2
 72
     6
 73
     3
 74
     0
 42
0.0000000001
 43
0.0000000001
 40
0.0
 40
0.0
 40
0.0
 40
1.041830266836562
 40
1.041830266836562
 40
1.041830266836562
 10
8.142190778607613
 20
76.40677817230235
 30
0.0
 41
1.0
 10
7.60560460007704
 20
76.79628030108346
 30
0.0
 41
0.7073984447108688
 10
7.21565985635047
 20
76.26001569088143
 30
0.0
 41
1.0
  0
POLYLINE
  5
4D
330
1F
100
AcDbEntity
  8
Default
100
AcDb2dPolyline
 66
     1
 10
0.0
 20
0.0
 30
0.0
  0
VERTEX
  5
4E
330
4D
100
AcDbEntity
  8
Default
100
AcDbVertex
100
AcDb2dVertex
 10
7.21565985635047
 20
76.26001569088143
 30
0.0
  0
VERTEX
  5
4F
330
4D
100
AcDbEntity
  8
Default
100
AcDbVertex
100
AcDb2dVertex
 10
5.186452821284519
 20
73.55372738910307
 30
0.0
  0
SEQEND
  5
50
330
4D
100
AcDbEntity
  8
Default
  0
POLYLINE
  5
51
330
1F
100
AcDbEntity
  8
Default
100
AcDb2dPolyline
 66
     1
 10
0.0
 20
0.0
 30
0.0
  0
VERTEX
  5
52
330
51
100
AcDbEntity
  8
Default
100
AcDbVertex
100
AcDb2dVertex
 10
-6.698230977051452
 20
73.2257782650978
 30
0.0
  0
VERTEX
  5
53
330
51
100
AcDbEntity
  8
Default
100
AcDbVertex
100
AcDb2dVertex
 10
-8.288923879368923
 20
75.48024362132037
 30
0.0
  0
SEQEND
  5
54
330
51
100
AcDbEntity
  8
Default
  0
SPLINE
  5
55
330
1F
100
AcDbEntity
  8
Default
100
AcDbSpline
210
0.0
220
0.0
230
1.0
 70
    12
 71
     2
 72
     6
 73
     3
 74
     0
 42
0.0000000001
 43
0.0000000001
 40
0.0
 40
0.0
 40
0.0
 40
1.041827519740055
 40
1.041827519740055
 40
1.041827519740055
 10
-8.288923879368923
 20
75.48024362132037
 30
0.0
 41
1.0
 10
-8.678437229892449
 20
76.01681609959466
 30
0.0
 41
0.7074024770456415
 10
-8.142190778596984
 20
76.40677817230235
 30
0.0
 41
1.0
  0
SPLINE
  5
56
330
1F
100
AcDbEntity
  8
Default
100
AcDbSpline
210
0.0
220
0.0
230
1.0
 70
    12
 71
     2
 72
     6
 73
     3
 74
     0
 42
0.0000000001
 43
0.0000000001
 40
0.0
 40
0.0
 40
0.0
 40
1.041830266836562
 40
1.041830266836562
 40
1.041830266836562
 10
-8.142190778596984
 20
76.40677817230235
 30
0.0
 41
1.0
 10
-7.605604600066372
 20
76.79628030108346
 30
0.0
 41
0.7073984447108688
 10
-7.21565985633984
 20
76.26001569088143
 30
0.0
 41
1.0
  0
POLYLINE
  5
57
330
1F
100
AcDbEntity
  8
Default
100
AcDb2dPolyline
 66
     1
 10
0.0
 20
0.0
 30
0.0
  0
VERTEX
  5
58
330
57
100
AcDbEntity
  8
Default
100
AcDbVertex
100
AcDb2dVertex
 10
-7.21565985633984
 20
76.26001569088143
 30
0.0
  0
VERTEX
  5
59
330
57
100
AcDbEntity
  8
Default
100
AcDbVertex
100
AcDb2dVertex
 10
-5.186455098480849
 20
73.55373042614096
 30
0.0
  0
SEQEND
  5
5A
330
57
100
AcDbEntity
  8
Default
  0
SPLINE
  5
5B
330
1F
100
AcDbEntity
  8
Default
100
AcDbSpline
210
0.0
220
0.0
230
1.0
 70
     8
 71
     3
 72
    12
 73
     8
 74
     0
 42
0.0000000001
 43
0.0000000001
 40
-0.458526502144481
 40
-0.458526502144481
 40
-0.458526502144481
 40
-0.458526502144481
 40
0.0
 40
0.377735975993243
 40
0.76153149930615
 40
1.565044396258399
 40
3.30390468891766
 40
3.30390468891766
 40
3.30390468891766
 40
3.30390468891766
 10
9.31741919520195
 20
69.50609958219601
 30
0.0
 10
9.482042143711908
 20
69.47695346601606
 30
0.0
 10
9.616049712705689
 20
69.23229208667263
 30
0.0
 10
9.78448388913634
 20
68.86187205141286
 30
0.0
 10
9.97158173597208
 20
68.37468449614747
 30
0.0
 10
10.23882290823704
 20
67.43480757742037
 30
0.0
 10
10.34032593911556
 20
66.588957534509
 30
0.0
 10
10.35802326535574
 20
66.00986031620053
 30
0.0
  0
ARC
  5
5C
330
1F
100
AcDbEntity
  8
Default
100
AcDbCircle
 10
511.9765206556382
 20
81.33942142574998
 30
0.0
 40
501.852679944918
100
AcDbArc
 50
181.7504256377156
 51
182.6490575925104
  0
SPLINE
  5
5D
330
1F
100
AcDbEntity
  8
Default
100
AcDbSpline
210
0.0
220
0.0
230
1.0
 70
    12
 71
     2
 72
     6
 73
     3
 74
     0
 42
0.0000000001
 43
0.0000000001
 40
0.0
 40
0.0
 40
0.0
 40
0.0737402454329051
 40
0.0737402454329051
 40
0.0737402454329051
 10
10.66013901292192
 20
58.1446404491885
 30
0.0
 41
1.0
 10
10.66244142105965
 20
58.10062650730926
 30
0.0
 41
0.7719264310602452
 10
10.70652025357825
 20
58.09440661173984
 30
0.0
 41
1.0
  0
SPLINE
  5
5E
330
1F
100
AcDbEntity
  8
Default
100
AcDbSpline
210
0.0
220
0.0
230
1.0
 70
    12
 71
     2
 72
     6
 73
     3
 74
     0
 42
0.0000000001
 43
0.0000000001
 40
0.0
 40
0.0
 40
0.0
 40
1.508245470856755
 40
1.508245470856755
 40
1.508245470856755
 10
10.70652025357825
 20
58.09440661173984
 30
0.0
 41
1.0
 10
11.4605760952107
 20
58.03765210698332
 30
0.0
 41
0.9967796933852576
 10
12.2138676910244
 20
58.10218041197512
 30
0.0
 41
1.0
  0
SPLINE
  5
5F
330
1F
100
AcDbEntity
  8
Default
100
AcDbSpline
210
0.0
220
0.0
230
1.0
 70
     8
 71
     3
 72
     8
 73
     4
 74
     0
 42
0.0000000001
 43
0.0000000001
 40
0.0
 40
0.0
 40
0.0
 40
0.0
 40
1.0
 40
1.0
 40
1.0
 40
1.0
 10
12.2138676910244
 20
58.10218041197512
 30
0.0
 10
12.27503499462975
 20
58.10647079481405
 30
0.0
 10
12.2731670273553
 20
58.17655362132057
 30
0.0
 10
12.27081841811409
 20
58.22058314789523
 30
0.0
  0
SPLINE
  5
60
330
1F
100
AcDbEntity
  8
Default
100
AcDbSpline
210
0.0
220
0.0
230
1.0
 70
     8
 71
     3
 72
     9
 73
     5
 74
     0
 42
0.0000000001
 43
0.0000000001
 40
-2.0
 40
-2.0
 40
-2.0
 40
-2.0
 40
-1.0
 40
0.0
 40
0.0
 40
0.0
 40
0.0
 10
12.27081841811409
 20
58.22058314789523
 30
0.0
 10
12.20896312663658
 20
59.53587787675178
 30
0.0
 10
12.12634958189582
 20
62.16816481336627
 30
0.0
 10
12.03046795579436
 20
64.79990377503131
 30
0.0
 10
11.98513195693096
 20
66.11588108842295
 30
0.0
  0
SPLINE
  5
61
330
1F
100
AcDbEntity
  8
Default
100
AcDbSpline
210
0.0
220
0.0
230
1.0
 70
     8
 71
     3
 72
    12
 73
     8
 74
     0
 42
0.0000000001
 43
0.0000000001
 40
0.0
 40
0.0
 40
0.0
 40
0.0
 40
0.6676669642696594
 40
1.126331660161901
 40
1.922052475789338
 40
2.712550596676415
 40
3.640892101522364
 40
3.640892101522364
 40
3.640892101522364
 40
3.640892101522364
 10
11.98513195693096
 20
66.11588108842295
 30
0.0
 10
11.97731617303501
 20
66.33808754461063
 30
0.0
 10
11.9633821371838
 20
66.71393418922179
 30
0.0
 10
11.91044348624038
 20
67.3518001105175
 30
0.0
 10
11.78092646372428
 20
68.02483903527741
 30
0.0
 10
11.43824272256578
 20
68.79530913946363
 30
0.0
 10
11.10752724182962
 20
69.26548826715705
 30
0.0
 10
10.91850202181271
 20
69.51028751621175
 30
0.0
  0
SPLINE
  5
62
330
1F
100
AcDbEntity
  8
Default
100
AcDbSpline
210
0.0
220
0.0
230
1.0
 70
     8
 71
     3
 72
     8
 73
     4
 74
     0
 42
0.0000000001
 43
0.0000000001
 40
0.0
 40
0.0
 40
0.0
 40
0.0
 40
1.0
 40
1.0
 40
1.0
 40
1.0
 10
10.91850202181271
 20
69.51028751621175
 30
0.0
 10
10.67662888751096
 20
69.82352805436992
 30
0.0
 10
10.45758388019337
 20
70.17533994235043
 30
0.0
 10
10.13086685987341
 20
70.39867430261731
 30
0.0
  0
SPLINE
  5
63
330
1F
100
AcDbEntity
  8
Default
100
AcDbSpline
210
0.0
220
0.0
230
1.0
 70
     8
 71
     3
 72
    10
 73
     6
 74
     0
 42
0.0000000001
 43
0.0000000001
 40
0.0
 40
0.0
 40
0.0
 40
0.0
 40
1.177473804769378
 40
1.579315093834944
 40
1.947671481446619
 40
1.947671481446619
 40
1.947671481446619
 40
1.947671481446619
 10
10.13086685987341
 20
70.39867430261731
 30
0.0
 10
9.806858534463203
 20
70.620157076933
 30
0.0
 10
9.375152109556524
 20
70.92157690679628
 30
0.0
 10
8.830732398996275
 20
71.27536939379922
 30
0.0
 10
8.612455117536598
 20
71.41054023739727
 30
0.0
 10
8.507225421969082
 20
71.47381592853435
 30
0.0
  0
LINE
  5
64
330
1F
100
AcDbEntity
  8
Default
100
AcDbLine
 10
10.35507290501513
 20
62.56103068945345
 30
0.0
 11
9.876493399508234
 21
62.72851507680203
 31
0.0
  0
SPLINE
  5
65
330
1F
100
AcDbEntity
  8
Default
100
AcDbSpline
210
0.0
220
0.0
230
1.0
 70
     8
 71
     3
 72
    10
 73
     6
 74
     0
 42
0.0000000001
 43
0.0000000001
 40
-1.375063154426382
 40
-1.375063154426382
 40
-1.375063154426382
 40
-1.375063154426382
 40
2.231794050657925
 40
2.572710942153465
 40
2.823994229517671
 40
2.823994229517671
 40
2.823994229517671
 40
2.823994229517671
 10
9.598263592044532
 20
65.92296660551636
 30
0.0
 10
9.870588387245448
 20
64.75192386672799
 30
0.0
 10
10.15811617090955
 20
63.46776765699036
 30
0.0
 10
10.45549629885514
 20
62.10003743888856
 30
0.0
 10
10.49066166316609
 20
61.90572991702078
 30
0.0
 10
10.50423243057887
 20
61.82308743621819
 30
0.0
  0
LINE
  5
66
330
1F
100
AcDbEntity
  8
Default
100
AcDbLine
 10
12.16765278194438
 20
61.94426336338263
 30
0.0
 11
12.16765278194435
 21
63.29152061820292
 31
0.0
  0
SPLINE
  5
67
330
1F
100
AcDbEntity
  8
Default
100
AcDbSpline
210
0.0
220
0.0
230
1.0
 70
    12
 71
     2
 72
     6
 73
     3
 74
     0
 42
0.0000000001
 43
0.0000000001
 40
0.0
 40
0.0
 40
0.0
 40
0.0490228526880222
 40
0.0490228526880222
 40
0.0490228526880222
 10
12.16765278194435
 20
63.29152061820292
 30
0.0
 41
1.0
 10
12.16750254822226
 20
63.32514605318269
 30
0.0
 41
0.710514313637381
 10
12.13640278194438
 20
63.32529628690477
 30
0.0
 41
1.0
  0
SPLINE
  5
68
330
1F
100
AcDbEntity
  8
Default
100
AcDbSpline
210
0.0
220
0.0
230
1.0
 70
    24
 71
     2
 72
     6
 73
     3
 74
     0
 42
0.0000000001
 43
0.0000000001
 40
0.0
 40
0.0
 40
0.0
 40
0.053785277800694
 40
0.053785277800694
 40
0.053785277800694
 10
12.13640278194438
 20
63.32529628690477
 30
0.0
 10
12.10951014304402
 20
63.32529628690477
 30
0.0
 10
12.08261750414366
 20
63.32529628690477
 30
0.0
  0
SPLINE
  5
69
330
1F
100
AcDbEntity
  8
Default
100
AcDbSpline
210
0.0
220
0.0
230
1.0
 70
    24
 71
     2
 72
     6
 73
     3
 74
     0
 42
0.0000000001
 43
0.0000000001
 40
0.0
 40
0.0
 40
0.0
 40
0.1915887464148028
 40
0.1915887464148028
 40
0.1915887464148028
 10
13.10106403552956
 20
60.76529628690476
 30
0.0
 10
13.19685840873697
 20
60.76529628690476
 30
0.0
 10
13.29265278194438
 20
60.76529628690476
 30
0.0
  0
SPLINE
  5
6A
330
1F
100
AcDbEntity
  8
Default
100
AcDbSpline
210
0.0
220
0.0
230
1.0
 70
    12
 71
     2
 72
     6
 73
     3
 74
     0
 42
0.0000000001
 43
0.0000000001
 40
0.0
 40
0.0
 40
0.0
 40
0.1963097587114814
 40
0.1963097587114814
 40
0.1963097587114814
 10
13.29265278194438
 20
60.76529628690476
 30
0.0
 41
1.0
 10
13.41756163709689
 20
60.76538628072585
 30
0.0
 41
0.7076193065308326
 10
13.41765278194171
 20
60.89263175125033
 30
0.0
 41
1.0
  0
SPLINE
  5
6B
330
1F
100
AcDbEntity
  8
Default
100
AcDbSpline
210
0.0
220
0.0
230
1.0
 70
    24
 71
     2
 72
     6
 73
     3
 74
     0
 42
0.0000000001
 43
0.0000000001
 40
-1.150327919447875
 40
-1.150327919447875
 40
-1.150327919447875
 40
0.0
 40
0.0
 40
0.0
 10
13.41765278194171
 20
60.89263175125033
 30
0.0
 10
13.41765278194305
 20
61.46896401907755
 30
0.0
 10
13.41765278194438
 20
62.04529628690476
 30
0.0
  0
SPLINE
  5
6C
330
1F
100
AcDbEntity
  8
Default
100
AcDbSpline
210
0.0
220
0.0
230
1.0
 70
    24
 71
     2
 72
     6
 73
     3
 74
     0
 42
0.0000000001
 43
0.0000000001
 40
0.0
 40
0.0
 40
0.0
 40
1.150327919447875
 40
1.150327919447875
 40
1.150327919447875
 10
13.41765278194438
 20
62.04529628690476
 30
0.0
 10
13.41765278194305
 20
62.62162855473198
 30
0.0
 10
13.41765278194171
 20
63.1979608225592
 30
0.0
  0
SPLINE
  5
6D
330
1F
100
AcDbEntity
  8
Default
100
AcDbSpline
210
0.0
220
0.0
230
1.0
 70
    12
 71
     2
 72
     6
 73
     3
 74
     0
 42
0.0000000001
 43
0.0000000001
 40
0.0
 40
0.0
 40
0.0
 40
0.1963228425432755
 40
0.1963228425432755
 40
0.1963228425432755
 10
13.41765278194171
 20
63.1979608225592
 30
0.0
 41
1.0
 10
13.41759211470158
 20
63.32523677096923
 30
0.0
 41
0.7074467937681248
 10
13.29265278194438
 20
63.32529628690475
 30
0.0
 41
1.0
  0
SPLINE
  5
6E
330
1F
100
AcDbEntity
  8
Default
100
AcDbSpline
210
0.0
220
0.0
230
1.0
 70
    24
 71
     2
 72
     6
 73
     3
 74
     0
 42
0.0000000001
 43
0.0000000001
 40
0.0
 40
0.0
 40
0.0
 40
0.34375
 40
0.34375
 40
0.34375
 10
13.29265278194438
 20
63.32529628690475
 30
0.0
 10
13.12077778194438
 20
63.32529628690476
 30
0.0
 10
12.94890278194438
 20
63.32529628690477
 30
0.0
  0
SPLINE
  5
6F
330
1F
100
AcDbEntity
  8
Default
100
AcDbSpline
210
0.0
220
0.0
230
1.0
 70
    12
 71
     2
 72
     6
 73
     3
 74
     0
 42
0.0000000001
 43
0.0000000001
 40
0.0
 40
0.0
 40
0.0
 40
0.0490324958837578
 40
0.0490324958837578
 40
0.0490324958837578
 10
12.94890278194438
 20
63.32529628690477
 30
0.0
 41
1.0
 10
12.91778058101886
 20
63.32516848782584
 30
0.0
 41
0.7100044327163367
 10
12.91765278194438
 20
63.29152061820116
 30
0.0
 41
1.0
  0
LINE
  5
70
330
1F
100
AcDbEntity
  8
Default
100
AcDbLine
 10
12.91765278194438
 20
63.29152061820116
 30
0.0
 11
12.91765278194438
 21
61.67203414799292
 31
0.0
  0
SPLINE
  5
71
330
1F
100
AcDbEntity
  8
Default
100
AcDbSpline
210
0.0
220
0.0
230
1.0
 70
    24
 71
     2
 72
     6
 73
     3
 74
     0
 42
0.0000000001
 43
0.0000000001
 40
-0.3629272433277748
 40
-0.3629272433277748
 40
-0.3629272433277748
 40
0.0
 40
0.0
 40
0.0
 10
12.90202778194438
 20
61.68236904357698
 30
0.0
 10
12.90202778194438
 20
61.86383266524087
 30
0.0
 10
12.90202778194438
 20
62.04529628690476
 30
0.0
  0
SPLINE
  5
72
330
1F
100
AcDbEntity
  8
Default
100
AcDbSpline
210
0.0
220
0.0
230
1.0
 70
    24
 71
     2
 72
     6
 73
     3
 74
     0
 42
0.0000000001
 43
0.0000000001
 40
0.0
 40
0.0
 40
0.0
 40
1.280000000000001
 40
1.280000000000001
 40
1.280000000000001
 10
12.90202778194438
 20
62.04529628690476
 30
0.0
 10
12.90202778194438
 20
62.68529628690477
 30
0.0
 10
12.90202778194438
 20
63.32529628690477
 30
0.0
  0
SPLINE
  5
73
330
1F
100
AcDbEntity
  8
Default
100
AcDbSpline
210
0.0
220
0.0
230
1.0
 70
    24
 71
     2
 72
     6
 73
     3
 74
     0
 42
0.0000000001
 43
0.0000000001
 40
0.0
 40
0.0
 40
0.0
 40
0.71875
 40
0.71875
 40
0.71875
 10
12.90202778194438
 20
63.32529628690477
 30
0.0
 10
12.54265278194438
 20
63.32529628690477
 30
0.0
 10
12.18327778194438
 20
63.32529628690477
 30
0.0
  0
LINE
  5
74
330
1F
100
AcDbEntity
  8
Default
100
AcDbLine
 10
12.18327778194438
 20
63.32529628690477
 30
0.0
 11
12.18327778194438
 21
61.93917895411454
 31
0.0
  0
SPLINE
  5
75
330
1F
100
AcDbEntity
  8
Default
100
AcDbSpline
210
0.0
220
0.0
230
1.0
 70
     8
 71
     3
 72
    17
 73
    13
 74
     0
 42
0.0000000001
 43
0.0000000001
 40
0.0
 40
0.0
 40
0.0
 40
0.0
 40
1.0
 40
1.0
 40
1.0
 40
3.085175862674075
 40
3.985440029312396
 40
4.478568954099425
 40
5.053672501797766
 40
5.053672501797766
 40
5.053672501797766
 40
12.9762236287165
 40
12.9762236287165
 40
12.9762236287165
 40
12.9762236287165
 10
9.262234903625796
 20
70.43410208870387
 30
0.0
 10
9.488253550024666
 20
70.27308248286039
 30
0.0
 10
9.610913403655417
 20
70.14082824959817
 30
0.0
 10
9.676706291678869
 20
69.97789204753053
 30
0.0
 10
9.902510442134627
 20
69.31923532110423
 30
0.0
 10
10.19780640127786
 20
68.36439845594327
 30
0.0
 10
10.35847361317948
 20
67.21402137079158
 30
0.0
 10
10.40684725178087
 20
66.55983009726918
 30
0.0
 10
10.42279769328289
 20
66.20390369100602
 30
0.0
 10
10.42885171728253
 20
66.01235908980618
 30
0.0
 10
10.52093522598349
 20
63.37311464312049
 30
0.0
 10
10.61301873468446
 20
60.73387019643476
 30
0.0
 10
10.70510224338543
 20
58.09462574974905
 30
0.0
  0
LINE
  5
76
330
1F
100
AcDbEntity
  8
Default
100
AcDbLine
 10
12.13208818078121
 20
61.95583616259998
 30
0.0
 11
12.74843657885137
 21
61.75527504211766
 31
0.0
  0
ARC
  5
77
330
1F
100
AcDbEntity
  8
Default
100
AcDbCircle
 10
12.54309003460946
 20
61.12422046240458
 30
0.0
 40
0.6636242052614932
100
AcDbArc
 50
342.0267389845188
 51
71.97499837553642
  0
ARC
  5
78
330
1F
100
AcDbEntity
  8
Default
100
AcDbCircle
 10
12.54328234921999
 20
61.12481014204984
 30
0.0
 40
0.6636235246233576
100
AcDbArc
 50
252.0249349543826
 51
341.9731882500384
  0
LINE
  5
79
330
1F
100
AcDbEntity
  8
Default
100
AcDbLine
 10
12.33848609343684
 20
60.49357747808929
 30
0.0
 11
12.1761013997077
 21
60.54626134438919
 31
0.0
  0
LINE
  5
7A
330
1F
100
AcDbEntity
  8
Default
100
AcDbLine
 10
-7.392433976528736
 20
76.42727514183758
 30
0.0
 11
-7.392433976528736
 21
78.07006139280276
 31
0.0
  0
SPLINE
  5
7B
330
1F
100
AcDbEntity
  8
Default
100
AcDbSpline
210
0.0
220
0.0
230
1.0
 70
    24
 71
     2
 72
     6
 73
     3
 74
     0
 42
0.0000000001
 43
0.0000000001
 40
-0.71875
 40
-0.71875
 40
-0.71875
 40
0.0
 40
0.0
 40
0.0
 10
-7.392433976528736
 20
78.07006139280276
 30
0.0
 10
-7.751808976528736
 20
78.07006139280276
 30
0.0
 10
-8.111183976528736
 20
78.07006139280276
 30
0.0
  0
LINE
  5
7C
330
1F
100
AcDbEntity
  8
Default
100
AcDbLine
 10
-8.111183976528736
 20
78.07006139280276
 30
0.0
 11
-8.111183976528736
 21
76.42797407569236
 31
0.0
  0
LINE
  5
7D
330
1F
100
AcDbEntity
  8
Default
100
AcDbLine
 10
-10.35507290500448
 20
62.56103068945345
 30
0.0
 11
-9.876493399497605
 21
62.72851507680203
 31
0.0
  0
SPLINE
  5
7E
330
1F
100
AcDbEntity
  8
Default
100
AcDbSpline
210
0.0
220
0.0
230
1.0
 70
    12
 71
     2
 72
     6
 73
     3
 74
     0
 42
0.0000000001
 43
0.0000000001
 40
0.0
 40
0.0
 40
0.0
 40
0.5752958052014472
 40
0.5752958052014472
 40
0.5752958052014472
 10
10.53067466609403
 20
61.06590107651763
 30
0.0
 41
1.0
 10
10.25551375715883
 20
61.14973361069021
 30
0.0
 41
0.9999990598308219
 10
9.980123971838594
 20
61.23281119932341
 30
0.0
 41
1.0
  0
LINE
  5
7F
330
1F
100
AcDbEntity
  8
Default
100
AcDbLine
 10
-7.376808976528679
 20
76.4168647427108
 30
0.0
 11
-7.376808976528707
 21
78.03881139274753
 31
0.0
  0
SPLINE
  5
80
330
1F
100
AcDbEntity
  8
Default
100
AcDbSpline
210
0.0
220
0.0
230
1.0
 70
    12
 71
     2
 72
     6
 73
     3
 74
     0
 42
0.0000000001
 43
0.0000000001
 40
0.0
 40
0.0
 40
0.0
 40
0.0490228527406757
 40
0.0490228527406757
 40
0.0490228527406757
 10
-7.376808976528707
 20
78.03881139274753
 30
0.0
 41
1.0
 10
-7.37665874285567
 20
78.06991115907475
 30
0.0
 41
0.710514313144177
 10
-7.345558976528736
 20
78.07006139280276
 30
0.0
 41
1.0
  0
SPLINE
  5
81
330
1F
100
AcDbEntity
  8
Default
100
AcDbSpline
210
0.0
220
0.0
230
1.0
 70
    24
 71
     2
 72
     6
 73
     3
 74
     0
 42
0.0000000001
 43
0.0000000001
 40
0.0
 40
0.0
 40
0.0
 40
0.34375
 40
0.34375
 40
0.34375
 10
-7.345558976528736
 20
78.07006139280276
 30
0.0
 10
-7.173683976528736
 20
78.07006139280276
 30
0.0
 10
-7.001808976528736
 20
78.07006139280276
 30
0.0
  0
SPLINE
  5
82
330
1F
100
AcDbEntity
  8
Default
100
AcDbSpline
210
0.0
220
0.0
230
1.0
 70
    12
 71
     2
 72
     6
 73
     3
 74
     0
 42
0.0000000001
 43
0.0000000001
 40
0.0
 40
0.0
 40
0.0
 40
0.1963097587114712
 40
0.1963097587114712
 40
0.1963097587114712
 10
-7.001808976528736
 20
78.07006139280276
 30
0.0
 41
1.0
 10
-6.876900121376213
 20
78.06997139898165
 30
0.0
 41
0.7076193065308615
 10
-6.876808976531379
 20
77.94506254466373
 30
0.0
 41
1.0
  0
LINE
  5
83
330
1F
100
AcDbEntity
  8
Default
100
AcDbLine
 10
-6.876808976531379
 20
77.94506254466373
 30
0.0
 11
-6.876808976528736
 21
75.78430103802137
 31
0.0
  0
SPLINE
  5
84
330
1F
100
AcDbEntity
  8
Default
100
AcDbSpline
210
0.0
220
0.0
230
1.0
 70
    12
 71
     2
 72
     6
 73
     3
 74
     0
 42
0.0000000001
 43
0.0000000001
 40
0.0
 40
0.0
 40
0.0
 40
0.5752958052014472
 40
0.5752958052014472
 40
0.5752958052014472
 10
-10.53067466608334
 20
61.06590107651763
 30
0.0
 41
1.0
 10
-10.25551375714818
 20
61.14973361069021
 30
0.0
 41
0.9999990598308219
 10
-9.980123971827908
 20
61.23281119932341
 30
0.0
 41
1.0
  0
SPLINE
  5
85
330
1F
100
AcDbEntity
  8
Default
100
AcDbSpline
210
0.0
220
0.0
230
1.0
 70
     8
 71
     3
 72
    10
 73
     6
 74
     0
 42
0.0000000001
 43
0.0000000001
 40
-12.24581096497875
 40
-12.24581096497875
 40
-12.24581096497875
 40
-12.24581096497875
 40
-11.9855312274426
 40
-10.9855312274426
 40
-9.985531227442603
 40
-9.985531227442603
 40
-9.985531227442603
 40
-9.985531227442603
 10
-9.25082185017098
 20
68.96879354335852
 30
0.0
 10
-9.322873247307626
 20
68.45027726355437
 30
0.0
 10
-9.621546527822602
 20
65.92719489028076
 30
0.0
 10
-10.00410208618419
 20
61.38778592324526
 30
0.0
 10
-10.21018694554047
 20
57.36005881399365
 30
0.0
 10
-10.19165131585069
 20
55.3440963878075
 30
0.0
  0
SPLINE
  5
86
330
1F
100
AcDbEntity
  8
Default
100
AcDbSpline
210
0.0
220
0.0
230
1.0
 70
     8
 71
     3
 72
     8
 73
     4
 74
     0
 42
0.0000000001
 43
0.0000000001
 40
-9.985531227442603
 40
-9.985531227442603
 40
-9.985531227442603
 40
-9.985531227442603
 40
-8.985531227442603
 40
-8.985531227442603
 40
-8.985531227442603
 40
-8.985531227442603
 10
-10.19165131585069
 20
55.3440963878075
 30
0.0
 10
-10.18478539206595
 20
54.5973483893402
 30
0.0
 10
-9.736459536282212
 20
54.19053986748639
 30
0.0
 10
-8.971888959342635
 20
54.11726221693659
 30
0.0
  0
SPLINE
  5
87
330
1F
100
AcDbEntity
  8
Default
100
AcDbSpline
210
0.0
220
0.0
230
1.0
 70
    12
 71
     2
 72
     6
 73
     3
 74
     0
 42
0.0000000001
 43
0.0000000001
 40
-8.985531227442603
 40
-8.985531227442603
 40
-8.985531227442603
 40
0.0
 40
0.0
 40
0.0
 10
-8.971888959342635
 20
54.11726221693659
 30
0.0
 41
1.0
 10
-4.496207422308317
 20
53.68830583601515
 30
0.0
 41
0.9988578034794814
 10
0.0000000000053149
 20
53.6885307333268
 30
0.0
 41
1.0
  0
SPLINE
  5
88
330
1F
100
AcDbEntity
  8
Default
100
AcDbSpline
210
0.0
220
0.0
230
1.0
 70
    12
 71
     2
 72
     6
 73
     3
 74
     0
 42
0.0000000001
 43
0.0000000001
 40
0.0
 40
0.0
 40
0.0
 40
8.985531227442603
 40
8.985531227442603
 40
8.985531227442603
 10
0.0000000000053149
 20
53.6885307333268
 30
0.0
 41
1.0
 10
4.496207422318985
 20
53.68830583601515
 30
0.0
 41
0.9988578034794814
 10
8.971888959353322
 20
54.11726221693659
 30
0.0
 41
1.0
  0
SPLINE
  5
89
330
1F
100
AcDbEntity
  8
Default
100
AcDbSpline
210
0.0
220
0.0
230
1.0
 70
     8
 71
     3
 72
     8
 73
     4
 74
     0
 42
0.0000000001
 43
0.0000000001
 40
8.985531227442603
 40
8.985531227442603
 40
8.985531227442603
 40
8.985531227442603
 40
9.985531227442603
 40
9.985531227442603
 40
9.985531227442603
 40
9.985531227442603
 10
8.971888959353322
 20
54.11726221693659
 30
0.0
 10
9.73645953629287
 20
54.19053986748639
 30
0.0
 10
10.18478539207658
 20
54.5973483893402
 30
0.0
 10
10.19165131586138
 20
55.3440963878075
 30
0.0
  0
SPLINE
  5
8A
330
1F
100
AcDbEntity
  8
Default
100
AcDbSpline
210
0.0
220
0.0
230
1.0
 70
     8
 71
     3
 72
    10
 73
     6
 74
     0
 42
0.0000000001
 43
0.0000000001
 40
9.985531227442603
 40
9.985531227442603
 40
9.985531227442603
 40
9.985531227442603
 40
10.9855312274426
 40
11.9855312274426
 40
12.24581096497875
 40
12.24581096497875
 40
12.24581096497875
 40
12.24581096497875
 10
10.19165131586138
 20
55.3440963878075
 30
0.0
 10
10.21018694555113
 20
57.36005881399365
 30
0.0
 10
10.00410208619488
 20
61.38778592324526
 30
0.0
 10
9.62154652783326
 20
65.92719489028076
 30
0.0
 10
9.322873247318313
 20
68.45027726355437
 30
0.0
 10
9.250821850181666
 20
68.96879354335852
 30
0.0
  0
SPLINE
  5
8B
330
1F
100
AcDbEntity
  8
Default
100
AcDbSpline
210
0.0
220
0.0
230
1.0
 70
     8
 71
     3
 72
    12
 73
     8
 74
     0
 42
0.0000000001
 43
0.0000000001
 40
-0.458526502144481
 40
-0.458526502144481
 40
-0.458526502144481
 40
-0.458526502144481
 40
0.0
 40
0.377735975993243
 40
0.76153149930615
 40
1.565044396258399
 40
3.30390468891766
 40
3.30390468891766
 40
3.30390468891766
 40
3.30390468891766
 10
-9.317419195191292
 20
69.50609958219601
 30
0.0
 10
-9.48204214370125
 20
69.47695346601606
 30
0.0
 10
-9.616049712695059
 20
69.23229208667263
 30
0.0
 10
-9.784483889125653
 20
68.86187205141286
 30
0.0
 10
-9.971581735961394
 20
68.37468449614747
 30
0.0
 10
-10.23882290822635
 20
67.43480757742037
 30
0.0
 10
-10.3403259391049
 20
66.588957534509
 30
0.0
 10
-10.35802326534511
 20
66.00986031620053
 30
0.0
  0
ARC
  5
8C
330
1F
100
AcDbEntity
  8
Default
100
AcDbCircle
 10
-511.9765206556276
 20
81.33942142574998
 30
0.0
 40
501.852679944918
100
AcDbArc
 50
357.3509424074896
 51
358.2495743622844
  0
SPLINE
  5
8D
330
1F
100
AcDbEntity
  8
Default
100
AcDbSpline
210
0.0
220
0.0
230
1.0
 70
    12
 71
     2
 72
     6
 73
     3
 74
     0
 42
0.0000000001
 43
0.0000000001
 40
0.0
 40
0.0
 40
0.0
 40
0.0737402454329051
 40
0.0737402454329051
 40
0.0737402454329051
 10
-10.66013901291129
 20
58.1446404491885
 30
0.0
 41
1.0
 10
-10.66244142104899
 20
58.10062650730926
 30
0.0
 41
0.7719264310602452
 10
-10.70652025356756
 20
58.09440661173984
 30
0.0
 41
1.0
  0
SPLINE
  5
8E
330
1F
100
AcDbEntity
  8
Default
100
AcDbSpline
210
0.0
220
0.0
230
1.0
 70
    12
 71
     2
 72
     6
 73
     3
 74
     0
 42
0.0000000001
 43
0.0000000001
 40
0.0
 40
0.0
 40
0.0
 40
1.508245470856755
 40
1.508245470856755
 40
1.508245470856755
 10
-10.70652025356756
 20
58.09440661173984
 30
0.0
 41
1.0
 10
-11.46057609520003
 20
58.03765210698332
 30
0.0
 41
0.9967796933852576
 10
-12.21386769101375
 20
58.10218041197512
 30
0.0
 41
1.0
  0
SPLINE
  5
8F
330
1F
100
AcDbEntity
  8
Default
100
AcDbSpline
210
0.0
220
0.0
230
1.0
 70
     8
 71
     3
 72
     8
 73
     4
 74
     0
 42
0.0000000001
 43
0.0000000001
 40
0.0
 40
0.0
 40
0.0
 40
0.0
 40
1.0
 40
1.0
 40
1.0
 40
1.0
 10
-12.21386769101375
 20
58.10218041197512
 30
0.0
 10
-12.27503499461909
 20
58.10647079481405
 30
0.0
 10
-12.27316702734461
 20
58.17655362132057
 30
0.0
 10
-12.2708184181034
 20
58.22058314789523
 30
0.0
  0
SPLINE
  5
90
330
1F
100
AcDbEntity
  8
Default
100
AcDbSpline
210
0.0
220
0.0
230
1.0
 70
     8
 71
     3
 72
     9
 73
     5
 74
     0
 42
0.0000000001
 43
0.0000000001
 40
-2.0
 40
-2.0
 40
-2.0
 40
-2.0
 40
-1.0
 40
0.0
 40
0.0
 40
0.0
 40
0.0
 10
-12.2708184181034
 20
58.22058314789523
 30
0.0
 10
-12.20896312662589
 20
59.53587787675178
 30
0.0
 10
-12.12634958188517
 20
62.16816481336627
 30
0.0
 10
-12.03046795578371
 20
64.79990377503131
 30
0.0
 10
-11.9851319569203
 20
66.11588108842295
 30
0.0
  0
SPLINE
  5
91
330
1F
100
AcDbEntity
  8
Default
100
AcDbSpline
210
0.0
220
0.0
230
1.0
 70
     8
 71
     3
 72
    12
 73
     8
 74
     0
 42
0.0000000001
 43
0.0000000001
 40
0.0
 40
0.0
 40
0.0
 40
0.0
 40
0.6676669642696594
 40
1.126331660161901
 40
1.922052475789338
 40
2.712550596676415
 40
3.640892101522364
 40
3.640892101522364
 40
3.640892101522364
 40
3.640892101522364
 10
-11.9851319569203
 20
66.11588108842295
 30
0.0
 10
-11.97731617302432
 20
66.33808754461063
 30
0.0
 10
-11.96338213717311
 20
66.71393418922179
 30
0.0
 10
-11.9104434862297
 20
67.3518001105175
 30
0.0
 10
-11.7809264637136
 20
68.02483903527741
 30
0.0
 10
-11.43824272255509
 20
68.79530913946363
 30
0.0
 10
-11.10752724181899
 20
69.26548826715705
 30
0.0
 10
-10.91850202180203
 20
69.51028751621175
 30
0.0
  0
SPLINE
  5
92
330
1F
100
AcDbEntity
  8
Default
100
AcDbSpline
210
0.0
220
0.0
230
1.0
 70
     8
 71
     3
 72
     8
 73
     4
 74
     0
 42
0.0000000001
 43
0.0000000001
 40
0.0
 40
0.0
 40
0.0
 40
0.0
 40
1.0
 40
1.0
 40
1.0
 40
1.0
 10
-10.91850202180203
 20
69.51028751621175
 30
0.0
 10
-10.6766288875003
 20
69.82352805436992
 30
0.0
 10
-10.45758388018271
 20
70.17533994235043
 30
0.0
 10
-10.13086685986272
 20
70.39867430261731
 30
0.0
  0
SPLINE
  5
93
330
1F
100
AcDbEntity
  8
Default
100
AcDbSpline
210
0.0
220
0.0
230
1.0
 70
     8
 71
     3
 72
    10
 73
     6
 74
     0
 42
0.0000000001
 43
0.0000000001
 40
0.0
 40
0.0
 40
0.0
 40
0.0
 40
1.177473804769378
 40
1.579315093834944
 40
1.947671481446619
 40
1.947671481446619
 40
1.947671481446619
 40
1.947671481446619
 10
-10.13086685986272
 20
70.39867430261731
 30
0.0
 10
-9.806858534452573
 20
70.620157076933
 30
0.0
 10
-9.375152109545837
 20
70.92157690679628
 30
0.0
 10
-8.830732398985589
 20
71.27536939379922
 30
0.0
 10
-8.612455117525911
 20
71.41054023739727
 30
0.0
 10
-8.507225421958452
 20
71.47381592853435
 30
0.0
  0
LINE
  5
94
330
1F
100
AcDbEntity
  8
Default
100
AcDbLine
 10
7.376808976539365
 20
76.4168647427108
 30
0.0
 11
7.376808976539365
 21
78.03881139274753
 31
0.0
  0
SPLINE
  5
95
330
1F
100
AcDbEntity
  8
Default
100
AcDbSpline
210
0.0
220
0.0
230
1.0
 70
    12
 71
     2
 72
     6
 73
     3
 74
     0
 42
0.0000000001
 43
0.0000000001
 40
0.0
 40
0.0
 40
0.0
 40
0.0490228527406757
 40
0.0490228527406757
 40
0.0490228527406757
 10
7.376808976539365
 20
78.03881139274753
 30
0.0
 41
1.0
 10
7.376658742866315
 20
78.06991115907475
 30
0.0
 41
0.710514313144177
 10
7.345558976539365
 20
78.07006139280276
 30
0.0
 41
1.0
  0
SPLINE
  5
96
330
1F
100
AcDbEntity
  8
Default
100
AcDbSpline
210
0.0
220
0.0
230
1.0
 70
    24
 71
     2
 72
     6
 73
     3
 74
     0
 42
0.0000000001
 43
0.0000000001
 40
0.0
 40
0.0
 40
0.0
 40
0.34375
 40
0.34375
 40
0.34375
 10
7.345558976539365
 20
78.07006139280276
 30
0.0
 10
7.173683976539365
 20
78.07006139280276
 30
0.0
 10
7.001808976539365
 20
78.07006139280276
 30
0.0
  0
SPLINE
  5
97
330
1F
100
AcDbEntity
  8
Default
100
AcDbSpline
210
0.0
220
0.0
230
1.0
 70
    12
 71
     2
 72
     6
 73
     3
 74
     0
 42
0.0000000001
 43
0.0000000001
 40
0.0
 40
0.0
 40
0.0
 40
0.1963097587114712
 40
0.1963097587114712
 40
0.1963097587114712
 10
7.001808976539365
 20
78.07006139280276
 30
0.0
 41
1.0
 10
6.876900121386847
 20
78.06997139898165
 30
0.0
 41
0.7076193065308615
 10
6.876808976542037
 20
77.94506254466373
 30
0.0
 41
1.0
  0
LINE
  5
98
330
1F
100
AcDbEntity
  8
Default
100
AcDbLine
 10
6.876808976542037
 20
77.94506254466373
 30
0.0
 11
6.876808976539365
 21
75.78430103802137
 31
0.0
  0
LINE
  5
99
330
1F
100
AcDbEntity
  8
Default
100
AcDbLine
 10
7.392433976539365
 20
76.42727514183758
 30
0.0
 11
7.392433976539365
 21
78.07006139280276
 31
0.0
  0
SPLINE
  5
9A
330
1F
100
AcDbEntity
  8
Default
100
AcDbSpline
210
0.0
220
0.0
230
1.0
 70
    24
 71
     2
 72
     6
 73
     3
 74
     0
 42
0.0000000001
 43
0.0000000001
 40
-0.71875
 40
-0.71875
 40
-0.71875
 40
0.0
 40
0.0
 40
0.0
 10
7.392433976539365
 20
78.07006139280276
 30
0.0
 10
7.751808976539365
 20
78.07006139280276
 30
0.0
 10
8.111183976539365
 20
78.07006139280276
 30
0.0
  0
LINE
  5
9B
330
1F
100
AcDbEntity
  8
Default
100
AcDbLine
 10
8.111183976539365
 20
78.07006139280276
 30
0.0
 11
8.111183976539365
 21
76.42797407569236
 31
0.0
  0
SPLINE
  5
9C
330
1F
100
AcDbEntity
  8
Default
100
AcDbSpline
210
0.0
220
0.0
230
1.0
 70
     8
 71
     3
 72
    17
 73
    13
 74
     0
 42
0.0000000001
 43
0.0000000001
 40
0.0
 40
0.0
 40
0.0
 40
0.0
 40
1.0
 40
1.0
 40
1.0
 40
3.085175862674075
 40
3.985440029312396
 40
4.478568954099425
 40
5.053672501797766
 40
5.053672501797766
 40
5.053672501797766
 40
12.9762236287165
 40
12.9762236287165
 40
12.9762236287165
 40
12.9762236287165
 10
-9.26223490361511
 20
70.43410208870387
 30
0.0
 10
-9.488253550014036
 20
70.27308248286039
 30
0.0
 10
-9.610913403644759
 20
70.14082824959817
 30
0.0
 10
-9.67670629166824
 20
69.97789204753053
 30
0.0
 10
-9.902510442123997
 20
69.31923532110423
 30
0.0
 10
-10.19780640126717
 20
68.36439845594327
 30
0.0
 10
-10.35847361316885
 20
67.21402137079158
 30
0.0
 10
-10.40684725177019
 20
66.55983009726918
 30
0.0
 10
-10.4227976932722
 20
66.20390369100602
 30
0.0
 10
-10.4288517172719
 20
66.01235908980618
 30
0.0
 10
-10.52093522597283
 20
63.37311464312049
 30
0.0
 10
-10.6130187346738
 20
60.73387019643476
 30
0.0
 10
-10.70510224337474
 20
58.09462574974905
 30
0.0
  0
SPLINE
  5
9D
330
1F
100
AcDbEntity
  8
Default
100
AcDbSpline
210
0.0
220
0.0
230
1.0
 70
    24
 71
     2
 72
     6
 73
     3
 74
     0
 42
0.0000000001
 43
0.0000000001
 40
0.0
 40
0.0
 40
0.0
 40
0.1915887464148028
 40
0.1915887464148028
 40
0.1915887464148028
 10
-13.10106403551893
 20
60.76529628690476
 30
0.0
 10
-13.19685840872631
 20
60.76529628690476
 30
0.0
 10
-13.2926527819337
 20
60.76529628690476
 30
0.0
  0
SPLINE
  5
9E
330
1F
100
AcDbEntity
  8
Default
100
AcDbSpline
210
0.0
220
0.0
230
1.0
 70
    12
 71
     2
 72
     6
 73
     3
 74
     0
 42
0.0000000001
 43
0.0000000001
 40
0.0
 40
0.0
 40
0.0
 40
0.1963097587114814
 40
0.1963097587114814
 40
0.1963097587114814
 10
-13.2926527819337
 20
60.76529628690476
 30
0.0
 41
1.0
 10
-13.41756163708623
 20
60.76538628072585
 30
0.0
 41
0.7076193065308326
 10
-13.41765278193105
 20
60.89263175125033
 30
0.0
 41
1.0
  0
SPLINE
  5
9F
330
1F
100
AcDbEntity
  8
Default
100
AcDbSpline
210
0.0
220
0.0
230
1.0
 70
    24
 71
     2
 72
     6
 73
     3
 74
     0
 42
0.0000000001
 43
0.0000000001
 40
-1.150327919447875
 40
-1.150327919447875
 40
-1.150327919447875
 40
0.0
 40
0.0
 40
0.0
 10
-13.41765278193105
 20
60.89263175125033
 30
0.0
 10
-13.41765278193238
 20
61.46896401907755
 30
0.0
 10
-13.4176527819337
 20
62.04529628690476
 30
0.0
  0
SPLINE
  5
A0
330
1F
100
AcDbEntity
  8
Default
100
AcDbSpline
210
0.0
220
0.0
230
1.0
 70
    24
 71
     2
 72
     6
 73
     3
 74
     0
 42
0.0000000001
 43
0.0000000001
 40
0.0
 40
0.0
 40
0.0
 40
1.150327919447875
 40
1.150327919447875
 40
1.150327919447875
 10
-13.4176527819337
 20
62.04529628690476
 30
0.0
 10
-13.41765278193238
 20
62.62162855473198
 30
0.0
 10
-13.41765278193105
 20
63.1979608225592
 30
0.0
  0
SPLINE
  5
A1
330
1F
100
AcDbEntity
  8
Default
100
AcDbSpline
210
0.0
220
0.0
230
1.0
 70
    12
 71
     2
 72
     6
 73
     3
 74
     0
 42
0.0000000001
 43
0.0000000001
 40
0.0
 40
0.0
 40
0.0
 40
0.1963228425432755
 40
0.1963228425432755
 40
0.1963228425432755
 10
-13.41765278193105
 20
63.1979608225592
 30
0.0
 41
1.0
 10
-13.41759211469093
 20
63.32523677096923
 30
0.0
 41
0.7074467937681248
 10
-13.2926527819337
 20
63.32529628690475
 30
0.0
 41
1.0
  0
SPLINE
  5
A2
330
1F
100
AcDbEntity
  8
Default
100
AcDbSpline
210
0.0
220
0.0
230
1.0
 70
    24
 71
     2
 72
     6
 73
     3
 74
     0
 42
0.0000000001
 43
0.0000000001
 40
0.0
 40
0.0
 40
0.0
 40
0.34375
 40
0.34375
 40
0.34375
 10
-13.2926527819337
 20
63.32529628690475
 30
0.0
 10
-13.1207777819337
 20
63.32529628690476
 30
0.0
 10
-12.9489027819337
 20
63.32529628690477
 30
0.0
  0
SPLINE
  5
A3
330
1F
100
AcDbEntity
  8
Default
100
AcDbSpline
210
0.0
220
0.0
230
1.0
 70
    12
 71
     2
 72
     6
 73
     3
 74
     0
 42
0.0000000001
 43
0.0000000001
 40
0.0
 40
0.0
 40
0.0
 40
0.0490324958837578
 40
0.0490324958837578
 40
0.0490324958837578
 10
-12.9489027819337
 20
63.32529628690477
 30
0.0
 41
1.0
 10
-12.91778058100819
 20
63.32516848782584
 30
0.0
 41
0.7100044327163367
 10
-12.9176527819337
 20
63.29152061820116
 30
0.0
 41
1.0
  0
LINE
  5
A4
330
1F
100
AcDbEntity
  8
Default
100
AcDbLine
 10
-12.9176527819337
 20
63.29152061820116
 30
0.0
 11
-12.9176527819337
 21
61.67203414799292
 31
0.0
  0
LINE
  5
A5
330
1F
100
AcDbEntity
  8
Default
100
AcDbLine
 10
-12.13208818077055
 20
61.95583616259998
 30
0.0
 11
-12.74843657884074
 21
61.75527504211766
 31
0.0
  0
ARC
  5
A6
330
1F
100
AcDbEntity
  8
Default
100
AcDbCircle
 10
-12.54309003459881
 20
61.12422046240458
 30
0.0
 40
0.6636242052614932
100
AcDbArc
 50
108.0250016244636
 51
197.9732610154812
  0
ARC
  5
A7
330
1F
100
AcDbEntity
  8
Default
100
AcDbCircle
 10
-12.54328234920936
 20
61.12481014204984
 30
0.0
 40
0.6636235246233576
100
AcDbArc
 50
198.0268117499635
 51
287.9750650456193
  0
LINE
  5
A8
330
1F
100
AcDbEntity
  8
Default
100
AcDbLine
 10
-12.33848609342621
 20
60.49357747808929
 30
0.0
 11
-12.17610139969705
 21
60.54626134438919
 31
0.0
  0
SPLINE
  5
A9
330
1F
100
AcDbEntity
  8
Default
100
AcDbSpline
210
0.0
220
0.0
230
1.0
 70
    24
 71
     2
 72
     6
 73
     3
 74
     0
 42
0.0000000001
 43
0.0000000001
 40
0.0
 40
0.0
 40
0.0
 40
0.1924572732197012
 40
0.1924572732197012
 40
0.1924572732197012
 10
8.309351703319663
 20
75.51006139280275
 30
0.0
 10
8.405580339929514
 20
75.51006139280275
 30
0.0
 10
8.501808976539365
 20
75.51006139280275
 30
0.0
  0
SPLINE
  5
AA
330
1F
100
AcDbEntity
  8
Default
100
AcDbSpline
210
0.0
220
0.0
230
1.0
 70
    12
 71
     2
 72
     6
 73
     3
 74
     0
 42
0.0000000001
 43
0.0000000001
 40
0.0
 40
0.0
 40
0.0
 40
0.1963097587114392
 40
0.1963097587114392
 40
0.1963097587114392
 10
8.501808976539365
 20
75.51006139280275
 30
0.0
 41
1.0
 10
8.626717831691797
 20
75.51015138662393
 30
0.0
 41
0.7076193065313929
 10
8.626808976536722
 20
75.63739685714833
 30
0.0
 41
1.0
  0
LINE
  5
AB
330
1F
100
AcDbEntity
  8
Default
100
AcDbLine
 10
8.626808976536722
 20
75.63739685714833
 30
0.0
 11
8.626808976536722
 21
77.94506254466373
 31
0.0
  0
SPLINE
  5
AC
330
1F
100
AcDbEntity
  8
Default
100
AcDbSpline
210
0.0
220
0.0
230
1.0
 70
    12
 71
     2
 72
     6
 73
     3
 74
     0
 42
0.0000000001
 43
0.0000000001
 40
0.0
 40
0.0
 40
0.0
 40
0.1963228425425605
 40
0.1963228425425605
 40
0.1963228425425605
 10
8.626808976536722
 20
77.94506254466373
 30
0.0
 41
1.0
 10
8.62674830929492
 20
78.07000187686553
 30
0.0
 41
0.7074467937778354
 10
8.501808976539365
 20
78.07006139280276
 30
0.0
 41
1.0
  0
SPLINE
  5
AD
330
1F
100
AcDbEntity
  8
Default
100
AcDbSpline
210
0.0
220
0.0
230
1.0
 70
    24
 71
     2
 72
     6
 73
     3
 74
     0
 42
0.0000000001
 43
0.0000000001
 40
0.0
 40
0.0
 40
0.0
 40
0.34375
 40
0.34375
 40
0.34375
 10
8.501808976539365
 20
78.07006139280276
 30
0.0
 10
8.329933976539365
 20
78.07006139280276
 30
0.0
 10
8.158058976539365
 20
78.07006139280276
 30
0.0
  0
SPLINE
  5
AE
330
1F
100
AcDbEntity
  8
Default
100
AcDbSpline
210
0.0
220
0.0
230
1.0
 70
    12
 71
     2
 72
     6
 73
     3
 74
     0
 42
0.0000000001
 43
0.0000000001
 40
0.0
 40
0.0
 40
0.0
 40
0.0490324958834727
 40
0.0490324958834727
 40
0.0490324958834727
 10
8.158058976539365
 20
78.07006139280276
 30
0.0
 41
1.0
 10
8.12693677561413
 20
78.06993359372386
 30
0.0
 41
0.7100044327187858
 10
8.126808976539365
 20
78.03881139279858
 30
0.0
 41
1.0
  0
LINE
  5
AF
330
1F
100
AcDbEntity
  8
Default
100
AcDbLine
 10
8.126808976539365
 20
78.03881139279858
 30
0.0
 11
8.126808976539365
 21
76.4176182354656
 31
0.0
  0
SPLINE
  5
B0
330
1F
100
AcDbEntity
  8
Default
100
AcDbSpline
210
0.0
220
0.0
230
1.0
 70
    12
 71
     2
 72
     6
 73
     3
 74
     0
 42
0.0000000001
 43
0.0000000001
 40
0.0
 40
0.0
 40
0.0
 40
0.948847999391868
 40
0.948847999391868
 40
0.948847999391868
 10
0.6737644282370354
 20
53.69091090976835
 30
0.0
 41
1.0
 10
0.6655493717337213
 20
53.21655714367903
 30
0.0
 41
0.999997164098621
 10
0.6632983784955115
 20
52.01108032751191
 30
0.0
 41
1.0
  0
SPLINE
  5
B1
330
1F
100
AcDbEntity
  8
Default
100
AcDbSpline
210
0.0
220
0.0
230
1.0
 70
    12
 71
     2
 72
     6
 73
     3
 74
     0
 42
0.0000000001
 43
0.0000000001
 40
-1.041830266836458
 40
-1.041830266836458
 40
-1.041830266836458
 40
0.0
 40
0.0
 40
0.0
 10
0.6632983784955115
 20
52.01108032751191
 30
0.0
 41
1.0
 10
0.6630348831561063
 20
51.34802937480738
 30
0.0
 41
0.7073984447139825
 10
-0.0000160612537172
 20
51.34774577400694
 30
0.0
 41
1.0
  0
SPLINE
  5
B2
330
1F
100
AcDbEntity
  8
Default
100
AcDbSpline
210
0.0
220
0.0
230
1.0
 70
    12
 71
     2
 72
     6
 73
     3
 74
     0
 42
0.0000000001
 43
0.0000000001
 40
0.0
 40
0.0
 40
0.0
 40
1.041830266836458
 40
1.041830266836458
 40
1.041830266836458
 10
-0.0000160612537172
 20
51.34774577400694
 30
0.0
 41
1.0
 10
-0.6630670056635567
 20
51.34802937480738
 30
0.0
 41
0.7073984447139825
 10
-0.663330501002946
 20
52.01108032751191
 30
0.0
 41
1.0
  0
SPLINE
  5
B3
330
1F
100
AcDbEntity
  8
Default
100
AcDbSpline
210
0.0
220
0.0
230
1.0
 70
    12
 71
     2
 72
     6
 73
     3
 74
     0
 42
0.0000000001
 43
0.0000000001
 40
-0.948847999391868
 40
-0.948847999391868
 40
-0.948847999391868
 40
0.0
 40
0.0
 40
0.0
 10
-0.663330501002946
 20
52.01108032751191
 30
0.0
 41
1.0
 10
-0.6655814942411644
 20
53.21655714367903
 30
0.0
 41
0.999997164098621
 10
-0.6737965507445267
 20
53.69091090976835
 30
0.0
 41
1.0
  0
LINE
  5
B4
330
1F
100
AcDbEntity
  8
Default
100
AcDbLine
 10
-12.1676527819337
 20
61.94426336338263
 30
0.0
 11
-12.1676527819337
 21
63.29152061820292
 31
0.0
  0
SPLINE
  5
B5
330
1F
100
AcDbEntity
  8
Default
100
AcDbSpline
210
0.0
220
0.0
230
1.0
 70
    12
 71
     2
 72
     6
 73
     3
 74
     0
 42
0.0000000001
 43
0.0000000001
 40
0.0
 40
0.0
 40
0.0
 40
0.0490228526880222
 40
0.0490228526880222
 40
0.0490228526880222
 10
-12.1676527819337
 20
63.29152061820292
 30
0.0
 41
1.0
 10
-12.16750254821163
 20
63.32514605318269
 30
0.0
 41
0.710514313637381
 10
-12.1364027819337
 20
63.32529628690477
 30
0.0
 41
1.0
  0
SPLINE
  5
B6
330
1F
100
AcDbEntity
  8
Default
100
AcDbSpline
210
0.0
220
0.0
230
1.0
 70
    24
 71
     2
 72
     6
 73
     3
 74
     0
 42
0.0000000001
 43
0.0000000001
 40
0.0
 40
0.0
 40
0.0
 40
0.053785277800694
 40
0.053785277800694
 40
0.053785277800694
 10
-12.1364027819337
 20
63.32529628690477
 30
0.0
 10
-12.10951014303336
 20
63.32529628690477
 30
0.0
 10
-12.08261750413303
 20
63.32529628690477
 30
0.0
  0
SPLINE
  5
B7
330
1F
100
AcDbEntity
  8
Default
100
AcDbSpline
210
0.0
220
0.0
230
1.0
 70
    24
 71
     2
 72
     6
 73
     3
 74
     0
 42
0.0000000001
 43
0.0000000001
 40
0.0
 40
0.0
 40
0.0
 40
0.192070639225884
 40
0.192070639225884
 40
0.192070639225884
 10
0.5578972382613472
 20
51.65255007142276
 30
0.0
 10
0.6539325578742705
 20
51.65255007142276
 30
0.0
 10
0.7499678774871938
 20
51.65255007142276
 30
0.0
  0
ARC
  5
B8
330
1F
100
AcDbEntity
  8
Default
100
AcDbCircle
 10
0.7476105955637706
 20
51.77988553576862
 30
0.0
 40
0.1273572819207617
100
AcDbArc
 50
271.0605598386963
 51
359.999999999869
  0
LINE
  5
B9
330
1F
100
AcDbEntity
  8
Default
100
AcDbLine
 10
0.8749678774845506
 20
51.77988553576833
 30
0.0
 11
0.874967877488956
 21
53.69255975213849
 31
0.0
  0
SPLINE
  5
BA
330
1F
100
AcDbEntity
  8
Default
100
AcDbSpline
210
0.0
220
0.0
230
1.0
 70
    24
 71
     2
 72
     6
 73
     3
 74
     0
 42
0.0000000001
 43
0.0000000001
 40
0.0
 40
0.0
 40
0.0
 40
0.192070639225884
 40
0.192070639225884
 40
0.192070639225884
 10
-0.5579293607687816
 20
51.65255007142276
 30
0.0
 10
-0.6539646803817334
 20
51.65255007142276
 30
0.0
 10
-0.7499999999946851
 20
51.65255007142276
 30
0.0
  0
ARC
  5
BB
330
1F
100
AcDbEntity
  8
Default
100
AcDbCircle
 10
-0.7476427180712619
 20
51.77988553576862
 30
0.0
 40
0.1273572819207617
100
AcDbArc
 50
180.0000000001311
 51
268.9394401613037
  0
LINE
  5
BC
330
1F
100
AcDbEntity
  8
Default
100
AcDbLine
 10
-0.8749999999920135
 20
51.77988553576833
 30
0.0
 11
-0.8749999999964189
 21
53.69255975213849
 31
0.0
  0
SPLINE
  5
BD
330
1F
100
AcDbEntity
  8
Default
100
AcDbSpline
210
0.0
220
0.0
230
1.0
 70
    24
 71
     2
 72
     6
 73
     3
 74
     0
 42
0.0000000001
 43
0.0000000001
 40
-0.3629272433277748
 40
-0.3629272433277748
 40
-0.3629272433277748
 40
0.0
 40
0.0
 40
0.0
 10
-12.9020277819337
 20
61.68236904357698
 30
0.0
 10
-12.9020277819337
 20
61.86383266524087
 30
0.0
 10
-12.9020277819337
 20
62.04529628690476
 30
0.0
  0
SPLINE
  5
BE
330
1F
100
AcDbEntity
  8
Default
100
AcDbSpline
210
0.0
220
0.0
230
1.0
 70
    24
 71
     2
 72
     6
 73
     3
 74
     0
 42
0.0000000001
 43
0.0000000001
 40
0.0
 40
0.0
 40
0.0
 40
1.280000000000001
 40
1.280000000000001
 40
1.280000000000001
 10
-12.9020277819337
 20
62.04529628690476
 30
0.0
 10
-12.9020277819337
 20
62.68529628690477
 30
0.0
 10
-12.9020277819337
 20
63.32529628690477
 30
0.0
  0
SPLINE
  5
BF
330
1F
100
AcDbEntity
  8
Default
100
AcDbSpline
210
0.0
220
0.0
230
1.0
 70
    24
 71
     2
 72
     6
 73
     3
 74
     0
 42
0.0000000001
 43
0.0000000001
 40
0.0
 40
0.0
 40
0.0
 40
0.71875
 40
0.71875
 40
0.71875
 10
-12.9020277819337
 20
63.32529628690477
 30
0.0
 10
-12.5426527819337
 20
63.32529628690477
 30
0.0
 10
-12.1832777819337
 20
63.32529628690477
 30
0.0
  0
LINE
  5
C0
330
1F
100
AcDbEntity
  8
Default
100
AcDbLine
 10
-12.1832777819337
 20
63.32529628690477
 30
0.0
 11
-12.1832777819337
 21
61.93917895411454
 31
0.0
  0
SPLINE
  5
C1
330
1F
100
AcDbEntity
  8
Default
100
AcDbSpline
210
0.0
220
0.0
230
1.0
 70
    24
 71
     2
 72
     6
 73
     3
 74
     0
 42
0.0000000001
 43
0.0000000001
 40
0.0
 40
0.0
 40
0.0
 40
0.1924572732197012
 40
0.1924572732197012
 40
0.1924572732197012
 10
-8.309351703309034
 20
75.51006139280275
 30
0.0
 10
-8.405580339918885
 20
75.51006139280275
 30
0.0
 10
-8.501808976528736
 20
75.51006139280275
 30
0.0
  0
SPLINE
  5
C2
330
1F
100
AcDbEntity
  8
Default
100
AcDbSpline
210
0.0
220
0.0
230
1.0
 70
    12
 71
     2
 72
     6
 73
     3
 74
     0
 42
0.0000000001
 43
0.0000000001
 40
0.0
 40
0.0
 40
0.0
 40
0.1963097587114392
 40
0.1963097587114392
 40
0.1963097587114392
 10
-8.501808976528736
 20
75.51006139280275
 30
0.0
 41
1.0
 10
-8.626717831681146
 20
75.51015138662393
 30
0.0
 41
0.7076193065313929
 10
-8.626808976526064
 20
75.63739685714833
 30
0.0
 41
1.0
  0
LINE
  5
C3
330
1F
100
AcDbEntity
  8
Default
100
AcDbLine
 10
-8.626808976526064
 20
75.63739685714833
 30
0.0
 11
-8.626808976526064
 21
77.94506254466373
 31
0.0
  0
SPLINE
  5
C4
330
1F
100
AcDbEntity
  8
Default
100
AcDbSpline
210
0.0
220
0.0
230
1.0
 70
    12
 71
     2
 72
     6
 73
     3
 74
     0
 42
0.0000000001
 43
0.0000000001
 40
0.0
 40
0.0
 40
0.0
 40
0.1963228425425605
 40
0.1963228425425605
 40
0.1963228425425605
 10
-8.626808976526064
 20
77.94506254466373
 30
0.0
 41
1.0
 10
-8.626748309284258
 20
78.07000187686553
 30
0.0
 41
0.7074467937778354
 10
-8.501808976528736
 20
78.07006139280276
 30
0.0
 41
1.0
  0
SPLINE
  5
C5
330
1F
100
AcDbEntity
  8
Default
100
AcDbSpline
210
0.0
220
0.0
230
1.0
 70
    24
 71
     2
 72
     6
 73
     3
 74
     0
 42
0.0000000001
 43
0.0000000001
 40
0.0
 40
0.0
 40
0.0
 40
0.34375
 40
0.34375
 40
0.34375
 10
-8.501808976528736
 20
78.07006139280276
 30
0.0
 10
-8.329933976528736
 20
78.07006139280276
 30
0.0
 10
-8.158058976528736
 20
78.07006139280276
 30
0.0
  0
SPLINE
  5
C6
330
1F
100
AcDbEntity
  8
Default
100
AcDbSpline
210
0.0
220
0.0
230
1.0
 70
    12
 71
     2
 72
     6
 73
     3
 74
     0
 42
0.0000000001
 43
0.0000000001
 40
0.0
 40
0.0
 40
0.0
 40
0.0490324958834727
 40
0.0490324958834727
 40
0.0490324958834727
 10
-8.158058976528736
 20
78.07006139280276
 30
0.0
 41
1.0
 10
-8.12693677560345
 20
78.06993359372386
 30
0.0
 41
0.7100044327187858
 10
-8.126808976528736
 20
78.03881139279858
 30
0.0
 41
1.0
  0
LINE
  5
C7
330
1F
100
AcDbEntity
  8
Default
100
AcDbLine
 10
-8.126808976528736
 20
78.03881139279858
 30
0.0
 11
-8.126808976528736
 21
76.4176182354656
 31
0.0
  0
SPLINE
  5
C8
330
1F
100
AcDbEntity
  8
Default
100
AcDbSpline
210
0.0
220
0.0
230
1.0
 70
     8
 71
     3
 72
    11
 73
     7
 74
     0
 42
0.0000000001
 43
0.0000000001
 40
-0.2149834244643581
 40
-0.2149834244643581
 40
-0.2149834244643581
 40
-0.2149834244643581
 40
-0.1291454827356452
 40
-0.0716399655460789
 40
-0.0325481566733005
 40
0.0
 40
0.0
 40
0.0
 40
0.0
 10
-8.743262097914197
 20
68.63089873386156
 30
0.0
 10
-8.736407593622886
 20
68.6031496491699
 30
0.0
 10
-8.723579445519903
 20
68.55698936466854
 30
0.0
 10
-8.701184819482165
 20
68.50043726279065
 30
0.0
 10
-8.674311743255458
 20
68.4654312647603
 30
0.0
 10
-8.649667596247212
 20
68.45853242495548
 30
0.0
 10
-8.63892681852613
 20
68.46012536265488
 30
0.0
  0
SPLINE
  5
C9
330
1F
100
AcDbEntity
  8
Default
100
AcDbSpline
210
0.0
220
0.0
230
1.0
 70
     8
 71
     3
 72
     8
 73
     4
 74
     0
 42
0.0000000001
 43
0.0000000001
 40
0.0
 40
0.0
 40
0.0
 40
0.0
 40
1.0
 40
1.0
 40
1.0
 40
1.0
 10
-8.63892681852613
 20
68.46012536265488
 30
0.0
 10
-2.94196033131189
 20
69.30502811786548
 30
0.0
 10
2.94194192902907
 20
69.30502811786519
 30
0.0
 10
8.638908416243368
 20
68.46012536265488
 30
0.0
  0
SPLINE
  5
CA
330
1F
100
AcDbEntity
  8
Default
100
AcDbSpline
210
0.0
220
0.0
230
1.0
 70
     8
 71
     3
 72
    11
 73
     7
 74
     0
 42
0.0000000001
 43
0.0000000001
 40
0.0
 40
0.0
 40
0.0
 40
0.0
 40
0.0325481566733005
 40
0.0716399655460789
 40
0.1291454827356452
 40
0.2149834244643581
 40
0.2149834244643581
 40
0.2149834244643581
 40
0.2149834244643581
 10
8.638908416243368
 20
68.46012536265488
 30
0.0
 10
8.64964919396445
 20
68.45853242495548
 30
0.0
 10
8.674293340972696
 20
68.4654312647603
 30
0.0
 10
8.701166417199403
 20
68.50043726279065
 30
0.0
 10
8.723561043237197
 20
68.55698936466854
 30
0.0
 10
8.73638919134018
 20
68.6031496491699
 30
0.0
 10
8.743243695631492
 20
68.63089873386156
 30
0.0
  0
POLYLINE
  5
CB
330
1F
100
AcDbEntity
  8
Default
100
AcDb2dPolyline
 66
     1
 10
0.0
 20
0.0
 30
0.0
  0
VERTEX
  5
CC
330
CB
100
AcDbEntity
  8
Default
100
AcDbVertex
100
AcDb2dVertex
 10
-9.316839391136142
 20
69.53201988467558
 30
0.0
  0
VERTEX
  5
CD
330
CB
100
AcDbEntity
  8
Default
100
AcDbVertex
100
AcDb2dVertex
 10
-9.26223490361511
 20
70.43410208870387
 30
0.0
  0
SEQEND
  5
CE
330
CB
100
AcDbEntity
  8
Default
  0
SPLINE
  5
CF
330
1F
100
AcDbEntity
  8
Default
100
AcDbSpline
210
0.0
220
0.0
230
1.0
 70
    12
 71
     2
 72
     6
 73
     3
 74
     0
 42
0.0000000001
 43
0.0000000001
 40
-0.6267966076678596
 40
-0.6267966076678596
 40
-0.6267966076678596
 40
0.0
 40
0.0
 40
0.0
 10
-9.26223490361511
 20
70.43410208870387
 30
0.0
 41
1.0
 10
-8.982278941415597
 20
70.57497459960402
 30
0.0
 41
0.9999854287915338
 10
-8.700818359636486
 20
70.71281634220384
 30
0.0
 41
1.0
  0
SPLINE
  5
D0
330
1F
100
AcDbEntity
  8
Default
100
AcDbSpline
210
0.0
220
0.0
230
1.0
 70
    12
 71
     2
 72
     6
 73
     3
 74
     0
 42
0.0000000001
 43
0.0000000001
 40
0.0
 40
0.0
 40
0.0
 40
0.0273327377209667
 40
0.0273327377209667
 40
0.0273327377209667
 10
-8.71816980165201
 20
70.58745929466505
 30
0.0
 41
1.0
 10
-8.716123006764105
 20
70.6009715212957
 30
0.0
 41
0.9999999999972918
 10
-8.714076274770747
 20
70.61448375745334
 30
0.0
 41
1.0
  0
SPLINE
  5
D1
330
1F
100
AcDbEntity
  8
Default
100
AcDbSpline
210
0.0
220
0.0
230
1.0
 70
     8
 71
     3
 72
    16
 73
    12
 74
     0
 42
0.0000000001
 43
0.0000000001
 40
0.0
 40
0.0
 40
0.0
 40
0.0
 40
2.574144153016563
 40
2.791471139001551
 40
2.851913128787134
 40
2.883406955549702
 40
2.913516798625259
 40
2.9880078870986
 40
3.262012619165077
 40
4.154277770787534
 40
4.385683058643791
 40
4.385683058643791
 40
4.385683058643791
 40
4.385683058643791
 10
-8.543298431791726
 20
71.74295557150441
 30
0.0
 10
-8.673630014670522
 20
70.89453217209459
 30
0.0
 10
-8.80539960082072
 20
69.97427178446668
 30
0.0
 10
-8.956112456842305
 20
69.03481451440035
 30
0.0
 10
-8.988619941955363
 20
68.93755532583424
 30
0.0
 10
-9.016066289952079
 20
68.8988373830955
 30
0.0
 10
-9.053027207920337
 20
68.9337142291422
 30
0.0
 10
-9.089256520625867
 20
69.0549546952669
 30
0.0
 10
-9.16261116243217
 20
69.46216669208002
 30
0.0
 10
-9.214510752009375
 20
69.92538524080092
 30
0.0
 10
-9.264675721340922
 20
70.2965248265449
 30
0.0
 10
-9.263899323179345
 20
70.37403025124542
 30
0.0
  0
SPLINE
  5
D2
330
1F
100
AcDbEntity
  8
Default
100
AcDbSpline
210
0.0
220
0.0
230
1.0
 70
    12
 71
     3
 72
    23
 73
    19
 74
     0
 42
0.0000000001
 43
0.0000000001
 40
-0.3950554396664104
 40
-0.3950554396664104
 40
-0.3950554396664104
 40
-0.3950554396664104
 40
-0.3295007275889786
 40
-0.2826757688064783
 40
-0.2410569805994811
 40
-0.2008096902753073
 40
-0.2008096902753073
 40
-0.2008096902753073
 40
0.0
 40
0.0
 40
0.0
 40
0.0388766910412295
 40
0.1081641840836364
 40
0.3166231376845865
 40
0.7720287309737022
 40
1.013047742033665
 40
2.435167472774722
 40
3.087117221495335
 40
3.087117221495335
 40
3.087117221495335
 40
3.087117221495335
 10
-9.154732159647637
 20
68.48788621241434
 30
0.0
 41
1.0
 10
-9.147130263084165
 20
68.46736685980025
 30
0.0
 41
1.0
 10
-9.132541455467816
 20
68.43283040015893
 30
0.0
 41
1.0
 10
-9.10153351920249
 20
68.39099501839624
 30
0.0
 41
1.0
 10
-9.0623699376724
 20
68.37020356849766
 30
0.0
 41
1.0
 10
-9.019921336693955
 20
68.37779122071913
 30
0.0
 41
1.0
 10
-9.00767289522318
 20
68.38308727702358
 30
0.0
 41
1.0
 10
-8.946232182310723
 20
68.40965338959775
 30
0.0
 41
0.9999517899371412
 10
-8.88511522808819
 20
68.43695610187697
 30
0.0
 41
0.9999517899371412
 10
-8.82433087191228
 20
68.46499146506483
 30
0.0
 41
1.0
 10
-8.812720353094534
 20
68.47147888579315
 30
0.0
 41
1.0
 10
-8.792596928758172
 20
68.5021456248146
 30
0.0
 41
1.0
 10
-8.75734680099518
 20
68.60194371687464
 30
0.0
 41
1.0
 10
-8.709602024153156
 20
68.84193338374897
 30
0.0
 41
1.0
 10
-8.674245653542386
 20
69.14161415405692
 30
0.0
 41
1.0
 10
-8.559895926152848
 20
69.83850319650435
 30
0.0
 41
1.0
 10
-8.443422731446077
 20
70.60136982058464
 30
0.0
 41
1.0
 10
-8.314938114677744
 20
71.33704454172991
 30
0.0
 41
1.0
 10
-8.286339621886015
 20
71.55245992099799
 30
0.0
 41
1.0
  0
SPLINE
  5
D3
330
1F
100
AcDbEntity
  8
Default
100
AcDbSpline
210
0.0
220
0.0
230
1.0
 70
     8
 71
     3
 72
    14
 73
    10
 74
     0
 42
0.0000000001
 43
0.0000000001
 40
-1.724781028850539
 40
-1.724781028850539
 40
-1.724781028850539
 40
-1.724781028850539
 40
-1.60469003674913
 40
-1.394854131402191
 40
-1.244352597341385
 40
-0.8712526624239071
 40
-0.4812181940342521
 40
-0.274959711102625
 40
0.0
 40
0.0
 40
0.0
 40
0.0
 10
-8.286339621886015
 20
71.55245992099799
 30
0.0
 10
-8.281076587625734
 20
71.59210321722114
 30
0.0
 10
-8.264956113743693
 20
71.70106247506428
 30
0.0
 10
-8.259077223524429
 20
71.86132109602761
 30
0.0
 10
-8.207422660332071
 20
72.10171504875325
 30
0.0
 10
-8.057108771909071
 20
72.37222772857075
 30
0.0
 10
-7.812449394778781
 20
72.59068887362804
 30
0.0
 10
-7.545440900457237
 20
72.71042478705559
 30
0.0
 10
-7.391704879957587
 20
72.75456809173886
 30
0.0
 10
-7.303006213312671
 20
72.77850627403961
 30
0.0
  0
SPLINE
  5
D4
330
1F
100
AcDbEntity
  8
Default
100
AcDbSpline
210
0.0
220
0.0
230
1.0
 70
     8
 71
     2
 72
     8
 73
     5
 74
     0
 42
0.0000000001
 43
0.0000000001
 40
-3.0
 40
-3.0
 40
-3.0
 40
-2.0
 40
-1.0
 40
0.0
 40
0.0
 40
0.0
 10
-7.303006213312671
 20
72.77850627403961
 30
0.0
 10
-6.114045771704269
 20
73.10397080014815
 30
0.0
 10
-3.688208834496351
 20
73.54375695059932
 30
0.0
 10
-1.232715724969836
 20
73.76495935924908
 30
0.0
 10
-0.0000092011413528
 20
73.76576145726733
 30
0.0
  0
SPLINE
  5
D5
330
1F
100
AcDbEntity
  8
Default
100
AcDbSpline
210
0.0
220
0.0
230
1.0
 70
     8
 71
     2
 72
     8
 73
     5
 74
     0
 42
0.0000000001
 43
0.0000000001
 40
0.0
 40
0.0
 40
0.0
 40
1.0
 40
2.0
 40
3.0
 40
3.0
 40
3.0
 10
-0.0000092011413528
 20
73.76576145726733
 30
0.0
 10
1.23269732268713
 20
73.76495935924908
 30
0.0
 10
3.688190432213645
 20
73.54375695059932
 30
0.0
 10
6.114027369421564
 20
73.10397080014815
 30
0.0
 10
7.302987811029965
 20
72.77850627403961
 30
0.0
  0
SPLINE
  5
D6
330
1F
100
AcDbEntity
  8
Default
100
AcDbSpline
210
0.0
220
0.0
230
1.0
 70
     8
 71
     3
 72
    14
 73
    10
 74
     0
 42
0.0000000001
 43
0.0000000001
 40
0.0
 40
0.0
 40
0.0
 40
0.0
 40
0.274959711102625
 40
0.4812181940342521
 40
0.8712526624239071
 40
1.244352597341385
 40
1.394854131402191
 40
1.60469003674913
 40
1.724781028850539
 40
1.724781028850539
 40
1.724781028850539
 40
1.724781028850539
 10
7.302987811029965
 20
72.77850627403961
 30
0.0
 10
7.391686477674881
 20
72.75456809173886
 30
0.0
 10
7.545422498174474
 20
72.71042478705559
 30
0.0
 10
7.812430992496076
 20
72.59068887362804
 30
0.0
 10
8.057090369626309
 20
72.37222772857075
 30
0.0
 10
8.207404258049365
 20
72.10171504875325
 30
0.0
 10
8.259058821241666
 20
71.86132109602761
 30
0.0
 10
8.26493771146093
 20
71.70106247506428
 30
0.0
 10
8.281058185342971
 20
71.59210321722114
 30
0.0
 10
8.286321219603252
 20
71.55245992099799
 30
0.0
  0
SPLINE
  5
D7
330
1F
100
AcDbEntity
  8
Default
100
AcDbSpline
210
0.0
220
0.0
230
1.0
 70
    12
 71
     3
 72
    23
 73
    19
 74
     0
 42
0.0000000001
 43
0.0000000001
 40
-3.087117221495335
 40
-3.087117221495335
 40
-3.087117221495335
 40
-3.087117221495335
 40
-2.435167472774722
 40
-1.013047742033665
 40
-0.7720287309737022
 40
-0.3166231376845865
 40
-0.1081641840836364
 40
-0.0388766910412295
 40
0.0
 40
0.0
 40
0.0
 40
0.2008096902753073
 40
0.2008096902753073
 40
0.2008096902753073
 40
0.2410569805994811
 40
0.2826757688064783
 40
0.3295007275889786
 40
0.3950554396664104
 40
0.3950554396664104
 40
0.3950554396664104
 40
0.3950554396664104
 10
8.286321219603252
 20
71.55245992099799
 30
0.0
 41
1.0
 10
8.314919712394982
 20
71.33704454172991
 30
0.0
 41
1.0
 10
8.443404329163371
 20
70.60136982058464
 30
0.0
 41
1.0
 10
8.559877523870085
 20
69.83850319650435
 30
0.0
 41
1.0
 10
8.674227251259623
 20
69.14161415405692
 30
0.0
 41
1.0
 10
8.709583621870394
 20
68.84193338374897
 30
0.0
 41
1.0
 10
8.757328398712417
 20
68.60194371687464
 30
0.0
 41
1.0
 10
8.79257852647541
 20
68.5021456248146
 30
0.0
 41
1.0
 10
8.812701950811828
 20
68.47147888579315
 30
0.0
 41
1.0
 10
8.824312469629518
 20
68.46499146506483
 30
0.0
 41
1.0
 10
8.885096825805459
 20
68.43695610187697
 30
0.0
 41
0.9999517899371412
 10
8.94621378002799
 20
68.40965338959775
 30
0.0
 41
0.9999517899371412
 10
9.007654492940475
 20
68.38308727702358
 30
0.0
 41
1.0
 10
9.019902934411192
 20
68.37779122071913
 30
0.0
 41
1.0
 10
9.062351535389638
 20
68.37020356849766
 30
0.0
 41
1.0
 10
9.101515116919728
 20
68.39099501839624
 30
0.0
 41
1.0
 10
9.13252305318511
 20
68.43283040015893
 30
0.0
 41
1.0
 10
9.147111860801402
 20
68.46736685980025
 30
0.0
 41
1.0
 10
9.15471375736493
 20
68.48788621241434
 30
0.0
 41
1.0
  0
SPLINE
  5
D8
330
1F
100
AcDbEntity
  8
Default
100
AcDbSpline
210
0.0
220
0.0
230
1.0
 70
     8
 71
     3
 72
    16
 73
    12
 74
     0
 42
0.0000000001
 43
0.0000000001
 40
-4.285736441314779
 40
-4.285736441314779
 40
-4.285736441314779
 40
-4.285736441314779
 40
-4.0825233279246
 40
-3.416160812509803
 40
-3.219031305095501
 40
-3.162623226657401
 40
-3.134875022446336
 40
-3.092855828765789
 40
-3.025233421858595
 40
-2.775251893445206
 40
0.0
 40
0.0
 40
0.0
 40
0.0
 10
-9.316821275824765
 20
69.53435585959977
 30
0.0
 10
-9.319747375325136
 20
69.46599158601649
 30
0.0
 10
-9.276296971950984
 20
69.17985209093948
 30
0.0
 10
-9.23777520166854
 20
68.82524899113372
 30
0.0
 10
-9.169194949266483
 20
68.52670852657593
 30
0.0
 10
-9.128196245977705
 20
68.43989590796653
 30
0.0
 10
-9.0851440791416
 20
68.42195420548501
 30
0.0
 10
-9.055797311308112
 20
68.46312292356896
 30
0.0
 10
-9.008270628897293
 20
68.57398815271307
 30
0.0
 10
-8.846669947623155
 20
69.59287204794822
 30
0.0
 10
-8.671249293585703
 20
70.63451542672408
 30
0.0
 10
-8.55814390526686
 20
71.55281860413206
 30
0.0
  0
SPLINE
  5
D9
330
1F
100
AcDbEntity
  8
Default
100
AcDbSpline
210
0.0
220
0.0
230
1.0
 70
     8
 71
     3
 72
    12
 73
     8
 74
     0
 42
0.0000000001
 43
0.0000000001
 40
0.0
 40
0.0
 40
0.0
 40
0.0
 40
0.357022783309288
 40
0.5896032919138203
 40
1.12297465922524
 40
1.628781358065445
 40
2.281750429304042
 40
2.281750429304042
 40
2.281750429304042
 40
2.281750429304042
 10
-8.55814390526686
 20
71.55281860413206
 30
0.0
 10
-8.543609736865761
 20
71.6708215854411
 30
0.0
 10
-8.54411799625845
 20
71.86879943614525
 30
0.0
 10
-8.454920854527614
 20
72.23436033988867
 30
0.0
 10
-8.237497288754042
 20
72.60750600119206
 30
0.0
 10
-7.780083836094292
 20
72.95707313765527
 30
0.0
 10
-7.395930778443329
 20
73.045058425087
 30
0.0
 10
-7.187159613199498
 20
73.1009139555178
 30
0.0
  0
SPLINE
  5
DA
330
1F
100
AcDbEntity
  8
Default
100
AcDbSpline
210
0.0
220
0.0
230
1.0
 70
    12
 71
     2
 72
     6
 73
     3
 74
     0
 42
0.0000000001
 43
0.0000000001
 40
-7.268443833010157
 40
-7.268443833010157
 40
-7.268443833010157
 40
0.0
 40
0.0
 40
0.0
 10
-7.187159613199498
 20
73.1009139555178
 30
0.0
 41
1.0
 10
-3.654526939401022
 20
74.03687287581269
 30
0.0
 41
0.9916896350025053
 10
-0.0000092011413528
 20
74.040442757363
 30
0.0
 41
1.0
  0
SPLINE
  5
DB
330
1F
100
AcDbEntity
  8
Default
100
AcDbSpline
210
0.0
220
0.0
230
1.0
 70
    12
 71
     2
 72
     6
 73
     3
 74
     0
 42
0.0000000001
 43
0.0000000001
 40
0.0
 40
0.0
 40
0.0
 40
7.268443833010157
 40
7.268443833010157
 40
7.268443833010157
 10
-0.0000092011413528
 20
74.040442757363
 30
0.0
 41
1.0
 10
3.654508537118265
 20
74.03687287581269
 30
0.0
 41
0.9916896350025053
 10
7.187141210916735
 20
73.1009139555178
 30
0.0
 41
1.0
  0
SPLINE
  5
DC
330
1F
100
AcDbEntity
  8
Default
100
AcDbSpline
210
0.0
220
0.0
230
1.0
 70
     8
 71
     3
 72
    12
 73
     8
 74
     0
 42
0.0000000001
 43
0.0000000001
 40
-2.281750429304042
 40
-2.281750429304042
 40
-2.281750429304042
 40
-2.281750429304042
 40
-1.628781358065445
 40
-1.12297465922524
 40
-0.5896032919138203
 40
-0.357022783309288
 40
0.0
 40
0.0
 40
0.0
 40
0.0
 10
7.187141210916735
 20
73.1009139555178
 30
0.0
 10
7.395912376160624
 20
73.045058425087
 30
0.0
 10
7.780065433811586
 20
72.95707313765527
 30
0.0
 10
8.237478886471337
 20
72.60750600119206
 30
0.0
 10
8.454902452244909
 20
72.23436033988867
 30
0.0
 10
8.544099593975687
 20
71.86879943614525
 30
0.0
 10
8.543591334582999
 20
71.6708215854411
 30
0.0
 10
8.558125502984154
 20
71.55281860413206
 30
0.0
  0
SPLINE
  5
DD
330
1F
100
AcDbEntity
  8
Default
100
AcDbSpline
210
0.0
220
0.0
230
1.0
 70
     8
 71
     3
 72
    16
 73
    12
 74
     0
 42
0.0000000001
 43
0.0000000001
 40
0.0
 40
0.0
 40
0.0
 40
0.0
 40
2.775251893445206
 40
3.025233421858595
 40
3.092855828765789
 40
3.134875022446336
 40
3.162623226657401
 40
3.219031305095501
 40
3.416160812509803
 40
4.0825233279246
 40
4.285736441314779
 40
4.285736441314779
 40
4.285736441314779
 40
4.285736441314779
 10
8.558125502984154
 20
71.55281860413206
 30
0.0
 10
8.671230891302997
 20
70.63451542672408
 30
0.0
 10
8.846651545340393
 20
69.59287204794822
 30
0.0
 10
9.00825222661453
 20
68.57398815271307
 30
0.0
 10
9.05577890902535
 20
68.46312292356896
 30
0.0
 10
9.085125676858894
 20
68.42195420548501
 30
0.0
 10
9.128177843695
 20
68.43989590796653
 30
0.0
 10
9.169176546983778
 20
68.52670852657593
 30
0.0
 10
9.237756799385835
 20
68.82524899113372
 30
0.0
 10
9.276278569668278
 20
69.17985209093948
 30
0.0
 10
9.31972897304243
 20
69.46599158601649
 30
0.0
 10
9.316802873542002
 20
69.53435585959977
 30
0.0
  0
POLYLINE
  5
DE
330
1F
100
AcDbEntity
  8
Default
100
AcDb2dPolyline
 66
     1
 10
0.0
 20
0.0
 30
0.0
  0
VERTEX
  5
DF
330
DE
100
AcDbEntity
  8
Default
100
AcDbVertex
100
AcDb2dVertex
 10
9.31682098885338
 20
69.53201988467558
 30
0.0
  0
VERTEX
  5
E0
330
DE
100
AcDbEntity
  8
Default
100
AcDbVertex
100
AcDb2dVertex
 10
9.262216501332404
 20
70.43410208870387
 30
0.0
  0
SEQEND
  5
E1
330
DE
100
AcDbEntity
  8
Default
  0
SPLINE
  5
E2
330
1F
100
AcDbEntity
  8
Default
100
AcDbSpline
210
0.0
220
0.0
230
1.0
 70
    12
 71
     2
 72
     6
 73
     3
 74
     0
 42
0.0000000001
 43
0.0000000001
 40
-0.6267966076678596
 40
-0.6267966076678596
 40
-0.6267966076678596
 40
0.0
 40
0.0
 40
0.0
 10
9.262216501332404
 20
70.43410208870387
 30
0.0
 41
1.0
 10
8.98226053913284
 20
70.57497459960402
 30
0.0
 41
0.9999854287915338
 10
8.700799957353723
 20
70.71281634220384
 30
0.0
 41
1.0
  0
SPLINE
  5
E3
330
1F
100
AcDbEntity
  8
Default
100
AcDbSpline
210
0.0
220
0.0
230
1.0
 70
     8
 71
     3
 72
    16
 73
    12
 74
     0
 42
0.0000000001
 43
0.0000000001
 40
0.0
 40
0.0
 40
0.0
 40
0.0
 40
2.574144153016563
 40
2.791471139001551
 40
2.851913128787134
 40
2.883406955549702
 40
2.913516798625259
 40
2.9880078870986
 40
3.262012619165077
 40
4.154277770787534
 40
4.385683058643791
 40
4.385683058643791
 40
4.385683058643791
 40
4.385683058643791
 10
8.54328002950902
 20
71.74295557150441
 30
0.0
 10
8.673611612387816
 20
70.89453217209459
 30
0.0
 10
8.805381198537958
 20
69.97427178446668
 30
0.0
 10
8.9560940545596
 20
69.03481451440035
 30
0.0
 10
8.988601539672601
 20
68.93755532583424
 30
0.0
 10
9.016047887669316
 20
68.8988373830955
 30
0.0
 10
9.053008805637575
 20
68.9337142291422
 30
0.0
 10
9.089238118343161
 20
69.0549546952669
 30
0.0
 10
9.162592760149408
 20
69.46216669208002
 30
0.0
 10
9.214492349726669
 20
69.92538524080092
 30
0.0
 10
9.264657319058216
 20
70.2965248265449
 30
0.0
 10
9.263880920896582
 20
70.37403025124542
 30
0.0
  0
SPLINE
  5
E4
330
1F
100
AcDbEntity
  8
Default
100
AcDbSpline
210
0.0
220
0.0
230
1.0
 70
     8
 71
     3
 72
    10
 73
     6
 74
     0
 42
0.0000000001
 43
0.0000000001
 40
-1.375063154426382
 40
-1.375063154426382
 40
-1.375063154426382
 40
-1.375063154426382
 40
2.231794050657925
 40
2.572710942153465
 40
2.823994229517671
 40
2.823994229517671
 40
2.823994229517671
 40
2.823994229517671
 10
-9.598263592033874
 20
65.92296660551636
 30
0.0
 10
-9.87058838723479
 20
64.75192386672799
 30
0.0
 10
-10.15811617089886
 20
63.46776765699036
 30
0.0
 10
-10.45549629884451
 20
62.10003743888856
 30
0.0
 10
-10.49066166315546
 20
61.90572991702078
 30
0.0
 10
-10.50423243056818
 20
61.82308743621819
 30
0.0
  0
SPLINE
  5
E5
330
1F
100
AcDbEntity
  8
Default
100
AcDbSpline
210
0.0
220
0.0
230
1.0
 70
     8
 71
     2
 72
    16
 73
    13
 74
     0
 42
0.0000000001
 43
0.0000000001
 40
-11.0
 40
-11.0
 40
-11.0
 40
-10.0
 40
-9.0
 40
-8.0
 40
-7.0
 40
-6.0
 40
-5.0
 40
-4.0
 40
-3.0
 40
-2.0
 40
-1.0
 40
0.0
 40
0.0
 40
0.0
 10
42.95755819861265
 20
17.85365296100962
 30
0.0
 10
43.27553653898704
 20
17.85419268532414
 30
0.0
 10
43.91149426702842
 20
17.8539968210051
 30
0.0
 10
44.54744975030607
 20
17.85256097602326
 30
0.0
 10
45.18340400971832
 20
17.84968569075949
 30
0.0
 10
45.81933377107319
 20
17.84653333637933
 30
0.0
 10
46.4553595215198
 20
17.83633011621213
 30
0.0
 10
47.08856565398671
 20
17.77313550994488
 30
0.0
 10
47.71494504304124
 20
17.66150486013058
 30
0.0
 10
48.3308345680222
 20
17.50148718063213
 30
0.0
 10
48.93189984791232
 20
17.29360477842665
 30
0.0
 10
49.51445564276682
 20
17.03305953520361
 30
0.0
 10
49.76961098327692
 20
16.8426253982856
 30
0.0
  0
POLYLINE
  5
E6
330
1F
100
AcDbEntity
  8
Default
100
AcDb2dPolyline
 66
     1
 10
0.0
 20
0.0
 30
0.0
  0
VERTEX
  5
E7
330
E6
100
AcDbEntity
  8
Default
100
AcDbVertex
100
AcDb2dVertex
 10
49.76961098327692
 20
16.8426253982856
 30
0.0
  0
VERTEX
  5
E8
330
E6
100
AcDbEntity
  8
Default
100
AcDbVertex
100
AcDb2dVertex
 10
50.21334369105185
 20
16.35801312809342
 30
0.0
  0
SEQEND
  5
E9
330
E6
100
AcDbEntity
  8
Default
  0
SPLINE
  5
EA
330
1F
100
AcDbEntity
  8
Default
100
AcDbSpline
210
0.0
220
0.0
230
1.0
 70
    12
 71
     2
 72
     6
 73
     3
 74
     0
 42
0.0000000001
 43
0.0000000001
 40
-0.2855308194945555
 40
-0.2855308194945555
 40
-0.2855308194945555
 40
0.0
 40
0.0
 40
0.0
 10
50.21334369105185
 20
16.35801312809342
 30
0.0
 41
1.0
 10
50.31401994346849
 20
16.23283279709495
 30
0.0
 41
0.8411392925190023
 10
50.24191367380811
 20
16.08928312295666
 30
0.0
 41
1.0
  0
POLYLINE
  5
EB
330
1F
100
AcDbEntity
  8
Default
100
AcDb2dPolyline
 66
     1
 10
0.0
 20
0.0
 30
0.0
  0
VERTEX
  5
EC
330
EB
100
AcDbEntity
  8
Default
100
AcDbVertex
100
AcDb2dVertex
 10
50.24191367380811
 20
16.08928312295666
 30
0.0
  0
VERTEX
  5
ED
330
EB
100
AcDbEntity
  8
Default
100
AcDbVertex
100
AcDb2dVertex
 10
49.62800008070374
 20
14.87077842718515
 30
0.0
  0
SEQEND
  5
EE
330
EB
100
AcDbEntity
  8
Default
  0
SPLINE
  5
EF
330
1F
100
AcDbEntity
  8
Default
100
AcDbSpline
210
0.0
220
0.0
230
1.0
 70
     8
 71
     3
 72
     8
 73
     4
 74
     0
 42
0.0000000001
 43
0.0000000001
 40
-1.0
 40
-1.0
 40
-1.0
 40
-1.0
 40
0.0
 40
0.0
 40
0.0
 40
0.0
 10
49.62800008070374
 20
14.87077842718515
 30
0.0
 10
49.60782737414709
 20
14.83073934360429
 30
0.0
 10
49.53873324463282
 20
14.8309706685136
 30
0.0
 10
49.49605201337417
 20
14.84469578425305
 30
0.0
  0
SPLINE
  5
F0
330
1F
100
AcDbEntity
  8
Default
100
AcDbSpline
210
0.0
220
0.0
230
1.0
 70
     8
 71
     2
 72
    17
 73
    14
 74
     0
 42
0.0000000001
 43
0.0000000001
 40
-0.5755149710134627
 40
-0.5755149710134627
 40
-0.5755149710134627
 40
0.0
 40
1.0
 40
2.0
 40
3.0
 40
4.0
 40
5.0
 40
6.0
 40
7.0
 40
8.0
 40
9.0
 40
10.0
 40
11.0
 40
11.0
 40
11.0
 10
49.49605201337417
 20
14.84469578425305
 30
0.0
 10
49.26038632706744
 20
14.92047941853425
 30
0.0
 10
48.60990767974167
 20
15.11375255669783
 30
0.0
 10
47.75983264721836
 20
15.25508293046011
 30
0.0
 10
46.8997563082344
 20
15.29187098242568
 30
0.0
 10
46.0394979222165
 20
15.30977451917726
 30
0.0
 10
45.17952949386816
 20
15.33996931216714
 30
0.0
 10
44.31958246855604
 20
15.37019163559646
 30
0.0
 10
43.45947152762088
 20
15.39561740075897
 30
0.0
 10
42.59909444693241
 20
15.41008834818372
 30
0.0
 10
41.73857793104801
 20
15.40768196921446
 30
0.0
 10
40.87841450450426
 20
15.38198833849621
 30
0.0
 10
40.01952054222718
 20
15.32906840668189
 30
0.0
 10
39.59008696293577
 20
15.30285065372
 30
0.0
  0
SPLINE
  5
F1
330
1F
100
AcDbEntity
  8
Default
100
AcDbSpline
210
0.0
220
0.0
230
1.0
 70
    12
 71
     2
 72
     7
 73
     4
 74
     0
 42
0.0000000001
 43
0.0000000001
 40
-2.503957112930287
 40
-2.503957112930287
 40
-2.503957112930287
 40
-2.139115446905204
 40
-0.0000000000000004
 40
-0.0000000000000004
 40
-0.0000000000000004
 10
49.49605201337417
 20
14.84469578425305
 30
0.0
 41
1.0
 10
49.32193631128343
 20
14.8929013737258
 30
0.0
 41
1.001134924532993
 10
48.08611746452608
 20
15.11824520819492
 30
0.0
 41
0.9933457857868965
 10
47.01317491016957
 20
15.06360132866371
 30
0.0
 41
1.0
  0
LINE
  5
F2
330
1F
100
AcDbEntity
  8
Default
100
AcDbLine
 10
47.01317491016957
 20
15.06360132866371
 30
0.0
 11
40.51852473420016
 21
14.73283536139726
 31
0.0
  0
LINE
  5
F3
330
1F
100
AcDbEntity
  8
Default
100
AcDbLine
 10
38.95477621780609
 20
15.08970839661274
 30
0.0
 11
40.22341771651568
 21
15.0373098339698
 31
0.0
  0
SPLINE
  5
F4
330
1F
100
AcDbEntity
  8
Default
100
AcDbSpline
210
0.0
220
0.0
230
1.0
 70
     8
 71
     3
 72
    12
 73
     8
 74
     0
 42
0.0000000001
 43
0.0000000001
 40
0.0
 40
0.0
 40
0.0
 40
0.0
 40
0.1523912456812672
 40
0.2313469294792212
 40
0.2935323365913671
 40
0.3254333757314992
 40
0.355988330318532
 40
0.355988330318532
 40
0.355988330318532
 40
0.355988330318532
 10
40.22341771651568
 20
15.0373098339698
 30
0.0
 10
40.29900704562513
 20
15.03442880402433
 30
0.0
 10
40.37464082611851
 20
15.02847186127012
 30
0.0
 10
40.47321381287875
 20
15.01559758206762
 30
0.0
 10
40.52205448073423
 20
14.98096932189673
 30
0.0
 10
40.53980237684809
 20
14.94186847436895
 30
0.0
 10
40.54364946827482
 20
14.92195496403239
 30
0.0
 10
40.54347897306039
 20
14.91145119483254
 30
0.0
  0
SPLINE
  5
F5
330
1F
100
AcDbEntity
  8
Default
100
AcDbSpline
210
0.0
220
0.0
230
1.0
 70
     8
 71
     3
 72
     8
 73
     4
 74
     0
 42
0.0000000001
 43
0.0000000001
 40
0.0
 40
0.0
 40
0.0
 40
0.0
 40
1.0
 40
1.0
 40
1.0
 40
1.0
 10
40.54347897306039
 20
14.91145119483254
 30
0.0
 10
40.54127012816051
 20
14.77536997342292
 30
0.0
 10
40.49558842932996
 20
14.64176136627277
 30
0.0
 10
40.44639469800657
 20
14.51486394858979
 30
0.0
  0
SPLINE
  5
F6
330
1F
100
AcDbEntity
  8
Default
100
AcDbSpline
210
0.0
220
0.0
230
1.0
 70
    12
 71
     2
 72
     8
 73
     5
 74
     0
 42
0.0000000001
 43
0.0000000001
 40
0.0
 40
0.0
 40
0.0
 40
0.0203074198143066
 40
0.0203074198143066
 40
0.0735096054863379
 40
0.0735096054863379
 40
0.0735096054863379
 10
40.44639469800657
 20
14.51486394858979
 30
0.0
 41
1.0
 10
40.44269428051621
 20
14.50531855710915
 30
0.0
 41
0.98775983224758
 10
40.43623255180742
 20
14.49737792424925
 30
0.0
 41
1.0
 10
40.41843360315265
 20
14.47551684974436
 30
0.0
 41
0.9175309740554288
 10
40.39031112477343
 20
14.47355844183666
 30
0.0
 41
1.0
  0
SPLINE
  5
F7
330
1F
100
AcDbEntity
  8
Default
100
AcDbSpline
210
0.0
220
0.0
230
1.0
 70
     8
 71
     2
 72
    10
 73
     7
 74
     0
 42
0.0000000001
 43
0.0000000001
 40
0.0
 40
0.0
 40
0.0
 40
1.0
 40
2.0
 40
3.0
 40
4.0
 40
5.0
 40
5.0
 40
5.0
 10
37.53651126328978
 20
14.70812682939171
 30
0.0
 10
37.82085712020879
 20
14.6870827197492
 30
0.0
 10
38.39029963216055
 20
14.65669073704604
 30
0.0
 10
38.9602747756779
 20
14.63905656596918
 30
0.0
 10
39.53030836055157
 20
14.62709059924579
 30
0.0
 10
40.10107325857624
 20
14.62690259860989
 30
0.0
 10
40.38613238648841
 20
14.60079988324106
 30
0.0
  0
SPLINE
  5
F8
330
1F
100
AcDbEntity
  8
Default
100
AcDbSpline
210
0.0
220
0.0
230
1.0
 70
    12
 71
     2
 72
     6
 73
     3
 74
     0
 42
0.0000000001
 43
0.0000000001
 40
0.0
 40
0.0
 40
0.0
 40
0.1254244525058922
 40
0.1254244525058922
 40
0.1254244525058922
 10
40.38613238648841
 20
14.60079988324106
 30
0.0
 41
1.0
 10
40.38947974135703
 20
14.53626611390004
 30
0.0
 41
0.9999771139944562
 10
40.39031112477343
 20
14.47355844183666
 30
0.0
 41
1.0
  0
SPLINE
  5
F9
330
1F
100
AcDbEntity
  8
Default
100
AcDbSpline
210
0.0
220
0.0
230
1.0
 70
     8
 71
     2
 72
    13
 73
    10
 74
     0
 42
0.0000000001
 43
0.0000000001
 40
0.0
 40
0.0
 40
0.0
 40
1.0
 40
2.0
 40
3.0
 40
4.0
 40
5.0
 40
6.0
 40
7.0
 40
8.0
 40
8.0
 40
8.0
 10
42.58083917166888
 20
17.852787775818
 30
0.0
 10
42.03184721009822
 20
17.85127848198066
 30
0.0
 10
40.93388116184227
 20
17.84428605056478
 30
0.0
 10
39.83594828698077
 20
17.83327586525527
 30
0.0
 10
38.73805881243564
 20
17.81850460304826
 30
0.0
 10
37.64025293095719
 20
17.79848591918072
 30
0.0
 10
36.54239230481156
 20
17.78189137709543
 30
0.0
 10
35.44538951833695
 20
17.71792534123465
 30
0.0
 10
34.36760109469756
 20
17.4929021709236
 30
0.0
 10
33.86299553841528
 20
17.27128325121936
 30
0.0
  0
SPLINE
  5
FA
330
1F
100
AcDbEntity
  8
Default
100
AcDbSpline
210
0.0
220
0.0
230
1.0
 70
     8
 71
     2
 72
    13
 73
    10
 74
     0
 42
0.0000000001
 43
0.0000000001
 40
0.0
 40
0.0
 40
0.0
 40
1.0
 40
2.0
 40
3.0
 40
4.0
 40
5.0
 40
6.0
 40
7.0
 40
8.0
 40
8.0
 40
8.0
 10
38.12274285801087
 20
14.88588519548815
 30
0.0
 10
38.33048324799094
 20
14.92796014736546
 30
0.0
 10
38.74213637063261
 20
15.02905830564198
 30
0.0
 10
39.14986056777266
 20
15.14533953970084
 30
0.0
 10
39.54977013160592
 20
15.28568982027894
 30
0.0
 10
39.94478458347689
 20
15.43948448757145
 30
0.0
 10
40.33627965796714
 20
15.60196579783732
 30
0.0
 10
40.72145316892002
 20
15.77901528677869
 30
0.0
 10
41.09770547170118
 20
15.97438595195443
 30
0.0
 10
41.27980822906912
 20
16.08291296762506
 30
0.0
  0
SPLINE
  5
FB
330
1F
100
AcDbEntity
  8
Default
100
AcDbSpline
210
0.0
220
0.0
230
1.0
 70
     8
 71
     3
 72
    11
 73
     7
 74
     0
 42
0.0000000001
 43
0.0000000001
 40
0.0
 40
0.0
 40
0.0
 40
0.0
 40
0.3351648026042968
 40
0.6368094587203054
 40
1.18849186186077
 40
2.108739504204061
 40
2.108739504204061
 40
2.108739504204061
 40
2.108739504204061
 10
41.27980822906912
 20
16.08291296762506
 30
0.0
 10
41.37596426772498
 20
16.13982612427376
 30
0.0
 10
41.55711224440003
 20
16.250485688671
 30
0.0
 10
41.88454413537912
 20
16.47389447458284
 30
0.0
 10
42.34574429086675
 20
16.84487706623941
 30
0.0
 10
42.66139640291422
 20
17.22870135102649
 30
0.0
 10
42.79377698281351
 20
17.50712283575103
 30
0.0
  0
SPLINE
  5
FC
330
1F
100
AcDbEntity
  8
Default
100
AcDbSpline
210
0.0
220
0.0
230
1.0
 70
     8
 71
     3
 72
    11
 73
     7
 74
     0
 42
0.0000000001
 43
0.0000000001
 40
0.0
 40
0.0
 40
0.0
 40
0.0
 40
2.365105487962983
 40
3.996346816045657
 40
5.646510442017146
 40
7.134957544265312
 40
7.134957544265312
 40
7.134957544265312
 40
7.134957544265312
 10
42.79377698281351
 20
17.50712283575103
 30
0.0
 10
43.13068932760544
 20
18.21987416609338
 30
0.0
 10
43.69973894750402
 20
19.42433598395468
 30
0.0
 10
44.49338367318458
 20
21.13100711132954
 30
0.0
 10
45.15239235097167
 20
22.57797235272393
 30
0.0
 10
45.57616120286914
 20
23.53452571393083
 30
0.0
 10
45.77433407232311
 20
23.98938084161312
 30
0.0
  0
SPLINE
  5
FD
330
1F
100
AcDbEntity
  8
Default
100
AcDbSpline
210
0.0
220
0.0
230
1.0
 70
    12
 71
     2
 72
     8
 73
     5
 74
     0
 42
0.0000000001
 43
0.0000000001
 40
0.0
 40
0.0
 40
0.0
 40
1.379682443117928
 40
1.379682443117928
 40
2.759364886235856
 40
2.759364886235856
 40
2.759364886235856
 10
45.77433407232311
 20
23.98938084161312
 30
0.0
 41
1.0
 10
46.06991718623659
 20
24.67930816304203
 30
0.0
 41
0.8829250738035976
 10
45.66316969404468
 20
25.31011999191302
 30
0.0
 41
1.0
 10
45.25015190103068
 20
25.94988494832707
 30
0.0
 41
0.8829250738035976
 10
44.49960302785283
 20
25.95647849210184
 30
0.0
 41
1.0
  0
SPLINE
  5
FE
330
1F
100
AcDbEntity
  8
Default
100
AcDbSpline
210
0.0
220
0.0
230
1.0
 70
    12
 71
     2
 72
     6
 73
     3
 74
     0
 42
0.0000000001
 43
0.0000000001
 40
0.0
 40
0.0
 40
0.0
 40
6.555530289745614
 40
6.555530289745614
 40
6.555530289745614
 10
44.49960302785283
 20
25.95647849210184
 30
0.0
 41
1.0
 10
41.22168535974717
 20
25.98527487619766
 30
0.0
 41
0.99987233317269
 10
37.94452137280484
 20
25.90931651059739
 30
0.0
 41
0.9999999999999496
  0
SPLINE
  5
FF
330
1F
100
AcDbEntity
  8
Default
100
AcDbSpline
210
0.0
220
0.0
230
1.0
 70
     8
 71
     3
 72
    12
 73
     8
 74
     0
 42
0.0000000001
 43
0.0000000001
 40
0.0
 40
0.0
 40
0.0
 40
0.0
 40
0.1966078110567105
 40
0.391756684700644
 40
0.8019735076828474
 40
1.233856357264024
 40
1.761376133313992
 40
1.761376133313992
 40
1.761376133313992
 40
1.761376133313992
 10
37.94452137280487
 20
25.90931651059739
 30
0.0
 10
37.87897103213291
 20
25.90802100971309
 30
0.0
 10
37.74863475020746
 20
25.89746724367212
 30
0.0
 10
37.48632289870457
 20
25.84270258362758
 30
0.0
 10
37.16428723713651
 20
25.71084307022418
 30
0.0
 10
36.78629133533778
 20
25.45090464188748
 30
0.0
 10
36.55845552236602
 20
25.22523821978275
 30
0.0
 10
36.43618766397245
 20
25.09902229127014
 30
0.0
  0
SPLINE
  5
100
330
1F
100
AcDbEntity
  8
Default
100
AcDbSpline
210
0.0
220
0.0
230
1.0
 70
    12
 71
     3
 72
    10
 73
     6
 74
     0
 42
0.0000000001
 43
0.0000000001
 40
-0.7089426933420687
 40
-0.7089426933420687
 40
-0.7089426933420687
 40
-0.7089426933420687
 40
-0.5000524082110864
 40
-0.5000524082110864
 40
0.0
 40
0.0
 40
0.0
 40
0.0
 10
36.43618766397245
 20
25.09902229127014
 30
0.0
 41
1.0
 10
36.13694692231658
 20
24.79351913840475
 30
0.0
 41
1.0
 10
35.86600006221752
 20
24.42327724862964
 30
0.0
 41
1.0
 10
34.96058445051452
 20
22.95728322518259
 30
0.0
 41
1.0
 10
34.44455071080964
 20
21.69454939720038
 30
0.0
 41
1.0
 10
33.98122056556556
 20
20.59163126349513
 30
0.0
 41
1.0
  0
SPLINE
  5
101
330
1F
100
AcDbEntity
  8
Default
100
AcDbSpline
210
0.0
220
0.0
230
1.0
 70
    12
 71
     3
 72
    12
 73
     8
 74
     0
 42
0.0000000001
 43
0.0000000001
 40
-1.0
 40
-1.0
 40
-1.0
 40
-1.0
 40
-0.5170223658558294
 40
-0.5170223658558294
 40
-0.2703903953372826
 40
-0.2703903953372826
 40
0.0
 40
0.0
 40
0.0
 40
0.0
 10
33.98122056556556
 20
20.59163126349513
 30
0.0
 41
1.0
 10
33.92438436217017
 20
20.45633749938511
 30
0.0
 41
1.0
 10
33.85780736098783
 20
20.31691405092969
 30
0.0
 41
1.0
 10
33.75620717925656
 20
20.13476428949622
 30
0.0
 41
1.0
 10
33.71882670210161
 20
20.07306057921172
 30
0.0
 41
1.0
 10
33.6505591098485
 20
19.97054398758052
 30
0.0
 41
1.0
 10
33.61838416326898
 20
19.92687650341654
 30
0.0
 41
1.0
 10
33.580006105769
 20
19.89366112995473
 30
0.0
 41
1.0
  0
POLYLINE
  5
102
330
1F
100
AcDbEntity
  8
Default
100
AcDb2dPolyline
 66
     1
 10
0.0
 20
0.0
 30
0.0
  0
VERTEX
  5
103
330
102
100
AcDbEntity
  8
Default
100
AcDbVertex
100
AcDb2dVertex
 10
33.580006105769
 20
19.89366112995473
 30
0.0
  0
VERTEX
  5
104
330
102
100
AcDbEntity
  8
Default
100
AcDbVertex
100
AcDb2dVertex
 10
32.78493764493479
 20
19.89366112995473
 30
0.0
  0
SEQEND
  5
105
330
102
100
AcDbEntity
  8
Default
  0
ARC
  5
106
330
1F
100
AcDbEntity
  8
Default
100
AcDbCircle
 10
-18.59253546604151
 20
37.72757443779402
 30
0.0
 40
54.38467805495053
100
AcDbArc
 50
339.2594164915729
 51
340.8573235021994
  0
SPLINE
  5
107
330
1F
100
AcDbEntity
  8
Default
100
AcDbSpline
210
0.0
220
0.0
230
1.0
 70
     8
 71
     3
 72
     8
 73
     4
 74
     0
 42
0.0000000001
 43
0.0000000001
 40
0.0
 40
0.0
 40
0.0
 40
0.0
 40
1.0
 40
1.0
 40
1.0
 40
1.0
 10
32.26765783672332
 20
18.46792894920802
 30
0.0
 10
32.17279377191315
 20
18.21741526885015
 30
0.0
 10
31.93511855384159
 20
18.00933624398742
 30
0.0
 10
31.68434540356978
 20
17.91516022824294
 30
0.0
  0
ARC
  5
108
330
1F
100
AcDbEntity
  8
Default
100
AcDbCircle
 10
40.57110810112997
 20
-5.748629960460082
 30
0.0
 40
25.27745076817883
100
AcDbArc
 50
110.5832991737907
 51
113.4418089370412
  0
SPLINE
  5
109
330
1F
100
AcDbEntity
  8
Default
100
AcDbSpline
210
0.0
220
0.0
230
1.0
 70
     8
 71
     3
 72
    12
 73
     8
 74
     0
 42
0.0000000001
 43
0.0000000001
 40
0.0
 40
0.0
 40
0.0
 40
0.0
 40
0.3764079185196961
 40
0.7366419227469463
 40
1.403726567880446
 40
2.089426026172505
 40
2.806850164905986
 40
2.806850164905986
 40
2.806850164905986
 40
2.806850164905986
 10
30.51529649488148
 20
17.44253582044328
 30
0.0
 10
30.47961450240732
 20
17.32231606011094
 30
0.0
 10
30.42265739598119
 20
17.08285177130854
 30
0.0
 10
30.37092086704402
 20
16.61711326814818
 30
0.0
 10
30.42865269661198
 20
16.04232040722727
 30
0.0
 10
30.71211758748328
 20
15.40384036325911
 30
0.0
 10
31.0137453525206
 20
15.04212567318737
 30
0.0
 10
31.23923294888462
 20
14.854680292064
 30
0.0
  0
SPLINE
  5
10A
330
1F
100
AcDbEntity
  8
Default
100
AcDbSpline
210
0.0
220
0.0
230
1.0
 70
    24
 71
     2
 72
     6
 73
     3
 74
     0
 42
0.0000000001
 43
0.0000000001
 40
-1.023969449953251
 40
-1.023969449953251
 40
-1.023969449953251
 40
0.0
 40
0.0
 40
0.0
 10
31.23923294888462
 20
14.854680292064
 30
0.0
 10
31.75120421173804
 20
14.85839305675772
 30
0.0
 10
32.26317547459146
 20
14.86210582145143
 30
0.0
  0
SPLINE
  5
10B
330
1F
100
AcDbEntity
  8
Default
100
AcDbSpline
210
0.0
220
0.0
230
1.0
 70
    12
 71
     2
 72
     6
 73
     3
 74
     0
 42
0.0000000001
 43
0.0000000001
 40
-0.7699893907806937
 40
-0.7699893907806937
 40
-0.7699893907806937
 40
0.0
 40
0.0
 40
0.0
 10
32.26317547459146
 20
14.86210582145143
 30
0.0
 41
1.0
 10
32.6155701259698
 20
15.01721327618017
 30
0.0
 41
0.9999018616282419
 10
32.97217199097125
 20
15.16238704347278
 30
0.0
 41
1.0
  0
SPLINE
  5
10C
330
1F
100
AcDbEntity
  8
Default
100
AcDbSpline
210
0.0
220
0.0
230
1.0
 70
     8
 71
     2
 72
    13
 73
    10
 74
     0
 42
0.0000000001
 43
0.0000000001
 40
0.0
 40
0.0
 40
0.0
 40
1.0
 40
2.0
 40
3.0
 40
4.0
 40
5.0
 40
6.0
 40
7.0
 40
8.0
 40
8.0
 40
8.0
 10
40.39031112477343
 20
14.47355844183666
 30
0.0
 10
40.16669207290258
 20
14.41553942601187
 30
0.0
 10
39.69832735184698
 20
14.38059471903694
 30
0.0
 10
39.2318414873836
 20
14.35333901624918
 30
0.0
 10
38.76481880367461
 20
14.32836870979324
 30
0.0
 10
38.2977860009195
 20
14.30495957958801
 30
0.0
 10
37.83066062166554
 20
14.28319945121232
 30
0.0
 10
37.36345819139908
 20
14.26328796922129
 30
0.0
 10
36.89624421353554
 20
14.24003118138782
 30
0.0
 10
36.6624795844979
 20
14.23830272053626
 30
0.0
  0
SPLINE
  5
10D
330
1F
100
AcDbEntity
  8
Default
100
AcDbSpline
210
0.0
220
0.0
230
1.0
 70
     8
 71
     3
 72
    12
 73
     8
 74
     0
 42
0.0000000001
 43
0.0000000001
 40
8.0
 40
8.0
 40
8.0
 40
8.0
 40
8.718994952341673
 40
9.221319102328108
 40
10.03029210323231
 40
11.62826553927853
 40
12.32492498358345
 40
12.32492498358345
 40
12.32492498358345
 40
12.32492498358345
 10
36.6624795844979
 20
14.23830272053626
 30
0.0
 10
36.4225731458628
 20
14.23652884700832
 30
0.0
 10
36.01613299946101
 20
14.23729775230433
 30
0.0
 10
35.33844537746282
 20
14.255077604832
 30
0.0
 10
34.37815051014817
 20
14.39819922628639
 30
0.0
 10
33.39792736391306
 20
14.77882917052347
 30
0.0
 10
32.8207444044655
 20
15.30417754834119
 30
0.0
 10
32.62881429146049
 20
15.43620625144166
 30
0.0
  0
LINE
  5
10E
330
1F
100
AcDbEntity
  8
Default
100
AcDbLine
 10
32.62881429146049
 20
15.43620625144166
 30
0.0
 11
32.5072782104584
 21
15.39277419509506
 31
0.0
  0
ARC
  5
10F
330
1F
100
AcDbEntity
  8
Default
100
AcDbCircle
 10
46.15609778438304
 20
-18.80172081898561
 30
0.0
 40
36.81784574129149
100
AcDbArc
 50
111.7595387902868
 51
113.9173982231019
  0
SPLINE
  5
110
330
1F
100
AcDbEntity
  8
Default
100
AcDbSpline
210
0.0
220
0.0
230
1.0
 70
    12
 71
     2
 72
     6
 73
     3
 74
     0
 42
0.0000000001
 43
0.0000000001
 40
0.0
 40
0.0
 40
0.0
 40
0.4103731654982347
 40
0.4103731654982347
 40
0.4103731654982347
 10
34.45981594424492
 20
14.42430674323685
 30
0.0
 41
1.0
 10
34.25489337155675
 20
14.4139012390939
 30
0.0
 41
0.9999999719724716
 10
34.04997574904607
 20
14.4033987013928
 30
0.0
 41
1.0
  0
SPLINE
  5
111
330
1F
100
AcDbEntity
  8
Default
100
AcDbSpline
210
0.0
220
0.0
230
1.0
 70
    12
 71
     2
 72
     6
 73
     3
 74
     0
 42
0.0000000001
 43
0.0000000001
 40
0.0
 40
0.0
 40
0.0
 40
1.651684540757468
 40
1.651684540757468
 40
1.651684540757468
 10
34.04997574904607
 20
14.4033987013928
 30
0.0
 41
1.0
 10
33.21740895756103
 20
14.51093461190051
 30
0.0
 41
0.9758041065035736
 10
32.51033303989485
 20
14.96345541914475
 30
0.0
 41
1.0
  0
POLYLINE
  5
112
330
1F
100
AcDbEntity
  8
Default
100
AcDb2dPolyline
 66
     1
 10
0.0
 20
0.0
 30
0.0
  0
VERTEX
  5
113
330
112
100
AcDbEntity
  8
Default
100
AcDbVertex
100
AcDb2dVertex
 10
34.75130110480691
 20
20.58801835899433
 30
0.0
  0
VERTEX
  5
114
330
112
100
AcDbEntity
  8
Default
100
AcDbVertex
100
AcDb2dVertex
 10
34.03582679907086
 20
18.33519159311528
 30
0.0
  0
SEQEND
  5
115
330
112
100
AcDbEntity
  8
Default
  0
SPLINE
  5
116
330
1F
100
AcDbEntity
  8
Default
100
AcDbSpline
210
0.0
220
0.0
230
1.0
 70
     8
 71
     2
 72
    23
 73
    20
 74
     0
 42
0.0000000001
 43
0.0000000001
 40
-18.0
 40
-18.0
 40
-18.0
 40
-17.0
 40
-16.0
 40
-15.0
 40
-14.0
 40
-13.0
 40
-12.0
 40
-11.0
 40
-10.0
 40
-9.0
 40
-8.0
 40
-7.0
 40
-6.0
 40
-5.0
 40
-4.0
 40
-3.0
 40
-2.0
 40
-1.0
 40
0.0
 40
0.0
 40
0.0
 10
34.03582679907086
 20
18.33519159311528
 30
0.0
 10
33.99633255371035
 20
18.21273448610614
 30
0.0
 10
33.93233519066828
 20
17.96342339276848
 30
0.0
 10
33.88985455585444
 20
17.70953525347902
 30
0.0
 10
33.86760738542748
 20
17.4531309107476
 30
0.0
 10
33.85975209780511
 20
17.19589314663452
 30
0.0
 10
33.87684499846742
 20
16.93868271360973
 30
0.0
 10
33.93982837926083
 20
16.68857910392094
 30
0.0
 10
34.04437172120063
 20
16.45304812716801
 30
0.0
 10
34.17358135047337
 20
16.23032572573845
 30
0.0
 10
34.32573412198903
 20
16.02255963568223
 30
0.0
 10
34.49923443356536
 20
15.83227969684428
 30
0.0
 10
34.69155003543781
 20
15.66103870996061
 30
0.0
 10
34.89985002724498
 20
15.50970664045139
 30
0.0
 10
35.12166450773597
 20
15.37901627642949
 30
0.0
 10
35.35377661136133
 20
15.26776204273974
 30
0.0
 10
35.59322988606627
 20
15.1733832870578
 30
0.0
 10
35.83874329148571
 20
15.09614356119713
 30
0.0
 10
36.08978411897411
 20
15.0388570761321
 30
0.0
 10
36.21764705736874
 20
15.02239483880323
 30
0.0
  0
SPLINE
  5
117
330
1F
100
AcDbEntity
  8
Default
100
AcDbSpline
210
0.0
220
0.0
230
1.0
 70
     8
 71
     2
 72
    11
 73
     8
 74
     0
 42
0.0000000001
 43
0.0000000001
 40
0.0
 40
0.0
 40
0.0
 40
0.9998922721550128
 40
1.99991381772401
 40
2.999935363293007
 40
3.999956908862005
 40
4.999978454431003
 40
6.0
 40
6.0
 40
6.0
 10
36.21764705736874
 20
15.02239483880323
 30
0.0
 10
36.46699105673272
 20
15.00565867894065
 30
0.0
 10
36.96591062700705
 20
15.03233751863008
 30
0.0
 10
37.46115719925322
 20
15.09771145922042
 30
0.0
 10
37.9499496507523
 20
15.20042179838666
 30
0.0
 10
38.43427436061197
 20
15.32200476394228
 30
0.0
 10
38.91329906165944
 20
15.46311760856285
 30
0.0
 10
39.14977712322721
 20
15.54324865760704
 30
0.0
  0
SPLINE
  5
118
330
1F
100
AcDbEntity
  8
Default
100
AcDbSpline
210
0.0
220
0.0
230
1.0
 70
     8
 71
     3
 72
    12
 73
     8
 74
     0
 42
0.0000000001
 43
0.0000000001
 40
-4.028283816019552
 40
-4.028283816019552
 40
-4.028283816019552
 40
-4.028283816019552
 40
-2.724129642606016
 40
-1.619899275521244
 40
-0.7109079996101784
 40
-0.3299925134026732
 40
0.0
 40
0.0
 40
0.0
 40
0.0
 10
39.14977712322721
 20
15.54324865760704
 30
0.0
 10
39.56255483376506
 20
15.6797876825409
 30
0.0
 10
40.31246582553516
 20
15.96896511903695
 30
0.0
 10
41.2980855554255
 20
16.47456117622982
 30
0.0
 10
41.94588987714158
 20
16.94740767516647
 30
0.0
 10
42.31009950868835
 20
17.34938918399748
 30
0.0
 10
42.43935303907929
 20
17.54842947623045
 30
0.0
 10
42.48683076274952
 20
17.64807467947287
 30
0.0
  0
SPLINE
  5
119
330
1F
100
AcDbEntity
  8
Default
100
AcDbSpline
210
0.0
220
0.0
230
1.0
 70
    12
 71
     2
 72
     6
 73
     3
 74
     0
 42
0.0000000001
 43
0.0000000001
 40
-7.134656467012396
 40
-7.134656467012396
 40
-7.134656467012396
 40
0.0
 40
0.0
 40
0.0
 10
42.48683076274952
 20
17.64807467947287
 30
0.0
 41
1.0
 10
43.97554641436653
 20
20.8899192832082
 30
0.0
 41
0.9999999999723347
 10
45.46421383709284
 20
24.13178603409305
 30
0.0
 41
1.0
  0
SPLINE
  5
11A
330
1F
100
AcDbEntity
  8
Default
100
AcDbSpline
210
0.0
220
0.0
230
1.0
 70
    12
 71
     2
 72
     8
 73
     5
 74
     0
 42
0.0000000001
 43
0.0000000001
 40
-2.039896679625175
 40
-2.039896679625175
 40
-2.039896679625175
 40
-1.019948339812587
 40
-1.019948339812587
 40
0.0
 40
0.0
 40
0.0
 10
45.46421383709284
 20
24.13178603409305
 30
0.0
 41
1.0
 10
45.69695438713138
 20
24.63855135382236
 30
0.0
 41
0.8765451505110287
 10
45.39425062841238
 20
25.10689918115477
 30
0.0
 41
1.0
 10
45.09154686969345
 20
25.57524700848717
 30
0.0
 41
0.8765451505110287
 10
44.53390662513507
 20
25.57117140319777
 30
0.0
 41
1.0
  0
SPLINE
  5
11B
330
1F
100
AcDbEntity
  8
Default
100
AcDbSpline
210
0.0
220
0.0
230
1.0
 70
     8
 71
     3
 72
    17
 73
    13
 74
     0
 42
0.0000000001
 43
0.0000000001
 40
-12.69558277915412
 40
-12.69558277915412
 40
-12.69558277915412
 40
-12.69558277915412
 40
-6.160250789128044
 40
-6.160250789128044
 40
-6.160250789128044
 40
-5.736894655222111
 40
-5.257873602608599
 40
-4.695564852277931
 40
-4.046758342988472
 40
-2.366045248840019
 40
-1.330079237171369
 40
0.0
 40
0.0
 40
0.0
 40
0.0
 10
44.53390662513507
 20
25.57117140319777
 30
0.0
 10
42.35552080863457
 20
25.55525031277659
 30
0.0
 10
40.12570668024873
 20
25.53920349127622
 30
0.0
 10
37.94731996388359
 20
25.52340600366679
 30
0.0
 10
37.80627900688742
 20
25.52270922466296
 30
0.0
 10
37.50613490204145
 20
25.46345253961515
 30
0.0
 10
37.08178888594418
 20
25.21160464760486
 30
0.0
 10
36.67755490378104
 20
24.8155956074107
 30
0.0
 10
36.11337804065946
 20
24.03020207287221
 30
0.0
 10
35.6260368144556
 20
23.01516796299933
 30
0.0
 10
35.13895582090342
 20
21.75815709219273
 30
0.0
 10
34.88951862039116
 20
21.00898370014789
 30
0.0
 10
34.75130110480691
 20
20.58801835899433
 30
0.0
  0
POLYLINE
  5
11C
330
1F
100
AcDbEntity
  8
Default
100
AcDb2dPolyline
 66
     1
 10
0.0
 20
0.0
 30
0.0
  0
VERTEX
  5
11D
330
11C
100
AcDbEntity
  8
Default
100
AcDbVertex
100
AcDb2dVertex
 10
34.42795810722922
 20
20.59736827975789
 30
0.0
  0
VERTEX
  5
11E
330
11C
100
AcDbEntity
  8
Default
100
AcDbVertex
100
AcDb2dVertex
 10
33.79367843831906
 20
18.65910863549381
 30
0.0
  0
SEQEND
  5
11F
330
11C
100
AcDbEntity
  8
Default
  0
SPLINE
  5
120
330
1F
100
AcDbEntity
  8
Default
100
AcDbSpline
210
0.0
220
0.0
230
1.0
 70
     8
 71
     3
 72
    14
 73
    10
 74
     0
 42
0.0000000001
 43
0.0000000001
 40
-2.925089932725565
 40
-2.925089932725565
 40
-2.925089932725565
 40
-2.925089932725565
 40
-2.450616115393024
 40
-2.344763851551224
 40
-2.075712685049938
 40
-1.419014518385656
 40
-0.712822927459071
 40
-0.375660298156378
 40
0.0
 40
0.0
 40
0.0
 40
0.0
 10
33.79367843831906
 20
18.65910863549381
 30
0.0
 10
33.74499689351458
 20
18.50863609753183
 30
0.0
 10
33.6846274622408
 20
18.32483512547088
 30
0.0
 10
33.59661280317076
 20
18.05576562073458
 30
0.0
 10
33.51740569000052
 20
17.72019998289809
 30
0.0
 10
33.50233051478747
 20
17.17203439683626
 30
0.0
 10
33.62652691893052
 20
16.61421611868546
 30
0.0
 10
33.83030099979376
 20
16.18509376326104
 30
0.0
 10
33.96097411286101
 20
15.98657455629667
 30
0.0
 10
34.03781244286441
 20
15.8874142733258
 30
0.0
  0
SPLINE
  5
121
330
1F
100
AcDbEntity
  8
Default
100
AcDbSpline
210
0.0
220
0.0
230
1.0
 70
     8
 71
     2
 72
    18
 73
    15
 74
     0
 42
0.0000000001
 43
0.0000000001
 40
0.0
 40
0.0
 40
0.0
 40
1.0
 40
2.0
 40
3.0
 40
4.0
 40
5.0
 40
6.0
 40
7.0
 40
8.0
 40
9.0
 40
10.0
 40
11.0
 40
12.0
 40
13.0
 40
13.0
 40
13.0
 10
34.03781244286441
 20
15.8874142733258
 30
0.0
 10
34.14241732383593
 20
15.75304751469331
 30
0.0
 10
34.38311162866066
 20
15.51205089444174
 30
0.0
 10
34.65453240936276
 20
15.30634052266285
 30
0.0
 10
34.94443405914868
 20
15.12799165179699
 30
0.0
 10
35.24978364158201
 20
14.97757376117235
 30
0.0
 10
35.5677632409228
 20
14.8561368735849
 30
0.0
 10
35.89556117472191
 20
14.76447211471854
 30
0.0
 10
36.23023472317701
 20
14.70254088883077
 30
0.0
 10
36.56903674963465
 20
14.66998203618726
 30
0.0
 10
36.90939017493432
 20
14.66791633607563
 30
0.0
 10
37.24855202178176
 20
14.69715807024541
 30
0.0
 10
37.58332918552841
 20
14.75787187338004
 30
0.0
 10
37.95800537549249
 20
14.84357387361143
 30
0.0
 10
38.12274285801087
 20
14.88588519548815
 30
0.0
  0
SPLINE
  5
122
330
1F
100
AcDbEntity
  8
Default
100
AcDbSpline
210
0.0
220
0.0
230
1.0
 70
     8
 71
     2
 72
    14
 73
    11
 74
     0
 42
0.0000000001
 43
0.0000000001
 40
-9.0
 40
-9.0
 40
-9.0
 40
-8.0
 40
-7.0
 40
-6.0
 40
-5.0
 40
-4.0
 40
-3.0
 40
-2.0
 40
-1.0
 40
0.0
 40
0.0
 40
0.0
 10
38.12274285801087
 20
14.88588519548815
 30
0.0
 10
38.41723842053264
 20
14.9615236983148
 30
0.0
 10
38.99904627416996
 20
15.13834684534226
 30
0.0
 10
39.57438037878242
 20
15.33514167891045
 30
0.0
 10
40.14299285395114
 20
15.55067342922331
 30
0.0
 10
40.70014178174782
 20
15.7945216959236
 30
0.0
 10
41.24009722033773
 20
16.07468685343257
 30
0.0
 10
41.75336966710748
 20
16.40154049434094
 30
0.0
 10
42.22578106947535
 20
16.78585721737713
 30
0.0
 10
42.62522197666286
 20
17.24787184256577
 30
0.0
 10
42.7561165480129
 20
17.52441711070699
 30
0.0
  0
SPLINE
  5
123
330
1F
100
AcDbEntity
  8
Default
100
AcDbSpline
210
0.0
220
0.0
230
1.0
 70
    12
 71
     2
 72
     6
 73
     3
 74
     0
 42
0.0000000001
 43
0.0000000001
 40
-7.134661926181252
 40
-7.134661926181252
 40
-7.134661926181252
 40
0.0
 40
0.0
 40
0.0
 10
42.7561165480129
 20
17.52441711070699
 30
0.0
 41
1.0
 10
44.25048887757512
 20
20.7636650806038
 30
0.0
 41
0.9999984753730452
 10
45.73354677473984
 20
24.00812865715891
 30
0.0
 41
1.0
  0
SPLINE
  5
124
330
1F
100
AcDbEntity
  8
Default
100
AcDbSpline
210
0.0
220
0.0
230
1.0
 70
    12
 71
     2
 72
     8
 73
     5
 74
     0
 42
0.0000000001
 43
0.0000000001
 40
0.0
 40
0.0
 40
0.0
 40
1.347973588786271
 40
1.347973588786271
 40
2.695947177572542
 40
2.695947177572542
 40
2.695947177572542
 10
45.73354677473984
 20
24.00812865715891
 30
0.0
 41
1.0
 10
46.03871922663812
 20
24.67817535494918
 30
0.0
 41
0.8778415180454479
 10
45.64045854758606
 20
25.29741254826006
 30
0.0
 41
1.0
 10
45.24219786853401
 20
25.91664974157094
 30
0.0
 41
0.8778415180454479
 10
44.50278923917406
 20
25.91688691181545
 30
0.0
 41
1.0
  0
SPLINE
  5
125
330
1F
100
AcDbEntity
  8
Default
100
AcDbSpline
210
0.0
220
0.0
230
1.0
 70
    12
 71
     2
 72
     6
 73
     3
 74
     0
 42
0.0000000001
 43
0.0000000001
 40
-6.554936308707257
 40
-6.554936308707257
 40
-6.554936308707257
 40
0.0
 40
0.0
 40
0.0
 10
44.50278923917406
 20
25.91688691181545
 30
0.0
 41
1.0
 10
41.22220689770967
 20
25.89934288818639
 30
0.0
 41
0.9999982043539589
 10
37.94484134013865
 20
25.86938590286861
 30
0.0
 41
1.0
  0
SPLINE
  5
126
330
1F
100
AcDbEntity
  8
Default
100
AcDbSpline
210
0.0
220
0.0
230
1.0
 70
     8
 71
     3
 72
    14
 73
    10
 74
     0
 42
0.0000000001
 43
0.0000000001
 40
0.0
 40
0.0
 40
0.0
 40
0.0
 40
0.5236472825289638
 40
1.04538540363359
 40
2.334113129586278
 40
3.074923228276718
 40
4.064285510867739
 40
5.145128935998467
 40
6.695969969607652
 40
6.695969969607652
 40
6.695969969607652
 40
6.695969969607652
 10
37.94484134013865
 20
25.86938590286861
 30
0.0
 10
37.77076063814306
 20
25.86602948798054
 30
0.0
 10
37.42137558695279
 20
25.81346654367176
 30
0.0
 10
36.72376160681515
 20
25.44523176120174
 30
0.0
 10
36.16491481666984
 20
24.78205825677929
 30
0.0
 10
35.66698970518436
 20
23.91104931644126
 30
0.0
 10
35.283201051124
 20
23.0528874576713
 30
0.0
 10
34.86071777015312
 20
21.92353610936256
 30
0.0
 10
34.5891811434453
 20
21.08813709271842
 30
0.0
 10
34.42795810722922
 20
20.59736827975789
 30
0.0
  0
SPLINE
  5
127
330
1F
100
AcDbEntity
  8
Default
100
AcDbSpline
210
0.0
220
0.0
230
1.0
 70
    12
 71
     2
 72
     8
 73
     5
 74
     0
 42
0.0000000001
 43
0.0000000001
 40
-2.175275875317383
 40
-2.175275875317383
 40
-2.175275875317383
 40
-1.087637937658692
 40
-1.087637937658692
 40
0.0
 40
0.0
 40
0.0
 10
45.51207148680751
 20
24.10980988629493
 30
0.0
 41
1.0
 10
45.74954633339279
 20
24.65148651285512
 30
0.0
 41
0.8834748559215619
 10
45.43894854116323
 20
25.15256367528568
 30
0.0
 41
1.0
 10
45.07313260021605
 20
25.68229039894899
 30
0.0
 41
0.8834748559215619
 10
44.48170531413294
 20
25.67763896920832
 30
0.0
 41
1.0
  0
SPLINE
  5
128
330
1F
100
AcDbEntity
  8
Default
100
AcDbSpline
210
0.0
220
0.0
230
1.0
 70
    12
 71
     2
 72
     6
 73
     3
 74
     0
 42
0.0000000001
 43
0.0000000001
 40
0.0
 40
0.0
 40
0.0
 40
6.535324536744564
 40
6.535324536744564
 40
6.535324536744564
 10
44.48170531413294
 20
25.67763896920832
 30
0.0
 41
1.0
 10
41.21414369160936
 20
25.65194040292951
 30
0.0
 41
0.9999998122366776
 10
37.94654909713361
 20
25.63024656738069
 30
0.0
 41
1.0
  0
SPLINE
  5
129
330
1F
100
AcDbEntity
  8
Default
100
AcDbSpline
210
0.0
220
0.0
230
1.0
 70
    12
 71
     3
 72
    12
 73
     8
 74
     0
 42
0.0000000001
 43
0.0000000001
 40
0.0
 40
0.0
 40
0.0
 40
0.0
 40
0.5000753322212572
 40
0.5000753322212572
 40
0.7500400247463155
 40
0.7500400247463155
 40
1.0
 40
1.0
 40
1.0
 40
1.0
 10
37.94654909713361
 20
25.63024656738069
 30
0.0
 41
1.0
 10
37.22703392781594
 20
25.62532949013683
 30
0.0
 41
1.0
 10
36.61436601661151
 20
25.11299763475645
 30
0.0
 41
1.0
 10
35.79038005818981
 20
23.65716764260317
 30
0.0
 41
1.0
 10
35.56237640523224
 20
23.12336029159396
 30
0.0
 41
1.0
 10
35.11183721172014
 20
21.91404478854754
 30
0.0
 41
1.0
 10
34.88696815740687
 20
21.21435960463676
 30
0.0
 41
1.0
 10
34.68210174476494
 20
20.58751512551225
 30
0.0
 41
1.0
  0
POLYLINE
  5
12A
330
1F
100
AcDbEntity
  8
Default
100
AcDb2dPolyline
 66
     1
 10
0.0
 20
0.0
 30
0.0
  0
VERTEX
  5
12B
330
12A
100
AcDbEntity
  8
Default
100
AcDbVertex
100
AcDb2dVertex
 10
34.68210174476494
 20
20.58751512551225
 30
0.0
  0
VERTEX
  5
12C
330
12A
100
AcDbEntity
  8
Default
100
AcDbVertex
100
AcDb2dVertex
 10
34.03557603919162
 20
18.60048584597574
 30
0.0
  0
SEQEND
  5
12D
330
12A
100
AcDbEntity
  8
Default
  0
SPLINE
  5
12E
330
1F
100
AcDbEntity
  8
Default
100
AcDbSpline
210
0.0
220
0.0
230
1.0
 70
     8
 71
     2
 72
    15
 73
    12
 74
     0
 42
0.0000000001
 43
0.0000000001
 40
0.0
 40
0.0
 40
0.0
 40
1.0
 40
2.0
 40
3.0
 40
4.0
 40
5.0
 40
6.0
 40
7.0
 40
8.0
 40
9.0
 40
10.0
 40
10.0
 40
10.0
 10
34.03557603919162
 20
18.60048584597574
 30
0.0
 10
33.94525319542655
 20
18.32581026533975
 30
0.0
 10
33.77322928710257
 20
17.7709932245626
 30
0.0
 10
33.76429229543058
 20
17.18846898353617
 30
0.0
 10
33.88941803714286
 20
16.62036374194766
 30
0.0
 10
34.16070256402341
 20
16.10483574300606
 30
0.0
 10
34.55505734642534
 20
15.67730367111591
 30
0.0
 10
35.03440769381555
 20
15.34921682253865
 30
0.0
 10
35.56224884120653
 20
15.1081479655375
 30
0.0
 10
36.12295377090581
 20
14.95896651702258
 30
0.0
 10
36.70027385057571
 20
14.90116259770727
 30
0.0
 10
36.98976987881437
 20
14.92018648657337
 30
0.0
  0
SPLINE
  5
12F
330
1F
100
AcDbEntity
  8
Default
100
AcDbSpline
210
0.0
220
0.0
230
1.0
 70
     8
 71
     2
 72
    19
 73
    16
 74
     0
 42
0.0000000001
 43
0.0000000001
 40
0.0
 40
0.0
 40
0.0
 40
1.0
 40
2.0
 40
3.0
 40
4.0
 40
5.0
 40
6.0
 40
7.0
 40
8.0
 40
9.0
 40
10.0
 40
11.0
 40
12.0
 40
13.0
 40
14.0
 40
14.0
 40
14.0
 10
36.98976987881437
 20
14.92018648657337
 30
0.0
 10
37.2165201210577
 20
14.936465879703
 30
0.0
 10
37.66351770427823
 20
15.01874032721553
 30
0.0
 10
38.10546293861901
 20
15.12351149914184
 30
0.0
 10
38.54392017296456
 20
15.24212228936388
 30
0.0
 10
38.97822006906839
 20
15.37514908218175
 30
0.0
 10
39.40834366053653
 20
15.52107518670015
 30
0.0
 10
39.83457417911089
 20
15.67802614494096
 30
0.0
 10
40.25538953436549
 20
15.84901864150522
 30
0.0
 10
40.66870284174266
 20
16.03749970008197
 30
0.0
 10
41.07158237366437
 20
16.24747887978467
 30
0.0
 10
41.45924360590212
 20
16.48450454456273
 30
0.0
 10
41.82651748985293
 20
16.75224020669506
 30
0.0
 10
42.16321771894664
 20
17.0580758484473
 30
0.0
 10
42.44486821814539
 20
17.41638190887283
 30
0.0
 10
42.54121889599358
 20
17.62318131314663
 30
0.0
  0
SPLINE
  5
130
330
1F
100
AcDbEntity
  8
Default
100
AcDbSpline
210
0.0
220
0.0
230
1.0
 70
     8
 71
     3
 72
     9
 73
     5
 74
     0
 42
0.0000000001
 43
0.0000000001
 40
-7.13462914005262
 40
-7.13462914005262
 40
-7.13462914005262
 40
-7.13462914005262
 40
-1.426655541490889
 40
0.0
 40
0.0
 40
0.0
 40
0.0
 10
42.54121889599358
 20
17.62318131314663
 30
0.0
 10
43.33403444492805
 20
19.35276720022402
 30
0.0
 10
44.32793154549083
 20
21.51335757562849
 30
0.0
 10
45.32111355332964
 20
23.67423765324128
 30
0.0
 10
45.51207148680751
 20
24.10980988629493
 30
0.0
  0
SPLINE
  5
131
330
1F
100
AcDbEntity
  8
Default
100
AcDbSpline
210
0.0
220
0.0
230
1.0
 70
    24
 71
     2
 72
     6
 73
     3
 74
     0
 42
0.0000000001
 43
0.0000000001
 40
0.0
 40
0.0
 40
0.0
 40
0.2330877007434116
 40
0.2330877007434116
 40
0.2330877007434116
 10
-10.35802326535043
 20
25.52340600366679
 30
0.0
 10
-10.47258165145647
 20
25.5471954692566
 30
0.0
 10
-10.58714003756251
 20
25.57098493484642
 30
0.0
  0
SPLINE
  5
132
330
1F
100
AcDbEntity
  8
Default
100
AcDbSpline
210
0.0
220
0.0
230
1.0
 70
    12
 71
     3
 72
    11
 73
     7
 74
     0
 42
0.0000000001
 43
0.0000000001
 40
-1.0
 40
-1.0
 40
-1.0
 40
-1.0
 40
-0.7499999988155471
 40
-0.4999999992100971
 40
-0.2499999996046464
 40
-0.1042452044392402
 40
-0.1042452044392402
 40
-0.1042452044392402
 40
-0.1042452044392402
 10
-10.58714003756251
 20
25.57098493484642
 30
0.0
 41
1.0
 10
-10.5940241278212
 20
25.57241448467603
 30
0.0
 41
1.0
 10
-10.61111069473094
 20
25.48650846508469
 30
0.0
 41
1.0
 10
-10.64082141362985
 20
25.1323440325687
 30
0.0
 41
1.0
 10
-10.65406065624913
 20
24.70555192521655
 30
0.0
 41
1.0
 10
-10.65380710197817
 20
24.43300513929914
 30
0.0
 41
1.0
 10
-10.65310781073882
 20
24.33539921389887
 30
0.0
 41
1.0
  0
SPLINE
  5
133
330
1F
100
AcDbEntity
  8
Default
100
AcDbSpline
210
0.0
220
0.0
230
1.0
 70
     8
 71
     3
 72
     8
 73
     4
 74
     0
 42
0.0000000001
 43
0.0000000001
 40
0.0
 40
0.0
 40
0.0
 40
0.0
 40
1.0
 40
1.0
 40
1.0
 40
1.0
 10
-10.14200564473336
 20
17.69111411606706
 30
0.0
 10
-10.28247205401831
 20
18.19024315999491
 30
0.0
 10
-10.44849976918726
 20
18.68168554160581
 30
0.0
 10
-10.5864012639195
 20
19.18156882546567
 30
0.0
  0
SPLINE
  5
134
330
1F
100
AcDbEntity
  8
Default
100
AcDbSpline
210
0.0
220
0.0
230
1.0
 70
     8
 71
     3
 72
    13
 73
     9
 74
     0
 42
0.0000000001
 43
0.0000000001
 40
-0.7408031672589086
 40
-0.7408031672589086
 40
-0.7408031672589086
 40
-0.7408031672589086
 40
0.0000000000000002
 40
0.323666798745513
 40
0.6531947481389557
 40
1.271731416662941
 40
1.751790196722357
 40
2.381920827116336
 40
2.381920827116336
 40
2.381920827116336
 40
2.381920827116336
 10
-9.528386324799698
 20
14.64338950623682
 30
0.0
 10
-9.640841829075839
 20
14.86460303923159
 30
0.0
 10
-9.838294587662176
 20
15.1574433039747
 30
0.0
 10
-10.07186801780591
 20
15.55993079951672
 30
0.0
 10
-10.25849645208663
 20
15.94051861801655
 30
0.0
 10
-10.42529141487947
 20
16.38788697051627
 30
0.0
 10
-10.54868869631306
 20
16.95215246075693
 30
0.0
 10
-10.55878005760019
 20
17.3244808653001
 30
0.0
 10
-10.56187034815289
 20
17.53749431124839
 30
0.0
  0
SPLINE
  5
135
330
1F
100
AcDbEntity
  8
Default
100
AcDbSpline
210
0.0
220
0.0
230
1.0
 70
     8
 71
     3
 72
    16
 73
    12
 74
     0
 42
0.0000000001
 43
0.0000000001
 40
2.381920827116336
 40
2.381920827116336
 40
2.381920827116336
 40
2.381920827116336
 40
3.381920827116336
 40
4.381920827116336
 40
5.381920827116336
 40
6.381920827116335
 40
7.381920827116335
 40
8.381920827116335
 40
9.381920827116335
 40
10.38192082711634
 40
11.38192082711634
 40
11.38192082711634
 40
11.38192082711634
 40
11.38192082711634
 10
-10.56187034815289
 20
17.53749431124839
 30
0.0
 10
-10.56640054145495
 20
17.84976012237995
 30
0.0
 10
-10.57531985075764
 20
18.46702641679054
 30
0.0
 10
-10.58864233622049
 20
19.39292531307928
 30
0.0
 10
-10.60192066092068
 20
20.31882744060588
 30
0.0
 10
-10.61511100098733
 20
21.24472269812242
 30
0.0
 10
-10.62837647604917
 20
22.1706467085047
 30
0.0
 10
-10.64110857737748
 20
23.09646635362373
 30
0.0
 10
-10.65557840012983
 20
24.02268015550648
 30
0.0
 10
-10.66331194855738
 20
24.94742526603089
 30
0.0
 10
-10.66281759529423
 20
25.56777185023893
 30
0.0
 10
-10.61367346624644
 20
25.87021460499042
 30
0.0
  0
SPLINE
  5
136
330
1F
100
AcDbEntity
  8
Default
100
AcDbSpline
210
0.0
220
0.0
230
1.0
 70
     8
 71
     3
 72
    14
 73
    10
 74
     0
 42
0.0000000001
 43
0.0000000001
 40
0.0
 40
0.0
 40
0.0
 40
0.0
 40
1.0
 40
2.0
 40
3.0
 40
4.0
 40
5.0
 40
6.0
 40
7.0
 40
7.0
 40
7.0
 40
7.0
 10
-10.56930082176575
 20
14.72063925454462
 30
0.0
 10
-10.33241066063854
 20
14.69428040561993
 30
0.0
 10
-9.857228514153974
 20
14.65391123145614
 30
0.0
 10
-9.142539177883265
 20
14.62814466129412
 30
0.0
 10
-8.427236274036659
 20
14.62251629039756
 30
0.0
 10
-7.71408300784239
 20
14.5678610046437
 30
0.0
 10
-7.00013311831421
 20
14.52302214208976
 30
0.0
 10
-6.288109858903198
 20
14.47268862105429
 30
0.0
 10
-5.808769812772425
 20
14.44801930796993
 30
0.0
 10
-5.58176889485901
 20
14.37403069979994
 30
0.0
  0
LINE
  5
137
330
1F
100
AcDbEntity
  8
Default
100
AcDbLine
 10
-8.634307721805243
 20
15.00527090320247
 30
0.0
 11
-6.771648325251221
 21
14.91898855002279
 31
0.0
  0
SPLINE
  5
138
330
1F
100
AcDbEntity
  8
Default
100
AcDbSpline
210
0.0
220
0.0
230
1.0
 70
     8
 71
     3
 72
    13
 73
     9
 74
     0
 42
0.0000000001
 43
0.0000000001
 40
-6.823851813856487
 40
-6.823851813856487
 40
-6.823851813856487
 40
-6.823851813856487
 40
-6.281240933349355
 40
-5.874057640813247
 40
-5.734709727001422
 40
-5.647625216845664
 40
-5.559187811090736
 40
-5.476908754093682
 40
-5.476908754093682
 40
-5.476908754093682
 40
-5.476908754093682
 10
-6.771648325251221
 20
14.91898855002279
 30
0.0
 10
-6.591545199984125
 20
14.91064578940224
 30
0.0
 10
-6.274650006225869
 20
14.88379513033117
 30
0.0
 10
-5.913035572770355
 20
14.86005458071531
 30
0.0
 10
-5.702913226686036
 20
14.83335515138271
 30
0.0
 10
-5.599698175557933
 20
14.81833077553594
 30
0.0
 10
-5.517040670506788
 20
14.78530665301231
 30
0.0
 10
-5.497542287672076
 20
14.72189468014098
 30
0.0
 10
-5.501006388074813
 20
14.69601439213846
 30
0.0
  0
LINE
  5
139
330
1F
100
AcDbEntity
  8
Default
100
AcDbLine
 10
-5.501006388074813
 20
14.69601439213846
 30
0.0
 11
-5.528661659429616
 21
14.43480950621553
 31
0.0
  0
SPLINE
  5
13A
330
1F
100
AcDbEntity
  8
Default
100
AcDbSpline
210
0.0
220
0.0
230
1.0
 70
    12
 71
     2
 72
     6
 73
     3
 74
     0
 42
0.0000000001
 43
0.0000000001
 40
0.0
 40
0.0
 40
0.0
 40
0.1061870214800932
 40
0.1061870214800932
 40
0.1061870214800932
 10
-5.528661659429616
 20
14.43480950621553
 30
0.0
 41
1.0
 10
-5.542618079692105
 20
14.37451868595328
 30
0.0
 41
0.8184810208292602
 10
-5.603090709280735
 20
14.36736974086852
 30
0.0
 41
1.0
  0
POLYLINE
  5
13B
330
1F
100
AcDbEntity
  8
Default
100
AcDb2dPolyline
 66
     1
 10
0.0
 20
0.0
 30
0.0
  0
VERTEX
  5
13C
330
13B
100
AcDbEntity
  8
Default
100
AcDbVertex
100
AcDb2dVertex
 10
-5.603090709280735
 20
14.36736974086852
 30
0.0
  0
VERTEX
  5
13D
330
13B
100
AcDbEntity
  8
Default
100
AcDbVertex
100
AcDb2dVertex
 10
-6.258285935290843
 20
14.24894491178266
 30
0.0
  0
SEQEND
  5
13E
330
13B
100
AcDbEntity
  8
Default
  0
SPLINE
  5
13F
330
1F
100
AcDbEntity
  8
Default
100
AcDbSpline
210
0.0
220
0.0
230
1.0
 70
     8
 71
     3
 72
    12
 73
     8
 74
     0
 42
0.0000000001
 43
0.0000000001
 40
-4.443290175847516
 40
-4.443290175847516
 40
-4.443290175847516
 40
-4.443290175847516
 40
-4.31401685296278
 40
-3.31401685296278
 40
-2.31401685296278
 40
-1.31401685296278
 40
-0.3140168529627803
 40
-0.3140168529627803
 40
-0.3140168529627803
 40
-0.3140168529627803
 10
-6.258285935290843
 20
14.24894491178266
 30
0.0
 10
-6.301187876848644
 20
14.24253130336416
 30
0.0
 10
-6.684920667169507
 20
14.22075790329679
 30
0.0
 10
-7.403654195764375
 20
14.28854150965602
 30
0.0
 10
-8.41283450094528
 20
14.4136518400029
 30
0.0
 10
-9.42318100234587
 20
14.52828011977771
 30
0.0
 10
-10.09606220848491
 20
14.61242692494578
 30
0.0
 10
-10.42960650179504
 20
14.67332270301525
 30
0.0
  0
SPLINE
  5
140
330
1F
100
AcDbEntity
  8
Default
100
AcDbSpline
210
0.0
220
0.0
230
1.0
 70
     8
 71
     3
 72
    10
 73
     6
 74
     0
 42
0.0000000001
 43
0.0000000001
 40
-0.3140168529627803
 40
-0.3140168529627803
 40
-0.3140168529627803
 40
-0.3140168529627803
 40
-0.0000000000000003
 40
0.9999999999999998
 40
2.0
 40
2.0
 40
2.0
 40
2.0
 10
-10.42960650179504
 20
14.67332270301525
 30
0.0
 10
-10.58194799083824
 20
14.70113596108506
 30
0.0
 10
-11.11214058972573
 20
15.09709078930741
 30
0.0
 10
-11.87712493083367
 20
16.02659845224631
 30
0.0
 10
-12.09047799110382
 20
17.04447428179932
 30
0.0
 10
-12.10330918373407
 20
17.54954874619468
 30
0.0
  0
SPLINE
  5
141
330
1F
100
AcDbEntity
  8
Default
100
AcDbSpline
210
0.0
220
0.0
230
1.0
 70
     8
 71
     3
 72
    12
 73
     8
 74
     0
 42
0.0000000001
 43
0.0000000001
 40
2.0
 40
2.0
 40
2.0
 40
2.0
 40
3.0
 40
4.0
 40
5.0
 40
6.0
 40
7.0
 40
7.0
 40
7.0
 40
7.0
 10
-12.10330918373407
 20
17.54954874619468
 30
0.0
 10
-12.11623882820109
 20
18.05849857199628
 30
0.0
 10
-12.14181299976693
 20
19.07640737708827
 30
0.0
 10
-12.17888235481212
 20
20.60329564089967
 30
0.0
 10
-12.21568211235322
 20
22.13021121832062
 30
0.0
 10
-12.24856629556822
 20
23.65714391876609
 30
0.0
 10
-12.2769242166209
 20
24.67513345924994
 30
0.0
 10
-12.26815126822981
 20
25.18427048025932
 30
0.0
  0
SPLINE
  5
142
330
1F
100
AcDbEntity
  8
Default
100
AcDbSpline
210
0.0
220
0.0
230
1.0
 70
     8
 71
     3
 72
    11
 73
     7
 74
     0
 42
0.0000000001
 43
0.0000000001
 40
0.0
 40
0.0
 40
0.0
 40
0.0
 40
0.3096496387287225
 40
0.5091162119321627
 40
0.5786167791367458
 40
0.6321013442192785
 40
0.6321013442192785
 40
0.6321013442192785
 40
0.6321013442192785
 10
-12.26815126822981
 20
25.18427048025932
 30
0.0
 10
-12.26638296145481
 20
25.28689395454819
 30
0.0
 10
-12.25439874333082
 20
25.59103725184335
 30
0.0
 10
-12.23840502022529
 20
25.78127934144827
 30
0.0
 10
-12.21911342000612
 20
25.88911591888165
 30
0.0
 10
-12.1828857611612
 20
25.91671252553146
 30
0.0
 10
-12.1642725731646
 20
25.91688303579597
 30
0.0
  0
SPLINE
  5
143
330
1F
100
AcDbEntity
  8
Default
100
AcDbSpline
210
0.0
220
0.0
230
1.0
 70
    12
 71
     2
 72
     7
 73
     4
 74
     0
 42
0.0000000001
 43
0.0000000001
 40
0.6321013442192785
 40
0.6321013442192785
 40
0.6321013442192785
 40
2.141129452606297
 40
2.385668941627854
 40
2.385668941627854
 40
2.385668941627854
 10
-12.1642725731646
 20
25.91688303579597
 30
0.0
 41
1.0
 10
-11.41103759954972
 20
25.99681300009951
 30
0.0
 41
0.9943200481919514
 10
-10.53680566886085
 20
25.90242236148425
 30
0.0
 41
1.000920441776457
 10
-10.42262516232165
 20
25.86673711770814
 30
0.0
 41
1.0
  0
SPLINE
  5
144
330
1F
100
AcDbEntity
  8
Default
100
AcDbSpline
210
0.0
220
0.0
230
1.0
 70
     8
 71
     3
 72
     8
 73
     4
 74
     0
 42
0.0000000001
 43
0.0000000001
 40
0.0
 40
0.0
 40
0.0
 40
0.0
 40
1.0
 40
1.0
 40
1.0
 40
1.0
 10
-10.42262516232165
 20
25.86673711770814
 30
0.0
 10
-10.39820834194634
 20
25.85910604114577
 30
0.0
 10
-10.38020234534417
 20
25.83096024915514
 30
0.0
 10
-10.37608899358207
 20
25.80571159010121
 30
0.0
  0
SPLINE
  5
145
330
1F
100
AcDbEntity
  8
Default
100
AcDbSpline
210
0.0
220
0.0
230
1.0
 70
     8
 71
     3
 72
    10
 73
     6
 74
     0
 42
0.0000000001
 43
0.0000000001
 40
0.0
 40
0.0
 40
0.0
 40
0.0
 40
1.0
 40
2.0
 40
3.0
 40
3.0
 40
3.0
 40
3.0
 10
-10.37608899358207
 20
25.80571159010121
 30
0.0
 10
-10.2818098907893
 20
25.22700569281779
 30
0.0
 10
-10.11644219862924
 20
24.06536751444635
 30
0.0
 10
-9.857306500567518
 20
22.32486943286312
 30
0.0
 10
-9.691398500429699
 20
21.16346647431934
 30
0.0
 10
-9.60863175127102
 20
20.58275560668818
 30
0.0
  0
SPLINE
  5
146
330
1F
100
AcDbEntity
  8
Default
100
AcDbSpline
210
0.0
220
0.0
230
1.0
 70
     8
 71
     3
 72
     9
 73
     5
 74
     0
 42
0.0000000001
 43
0.0000000001
 40
0.0
 40
0.0
 40
0.0
 40
0.0
 40
1.0
 40
2.0
 40
2.0
 40
2.0
 40
2.0
 10
-9.60863175127102
 20
20.58275560668818
 30
0.0
 10
-9.591219267646323
 20
20.46058554955665
 30
0.0
 10
-9.524018718532687
 20
20.21632476308205
 30
0.0
 10
-9.416097753148932
 20
19.98849504169097
 30
0.0
 10
-9.31796379062311
 20
19.91157041135983
 30
0.0
  0
SPLINE
  5
147
330
1F
100
AcDbEntity
  8
Default
100
AcDbSpline
210
0.0
220
0.0
230
1.0
 70
    24
 71
     2
 72
     6
 73
     3
 74
     0
 42
0.0000000001
 43
0.0000000001
 40
0.0
 40
0.0
 40
0.0
 40
0.2330877007434116
 40
0.2330877007434116
 40
0.2330877007434116
 10
10.35802326535043
 20
25.52340600366679
 30
0.0
 10
10.47258165145647
 20
25.5471954692566
 30
0.0
 10
10.58714003756251
 20
25.57098493484642
 30
0.0
  0
SPLINE
  5
148
330
1F
100
AcDbEntity
  8
Default
100
AcDbSpline
210
0.0
220
0.0
230
1.0
 70
    12
 71
     3
 72
    11
 73
     7
 74
     0
 42
0.0000000001
 43
0.0000000001
 40
-1.0
 40
-1.0
 40
-1.0
 40
-1.0
 40
-0.7499999988155471
 40
-0.4999999992100971
 40
-0.2499999996046464
 40
-0.1042452044392402
 40
-0.1042452044392402
 40
-0.1042452044392402
 40
-0.1042452044392402
 10
10.58714003756251
 20
25.57098493484642
 30
0.0
 41
1.0
 10
10.5940241278212
 20
25.57241448467603
 30
0.0
 41
1.0
 10
10.61111069473094
 20
25.48650846508469
 30
0.0
 41
1.0
 10
10.64082141362985
 20
25.1323440325687
 30
0.0
 41
1.0
 10
10.65406065624913
 20
24.70555192521655
 30
0.0
 41
1.0
 10
10.65380710197817
 20
24.43300513929914
 30
0.0
 41
1.0
 10
10.65310781073882
 20
24.33539921389887
 30
0.0
 41
1.0
  0
SPLINE
  5
149
330
1F
100
AcDbEntity
  8
Default
100
AcDbSpline
210
0.0
220
0.0
230
1.0
 70
     8
 71
     3
 72
     8
 73
     4
 74
     0
 42
0.0000000001
 43
0.0000000001
 40
0.0
 40
0.0
 40
0.0
 40
0.0
 40
1.0
 40
1.0
 40
1.0
 40
1.0
 10
10.14200564473336
 20
17.69111411606706
 30
0.0
 10
10.28247205401831
 20
18.19024315999491
 30
0.0
 10
10.44849976918726
 20
18.68168554160581
 30
0.0
 10
10.5864012639195
 20
19.18156882546567
 30
0.0
  0
SPLINE
  5
14A
330
1F
100
AcDbEntity
  8
Default
100
AcDbSpline
210
0.0
220
0.0
230
1.0
 70
     8
 71
     3
 72
    13
 73
     9
 74
     0
 42
0.0000000001
 43
0.0000000001
 40
-0.7408031672589086
 40
-0.7408031672589086
 40
-0.7408031672589086
 40
-0.7408031672589086
 40
0.0000000000000002
 40
0.323666798745513
 40
0.6531947481389557
 40
1.271731416662941
 40
1.751790196722357
 40
2.381920827116336
 40
2.381920827116336
 40
2.381920827116336
 40
2.381920827116336
 10
9.528386324799698
 20
14.64338950623682
 30
0.0
 10
9.640841829075839
 20
14.86460303923159
 30
0.0
 10
9.838294587662176
 20
15.1574433039747
 30
0.0
 10
10.07186801780591
 20
15.55993079951672
 30
0.0
 10
10.25849645208663
 20
15.94051861801655
 30
0.0
 10
10.42529141487947
 20
16.38788697051627
 30
0.0
 10
10.54868869631306
 20
16.95215246075693
 30
0.0
 10
10.55878005760019
 20
17.3244808653001
 30
0.0
 10
10.56187034815289
 20
17.53749431124839
 30
0.0
  0
SPLINE
  5
14B
330
1F
100
AcDbEntity
  8
Default
100
AcDbSpline
210
0.0
220
0.0
230
1.0
 70
     8
 71
     3
 72
    16
 73
    12
 74
     0
 42
0.0000000001
 43
0.0000000001
 40
2.381920827116336
 40
2.381920827116336
 40
2.381920827116336
 40
2.381920827116336
 40
3.381920827116336
 40
4.381920827116336
 40
5.381920827116336
 40
6.381920827116335
 40
7.381920827116335
 40
8.381920827116335
 40
9.381920827116335
 40
10.38192082711634
 40
11.38192082711634
 40
11.38192082711634
 40
11.38192082711634
 40
11.38192082711634
 10
10.56187034815289
 20
17.53749431124839
 30
0.0
 10
10.56640054145495
 20
17.84976012237995
 30
0.0
 10
10.57531985075764
 20
18.46702641679054
 30
0.0
 10
10.58864233622049
 20
19.39292531307928
 30
0.0
 10
10.60192066092068
 20
20.31882744060588
 30
0.0
 10
10.61511100098733
 20
21.24472269812242
 30
0.0
 10
10.62837647604917
 20
22.1706467085047
 30
0.0
 10
10.64110857737748
 20
23.09646635362373
 30
0.0
 10
10.65557840012983
 20
24.02268015550648
 30
0.0
 10
10.66331194855738
 20
24.94742526603089
 30
0.0
 10
10.66281759529423
 20
25.56777185023893
 30
0.0
 10
10.61367346624644
 20
25.87021460499042
 30
0.0
  0
SPLINE
  5
14C
330
1F
100
AcDbEntity
  8
Default
100
AcDbSpline
210
0.0
220
0.0
230
1.0
 70
     8
 71
     3
 72
    14
 73
    10
 74
     0
 42
0.0000000001
 43
0.0000000001
 40
0.0
 40
0.0
 40
0.0
 40
0.0
 40
1.0
 40
2.0
 40
3.0
 40
4.0
 40
5.0
 40
6.0
 40
7.0
 40
7.0
 40
7.0
 40
7.0
 10
10.56930082176575
 20
14.72063925454462
 30
0.0
 10
10.33241066063854
 20
14.69428040561993
 30
0.0
 10
9.857228514153974
 20
14.65391123145614
 30
0.0
 10
9.142539177883265
 20
14.62814466129412
 30
0.0
 10
8.427236274036659
 20
14.62251629039756
 30
0.0
 10
7.71408300784239
 20
14.5678610046437
 30
0.0
 10
7.00013311831421
 20
14.52302214208976
 30
0.0
 10
6.288109858903198
 20
14.47268862105429
 30
0.0
 10
5.808769812772425
 20
14.44801930796993
 30
0.0
 10
5.58176889485901
 20
14.37403069979994
 30
0.0
  0
LINE
  5
14D
330
1F
100
AcDbEntity
  8
Default
100
AcDbLine
 10
8.634307721805243
 20
15.00527090320247
 30
0.0
 11
6.771648325251221
 21
14.91898855002279
 31
0.0
  0
SPLINE
  5
14E
330
1F
100
AcDbEntity
  8
Default
100
AcDbSpline
210
0.0
220
0.0
230
1.0
 70
     8
 71
     3
 72
    13
 73
     9
 74
     0
 42
0.0000000001
 43
0.0000000001
 40
-6.823851813856487
 40
-6.823851813856487
 40
-6.823851813856487
 40
-6.823851813856487
 40
-6.281240933349355
 40
-5.874057640813247
 40
-5.734709727001422
 40
-5.647625216845664
 40
-5.559187811090736
 40
-5.476908754093682
 40
-5.476908754093682
 40
-5.476908754093682
 40
-5.476908754093682
 10
6.771648325251221
 20
14.91898855002279
 30
0.0
 10
6.591545199984125
 20
14.91064578940224
 30
0.0
 10
6.274650006225869
 20
14.88379513033117
 30
0.0
 10
5.913035572770355
 20
14.86005458071531
 30
0.0
 10
5.702913226686036
 20
14.83335515138271
 30
0.0
 10
5.599698175557933
 20
14.81833077553594
 30
0.0
 10
5.517040670506788
 20
14.78530665301231
 30
0.0
 10
5.497542287672076
 20
14.72189468014098
 30
0.0
 10
5.501006388074813
 20
14.69601439213846
 30
0.0
  0
LINE
  5
14F
330
1F
100
AcDbEntity
  8
Default
100
AcDbLine
 10
5.501006388074813
 20
14.69601439213846
 30
0.0
 11
5.528661659429616
 21
14.43480950621553
 31
0.0
  0
SPLINE
  5
150
330
1F
100
AcDbEntity
  8
Default
100
AcDbSpline
210
0.0
220
0.0
230
1.0
 70
    12
 71
     2
 72
     6
 73
     3
 74
     0
 42
0.0000000001
 43
0.0000000001
 40
0.0
 40
0.0
 40
0.0
 40
0.1061870214800932
 40
0.1061870214800932
 40
0.1061870214800932
 10
5.528661659429616
 20
14.43480950621553
 30
0.0
 41
1.0
 10
5.542618079692136
 20
14.37451868595328
 30
0.0
 41
0.8184810208292602
 10
5.603090709280735
 20
14.36736974086852
 30
0.0
 41
1.0
  0
POLYLINE
  5
151
330
1F
100
AcDbEntity
  8
Default
100
AcDb2dPolyline
 66
     1
 10
0.0
 20
0.0
 30
0.0
  0
VERTEX
  5
152
330
151
100
AcDbEntity
  8
Default
100
AcDbVertex
100
AcDb2dVertex
 10
5.603090709280735
 20
14.36736974086852
 30
0.0
  0
VERTEX
  5
153
330
151
100
AcDbEntity
  8
Default
100
AcDbVertex
100
AcDb2dVertex
 10
6.258285935290843
 20
14.24894491178266
 30
0.0
  0
SEQEND
  5
154
330
151
100
AcDbEntity
  8
Default
  0
SPLINE
  5
155
330
1F
100
AcDbEntity
  8
Default
100
AcDbSpline
210
0.0
220
0.0
230
1.0
 70
     8
 71
     3
 72
    12
 73
     8
 74
     0
 42
0.0000000001
 43
0.0000000001
 40
-4.443290175847516
 40
-4.443290175847516
 40
-4.443290175847516
 40
-4.443290175847516
 40
-4.31401685296278
 40
-3.31401685296278
 40
-2.31401685296278
 40
-1.31401685296278
 40
-0.3140168529627803
 40
-0.3140168529627803
 40
-0.3140168529627803
 40
-0.3140168529627803
 10
6.258285935290843
 20
14.24894491178266
 30
0.0
 10
6.301187876848644
 20
14.24253130336416
 30
0.0
 10
6.684920667169507
 20
14.22075790329679
 30
0.0
 10
7.403654195764375
 20
14.28854150965602
 30
0.0
 10
8.41283450094528
 20
14.4136518400029
 30
0.0
 10
9.42318100234587
 20
14.52828011977771
 30
0.0
 10
10.09606220848491
 20
14.61242692494578
 30
0.0
 10
10.42960650179504
 20
14.67332270301525
 30
0.0
  0
SPLINE
  5
156
330
1F
100
AcDbEntity
  8
Default
100
AcDbSpline
210
0.0
220
0.0
230
1.0
 70
     8
 71
     3
 72
    10
 73
     6
 74
     0
 42
0.0000000001
 43
0.0000000001
 40
-0.3140168529627803
 40
-0.3140168529627803
 40
-0.3140168529627803
 40
-0.3140168529627803
 40
-0.0000000000000003
 40
0.9999999999999998
 40
2.0
 40
2.0
 40
2.0
 40
2.0
 10
10.42960650179504
 20
14.67332270301525
 30
0.0
 10
10.58194799083824
 20
14.70113596108506
 30
0.0
 10
11.11214058972573
 20
15.09709078930741
 30
0.0
 10
11.87712493083367
 20
16.02659845224631
 30
0.0
 10
12.09047799110382
 20
17.04447428179932
 30
0.0
 10
12.10330918373407
 20
17.54954874619468
 30
0.0
  0
SPLINE
  5
157
330
1F
100
AcDbEntity
  8
Default
100
AcDbSpline
210
0.0
220
0.0
230
1.0
 70
     8
 71
     3
 72
    12
 73
     8
 74
     0
 42
0.0000000001
 43
0.0000000001
 40
2.0
 40
2.0
 40
2.0
 40
2.0
 40
3.0
 40
4.0
 40
5.0
 40
6.0
 40
7.0
 40
7.0
 40
7.0
 40
7.0
 10
12.10330918373407
 20
17.54954874619468
 30
0.0
 10
12.11623882820109
 20
18.05849857199628
 30
0.0
 10
12.14181299976693
 20
19.07640737708827
 30
0.0
 10
12.17888235481212
 20
20.60329564089967
 30
0.0
 10
12.21568211235322
 20
22.13021121832062
 30
0.0
 10
12.24856629556822
 20
23.65714391876609
 30
0.0
 10
12.2769242166209
 20
24.67513345924994
 30
0.0
 10
12.26815126822981
 20
25.18427048025932
 30
0.0
  0
SPLINE
  5
158
330
1F
100
AcDbEntity
  8
Default
100
AcDbSpline
210
0.0
220
0.0
230
1.0
 70
     8
 71
     3
 72
    11
 73
     7
 74
     0
 42
0.0000000001
 43
0.0000000001
 40
0.0
 40
0.0
 40
0.0
 40
0.0
 40
0.3096496387287225
 40
0.5091162119321627
 40
0.5786167791367458
 40
0.6321013442192785
 40
0.6321013442192785
 40
0.6321013442192785
 40
0.6321013442192785
 10
12.26815126822981
 20
25.18427048025932
 30
0.0
 10
12.26638296145481
 20
25.28689395454819
 30
0.0
 10
12.25439874333082
 20
25.59103725184335
 30
0.0
 10
12.23840502022529
 20
25.78127934144827
 30
0.0
 10
12.21911342000612
 20
25.88911591888165
 30
0.0
 10
12.1828857611612
 20
25.91671252553146
 30
0.0
 10
12.1642725731646
 20
25.91688303579597
 30
0.0
  0
SPLINE
  5
159
330
1F
100
AcDbEntity
  8
Default
100
AcDbSpline
210
0.0
220
0.0
230
1.0
 70
    12
 71
     2
 72
     7
 73
     4
 74
     0
 42
0.0000000001
 43
0.0000000001
 40
0.6321013442192785
 40
0.6321013442192785
 40
0.6321013442192785
 40
2.141129452606297
 40
2.385668941627854
 40
2.385668941627854
 40
2.385668941627854
 10
12.1642725731646
 20
25.91688303579597
 30
0.0
 41
1.0
 10
11.4110375995497
 20
25.99681300009951
 30
0.0
 41
0.9943200481919514
 10
10.53680566886085
 20
25.90242236148425
 30
0.0
 41
1.000920441776457
 10
10.42262516232165
 20
25.86673711770814
 30
0.0
 41
1.0
  0
SPLINE
  5
15A
330
1F
100
AcDbEntity
  8
Default
100
AcDbSpline
210
0.0
220
0.0
230
1.0
 70
     8
 71
     3
 72
     8
 73
     4
 74
     0
 42
0.0000000001
 43
0.0000000001
 40
0.0
 40
0.0
 40
0.0
 40
0.0
 40
1.0
 40
1.0
 40
1.0
 40
1.0
 10
10.42262516232165
 20
25.86673711770814
 30
0.0
 10
10.39820834194634
 20
25.85910604114577
 30
0.0
 10
10.38020234534417
 20
25.83096024915514
 30
0.0
 10
10.37608899358207
 20
25.80571159010121
 30
0.0
  0
SPLINE
  5
15B
330
1F
100
AcDbEntity
  8
Default
100
AcDbSpline
210
0.0
220
0.0
230
1.0
 70
     8
 71
     3
 72
    10
 73
     6
 74
     0
 42
0.0000000001
 43
0.0000000001
 40
0.0
 40
0.0
 40
0.0
 40
0.0
 40
1.0
 40
2.0
 40
3.0
 40
3.0
 40
3.0
 40
3.0
 10
10.37608899358207
 20
25.80571159010121
 30
0.0
 10
10.2818098907893
 20
25.22700569281779
 30
0.0
 10
10.11644219862924
 20
24.06536751444635
 30
0.0
 10
9.857306500567518
 20
22.32486943286312
 30
0.0
 10
9.691398500429699
 20
21.16346647431934
 30
0.0
 10
9.60863175127102
 20
20.58275560668818
 30
0.0
  0
SPLINE
  5
15C
330
1F
100
AcDbEntity
  8
Default
100
AcDbSpline
210
0.0
220
0.0
230
1.0
 70
     8
 71
     3
 72
     9
 73
     5
 74
     0
 42
0.0000000001
 43
0.0000000001
 40
0.0
 40
0.0
 40
0.0
 40
0.0
 40
1.0
 40
2.0
 40
2.0
 40
2.0
 40
2.0
 10
9.60863175127102
 20
20.58275560668818
 30
0.0
 10
9.591219267646323
 20
20.46058554955665
 30
0.0
 10
9.524018718532687
 20
20.21632476308205
 30
0.0
 10
9.416097753148932
 20
19.98849504169097
 30
0.0
 10
9.31796379062311
 20
19.91157041135983
 30
0.0
  0
SPLINE
  5
15D
330
1F
100
AcDbEntity
  8
Default
100
AcDbSpline
210
0.0
220
0.0
230
1.0
 70
     8
 71
     3
 72
     9
 73
     5
 74
     0
 42
0.0000000001
 43
0.0000000001
 40
0.0
 40
0.0
 40
0.0
 40
0.0
 40
1.0
 40
2.0
 40
2.0
 40
2.0
 40
2.0
 10
0.0
 20
17.64082748534005
 30
0.0
 10
1.649199287787326
 20
17.63862049378087
 30
0.0
 10
4.947596271407832
 20
17.6704605952919
 30
0.0
 10
8.244563450511777
 20
17.77308667409127
 30
0.0
 10
9.892233721554163
 20
17.84378914094411
 30
0.0
  0
SPLINE
  5
15E
330
1F
100
AcDbEntity
  8
Default
100
AcDbSpline
210
0.0
220
0.0
230
1.0
 70
     8
 71
     3
 72
    11
 73
     7
 74
     0
 42
0.0000000001
 43
0.0000000001
 40
-0.7982100111278871
 40
-0.7982100111278871
 40
-0.7982100111278871
 40
-0.7982100111278871
 40
-0.5021656213029607
 40
-0.3211098970399187
 40
-0.1789646551136944
 40
0.0
 40
0.0
 40
0.0
 40
0.0
 10
9.892233721554163
 20
17.84378914094411
 30
0.0
 10
10.04429985861123
 20
17.84819546267917
 30
0.0
 10
10.17177273974022
 20
17.69357045151708
 30
0.0
 10
10.18969740164536
 20
17.48391000582095
 30
0.0
 10
10.19782474755746
 20
17.3190185214114
 30
0.0
 10
10.19206000354731
 20
17.20982478469801
 30
0.0
 10
10.19204955103166
 20
17.15102655519253
 30
0.0
  0
SPLINE
  5
15F
330
1F
100
AcDbEntity
  8
Default
100
AcDbSpline
210
0.0
220
0.0
230
1.0
 70
    12
 71
     2
 72
     6
 73
     3
 74
     0
 42
0.0000000001
 43
0.0000000001
 40
-1.7974048894451
 40
-1.7974048894451
 40
-1.7974048894451
 40
0.0
 40
0.0
 40
0.0
 10
10.19204955103166
 20
17.15102655519253
 30
0.0
 41
1.0
 10
10.03410561711514
 20
16.17307220599398
 30
0.0
 41
0.9999999892929199
 10
9.885092246161463
 20
15.28455387964414
 30
0.0
 41
1.0
  0
SPLINE
  5
160
330
1F
100
AcDbEntity
  8
Default
100
AcDbSpline
210
0.0
220
0.0
230
1.0
 70
     8
 71
     3
 72
     9
 73
     5
 74
     0
 42
0.0000000001
 43
0.0000000001
 40
-2.0
 40
-2.0
 40
-2.0
 40
-2.0
 40
-1.0
 40
0.0
 40
0.0
 40
0.0
 40
0.0
 10
9.885092246161463
 20
15.28455387964414
 30
0.0
 10
9.725848844225965
 20
15.15534050419349
 30
0.0
 10
9.313991056582182
 20
15.07412683457207
 30
0.0
 10
8.913613615940989
 20
15.02855289157933
 30
0.0
 10
8.708882184104965
 20
15.02281278247554
 30
0.0
  0
SPLINE
  5
161
330
1F
100
AcDbEntity
  8
Default
100
AcDbSpline
210
0.0
220
0.0
230
1.0
 70
     8
 71
     3
 72
    10
 73
     6
 74
     0
 42
0.0000000001
 43
0.0000000001
 40
0.0
 40
0.0
 40
0.0
 40
0.0
 40
1.0
 40
2.0
 40
3.0
 40
3.0
 40
3.0
 40
3.0
 10
8.708882184104965
 20
15.02281278247554
 30
0.0
 10
7.741801970803039
 20
14.98393659900647
 30
0.0
 10
5.807037079353762
 20
14.91918239903366
 30
0.0
 10
2.903618821371367
 20
14.87946257557671
 30
0.0
 10
0.9678900974950011
 20
14.87058404568307
 30
0.0
 10
0.0
 20
14.87077842718515
 30
0.0
  0
SPLINE
  5
162
330
1F
100
AcDbEntity
  8
Default
100
AcDbSpline
210
0.0
220
0.0
230
1.0
 70
     8
 71
     3
 72
    10
 73
     6
 74
     0
 42
0.0000000001
 43
0.0000000001
 40
-3.0
 40
-3.0
 40
-3.0
 40
-3.0
 40
-2.0
 40
-1.0
 40
0.0
 40
0.0
 40
0.0
 40
0.0
 10
0.0
 20
14.87077842718515
 30
0.0
 10
-0.9678900974950011
 20
14.87058404568307
 30
0.0
 10
-2.903618821371367
 20
14.87946257557671
 30
0.0
 10
-5.807037079353762
 20
14.91918239903366
 30
0.0
 10
-7.741801970803039
 20
14.98393659900647
 30
0.0
 10
-8.708882184104965
 20
15.02281278247554
 30
0.0
  0
SPLINE
  5
163
330
1F
100
AcDbEntity
  8
Default
100
AcDbSpline
210
0.0
220
0.0
230
1.0
 70
     8
 71
     3
 72
     9
 73
     5
 74
     0
 42
0.0000000001
 43
0.0000000001
 40
0.0
 40
0.0
 40
0.0
 40
0.0
 40
1.0
 40
2.0
 40
2.0
 40
2.0
 40
2.0
 10
-8.708882184104965
 20
15.02281278247554
 30
0.0
 10
-8.913613615940989
 20
15.02855289157933
 30
0.0
 10
-9.313991056582182
 20
15.07412683457207
 30
0.0
 10
-9.725848844225965
 20
15.15534050419349
 30
0.0
 10
-9.885092246161463
 20
15.28455387964414
 30
0.0
  0
SPLINE
  5
164
330
1F
100
AcDbEntity
  8
Default
100
AcDbSpline
210
0.0
220
0.0
230
1.0
 70
    12
 71
     2
 72
     6
 73
     3
 74
     0
 42
0.0000000001
 43
0.0000000001
 40
0.0
 40
0.0
 40
0.0
 40
1.7974048894451
 40
1.7974048894451
 40
1.7974048894451
 10
-9.885092246161463
 20
15.28455387964414
 30
0.0
 41
1.0
 10
-10.03410561711511
 20
16.17307220599398
 30
0.0
 41
0.9999999892929199
 10
-10.19204955103166
 20
17.15102655519253
 30
0.0
 41
1.0
  0
SPLINE
  5
165
330
1F
100
AcDbEntity
  8
Default
100
AcDbSpline
210
0.0
220
0.0
230
1.0
 70
     8
 71
     3
 72
    11
 73
     7
 74
     0
 42
0.0000000001
 43
0.0000000001
 40
0.0
 40
0.0
 40
0.0
 40
0.0
 40
0.1789646551136944
 40
0.3211098970399187
 40
0.5021656213029607
 40
0.7982100111278871
 40
0.7982100111278871
 40
0.7982100111278871
 40
0.7982100111278871
 10
-10.19204955103166
 20
17.15102655519253
 30
0.0
 10
-10.19206000354731
 20
17.20982478469801
 30
0.0
 10
-10.19782474755746
 20
17.3190185214114
 30
0.0
 10
-10.18969740164536
 20
17.48391000582095
 30
0.0
 10
-10.17177273974022
 20
17.69357045151708
 30
0.0
 10
-10.04429985861123
 20
17.84819546267917
 30
0.0
 10
-9.892233721554163
 20
17.84378914094411
 30
0.0
  0
SPLINE
  5
166
330
1F
100
AcDbEntity
  8
Default
100
AcDbSpline
210
0.0
220
0.0
230
1.0
 70
     8
 71
     3
 72
     9
 73
     5
 74
     0
 42
0.0000000001
 43
0.0000000001
 40
-2.0
 40
-2.0
 40
-2.0
 40
-2.0
 40
-1.0
 40
0.0
 40
0.0
 40
0.0
 40
0.0
 10
-9.892233721554163
 20
17.84378914094411
 30
0.0
 10
-8.244563450511777
 20
17.77308667409127
 30
0.0
 10
-4.947596271407832
 20
17.6704605952919
 30
0.0
 10
-1.649199287787326
 20
17.63862049378087
 30
0.0
 10
0.0
 20
17.64082748534005
 30
0.0
  0
SPLINE
  5
167
330
1F
100
AcDbEntity
  8
Default
100
AcDbSpline
210
0.0
220
0.0
230
1.0
 70
     8
 71
     3
 72
     9
 73
     5
 74
     0
 42
0.0000000001
 43
0.0000000001
 40
0.0
 40
0.0
 40
0.0
 40
0.0
 40
1.0
 40
2.0
 40
2.0
 40
2.0
 40
2.0
 10
10.18648494910281
 20
17.08132626078725
 30
0.0
 10
10.10029924163348
 20
16.85852268336155
 30
0.0
 10
9.652784366113764
 20
16.65660195079163
 30
0.0
 10
9.211088171153762
 20
16.57220503359932
 30
0.0
 10
8.979993842666914
 20
16.5575872161163
 30
0.0
  0
SPLINE
  5
168
330
1F
100
AcDbEntity
  8
Default
100
AcDbSpline
210
0.0
220
0.0
230
1.0
 70
     8
 71
     3
 72
     9
 73
     5
 74
     0
 42
0.0000000001
 43
0.0000000001
 40
0.0
 40
0.0
 40
0.0
 40
0.0
 40
1.0
 40
2.0
 40
2.0
 40
2.0
 40
2.0
 10
8.979993842666914
 20
16.5575872161163
 30
0.0
 10
7.487802879888307
 20
16.41212101457813
 30
0.0
 10
4.497458204752093
 20
16.18111865072508
 30
0.0
 10
1.499345786601737
 20
16.08941519993991
 30
0.0
 10
0.0
 20
16.08928312295666
 30
0.0
  0
SPLINE
  5
169
330
1F
100
AcDbEntity
  8
Default
100
AcDbSpline
210
0.0
220
0.0
230
1.0
 70
     8
 71
     3
 72
     9
 73
     5
 74
     0
 42
0.0000000001
 43
0.0000000001
 40
-2.0
 40
-2.0
 40
-2.0
 40
-2.0
 40
-1.0
 40
0.0
 40
0.0
 40
0.0
 40
0.0
 10
0.0
 20
16.08928312295666
 30
0.0
 10
-1.499345786601737
 20
16.08941519993991
 30
0.0
 10
-4.497458204752093
 20
16.18111865072508
 30
0.0
 10
-7.487802879888307
 20
16.41212101457813
 30
0.0
 10
-8.979993842666914
 20
16.5575872161163
 30
0.0
  0
SPLINE
  5
16A
330
1F
100
AcDbEntity
  8
Default
100
AcDbSpline
210
0.0
220
0.0
230
1.0
 70
     8
 71
     3
 72
     9
 73
     5
 74
     0
 42
0.0000000001
 43
0.0000000001
 40
-2.0
 40
-2.0
 40
-2.0
 40
-2.0
 40
-1.0
 40
0.0
 40
0.0
 40
0.0
 40
0.0
 10
-8.979993842666914
 20
16.5575872161163
 30
0.0
 10
-9.211088171153762
 20
16.57220503359932
 30
0.0
 10
-9.652784366113764
 20
16.65660195079163
 30
0.0
 10
-10.10029924163348
 20
16.85852268336155
 30
0.0
 10
-10.18648494910281
 20
17.08132626078725
 30
0.0
  0
SPLINE
  5
16B
330
1F
100
AcDbEntity
  8
Default
100
AcDbSpline
210
0.0
220
0.0
230
1.0
 70
     8
 71
     2
 72
    18
 73
    15
 74
     0
 42
0.0000000001
 43
0.0000000001
 40
0.0
 40
0.0
 40
0.0
 40
1.0
 40
2.0
 40
3.0
 40
4.0
 40
5.0
 40
6.0
 40
7.0
 40
8.0
 40
9.0
 40
10.0
 40
11.0
 40
12.0
 40
13.0
 40
13.0
 40
13.0
 10
8.920709609210348
 20
17.804472642258
 30
0.0
 10
8.983070261700789
 20
18.54478373025857
 30
0.0
 10
9.050736635927422
 20
20.02950938016827
 30
0.0
 10
8.967015743398946
 20
21.51388389901427
 30
0.0
 10
8.901498916710523
 20
22.99805360082649
 30
0.0
 10
8.84032936685648
 20
24.48258875560145
 30
0.0
 10
8.779798281702426
 20
25.9671181055643
 30
0.0
 10
8.71888127875556
 20
27.45163713149409
 30
0.0
 10
8.656124680646514
 20
28.93607926640563
 30
0.0
 10
8.5900087269045
 20
30.42037605164356
 30
0.0
 10
8.52109846318018
 20
31.90454447116616
 30
0.0
 10
8.450975583185482
 20
33.38865699146189
 30
0.0
 10
8.381197175089085
 20
34.87278487274918
 30
0.0
 10
8.312564632423744
 20
36.35696700474207
 30
0.0
 10
8.268023859832624
 20
37.29537524655544
 30
0.0
  0
SPLINE
  5
16C
330
1F
100
AcDbEntity
  8
Default
100
AcDbSpline
210
0.0
220
0.0
230
1.0
 70
     8
 71
     2
 72
    13
 73
    10
 74
     0
 42
0.0000000001
 43
0.0000000001
 40
0.0
 40
0.0
 40
0.0
 40
1.0
 40
2.0
 40
3.0
 40
4.0
 40
5.0
 40
6.0
 40
7.0
 40
8.0
 40
8.0
 40
8.0
 10
8.268023859832624
 20
37.29537524655544
 30
0.0
 10
8.264707564245953
 20
37.36409363739079
 30
0.0
 10
8.25608715918014
 20
37.50141646650144
 30
0.0
 10
8.246749316012085
 20
37.63870381657293
 30
0.0
 10
8.239573242561761
 20
37.77605872614834
 30
0.0
 10
8.221448728675114
 20
37.91311151146053
 30
0.0
 10
8.158537302515185
 20
38.0377196939512
 30
0.0
 10
8.044538642683051
 20
38.11847782390439
 30
0.0
 10
7.913050426022295
 20
38.16081361540873
 30
0.0
 10
7.844920133096366
 20
38.17115849393178
 30
0.0
  0
SPLINE
  5
16D
330
1F
100
AcDbEntity
  8
Default
100
AcDbSpline
210
0.0
220
0.0
230
1.0
 70
     8
 71
     2
 72
    18
 73
    15
 74
     0
 42
0.0000000001
 43
0.0000000001
 40
0.0
 40
0.0
 40
0.0
 40
1.0
 40
2.0
 40
3.0
 40
4.0
 40
5.0
 40
6.0
 40
7.0
 40
8.0
 40
9.0
 40
10.0
 40
11.0
 40
12.0
 40
13.0
 40
13.0
 40
13.0
 10
-8.92074325432543
 20
17.804472642258
 30
0.0
 10
-8.98310390681587
 20
18.54478373025857
 30
0.0
 10
-9.050770281042503
 20
20.02950938016827
 30
0.0
 10
-8.967049388514027
 20
21.51388389901427
 30
0.0
 10
-8.901532561825604
 20
22.99805360082649
 30
0.0
 10
-8.840363011971561
 20
24.48258875560145
 30
0.0
 10
-8.779831926817508
 20
25.9671181055643
 30
0.0
 10
-8.718914923870642
 20
27.45163713149409
 30
0.0
 10
-8.656158325761595
 20
28.93607926640563
 30
0.0
 10
-8.590042372019582
 20
30.42037605164356
 30
0.0
 10
-8.521132108295262
 20
31.90454447116616
 30
0.0
 10
-8.451009228300563
 20
33.38865699146189
 30
0.0
 10
-8.381230820204166
 20
34.87278487274918
 30
0.0
 10
-8.312598277538825
 20
36.35696700474207
 30
0.0
 10
-8.268057504947706
 20
37.29537524655544
 30
0.0
  0
SPLINE
  5
16E
330
1F
100
AcDbEntity
  8
Default
100
AcDbSpline
210
0.0
220
0.0
230
1.0
 70
     8
 71
     2
 72
    13
 73
    10
 74
     0
 42
0.0000000001
 43
0.0000000001
 40
0.0
 40
0.0
 40
0.0
 40
1.0
 40
2.0
 40
3.0
 40
4.0
 40
5.0
 40
6.0
 40
7.0
 40
8.0
 40
8.0
 40
8.0
 10
-8.268057504947706
 20
37.29537524655544
 30
0.0
 10
-8.264741209361034
 20
37.36409363739079
 30
0.0
 10
-8.256120804295222
 20
37.50141646650144
 30
0.0
 10
-8.246782961127167
 20
37.63870381657293
 30
0.0
 10
-8.239606887676842
 20
37.77605872614834
 30
0.0
 10
-8.221482373790195
 20
37.91311151146053
 30
0.0
 10
-8.158570947630267
 20
38.0377196939512
 30
0.0
 10
-8.044572287798132
 20
38.11847782390439
 30
0.0
 10
-7.913084071137376
 20
38.16081361540873
 30
0.0
 10
-7.844953778211448
 20
38.17115849393178
 30
0.0
  0
SPLINE
  5
16F
330
1F
100
AcDbEntity
  8
Default
100
AcDbSpline
210
0.0
220
0.0
230
1.0
 70
     8
 71
     2
 72
     8
 73
     5
 74
     0
 42
0.0000000001
 43
0.0000000001
 40
0.0
 40
0.0
 40
0.0
 40
1.0
 40
2.0
 40
3.0
 40
3.0
 40
3.0
 10
9.198152341193861
 20
17.81528948778139
 30
0.0
 10
9.230360222486212
 20
18.16171900951608
 30
0.0
 10
9.285008709698474
 20
18.85545770770637
 30
0.0
 10
9.314359065465169
 20
19.55076672397337
 30
0.0
 10
9.316831214869097
 20
19.89871537565407
 30
0.0
  0
SPLINE
  5
170
330
1F
100
AcDbEntity
  8
Default
100
AcDbSpline
210
0.0
220
0.0
230
1.0
 70
     8
 71
     3
 72
    14
 73
    10
 74
     0
 42
0.0000000001
 43
0.0000000001
 40
0.0
 40
0.0
 40
0.0
 40
0.0
 40
0.3028488718050449
 40
0.6527819788290111
 40
1.200904011074142
 40
8.912278864253517
 40
15.97342114212051
 40
17.16924485619394
 40
17.36199190906201
 40
17.36199190906201
 40
17.36199190906201
 40
17.36199190906201
 10
9.316831214869097
 20
19.89871537565407
 30
0.0
 10
9.31628107090583
 20
19.99963289399498
 30
0.0
 10
9.31572806089639
 20
20.21732490555656
 30
0.0
 10
9.297533542860236
 20
20.61721583228964
 30
0.0
 10
9.172037883217655
 20
23.48427791446985
 30
0.0
 10
8.938977542399527
 20
28.5858425892224
 30
0.0
 10
8.710633671864201
 20
33.90372599647552
 30
0.0
 10
8.585515582733478
 20
36.71751672627738
 30
0.0
 10
8.565945571084512
 20
37.1799603977513
 30
0.0
 10
8.560690307380924
 20
37.30534655350908
 30
0.0
  0
SPLINE
  5
171
330
1F
100
AcDbEntity
  8
Default
100
AcDbSpline
210
0.0
220
0.0
230
1.0
 70
     8
 71
     3
 72
    12
 73
     8
 74
     0
 42
0.0000000001
 43
0.0000000001
 40
0.0
 40
0.0
 40
0.0
 40
0.0
 40
0.4996132194341925
 40
0.592948971471874
 40
0.673018835055183
 40
0.8494667876312023
 40
1.033114751734722
 40
1.033114751734722
 40
1.033114751734722
 40
1.033114751734722
 10
8.560690307380924
 20
37.30534655350908
 30
0.0
 10
8.550519003843533
 20
37.47152607359646
 30
0.0
 10
8.55024485896189
 20
37.66953949941856
 30
0.0
 10
8.527216390159055
 20
37.89285550537596
 30
0.0
 10
8.499279422495363
 20
38.00630525572905
 30
0.0
 10
8.423231863599312
 20
38.13701815836183
 30
0.0
 10
8.311639114456995
 20
38.19409373317538
 30
0.0
 10
8.254341434899658
 20
38.21330003276566
 30
0.0
  0
SPLINE
  5
172
330
1F
100
AcDbEntity
  8
Default
100
AcDbSpline
210
0.0
220
0.0
230
1.0
 70
     8
 71
     3
 72
     8
 73
     4
 74
     0
 42
0.0000000001
 43
0.0000000001
 40
-1.0
 40
-1.0
 40
-1.0
 40
-1.0
 40
0.0
 40
0.0
 40
0.0
 40
0.0
 10
8.254341434899658
 20
38.21330003276566
 30
0.0
 10
8.009715003229616
 20
38.29429386550905
 30
0.0
 10
7.533212991692807
 20
38.27608522829235
 30
0.0
 10
7.17177998686779
 20
38.27478416774088
 30
0.0
  0
SPLINE
  5
173
330
1F
100
AcDbEntity
  8
Default
100
AcDbSpline
210
0.0
220
0.0
230
1.0
 70
    12
 71
     2
 72
     6
 73
     3
 74
     0
 42
0.0000000001
 43
0.0000000001
 40
0.0
 40
0.0
 40
0.0
 40
7.171810624764065
 40
7.171810624764065
 40
7.171810624764065
 10
7.17177998686779
 20
38.27478416774088
 30
0.0
 41
1.0
 10
3.585893022280662
 20
38.26187594959428
 30
0.0
 41
0.9999979565168389
 10
-0.0000168225575408
 20
38.26346643505516
 30
0.0
 41
1.0
  0
SPLINE
  5
174
330
1F
100
AcDbEntity
  8
Default
100
AcDbSpline
210
0.0
220
0.0
230
1.0
 70
    12
 71
     2
 72
     6
 73
     3
 74
     0
 42
0.0000000001
 43
0.0000000001
 40
-7.171810624764065
 40
-7.171810624764065
 40
-7.171810624764065
 40
0.0
 40
0.0
 40
0.0
 10
-0.0000168225575408
 20
38.26346643505516
 30
0.0
 41
1.0
 10
-3.585926667395757
 20
38.26187594959428
 30
0.0
 41
0.9999979565168389
 10
-7.171813631982872
 20
38.27478416774088
 30
0.0
 41
1.0
  0
SPLINE
  5
175
330
1F
100
AcDbEntity
  8
Default
100
AcDbSpline
210
0.0
220
0.0
230
1.0
 70
     8
 71
     3
 72
     8
 73
     4
 74
     0
 42
0.0000000001
 43
0.0000000001
 40
0.0
 40
0.0
 40
0.0
 40
0.0
 40
1.0
 40
1.0
 40
1.0
 40
1.0
 10
-7.171813631982872
 20
38.27478416774088
 30
0.0
 10
-7.533246636807888
 20
38.27608522829235
 30
0.0
 10
-8.009748648344697
 20
38.29429386550905
 30
0.0
 10
-8.25437508001474
 20
38.21330003276566
 30
0.0
  0
SPLINE
  5
176
330
1F
100
AcDbEntity
  8
Default
100
AcDbSpline
210
0.0
220
0.0
230
1.0
 70
     8
 71
     3
 72
    12
 73
     8
 74
     0
 42
0.0000000001
 43
0.0000000001
 40
-1.033114751734722
 40
-1.033114751734722
 40
-1.033114751734722
 40
-1.033114751734722
 40
-0.8494667876312023
 40
-0.673018835055183
 40
-0.592948971471874
 40
-0.4996132194341925
 40
0.0
 40
0.0
 40
0.0
 40
0.0
 10
-8.25437508001474
 20
38.21330003276566
 30
0.0
 10
-8.311672759572076
 20
38.19409373317538
 30
0.0
 10
-8.423265508714394
 20
38.13701815836183
 30
0.0
 10
-8.499313067610444
 20
38.00630525572905
 30
0.0
 10
-8.527250035274136
 20
37.89285550537596
 30
0.0
 10
-8.55027850407697
 20
37.66953949941856
 30
0.0
 10
-8.550552648958615
 20
37.47152607359646
 30
0.0
 10
-8.560723952496005
 20
37.30534655350908
 30
0.0
  0
SPLINE
  5
177
330
1F
100
AcDbEntity
  8
Default
100
AcDbSpline
210
0.0
220
0.0
230
1.0
 70
     8
 71
     3
 72
    14
 73
    10
 74
     0
 42
0.0000000001
 43
0.0000000001
 40
-17.36199190906201
 40
-17.36199190906201
 40
-17.36199190906201
 40
-17.36199190906201
 40
-17.16924485619394
 40
-15.97342114212051
 40
-8.912278864253517
 40
-1.200904011074142
 40
-0.6527819788290111
 40
-0.3028488718050449
 40
0.0
 40
0.0
 40
0.0
 40
0.0
 10
-8.560723952496005
 20
37.30534655350908
 30
0.0
 10
-8.565979216199594
 20
37.1799603977513
 30
0.0
 10
-8.58554922784856
 20
36.71751672627738
 30
0.0
 10
-8.710667316979283
 20
33.90372599647552
 30
0.0
 10
-8.939011187514609
 20
28.5858425892224
 30
0.0
 10
-9.172071528332737
 20
23.48427791446985
 30
0.0
 10
-9.297567187975318
 20
20.61721583228964
 30
0.0
 10
-9.315761706011472
 20
20.21732490555656
 30
0.0
 10
-9.316314716020912
 20
19.99963289399498
 30
0.0
 10
-9.316864859984179
 20
19.89871537565407
 30
0.0
  0
SPLINE
  5
178
330
1F
100
AcDbEntity
  8
Default
100
AcDbSpline
210
0.0
220
0.0
230
1.0
 70
     8
 71
     2
 72
     8
 73
     5
 74
     0
 42
0.0000000001
 43
0.0000000001
 40
-3.0
 40
-3.0
 40
-3.0
 40
-2.0
 40
-1.0
 40
0.0
 40
0.0
 40
0.0
 10
-9.316864859984179
 20
19.89871537565407
 30
0.0
 10
-9.31439271058025
 20
19.55076672397337
 30
0.0
 10
-9.285042354813555
 20
18.85545770770637
 30
0.0
 10
-9.230393867601293
 20
18.16171900951608
 30
0.0
 10
-9.198185986308943
 20
17.81528948778139
 30
0.0
  0
SPLINE
  5
179
330
1F
100
AcDbEntity
  8
Default
100
AcDbSpline
210
0.0
220
0.0
230
1.0
 70
     8
 71
     2
 72
    18
 73
    15
 74
     0
 42
0.0000000001
 43
0.0000000001
 40
0.0
 40
0.0
 40
0.0
 40
1.0
 40
2.0
 40
3.0
 40
4.0
 40
5.0
 40
6.0
 40
7.0
 40
8.0
 40
9.0
 40
10.0
 40
11.0
 40
12.0
 40
13.0
 40
13.0
 40
13.0
 10
8.764186551745865
 20
17.79851414209134
 30
0.0
 10
8.828764802180189
 20
18.55036263200405
 30
0.0
 10
8.903749038923905
 20
20.05837950783833
 30
0.0
 10
8.815977284783429
 20
21.56620401837622
 30
0.0
 10
8.751004970619306
 20
23.07389729254501
 30
0.0
 10
8.69253398047968
 20
24.5820497915202
 30
0.0
 10
8.63427818046668
 20
26.09017765807089
 30
0.0
 10
8.569065020737952
 20
27.59802751298567
 30
0.0
 10
8.503351915339266
 20
29.10585254030479
 30
0.0
 10
8.435846043637582
 20
30.61359906330523
 30
0.0
 10
8.36644463504075
 20
32.12125937115263
 30
0.0
 10
8.295238784991597
 20
33.62883574426311
 30
0.0
 10
8.222282378973546
 20
35.13632798404862
 30
0.0
 10
8.14763196245599
 20
36.6437374450461
 30
0.0
 10
8.10948603952798
 20
37.39740125958261
 30
0.0
  0
SPLINE
  5
17A
330
1F
100
AcDbEntity
  8
Default
100
AcDbSpline
210
0.0
220
0.0
230
1.0
 70
     8
 71
     3
 72
    13
 73
     9
 74
     0
 42
0.0000000001
 43
0.0000000001
 40
0.0
 40
0.0
 40
0.0
 40
0.0
 40
0.3740156907789263
 40
0.5134027866897007
 40
0.7351842329626318
 40
1.039202078246286
 40
1.234528084178115
 40
1.571390251090151
 40
1.571390251090151
 40
1.571390251090151
 40
1.571390251090151
 10
8.10948603952798
 20
37.39740125958261
 30
0.0
 10
8.105635430063046
 20
37.52239843966231
 30
0.0
 10
8.089707751528806
 20
37.691946250055
 30
0.0
 10
8.077023646010787
 20
37.93793987633964
 30
0.0
 10
7.963451290018071
 20
38.14383254560269
 30
0.0
 10
7.711722503057899
 20
38.20753533916061
 30
0.0
 10
7.441915634624053
 20
38.22073621810918
 30
0.0
 10
7.2588183567496
 20
38.21362543406639
 30
0.0
 10
7.148498756378899
 20
38.21204237686771
 30
0.0
  0
SPLINE
  5
17B
330
1F
100
AcDbEntity
  8
Default
100
AcDbSpline
210
0.0
220
0.0
230
1.0
 70
    12
 71
     2
 72
     6
 73
     3
 74
     0
 42
0.0000000001
 43
0.0000000001
 40
-7.148647130791164
 40
-7.148647130791164
 40
-7.148647130791164
 40
0.0
 40
0.0
 40
0.0
 10
7.148498756378899
 20
38.21204237686771
 30
0.0
 41
1.0
 10
3.574341126480982
 20
38.1732369503066
 30
0.0
 41
0.9999854568451247
 10
-0.0000168225575408
 20
38.17184384783522
 30
0.0
 41
1.0
  0
SPLINE
  5
17C
330
1F
100
AcDbEntity
  8
Default
100
AcDbSpline
210
0.0
220
0.0
230
1.0
 70
    12
 71
     2
 72
     6
 73
     3
 74
     0
 42
0.0000000001
 43
0.0000000001
 40
0.0
 40
0.0
 40
0.0
 40
7.148647130791164
 40
7.148647130791164
 40
7.148647130791164
 10
-0.0000168225575408
 20
38.17184384783522
 30
0.0
 41
1.0
 10
-3.574374771596013
 20
38.1732369503066
 30
0.0
 41
0.9999854568451247
 10
-7.148532401493981
 20
38.21204237686771
 30
0.0
 41
1.0
  0
SPLINE
  5
17D
330
1F
100
AcDbEntity
  8
Default
100
AcDbSpline
210
0.0
220
0.0
230
1.0
 70
     8
 71
     3
 72
    13
 73
     9
 74
     0
 42
0.0000000001
 43
0.0000000001
 40
-1.571390251090151
 40
-1.571390251090151
 40
-1.571390251090151
 40
-1.571390251090151
 40
-1.234528084178115
 40
-1.039202078246286
 40
-0.7351842329626318
 40
-0.5134027866897007
 40
-0.3740156907789263
 40
0.0
 40
0.0
 40
0.0
 40
0.0
 10
-7.148532401493981
 20
38.21204237686771
 30
0.0
 10
-7.258852001864682
 20
38.21362543406639
 30
0.0
 10
-7.441949279739134
 20
38.22073621810918
 30
0.0
 10
-7.711756148172981
 20
38.20753533916061
 30
0.0
 10
-7.963484935133152
 20
38.14383254560269
 30
0.0
 10
-8.077057291125868
 20
37.93793987633964
 30
0.0
 10
-8.089741396643888
 20
37.691946250055
 30
0.0
 10
-8.105669075178128
 20
37.52239843966231
 30
0.0
 10
-8.109519684643061
 20
37.39740125958261
 30
0.0
  0
SPLINE
  5
17E
330
1F
100
AcDbEntity
  8
Default
100
AcDbSpline
210
0.0
220
0.0
230
1.0
 70
     8
 71
     2
 72
    18
 73
    15
 74
     0
 42
0.0000000001
 43
0.0000000001
 40
-13.0
 40
-13.0
 40
-13.0
 40
-12.0
 40
-11.0
 40
-10.0
 40
-9.0
 40
-8.0
 40
-7.0
 40
-6.0
 40
-5.0
 40
-4.0
 40
-3.0
 40
-2.0
 40
-1.0
 40
0.0
 40
0.0
 40
0.0
 10
-8.109519684643061
 20
37.39740125958261
 30
0.0
 10
-8.14766560757107
 20
36.6437374450461
 30
0.0
 10
-8.222316024088627
 20
35.13632798404862
 30
0.0
 10
-8.295272430106678
 20
33.62883574426311
 30
0.0
 10
-8.366478280155832
 20
32.12125937115263
 30
0.0
 10
-8.435879688752664
 20
30.61359906330523
 30
0.0
 10
-8.503385560454348
 20
29.10585254030479
 30
0.0
 10
-8.569098665853033
 20
27.59802751298567
 30
0.0
 10
-8.634311825581761
 20
26.09017765807089
 30
0.0
 10
-8.692567625594762
 20
24.5820497915202
 30
0.0
 10
-8.751038615734387
 20
23.07389729254501
 30
0.0
 10
-8.81601092989851
 20
21.56620401837622
 30
0.0
 10
-8.903782684038987
 20
20.05837950783833
 30
0.0
 10
-8.82879844729527
 20
18.55036263200405
 30
0.0
 10
-8.764220196860947
 20
17.79851414209134
 30
0.0
  0
SPLINE
  5
17F
330
1F
100
AcDbEntity
  8
Default
100
AcDbSpline
210
0.0
220
0.0
230
1.0
 70
    12
 71
     2
 72
     6
 73
     3
 74
     0
 42
0.0000000001
 43
0.0000000001
 40
0.0
 40
0.0
 40
0.0
 40
0.8743213404625377
 40
0.8743213404625377
 40
0.8743213404625377
 10
29.92266728859542
 20
37.83856846728688
 30
0.0
 41
1.0
 10
30.35980477200467
 20
37.84307808489791
 30
0.0
 41
0.9999997470482457
 10
30.79796076592899
 20
37.84822179250008
 30
0.0
 41
1.0
  0
SPLINE
  5
180
330
1F
100
AcDbEntity
  8
Default
100
AcDbSpline
210
0.0
220
0.0
230
1.0
 70
     8
 71
     3
 72
    12
 73
     8
 74
     0
 42
0.0000000001
 43
0.0000000001
 40
0.8743213404625377
 40
0.8743213404625377
 40
0.8743213404625377
 40
0.8743213404625377
 40
1.138660546195376
 40
1.387251521341971
 40
1.834974839995687
 40
2.214388437010424
 40
2.712331085191272
 40
2.712331085191272
 40
2.712331085191272
 40
2.712331085191272
 10
30.79796076592899
 20
37.84822179250008
 30
0.0
 10
30.8868064171966
 20
37.84944676494993
 30
0.0
 10
31.05878808152559
 20
37.84462616556286
 30
0.0
 10
31.37444432016181
 20
37.79408592366221
 30
0.0
 10
31.71271458185325
 20
37.65393252760887
 30
0.0
 10
32.01628819690504
 20
37.31690458670133
 30
0.0
 10
32.08710503282018
 20
37.0244946995702
 30
0.0
 10
32.13408742470509
 20
36.86335925891532
 30
0.0
  0
SPLINE
  5
181
330
1F
100
AcDbEntity
  8
Default
100
AcDbSpline
210
0.0
220
0.0
230
1.0
 70
     8
 71
     3
 72
    18
 73
    14
 74
     0
 42
0.0000000001
 43
0.0000000001
 40
2.712331085191272
 40
2.712331085191272
 40
2.712331085191272
 40
2.712331085191272
 40
8.919355798781442
 40
11.9900309423611
 40
12.42586861119949
 40
12.86113676539527
 40
13.2421977070965
 40
13.62330524871981
 40
14.81792507034535
 40
16.12000834074925
 40
16.87803512962703
 40
17.63583349679216
 40
20.29318842657093
 40
20.29318842657093
 40
20.29318842657093
 40
20.29318842657093
 10
32.13408742470509
 20
36.86335925891532
 30
0.0
 10
32.71426030500984
 20
34.87354118083763
 30
0.0
 10
33.56825491544853
 20
31.90127224045804
 30
0.0
 10
34.4840020338078
 20
28.79551263479945
 30
0.0
 10
34.83552201052808
 20
27.5294806232782
 30
0.0
 10
34.91814844750118
 20
27.11984907732679
 30
0.0
 10
34.98672823955027
 20
26.72677027613909
 30
0.0
 10
35.06151804577965
 20
26.07849782782174
 30
0.0
 10
35.06180030791913
 20
25.11554452923511
 30
0.0
 10
34.88224371428046
 20
24.04272906492068
 30
0.0
 10
34.64980541222761
 20
23.13263193637499
 30
0.0
 10
34.24652499221807
 20
21.80083867421675
 30
0.0
 10
33.85214948541093
 20
20.73240682942276
 30
0.0
 10
33.56752751621835
 20
19.89366112995472
 30
0.0
  0
SPLINE
  5
182
330
1F
100
AcDbEntity
  8
Default
100
AcDbSpline
210
0.0
220
0.0
230
1.0
 70
     8
 71
     3
 72
    16
 73
    12
 74
     0
 42
0.0000000001
 43
0.0000000001
 40
0.0
 40
0.0
 40
0.0
 40
0.0
 40
0.9511688236708397
 40
1.843826952956029
 40
3.628693644573981
 40
4.473690344325467
 40
5.510480396407758
 40
9.654804754697702
 40
12.46042094318067
 40
13.49591209451729
 40
13.83122906658332
 40
13.83122906658332
 40
13.83122906658332
 40
13.83122906658332
 10
35.51359333824436
 20
23.84867136453479
 30
0.0
 10
35.54896305178127
 20
24.16338397364095
 30
0.0
 10
35.5967304085809
 20
24.77773308203024
 30
0.0
 10
35.57931260996989
 20
25.98669547560343
 30
0.0
 10
35.43103543432622
 20
27.15697848706694
 30
0.0
 10
35.1056595687057
 20
28.33574189932017
 30
0.0
 10
34.53142272674702
 20
30.26045524901323
 30
0.0
 10
33.80027259438216
 20
32.82055172994851
 30
0.0
 10
33.04553975706673
 20
35.37301757615759
 30
0.0
 10
32.6585073871174
 20
36.71034050913059
 30
0.0
 10
32.53167091282316
 20
37.14929233210407
 30
0.0
 10
32.48320818105393
 20
37.31247050439603
 30
0.0
  0
SPLINE
  5
183
330
1F
100
AcDbEntity
  8
Default
100
AcDbSpline
210
0.0
220
0.0
230
1.0
 70
     8
 71
     3
 72
    12
 73
     8
 74
     0
 42
0.0000000001
 43
0.0000000001
 40
0.0
 40
0.0
 40
0.0
 40
0.0
 40
0.2392259272274649
 40
0.4836634656519816
 40
0.9490167556159299
 40
1.43421194495027
 40
1.993629350216529
 40
1.993629350216529
 40
1.993629350216529
 40
1.993629350216529
 10
32.48320818105393
 20
37.31247050439603
 30
0.0
 10
32.458986933906
 20
37.38840336214906
 30
0.0
 10
32.39395602691283
 20
37.5368499961543
 30
0.0
 10
32.22292061182335
 20
37.80358252932271
 30
0.0
 10
31.92139090888
 20
38.07573216212174
 30
0.0
 10
31.4427912219119
 20
38.25187501596278
 30
0.0
 10
31.09348476763913
 20
38.28146227321366
 30
0.0
 10
30.90167349291792
 20
38.27552588385831
 30
0.0
  0
SPLINE
  5
184
330
1F
100
AcDbEntity
  8
Default
100
AcDbSpline
210
0.0
220
0.0
230
1.0
 70
     8
 71
     3
 72
    11
 73
     7
 74
     0
 42
0.0000000001
 43
0.0000000001
 40
0.0
 40
0.0
 40
0.0
 40
0.0
 40
0.929772051121265
 40
0.9487294874956451
 40
0.9678734626315435
 40
1.005290976491252
 40
1.005290976491252
 40
1.005290976491252
 40
1.005290976491252
 10
30.90167349291792
 20
38.27552588385831
 30
0.0
 10
30.58642413356816
 20
38.27052902499304
 30
0.0
 10
30.27012585876113
 20
38.26845536632374
 30
0.0
 10
29.94757774567947
 20
38.26461660087696
 30
0.0
 10
29.92741061399457
 20
38.24207942715813
 30
0.0
 10
29.9196396681676
 20
38.22939962727912
 30
0.0
 10
29.91993880730868
 20
38.2148039917499
 30
0.0
  0
POLYLINE
  5
185
330
1F
100
AcDbEntity
  8
Default
100
AcDb2dPolyline
 66
     1
 10
0.0
 20
0.0
 30
0.0
  0
VERTEX
  5
186
330
185
100
AcDbEntity
  8
Default
100
AcDbVertex
100
AcDb2dVertex
 10
29.91993880730868
 20
38.2148039917499
 30
0.0
  0
VERTEX
  5
187
330
185
100
AcDbEntity
  8
Default
100
AcDbVertex
100
AcDb2dVertex
 10
29.92266728859542
 20
37.83856846728688
 30
0.0
  0
SEQEND
  5
188
330
185
100
AcDbEntity
  8
Default
  0
SPLINE
  5
189
330
1F
100
AcDbEntity
  8
Default
100
AcDbSpline
210
0.0
220
0.0
230
1.0
 70
     8
 71
     3
 72
     8
 73
     4
 74
     0
 42
0.0000000001
 43
0.0000000001
 40
-1.0
 40
-1.0
 40
-1.0
 40
-1.0
 40
0.0
 40
0.0
 40
0.0
 40
0.0
 10
29.92266728859542
 20
37.83856846728688
 30
0.0
 10
29.92271625538334
 20
37.83181634287016
 30
0.0
 10
29.92419065805652
 20
37.82494036240558
 30
0.0
 10
29.92691444002074
 20
37.81876180321299
 30
0.0
  0
SPLINE
  5
18A
330
1F
100
AcDbEntity
  8
Default
100
AcDbSpline
210
0.0
220
0.0
230
1.0
 70
    12
 71
     2
 72
     6
 73
     3
 74
     0
 42
0.0000000001
 43
0.0000000001
 40
0.0
 40
0.0
 40
0.0
 40
0.9392716442610249
 40
0.9392716442610249
 40
0.9392716442610249
 10
29.92691444002074
 20
37.81876180321299
 30
0.0
 41
1.0
 10
30.11638109450966
 20
37.3889803613957
 30
0.0
 41
0.9998235715473286
 10
30.32185693755221
 20
36.96661869313056
 30
0.0
 41
1.0
  0
SPLINE
  5
18B
330
1F
100
AcDbEntity
  8
Default
100
AcDbSpline
210
0.0
220
0.0
230
1.0
 70
    12
 71
     2
 72
     8
 73
     5
 74
     0
 42
0.0000000001
 43
0.0000000001
 40
0.0
 40
0.0
 40
0.0
 40
0.0338108714181637
 40
0.0338108714181637
 40
0.0676078509922222
 40
0.0676078509922222
 40
0.0676078509922222
 10
30.32185693755221
 20
36.96661869313056
 30
0.0
 41
1.0
 10
30.32954619628063
 20
36.95081321197587
 30
0.0
 41
0.9434066434660175
 10
30.34543417772338
 20
36.94329589995624
 30
0.0
 41
1.0
 10
30.3613152393489
 20
36.93578186210508
 30
0.0
 41
0.9434299856670458
 10
30.37844446070479
 20
36.93969163428216
 30
0.0
 41
0.9999536892172427
  0
ARC
  5
18C
330
1F
100
AcDbEntity
  8
Default
100
AcDbCircle
 10
60.01269719777113
 20
-156.8994450631633
 30
0.0
 40
196.0913048834529
100
AcDbArc
 50
98.38748317767293
 51
98.69211406164517
  0
ARC
  5
18D
330
1F
100
AcDbEntity
  8
Default
100
AcDbCircle
 10
31.11255331960118
 20
36.77233110953139
 30
0.0
 40
0.4381280270929688
100
AcDbArc
 50
10.2016191609033
 51
47.33724716767851
  0
SPLINE
  5
18E
330
1F
100
AcDbEntity
  8
Default
100
AcDbSpline
210
0.0
220
0.0
230
1.0
 70
     8
 71
     3
 72
    14
 73
    10
 74
     0
 42
0.0000000001
 43
0.0000000001
 40
20.53755021626728
 40
20.53755021626728
 40
20.53755021626728
 40
20.53755021626728
 40
29.23753415029324
 40
29.66965093297661
 40
31.62864604970013
 40
32.9364448495781
 40
34.22857056586538
 40
35.73177961615749
 40
37.95830360486721
 40
37.95830360486721
 40
37.95830360486721
 40
37.95830360486721
 10
31.54375480687187
 20
36.84992908308672
 30
0.0
 10
32.2336508777905
 20
34.03049416614553
 30
0.0
 10
32.96568233351493
 20
31.07510682457655
 30
0.0
 10
33.85205566919453
 20
27.48667604244679
 30
0.0
 10
34.07875359793033
 20
26.27029001187026
 30
0.0
 10
34.07794208243129
 20
24.74481860592365
 30
0.0
 10
33.88115090230522
 20
23.38912634606226
 30
0.0
 10
33.45206093039732
 20
21.7688528772801
 30
0.0
 10
33.04384818653708
 20
20.59432598362815
 30
0.0
 10
32.79901700749647
 20
19.89366112995475
 30
0.0
  0
SPLINE
  5
18F
330
1F
100
AcDbEntity
  8
Default
100
AcDbSpline
210
0.0
220
0.0
230
1.0
 70
    15
 71
     2
 72
    12
 73
     9
 74
     0
 42
0.0000000001
 43
0.0000000001
 40
0.0
 40
0.0
 40
0.0
 40
1.570796326794897
 40
1.570796326794897
 40
3.141592653589793
 40
3.141592653589793
 40
4.71238898038469
 40
4.71238898038469
 40
6.283185307179586
 40
6.283185307179586
 40
6.283185307179586
 10
39.0283810335859
 20
13.55722066937363
 30
0.0
 41
1.0
 10
39.03661459546588
 20
13.38054634369402
 30
0.0
 41
0.7071067811865475
 10
38.64139732069904
 20
13.36212801451511
 30
0.0
 41
1.0
 10
38.24618004593221
 20
13.3437096853362
 30
0.0
 41
0.7071067811865475
 10
38.23794648405223
 20
13.52038401101581
 30
0.0
 41
1.0
 10
38.22971292217225
 20
13.69705833669542
 30
0.0
 41
0.7071067811865475
 10
38.62493019693909
 20
13.71547666587433
 30
0.0
 41
1.0
 10
39.02014747170592
 20
13.73389499505324
 30
0.0
 41
0.7071067811865475
 10
39.0283810335859
 20
13.55722066937363
 30
0.0
 41
1.0
  0
SPLINE
  5
190
330
1F
100
AcDbEntity
  8
Default
100
AcDbSpline
210
0.0
220
0.0
230
1.0
 70
     8
 71
     3
 72
    13
 73
     9
 74
     0
 42
0.0000000001
 43
0.0000000001
 40
0.0
 40
0.0
 40
0.0
 40
0.0
 40
0.2981212301897421
 40
0.6520033169486958
 40
1.75866747796116
 40
2.02792014509328
 40
2.255864737809856
 40
2.398137421766556
 40
2.398137421766556
 40
2.398137421766556
 40
2.398137421766556
 10
36.54133470370002
 20
13.90084109768012
 30
0.0
 10
36.58602892456446
 20
13.81200118606837
 30
0.0
 10
36.69438823941104
 20
13.6235892947377
 30
0.0
 10
37.01955529979581
 20
13.13517285548259
 30
0.0
 10
37.38625729336763
 20
12.68928141601311
 30
0.0
 10
37.70130008157372
 20
12.25739389131447
 30
0.0
 10
37.81252978916731
 20
12.07503389510526
 30
0.0
 10
37.85530431697842
 20
11.95809361000831
 30
0.0
 10
37.85627469501439
 20
11.91000000000027
 30
0.0
  0
POLYLINE
  5
191
330
1F
100
AcDbEntity
  8
Default
100
AcDb2dPolyline
 66
     1
 10
0.0
 20
0.0
 30
0.0
  0
VERTEX
  5
192
330
191
100
AcDbEntity
  8
Default
100
AcDbVertex
100
AcDb2dVertex
 10
37.85627469501439
 20
11.91000000000027
 30
0.0
  0
VERTEX
  5
193
330
191
100
AcDbEntity
  8
Default
100
AcDbVertex
100
AcDb2dVertex
 10
39.65627954711903
 20
11.91000000000007
 30
0.0
  0
SEQEND
  5
194
330
191
100
AcDbEntity
  8
Default
  0
SPLINE
  5
195
330
1F
100
AcDbEntity
  8
Default
100
AcDbSpline
210
0.0
220
0.0
230
1.0
 70
     8
 71
     3
 72
    15
 73
    11
 74
     0
 42
0.0000000001
 43
0.0000000001
 40
0.0
 40
0.0
 40
0.0
 40
0.0
 40
0.088124537773721
 40
0.2036322619254046
 40
0.5536785235545338
 40
0.9663894600886548
 40
2.317551417327636
 40
3.055061107656349
 40
3.592815813003495
 40
4.012666374301555
 40
4.012666374301555
 40
4.012666374301555
 40
4.012666374301555
 10
39.65627954711903
 20
11.91000000000007
 30
0.0
 10
39.65687578261148
 20
11.93895775382463
 30
0.0
 10
39.6769980974691
 20
12.0064440679532
 30
0.0
 10
39.79861276696815
 20
12.14756875534938
 30
0.0
 10
40.04210890694191
 20
12.31296863728652
 30
0.0
 10
40.66137844530559
 20
12.64828444875094
 30
0.0
 10
41.41827591552476
 20
13.00069909328631
 30
0.0
 10
42.17271204726792
 20
13.44680512307155
 30
0.0
 10
42.61869722373932
 20
13.79685923891439
 30
0.0
 10
42.82143727289868
 20
14.04723611313205
 30
0.0
 10
42.88650831992916
 20
14.17154300680757
 30
0.0
  0
SPLINE
  5
196
330
1F
100
AcDbEntity
  8
Default
100
AcDbSpline
210
0.0
220
0.0
230
1.0
 70
    24
 71
     2
 72
     6
 73
     3
 74
     0
 42
0.0000000001
 43
0.0000000001
 40
0.0
 40
0.0
 40
0.0
 40
0.3849119340617779
 40
0.3849119340617779
 40
0.3849119340617779
 10
-2.756837171962275
 20
14.37677097496763
 30
0.0
 10
-2.94929313899317
 20
14.37677097496763
 30
0.0
 10
-3.141749106024065
 20
14.37677097496763
 30
0.0
  0
SPLINE
  5
197
330
1F
100
AcDbEntity
  8
Default
100
AcDbSpline
210
0.0
220
0.0
230
1.0
 70
    12
 71
     2
 72
     6
 73
     3
 74
     0
 42
0.0000000001
 43
0.0000000001
 40
0.0
 40
0.0
 40
0.0
 40
0.7853981633974483
 40
0.7853981633974483
 40
0.7853981633974483
 10
-3.141749106024065
 20
14.37677097496763
 30
0.0
 41
1.0
 10
-3.641749106024054
 20
14.37677097496763
 30
0.0
 41
0.7071067811865476
 10
-3.641749106024065
 20
14.39858066865031
 30
0.0
 41
1.0
  0
SPLINE
  5
198
330
1F
100
AcDbEntity
  8
Default
100
AcDbSpline
210
0.0
220
0.0
230
1.0
 70
    24
 71
     2
 72
     6
 73
     3
 74
     0
 42
0.0000000001
 43
0.0000000001
 40
0.0
 40
0.0
 40
0.0
 40
0.359945810699692
 40
0.359945810699692
 40
0.359945810699692
 10
-3.641749106024065
 20
14.39858066865031
 30
0.0
 10
-3.641749106024065
 20
14.57855357400016
 30
0.0
 10
-3.641749106024065
 20
14.75852647935
 30
0.0
  0
SPLINE
  5
199
330
1F
100
AcDbEntity
  8
Default
100
AcDbSpline
210
0.0
220
0.0
230
1.0
 70
    12
 71
     2
 72
     6
 73
     3
 74
     0
 42
0.0000000001
 43
0.0000000001
 40
0.0
 40
0.0
 40
0.0
 40
0.7853981633974483
 40
0.7853981633974483
 40
0.7853981633974483
 10
-3.641749106024065
 20
14.75852647935
 30
0.0
 41
1.0
 10
-3.641749106024054
 20
14.78033617303267
 30
0.0
 41
0.7071067811865476
 10
-3.141749106024065
 20
14.78033617303269
 30
0.0
 41
1.0
  0
SPLINE
  5
19A
330
1F
100
AcDbEntity
  8
Default
100
AcDbSpline
210
0.0
220
0.0
230
1.0
 70
    24
 71
     2
 72
     6
 73
     3
 74
     0
 42
0.0000000001
 43
0.0000000001
 40
0.0
 40
0.0
 40
0.0
 40
6.283464566930007
 40
6.283464566930007
 40
6.283464566930007
 10
-3.141749106024065
 20
14.78033617303269
 30
0.0
 10
-0.0000168225590613
 20
14.78033617303269
 30
0.0
 10
3.141715460905942
 20
14.78033617303269
 30
0.0
  0
SPLINE
  5
19B
330
1F
100
AcDbEntity
  8
Default
100
AcDbSpline
210
0.0
220
0.0
230
1.0
 70
    12
 71
     2
 72
     6
 73
     3
 74
     0
 42
0.0000000001
 43
0.0000000001
 40
0.0
 40
0.0
 40
0.0
 40
0.7853981633974483
 40
0.7853981633974483
 40
0.7853981633974483
 10
3.141715460905942
 20
14.78033617303269
 30
0.0
 41
1.0
 10
3.641715460905954
 20
14.78033617303267
 30
0.0
 41
0.7071067811865476
 10
3.641715460905942
 20
14.75852647935
 30
0.0
 41
1.0
  0
SPLINE
  5
19C
330
1F
100
AcDbEntity
  8
Default
100
AcDbSpline
210
0.0
220
0.0
230
1.0
 70
    24
 71
     2
 72
     6
 73
     3
 74
     0
 42
0.0000000001
 43
0.0000000001
 40
0.0
 40
0.0
 40
0.0
 40
0.359945810699692
 40
0.359945810699692
 40
0.359945810699692
 10
3.641715460905942
 20
14.75852647935
 30
0.0
 10
3.641715460905942
 20
14.57855357400016
 30
0.0
 10
3.641715460905942
 20
14.39858066865031
 30
0.0
  0
SPLINE
  5
19D
330
1F
100
AcDbEntity
  8
Default
100
AcDbSpline
210
0.0
220
0.0
230
1.0
 70
    12
 71
     2
 72
     6
 73
     3
 74
     0
 42
0.0000000001
 43
0.0000000001
 40
0.0
 40
0.0
 40
0.0
 40
0.7853981633984484
 40
0.7853981633984484
 40
0.7853981633984484
 10
3.641715460905942
 20
14.39858066865031
 30
0.0
 41
1.0
 10
3.64171546090596
 20
14.37677097496759
 30
0.0
 41
0.7071067811858404
 10
3.141715460904948
 20
14.37677097496763
 30
0.0
 41
1.0
  0
SPLINE
  5
19E
330
1F
100
AcDbEntity
  8
Default
100
AcDbSpline
210
0.0
220
0.0
230
1.0
 70
    24
 71
     2
 72
     6
 73
     3
 74
     0
 42
0.0000000001
 43
0.0000000001
 40
0.0
 40
0.0
 40
0.0
 40
0.384898494982103
 40
0.384898494982103
 40
0.384898494982103
 10
3.141715460904948
 20
14.37677097496763
 30
0.0
 10
2.949266213413893
 20
14.37677097496763
 30
0.0
 10
2.756816965922837
 20
14.37677097496763
 30
0.0
  0
SPLINE
  5
19F
330
1F
100
AcDbEntity
  8
Default
100
AcDbSpline
210
0.0
220
0.0
230
1.0
 70
    12
 71
     2
 72
     6
 73
     3
 74
     0
 42
0.0000000001
 43
0.0000000001
 40
-0.0927557571444814
 40
-0.0927557571444814
 40
-0.0927557571444814
 40
0.0
 40
0.0
 40
0.0
 10
2.632562796050649
 20
13.88191098537943
 30
0.0
 41
1.0
 10
2.629920981097007
 20
13.92821713924079
 30
0.0
 41
0.9998844437718732
 10
2.625872662754944
 20
13.9744215783163
 30
0.0
 41
1.0
  0
SPLINE
  5
1A0
330
1F
100
AcDbEntity
  8
Default
100
AcDbSpline
210
0.0
220
0.0
230
1.0
 70
     8
 71
     3
 72
    22
 73
    18
 74
     0
 42
0.0000000001
 43
0.0000000001
 40
0.0
 40
0.0
 40
0.0
 40
0.0
 40
1.0
 40
2.0
 40
3.0
 40
4.0
 40
5.0
 40
6.0
 40
7.0
 40
8.0
 40
9.0
 40
10.0
 40
11.0
 40
12.0
 40
13.0
 40
14.0
 40
15.0
 40
15.0
 40
15.0
 40
15.0
 10
2.625872662754944
 20
13.9744215783163
 30
0.0
 10
2.528447911769334
 20
14.03587512581644
 30
0.0
 10
2.286937103862485
 20
14.05855004513072
 30
0.0
 10
1.940779182341146
 20
14.11668936144154
 30
0.0
 10
1.588391997058139
 20
14.15420132316261
 30
0.0
 10
1.236406168625777
 20
14.18519229066615
 30
0.0
 10
0.8834929433612473
 20
14.20774254333873
 30
0.0
 10
0.5302604429188733
 20
14.22275921061564
 30
0.0
 10
0.1767646404413625
 20
14.23017044109514
 30
0.0
 10
-0.1768005199461129
 20
14.2302017197212
 30
0.0
 10
-0.5302974991675597
 20
14.22283901562045
 30
0.0
 10
-0.8835302496125337
 20
14.20782185473521
 30
0.0
 10
-1.236439212706557
 20
14.1851973567991
 30
0.0
 10
-1.588407291520198
 20
14.15398697722726
 30
0.0
 10
-1.940785852387947
 20
14.11646176031612
 30
0.0
 10
-2.287051985259666
 20
14.05903263615769
 30
0.0
 10
-2.528462706534611
 20
14.03576420108581
 30
0.0
 10
-2.625906311258689
 20
13.9744215783163
 30
0.0
  0
SPLINE
  5
1A1
330
1F
100
AcDbEntity
  8
Default
100
AcDbSpline
210
0.0
220
0.0
230
1.0
 70
    12
 71
     2
 72
     6
 73
     3
 74
     0
 42
0.0000000001
 43
0.0000000001
 40
0.0
 40
0.0
 40
0.0
 40
0.0927557571444814
 40
0.0927557571444814
 40
0.0927557571444814
 10
-2.625906311258689
 20
13.9744215783163
 30
0.0
 41
1.0
 10
-2.629954634277943
 20
13.92821713924079
 30
0.0
 41
0.9998844437718732
 10
-2.632596449231585
 20
13.88191098537943
 30
0.0
 41
1.0
  0
POLYLINE
  5
1A2
330
1F
100
AcDbEntity
  8
Default
100
AcDb2dPolyline
 66
     1
 10
0.0
 20
0.0
 30
0.0
  0
VERTEX
  5
1A3
330
1A2
100
AcDbEntity
  8
Default
100
AcDbVertex
100
AcDb2dVertex
 10
-2.180323590594739
 20
13.85484220677441
 30
0.0
  0
VERTEX
  5
1A4
330
1A2
100
AcDbEntity
  8
Default
100
AcDbVertex
100
AcDb2dVertex
 10
-2.574145395122926
 20
13.82797388262147
 30
0.0
  0
SEQEND
  5
1A5
330
1A2
100
AcDbEntity
  8
Default
  0
ARC
  5
1A6
330
1F
100
AcDbEntity
  8
Default
100
AcDbCircle
 10
-2.617012959583477
 20
13.8857034112549
 30
0.0
 40
0.0719049828524945
100
AcDbArc
 50
202.294812665826
 51
306.5960548147264
  0
SPLINE
  5
1A7
330
1F
100
AcDbEntity
  8
Default
100
AcDbSpline
210
0.0
220
0.0
230
1.0
 70
    12
 71
     2
 72
    14
 73
    11
 74
     0
 42
0.0000000001
 43
0.0000000001
 40
-6.133786681467222
 40
-6.133786681467222
 40
-6.133786681467222
 40
-5.417515997292589
 40
-5.417515997292589
 40
-5.232992932541986
 40
-5.232992932541986
 40
0.0000000000000001
 40
0.0000000000000001
 40
0.1845073348419032
 40
0.1845073348419032
 40
0.9803787898738036
 40
0.9803787898738036
 40
0.9803787898738036
 10
-2.683542618503594
 20
13.85842464583213
 30
0.0
 41
1.0
 10
-2.749814121838412
 20
14.32684693877734
 30
0.0
 41
1.0
 10
-2.79970349156676
 20
14.6814903851289
 30
0.0
 41
1.0
 10
-2.707577879201807
 20
14.686261085756
 30
0.0
 41
1.0
 10
-2.615452266836854
 20
14.69103178638311
 30
0.0
 41
1.0
 10
-0.0000168251813454
 20
14.82647142343203
 30
0.0
 41
0.9986618594433156
 10
2.615418607172842
 20
14.69103160676815
 30
0.0
 41
1.0
 10
2.707552565575128
 20
14.68626046759945
 30
0.0
 41
1.0
 10
2.7996865239774
 20
14.68148932843074
 30
0.0
 41
1.0
 10
2.744248541347218
 20
14.28743416311053
 30
0.0
 41
1.0
 10
2.683508974677039
 20
13.85842464583213
 30
0.0
 41
1.0
  0
ARC
  5
1A8
330
1F
100
AcDbEntity
  8
Default
100
AcDbCircle
 10
2.616979315756922
 20
13.8857034112549
 30
0.0
 40
0.0719049828524945
100
AcDbArc
 50
233.4039451852736
 51
337.705187334174
  0
POLYLINE
  5
1A9
330
1F
100
AcDbEntity
  8
Default
100
AcDb2dPolyline
 66
     1
 10
0.0
 20
0.0
 30
0.0
  0
VERTEX
  5
1AA
330
1A9
100
AcDbEntity
  8
Default
100
AcDbVertex
100
AcDb2dVertex
 10
2.574111751296371
 20
13.82797388262147
 30
0.0
  0
VERTEX
  5
1AB
330
1A9
100
AcDbEntity
  8
Default
100
AcDbVertex
100
AcDb2dVertex
 10
2.180289946768184
 20
13.85484220677441
 30
0.0
  0
SEQEND
  5
1AC
330
1A9
100
AcDbEntity
  8
Default
  0
SPLINE
  5
1AD
330
1F
100
AcDbEntity
  8
Default
100
AcDbSpline
210
0.0
220
0.0
230
1.0
 70
     8
 71
     3
 72
    12
 73
     8
 74
     0
 42
0.0000000001
 43
0.0000000001
 40
-5.0
 40
-5.0
 40
-5.0
 40
-5.0
 40
-4.0
 40
-3.0
 40
-2.0
 40
-1.0
 40
0.0
 40
0.0
 40
0.0
 40
0.0
 10
-2.282468573984886
 20
14.06398661933031
 30
0.0
 10
-2.209934727431445
 20
13.90859709423899
 30
0.0
 10
-2.053673335577329
 20
13.60191426146723
 30
0.0
 10
-1.750890034680779
 20
13.18460769479154
 30
0.0
 10
-1.439129071951442
 20
12.77433266126674
 30
0.0
 10
-1.126921117611232
 20
12.36853885566524
 30
0.0
 10
-0.9248332236678181
 20
12.08228090781385
 30
0.0
 10
-0.9000311741494897
 20
11.90999999999983
 30
0.0
  0
POLYLINE
  5
1AE
330
1F
100
AcDbEntity
  8
Default
100
AcDb2dPolyline
 66
     1
 10
0.0
 20
0.0
 30
0.0
  0
VERTEX
  5
1AF
330
1AE
100
AcDbEntity
  8
Default
100
AcDbVertex
100
AcDb2dVertex
 10
-0.9000311741494897
 20
11.90999999999983
 30
0.0
  0
VERTEX
  5
1B0
330
1AE
100
AcDbEntity
  8
Default
100
AcDbVertex
100
AcDb2dVertex
 10
0.8999981811644346
 20
11.91000017272907
 30
0.0
  0
SEQEND
  5
1B1
330
1AE
100
AcDbEntity
  8
Default
  0
SPLINE
  5
1B2
330
1F
100
AcDbEntity
  8
Default
100
AcDbSpline
210
0.0
220
0.0
230
1.0
 70
     8
 71
     3
 72
    12
 73
     8
 74
     0
 42
0.0000000001
 43
0.0000000001
 40
0.0
 40
0.0
 40
0.0
 40
0.0
 40
1.0
 40
2.0
 40
3.0
 40
4.0
 40
5.0
 40
5.0
 40
5.0
 40
5.0
 10
0.8999981811644346
 20
11.91000017272907
 30
0.0
 10
0.9248001976189215
 20
12.08228108530306
 30
0.0
 10
1.126888036624194
 20
12.3685390719388
 30
0.0
 10
1.439095913085168
 20
12.7743329374587
 30
0.0
 10
1.75085679707523
 20
13.18460803081611
 30
0.0
 10
2.053640017883026
 20
13.60191465560143
 30
0.0
 10
2.209901350879107
 20
13.90859751836261
 30
0.0
 10
2.282435167610458
 20
14.06398705737449
 30
0.0
  0
SPLINE
  5
1B3
330
1F
100
AcDbEntity
  8
Default
100
AcDbSpline
210
0.0
220
0.0
230
1.0
 70
    12
 71
     2
 72
     6
 73
     3
 74
     0
 42
0.0000000001
 43
0.0000000001
 40
0.0
 40
0.0
 40
0.0
 40
6.308534519420058
 40
6.308534519420058
 40
6.308534519420058
 10
-1.890698333391697
 20
13.37787194686158
 30
0.0
 41
1.0
 10
-5.044966186421735
 20
13.3810705414445
 30
0.0
 41
0.999998946622504
 10
-8.199576578108847
 20
13.37510987121441
 30
0.0
 41
1.0
  0
SPLINE
  5
1B4
330
1F
100
AcDbEntity
  8
Default
100
AcDbSpline
210
0.0
220
0.0
230
1.0
 70
    12
 71
     2
 72
     6
 73
     3
 74
     0
 42
0.0000000001
 43
0.0000000001
 40
0.0
 40
0.0
 40
0.0
 40
0.0785831248997358
 40
0.0785831248997358
 40
0.0785831248997358
 10
-8.199576578108847
 20
13.37510987121441
 30
0.0
 41
1.0
 10
-8.249901664726016
 20
13.3751271274331
 30
0.0
 41
0.7080614882125202
 10
-8.250016822538953
 20
13.42510554144265
 30
0.0
 41
1.0
  0
POLYLINE
  5
1B5
330
1F
100
AcDbEntity
  8
Default
100
AcDb2dPolyline
 66
     1
 10
0.0
 20
0.0
 30
0.0
  0
VERTEX
  5
1B6
330
1B5
100
AcDbEntity
  8
Default
100
AcDbVertex
100
AcDb2dVertex
 10
-8.250016822538953
 20
13.42510554144265
 30
0.0
  0
VERTEX
  5
1B7
330
1B5
100
AcDbEntity
  8
Default
100
AcDbVertex
100
AcDb2dVertex
 10
-8.250016822557825
 20
13.64490604054627
 30
0.0
  0
SEQEND
  5
1B8
330
1B5
100
AcDbEntity
  8
Default
  0
SPLINE
  5
1B9
330
1F
100
AcDbEntity
  8
Default
100
AcDbSpline
210
0.0
220
0.0
230
1.0
 70
    12
 71
     2
 72
     6
 73
     3
 74
     0
 42
0.0000000001
 43
0.0000000001
 40
0.0
 40
0.0
 40
0.0
 40
0.0785685106525353
 40
0.0785685106525353
 40
0.0785685106525353
 10
-8.250016822557825
 20
13.64490604054627
 30
0.0
 41
1.0
 10
-8.249866015472387
 20
13.69484875205214
 30
0.0
 41
0.7085750451979772
 10
-8.199583924998166
 20
13.69489653345451
 30
0.0
 41
1.0
  0
SPLINE
  5
1BA
330
1F
100
AcDbEntity
  8
Default
100
AcDbSpline
210
0.0
220
0.0
230
1.0
 70
    12
 71
     2
 72
     6
 73
     3
 74
     0
 42
0.0000000001
 43
0.0000000001
 40
0.0
 40
0.0
 40
0.0
 40
6.107059540251874
 40
6.107059540251874
 40
6.107059540251874
 10
-8.199583924998166
 20
13.69489653345451
 30
0.0
 41
1.0
 10
-5.145718434640808
 20
13.68909636100868
 30
0.0
 41
0.9999990036808405
 10
-2.092187947402778
 20
13.69192600189337
 30
0.0
 41
1.0
  0
SPLINE
  5
1BB
330
1F
100
AcDbEntity
  8
Default
100
AcDbSpline
210
0.0
220
0.0
230
1.0
 70
    24
 71
     2
 72
     6
 73
     3
 74
     0
 42
0.0000000001
 43
0.0000000001
 40
0.0
 40
0.0
 40
0.0
 40
0.0829573442458843
 40
0.0829573442458843
 40
0.0829573442458843
 10
52.28900520866139
 20
2.559999999999992
 30
0.0
 10
52.29540855666164
 20
2.600981427201475
 30
0.0
 10
52.30181190466189
 20
2.641962854402959
 30
0.0
  0
POLYLINE
  5
1BC
330
1F
100
AcDbEntity
  8
Default
100
AcDb2dPolyline
 66
     1
 10
0.0
 20
0.0
 30
0.0
  0
VERTEX
  5
1BD
330
1BC
100
AcDbEntity
  8
Default
100
AcDbVertex
100
AcDb2dVertex
 10
52.30181190466189
 20
2.641962854402959
 30
0.0
  0
VERTEX
  5
1BE
330
1BC
100
AcDbEntity
  8
Default
100
AcDbVertex
100
AcDb2dVertex
 10
51.58869851266084
 20
2.641962854402998
 30
0.0
  0
SEQEND
  5
1BF
330
1BC
100
AcDbEntity
  8
Default
  0
SPLINE
  5
1C0
330
1F
100
AcDbEntity
  8
Default
100
AcDbSpline
210
0.0
220
0.0
230
1.0
 70
    24
 71
     2
 72
     6
 73
     3
 74
     0
 42
0.0000000001
 43
0.0000000001
 40
0.0
 40
0.0
 40
0.0
 40
0.0829573442459229
 40
0.0829573442459229
 40
0.0829573442459229
 10
51.58869851266084
 20
2.641962854402998
 30
0.0
 10
51.59510186066106
 20
2.600981427201495
 30
0.0
 10
51.60150520866128
 20
2.559999999999992
 30
0.0
  0
LINE
  5
1C1
330
1F
100
AcDbEntity
  8
Default
100
AcDbLine
 10
51.13964388917046
 20
2.56
 30
0.0
 11
52.30463020866139
 21
2.56
 31
0.0
  0
SPLINE
  5
1C2
330
1F
100
AcDbEntity
  8
Default
100
AcDbSpline
210
0.0
220
0.0
230
1.0
 70
    24
 71
     2
 72
     6
 73
     3
 74
     0
 42
0.0000000001
 43
0.0000000001
 40
-1.16498631949094
 40
-1.16498631949094
 40
-1.16498631949094
 40
0.0
 40
0.0
 40
0.0
 10
52.30463020866139
 20
2.56
 30
0.0
 10
52.30463020866139
 20
1.977506840254531
 30
0.0
 10
52.30463020866139
 20
1.395013680509061
 30
0.0
  0
SPLINE
  5
1C3
330
1F
100
AcDbEntity
  8
Default
100
AcDbSpline
210
0.0
220
0.0
230
1.0
 70
    24
 71
     2
 72
     6
 73
     3
 74
     0
 42
0.0000000001
 43
0.0000000001
 40
-6.854073546591319
 40
-6.854073546591319
 40
-6.854073546591319
 40
0.0
 40
0.0
 40
0.0
 10
42.44588562345345
 20
4.949157620436264
 30
0.0
 10
45.81112243650122
 20
4.301267014215739
 30
0.0
 10
49.17635924954899
 20
3.653376407995214
 30
0.0
  0
SPLINE
  5
1C4
330
1F
100
AcDbEntity
  8
Default
100
AcDbSpline
210
0.0
220
0.0
230
1.0
 70
    12
 71
     2
 72
     6
 73
     3
 74
     0
 42
0.0000000001
 43
0.0000000001
 40
-2.090936080365765
 40
-2.090936080365765
 40
-2.090936080365765
 40
-0.1184497281738283
 40
-0.1184497281738283
 40
-0.1184497281738283
 10
49.17635924954899
 20
3.653376407995214
 30
0.0
 41
1.0
 10
50.14590486855271
 20
3.4657543060015
 30
0.0
 41
0.9979820033929416
 10
51.08497369829508
 20
3.160188448137491
 30
0.0
 41
0.9997713644603425
  0
LINE
  5
1C5
330
1F
100
AcDbEntity
  8
Default
100
AcDbLine
 10
51.08497369829504
 20
3.160188448137491
 30
0.0
 11
51.09563967060129
 21
3.15395291849355
 31
0.0
  0
SPLINE
  5
1C6
330
1F
100
AcDbEntity
  8
Default
100
AcDbSpline
210
0.0
220
0.0
230
1.0
 70
     8
 71
     2
 72
     8
 73
     5
 74
     0
 42
0.0000000001
 43
0.0000000001
 40
0.0
 40
0.0
 40
0.0
 40
1.0
 40
2.0
 40
3.0
 40
3.0
 40
3.0
 10
51.09563967060129
 20
3.15395291849355
 30
0.0
 10
51.17020238500484
 20
3.110362141895778
 30
0.0
 10
51.26314543306765
 20
2.964445921513677
 30
0.0
 10
51.27734797604901
 20
2.79308509632571
 30
0.0
 10
51.27548747958664
 20
2.708618522286542
 30
0.0
  0
SPLINE
  5
1C7
330
1F
100
AcDbEntity
  8
Default
100
AcDbSpline
210
0.0
220
0.0
230
1.0
 70
    12
 71
     2
 72
     6
 73
     3
 74
     0
 42
0.0000000001
 43
0.0000000001
 40
0.0
 40
0.0
 40
0.0
 40
0.0771581621093029
 40
0.0771581621093029
 40
0.0771581621093029
 10
51.27548747958664
 20
2.708618522286542
 30
0.0
 41
1.0
 10
51.27683129908278
 20
2.659999999707501
 30
0.0
 41
0.7168087313008373
 10
51.32546838975034
 20
2.66
 30
0.0
 41
1.0
  0
LINE
  5
1C8
330
1F
100
AcDbEntity
  8
Default
100
AcDbLine
 10
51.32546838975034
 20
2.66
 30
0.0
 11
52.52962890366027
 21
2.659999999999999
 31
0.0
  0
SPLINE
  5
1C9
330
1F
100
AcDbEntity
  8
Default
100
AcDbSpline
210
0.0
220
0.0
230
1.0
 70
    12
 71
     2
 72
     8
 73
     5
 74
     0
 42
0.0000000001
 43
0.0000000001
 40
-0.1312418974498821
 40
-0.1312418974498821
 40
-0.1312418974498821
 40
-0.0656209487249411
 40
-0.0656209487249411
 40
0.0
 40
0.0
 40
0.0
 10
52.52962890366027
 20
2.659999999999999
 30
0.0
 41
1.0
 10
52.56441185375348
 20
2.659999999982475
 30
0.0
 41
0.9170686251440676
 10
52.58813485970339
 20
2.685437621842381
 30
0.0
 41
1.0
 10
52.61185786565338
 20
2.710875243702286
 30
0.0
 41
0.9170686251440676
 10
52.60942666132067
 20
2.745685996062573
 30
0.0
 41
1.0
  0
SPLINE
  5
1CA
330
1F
100
AcDbEntity
  8
Default
100
AcDbSpline
210
0.0
220
0.0
230
1.0
 70
    12
 71
     2
 72
     6
 73
     3
 74
     0
 42
0.0000000001
 43
0.0000000001
 40
0.0
 40
0.0
 40
0.0
 40
0.9522035080094
 40
0.9522035080094
 40
0.9522035080094
 10
52.60942666132067
 20
2.745685996062573
 30
0.0
 41
1.0
 10
52.57627073730698
 20
3.220744722471785
 30
0.0
 41
0.9999999988183028
 10
52.54316883701236
 20
3.695694345821771
 30
0.0
 41
1.0
  0
SPLINE
  5
1CB
330
1F
100
AcDbEntity
  8
Default
100
AcDbSpline
210
0.0
220
0.0
230
1.0
 70
    12
 71
     2
 72
     6
 73
     3
 74
     0
 42
0.0000000001
 43
0.0000000001
 40
0.0
 40
0.0
 40
0.0
 40
0.2487553277819785
 40
0.2487553277819785
 40
0.2487553277819785
 10
52.54316883701236
 20
3.695694345821771
 30
0.0
 41
1.0
 10
52.53372280953153
 20
3.831133994138056
 30
0.0
 41
0.8787732984471257
 10
52.414976798553
 20
3.896955803957431
 30
0.0
 41
1.0
  0
SPLINE
  5
1CC
330
1F
100
AcDbEntity
  8
Default
100
AcDbSpline
210
0.0
220
0.0
230
1.0
 70
    12
 71
     2
 72
    20
 73
    17
 74
     0
 42
0.0000000001
 43
0.0000000001
 40
0.0
 40
0.0
 40
0.0
 40
0.4643734255394482
 40
0.4643734255394482
 40
0.9222224345378158
 40
0.9222224345378158
 40
11.27930755387938
 40
12.47712251619995
 40
12.47712251619995
 40
13.10585240426605
 40
13.10585240426605
 40
15.19995564663804
 40
15.19995564663804
 40
15.8477962145331
 40
15.8477962145331
 40
16.88631587994969
 40
25.27634439949363
 40
25.27634439949363
 40
25.27634439949363
 10
52.414976798553
 20
3.896955803957431
 30
0.0
 41
1.0
 10
52.21131448341967
 20
4.009847361859968
 30
0.0
 41
1.0
 10
51.96303264485542
 20
4.147471854514516
 30
0.0
 41
1.0
 10
51.76075685081035
 20
4.259593510138113
 30
0.0
 41
0.9934565288642211
 10
51.53960527768183
 20
4.322518529943504
 30
0.0
 41
1.0
 10
46.56125585582421
 20
5.748471527330162
 30
0.0
 41
1.0
 10
41.0081890945668
 20
7.342955909076033
 30
0.0
 41
1.0
 10
40.42858935847593
 20
7.487954687550683
 30
0.0
 41
1.0
 10
40.11741898541289
 20
7.533193335811984
 30
0.0
 41
0.999634201029002
 10
39.80425786984699
 20
7.561542093567248
 30
0.0
 41
0.9999998524176973
 10
38.75720575747876
 20
7.561542034970172
 30
0.0
 41
0.9999998524176973
 10
37.71015364511049
 20
7.561541976373098
 30
0.0
 41
0.9999998524176973
 10
37.3874674194625
 20
7.532335734027783
 30
0.0
 41
0.9996110882515188
 10
37.06691186136779
 20
7.485188095637477
 30
0.0
 41
0.9999998524176973
 10
36.59281583519253
 20
7.280765644897766
 30
0.0
 41
0.9999998524176973
 10
32.15069101777783
 20
5.702188017485591
 30
0.0
 41
0.9999998524176973
 10
28.19784356009061
 20
4.297502424094267
 30
0.0
 41
0.9999998524176973
  0
SPLINE
  5
1CD
330
1F
100
AcDbEntity
  8
Default
100
AcDbSpline
210
0.0
220
0.0
230
1.0
 70
     8
 71
     3
 72
     8
 73
     4
 74
     0
 42
0.0000000001
 43
0.0000000001
 40
0.0
 40
0.0
 40
0.0
 40
0.0
 40
1.0
 40
1.0
 40
1.0
 40
1.0
 10
28.1978435600906
 20
4.297502424094266
 30
0.0
 10
28.03235730261272
 20
4.238695155594359
 30
0.0
 10
27.87929844734558
 20
4.145864560215716
 30
0.0
 10
27.73502517503678
 20
4.045718571081129
 30
0.0
  0
SPLINE
  5
1CE
330
1F
100
AcDbEntity
  8
Default
100
AcDbSpline
210
0.0
220
0.0
230
1.0
 70
     8
 71
     3
 72
    11
 73
     7
 74
     0
 42
0.0000000001
 43
0.0000000001
 40
0.0
 40
0.0
 40
0.0
 40
0.0
 40
0.1314236413480431
 40
0.2346101477028872
 40
0.3239100364253512
 40
0.4110019264731688
 40
0.4110019264731688
 40
0.4110019264731688
 40
0.4110019264731688
 10
27.73502517503678
 20
4.045718571081129
 30
0.0
 10
27.69902467410796
 20
4.020729148458626
 30
0.0
 10
27.63639101724189
 20
3.973752562814968
 30
0.0
 10
27.56058342844975
 20
3.896130806040171
 30
0.0
 10
27.51300024945706
 20
3.814985866274454
 30
0.0
 10
27.4992548313152
 20
3.757068550402222
 30
0.0
 10
27.49694234800299
 20
3.728150080667853
 30
0.0
  0
SPLINE
  5
1CF
330
1F
100
AcDbEntity
  8
Default
100
AcDbSpline
210
0.0
220
0.0
230
1.0
 70
    12
 71
     3
 72
    70
 73
    66
 74
     0
 42
0.0000000001
 43
0.0000000001
 40
0.0
 40
0.0
 40
0.0
 40
0.0
 40
0.9733358469104075
 40
0.9733358469104075
 40
0.9733358469104075
 40
1.038942553595811
 40
1.038942553595811
 40
1.038942553595811
 40
1.104549260281215
 40
1.104549260281215
 40
1.104549260281215
 40
2.322215484563071
 40
2.322215484563071
 40
2.322215484563071
 40
2.382163434467255
 40
2.382163434467255
 40
2.382163434467255
 40
2.595278793662235
 40
2.701076059324852
 40
2.701076059324852
 40
2.701076059324852
 40
3.701076059324852
 40
3.701076059324852
 40
3.701076059324852
 40
4.701076059324851
 40
4.701076059324851
 40
5.701076059324851
 40
5.701076059324851
 40
6.701076059324851
 40
6.701076059324851
 40
6.701076059324851
 40
7.701076059324851
 40
7.701076059324851
 40
7.701076059324851
 40
10.58956476235931
 40
10.58956476235931
 40
10.58956476235931
 40
11.41952517875065
 40
11.41952517875065
 40
11.41952517875065
 40
11.85084035962133
 40
11.85084035962133
 40
11.85084035962133
 40
11.96600976270871
 40
11.96600976270871
 40
11.96600976270871
 40
13.18268738209123
 40
13.18268738209123
 40
13.18268738209123
 40
13.24830052978707
 40
13.24830052978707
 40
13.24830052978707
 40
13.31391367748291
 40
13.31391367748291
 40
13.31391367748291
 40
14.38661485551377
 40
14.38661485551377
 40
14.38661485551377
 40
14.56001544671149
 40
14.56001544671149
 40
14.56001544671149
 40
15.56001544671149
 40
15.56001544671149
 40
15.56001544671149
 40
19.58477574569441
 40
19.58477574569441
 40
19.58477574569441
 40
19.58477574569441
 10
27.49694234800299
 20
3.728150080667853
 30
0.0
 41
1.0
 10
27.4717083878044
 20
3.39290389311721
 30
0.0
 41
0.9999997380155814
 10
27.44762895466609
 20
3.069319170865574
 30
0.0
 41
0.9999997380155814
 10
27.42383425607343
 20
2.745679201995566
 30
0.0
 41
1.0
 10
27.42227780855265
 20
2.723162717945524
 30
0.0
 41
0.9448107965438592
 10
27.42979575498942
 20
2.70191638111808
 30
0.0
 41
0.9448107965438592
 10
27.44514336695724
 20
2.685457896730837
 30
0.0
 41
1.0
 10
27.46049097892506
 20
2.668999412343593
 30
0.0
 41
0.9448107965438592
 10
27.48112494987414
 20
2.660017756354119
 30
0.0
 41
0.9448107965438592
 10
27.50362896254202
 20
2.660000000081741
 30
0.0
 41
1.0
 10
27.90951770396933
 20
2.660000000054494
 30
0.0
 41
1.0
 10
28.31540644539658
 20
2.660000000027247
 30
0.0
 41
1.0
 10
28.72129518682388
 20
2.66
 30
0.0
 41
1.0
 10
28.74254738633219
 20
2.660171995231419
 30
0.0
 41
0.8860027821911703
 10
28.76010521216573
 20
2.67226152568667
 30
0.0
 41
0.8860027821911703
 10
28.76796403443703
 20
2.692134072856212
 30
0.0
 41
1.0
 10
28.79488646989799
 20
2.758184590910365
 30
0.0
 41
1.0
 10
28.81779104512518
 20
2.86264168468771
 30
0.0
 41
1.0
 10
28.86241371824192
 20
2.959679166605115
 30
0.0
 41
1.0
 10
28.88084368014816
 20
2.989759784919145
 30
0.0
 41
1.0
 10
28.92033958515495
 20
3.05422336056422
 30
0.0
 41
1.0
 10
28.99140946765183
 20
3.099164578127106
 30
0.0
 41
1.0
 10
29.0620057478196
 20
3.126213502758872
 30
0.0
 41
1.0
 10
29.9071155615492
 20
3.450016847677774
 30
0.0
 41
1.0
 10
30.77211915837697
 20
3.706312953557234
 30
0.0
 41
1.0
 10
32.54191391822857
 20
4.083890687237267
 30
0.0
 41
1.0
 10
33.42373801740112
 20
4.282871617828673
 30
0.0
 41
1.0
 10
35.1812396542397
 20
4.701217606514262
 30
0.0
 41
1.0
 10
36.06228082705613
 20
4.908571612855071
 30
0.0
 41
1.0
 10
36.94561235426968
 20
5.114106631193899
 30
0.0
 41
1.0
 10
37.56141827855427
 20
5.257773894377562
 30
0.0
 41
1.0
 10
38.29052308053755
 20
5.436591419349244
 30
0.0
 41
1.0
 10
38.83252293601427
 20
5.120777261808773
 30
0.0
 41
1.0
 10
39.6644301350934
 20
4.636038993755232
 30
0.0
 41
1.0
 10
40.49633733417258
 20
4.151300725701691
 30
0.0
 41
1.0
 10
41.32824453325171
 20
3.66656245764815
 30
0.0
 41
1.0
 10
41.57250097563004
 20
3.522085839479792
 30
0.0
 41
0.9933765536404024
 10
41.79401559555411
 20
3.344699323643473
 30
0.0
 41
0.9933765536404024
 10
41.98838682241526
 20
3.137927640356867
 30
0.0
 41
1.0
 10
42.0894832169734
 20
3.03038151835839
 30
0.0
 41
0.9491499727381721
 10
42.14167225037018
 20
2.892312861007494
 30
0.0
 41
0.9491499727381721
 10
42.13699248129259
 20
2.744784053275071
 30
0.0
 41
1.0
 10
42.13269331953013
 20
2.702707148756911
 30
0.0
 41
0.8282968271422514
 10
42.15768903003696
 20
2.668587313733398
 30
0.0
 41
0.8282968271422514
 10
42.19910408440754
 20
2.659999999997294
 30
0.0
 41
1.0
 10
42.60477365729869
 20
2.659999999999125
 30
0.0
 41
1.0
 10
43.01044323018985
 20
2.660000000000956
 30
0.0
 41
1.0
 10
43.41611280308101
 20
2.660000000002787
 30
0.0
 41
1.0
 10
43.4386892552216
 20
2.660013172304279
 30
0.0
 41
0.9447834927321687
 10
43.45936456616526
 20
2.668993758391062
 30
0.0
 41
0.9447834927321687
 10
43.47471388054092
 20
2.685454128472346
 30
0.0
 41
1.0
 10
43.49006319491654
 20
2.701914498553629
 30
0.0
 41
0.9447834927321687
 10
43.4975813675372
 20
2.723137000690925
 30
0.0
 41
0.9447834927321687
 10
43.4960230167035
 20
2.745606137553717
 30
0.0
 41
1.0
 10
43.47040767108513
 20
3.102271596537205
 30
0.0
 41
0.9999999994382733
 10
43.44475692331739
 20
3.459222618605346
 30
0.0
 41
0.9999999994382733
 10
43.41907077344345
 20
3.816459203156611
 30
0.0
 41
1.0
 10
43.41413195335348
 20
3.875195613287665
 30
0.0
 41
0.9810402261245104
 10
43.39558302446352
 20
3.930835040768761
 30
0.0
 41
0.9810402261245104
 10
43.36447903726585
 20
3.980212752709089
 30
0.0
 41
1.0
 10
43.30462814260821
 20
4.075226302482908
 30
0.0
 41
1.0
 10
43.24740041743027
 20
4.174844520131929
 30
0.0
 41
1.0
 10
43.16668083571287
 20
4.252908938142355
 30
0.0
 41
1.0
 10
42.20230744558532
 20
5.185560543159535
 30
0.0
 41
0.999999999810432
 10
41.23795629715843
 20
6.118235145823858
 30
0.0
 41
0.999999999810432
 10
40.27362739098052
 20
7.050932745604913
 30
0.0
 41
1.0
  0
SPLINE
  5
1D0
330
1F
100
AcDbEntity
  8
Default
100
AcDbSpline
210
0.0
220
0.0
230
1.0
 70
    24
 71
     2
 72
     6
 73
     3
 74
     0
 42
0.0000000001
 43
0.0000000001
 40
0.0
 40
0.0
 40
0.0
 40
2.133459288680166
 40
2.133459288680166
 40
2.133459288680166
 10
39.73714183901134
 20
7.561540711319834
 30
0.0
 10
39.73664631531645
 20
8.628765879354848
 30
0.0
 10
39.73615079162155
 20
9.69599104738986
 30
0.0
  0
SPLINE
  5
1D1
330
1F
100
AcDbEntity
  8
Default
100
AcDbSpline
210
0.0
220
0.0
230
1.0
 70
    24
 71
     2
 72
     6
 73
     3
 74
     0
 42
0.0000000001
 43
0.0000000001
 40
0.0
 40
0.0
 40
0.0
 40
0.1739735899772819
 40
0.1739735899772819
 40
0.1739735899772819
 10
39.73615079162155
 20
9.69599104738986
 30
0.0
 10
39.67328167703246
 20
9.757995523694941
 30
0.0
 10
39.61041256244337
 20
9.820000000000022
 30
0.0
  0
LINE
  5
1D2
330
1F
100
AcDbEntity
  8
Default
100
AcDbLine
 10
39.61041256244337
 20
9.820000000000022
 30
0.0
 11
37.90214183901136
 21
9.820000000000022
 31
0.0
  0
SPLINE
  5
1D3
330
1F
100
AcDbEntity
  8
Default
100
AcDbSpline
210
0.0
220
0.0
230
1.0
 70
    24
 71
     2
 72
     6
 73
     3
 74
     0
 42
0.0000000001
 43
0.0000000001
 40
0.0
 40
0.0
 40
0.0
 40
0.1739735899772856
 40
0.1739735899772856
 40
0.1739735899772856
 10
37.90214183901136
 20
9.820000000000022
 30
0.0
 10
37.84013736270629
 20
9.757995523694937
 30
0.0
 10
37.77813288640121
 20
9.695991047389855
 30
0.0
  0
SPLINE
  5
1D4
330
1F
100
AcDbEntity
  8
Default
100
AcDbSpline
210
0.0
220
0.0
230
1.0
 70
    24
 71
     2
 72
     6
 73
     3
 74
     0
 42
0.0000000001
 43
0.0000000001
 40
0.0
 40
0.0
 40
0.0
 40
2.133457839906034
 40
2.133457839906034
 40
2.133457839906034
 10
37.77813288640121
 20
9.695991047389855
 30
0.0
 10
37.77763736270629
 20
8.628766603741909
 30
0.0
 10
37.77714183901136
 20
7.561542160093962
 30
0.0
  0
SPLINE
  5
1D5
330
1F
100
AcDbEntity
  8
Default
100
AcDbSpline
210
0.0
220
0.0
230
1.0
 70
    24
 71
     2
 72
     6
 73
     3
 74
     0
 42
0.0000000001
 43
0.0000000001
 40
0.0
 40
0.0
 40
0.0
 40
0.0829573442458832
 40
0.0829573442458832
 40
0.0829573442458832
 10
43.17622699477144
 20
2.559999999999992
 30
0.0
 10
43.18263034277166
 20
2.600981427201475
 30
0.0
 10
43.18903369077188
 20
2.641962854402959
 30
0.0
  0
POLYLINE
  5
1D6
330
1F
100
AcDbEntity
  8
Default
100
AcDb2dPolyline
 66
     1
 10
0.0
 20
0.0
 30
0.0
  0
VERTEX
  5
1D7
330
1D6
100
AcDbEntity
  8
Default
100
AcDbVertex
100
AcDb2dVertex
 10
43.18903369077188
 20
2.641962854402959
 30
0.0
  0
VERTEX
  5
1D8
330
1D6
100
AcDbEntity
  8
Default
100
AcDbVertex
100
AcDb2dVertex
 10
42.47592029877083
 20
2.641962854402998
 30
0.0
  0
SEQEND
  5
1D9
330
1D6
100
AcDbEntity
  8
Default
  0
SPLINE
  5
1DA
330
1F
100
AcDbEntity
  8
Default
100
AcDbSpline
210
0.0
220
0.0
230
1.0
 70
    24
 71
     2
 72
     6
 73
     3
 74
     0
 42
0.0000000001
 43
0.0000000001
 40
0.0
 40
0.0
 40
0.0
 40
0.0829573442459229
 40
0.0829573442459229
 40
0.0829573442459229
 10
42.47592029877083
 20
2.641962854402998
 30
0.0
 10
42.48232364677105
 20
2.600981427201495
 30
0.0
 10
42.48872699477127
 20
2.559999999999992
 30
0.0
  0
LINE
  5
1DB
330
1F
100
AcDbEntity
  8
Default
100
AcDbLine
 10
42.02686567528045
 20
2.56
 30
0.0
 11
43.19185199477138
 21
2.56
 31
0.0
  0
SPLINE
  5
1DC
330
1F
100
AcDbEntity
  8
Default
100
AcDbSpline
210
0.0
220
0.0
230
1.0
 70
    24
 71
     2
 72
     6
 73
     3
 74
     0
 42
0.0000000001
 43
0.0000000001
 40
-1.16498631949094
 40
-1.16498631949094
 40
-1.16498631949094
 40
0.0
 40
0.0
 40
0.0
 10
43.19185199477138
 20
2.56
 30
0.0
 10
43.19185199477138
 20
1.977506840254531
 30
0.0
 10
43.19185199477138
 20
1.395013680509061
 30
0.0
  0
SPLINE
  5
1DD
330
1F
100
AcDbEntity
  8
Default
100
AcDbSpline
210
0.0
220
0.0
230
1.0
 70
    24
 71
     2
 72
     6
 73
     3
 74
     0
 42
0.0000000001
 43
0.0000000001
 40
0.0
 40
0.0
 40
0.0
 40
0.0829542912717206
 40
0.0829542912717206
 40
0.0829542912717206
 10
28.43147458248009
 20
2.560003016375203
 30
0.0
 10
28.43787769482597
 20
2.600982935389081
 30
0.0
 10
28.44428080717185
 20
2.641962854402959
 30
0.0
  0
POLYLINE
  5
1DE
330
1F
100
AcDbEntity
  8
Default
100
AcDb2dPolyline
 66
     1
 10
0.0
 20
0.0
 30
0.0
  0
VERTEX
  5
1DF
330
1DE
100
AcDbEntity
  8
Default
100
AcDbVertex
100
AcDb2dVertex
 10
28.44428080717185
 20
2.641962854402959
 30
0.0
  0
VERTEX
  5
1E0
330
1DE
100
AcDbEntity
  8
Default
100
AcDbVertex
100
AcDb2dVertex
 10
27.73116788647948
 20
2.641959838027782
 30
0.0
  0
SEQEND
  5
1E1
330
1DE
100
AcDbEntity
  8
Default
  0
SPLINE
  5
1E2
330
1F
100
AcDbEntity
  8
Default
100
AcDbSpline
210
0.0
220
0.0
230
1.0
 70
    24
 71
     2
 72
     6
 73
     3
 74
     0
 42
0.0000000001
 43
0.0000000001
 40
0.0
 40
0.0
 40
0.0
 40
0.0829542912717557
 40
0.0829542912717557
 40
0.0829542912717557
 10
27.73116788647948
 20
2.641959838027782
 30
0.0
 10
27.73757099882539
 20
2.600979919013887
 30
0.0
 10
27.7439741111713
 20
2.559999999999992
 30
0.0
  0
LINE
  5
1E3
330
1F
100
AcDbEntity
  8
Default
100
AcDbLine
 10
27.28211279168048
 20
2.56
 30
0.0
 11
28.44709911117135
 21
2.56
 31
0.0
  0
SPLINE
  5
1E4
330
1F
100
AcDbEntity
  8
Default
100
AcDbSpline
210
0.0
220
0.0
230
1.0
 70
    24
 71
     2
 72
     6
 73
     3
 74
     0
 42
0.0000000001
 43
0.0000000001
 40
-1.16498631949094
 40
-1.16498631949094
 40
-1.16498631949094
 40
0.0
 40
0.0
 40
0.0
 10
28.44709911117135
 20
2.56
 30
0.0
 10
28.44709911117135
 20
1.977506840254531
 30
0.0
 10
28.44709911117135
 20
1.395013680509061
 30
0.0
  0
SPLINE
  5
1E5
330
1F
100
AcDbEntity
  8
Default
100
AcDbSpline
210
0.0
220
0.0
230
1.0
 70
    12
 71
     2
 72
     6
 73
     3
 74
     0
 42
0.0000000001
 43
0.0000000001
 40
0.0
 40
0.0
 40
0.0
 40
4.277042200853588
 40
4.277042200853588
 40
4.277042200853588
 10
42.35581851262552
 20
4.297503139183391
 30
0.0
 41
1.0
 10
40.74330102594419
 20
5.70215962881618
 30
0.0
 41
0.9999999997181311
 10
39.13085024307091
 20
7.10689268939271
 30
0.0
 41
1.0
  0
SPLINE
  5
1E6
330
1F
100
AcDbEntity
  8
Default
100
AcDbSpline
210
0.0
220
0.0
230
1.0
 70
     8
 71
     2
 72
     9
 73
     6
 74
     0
 42
0.0000000001
 43
0.0000000001
 40
0.0
 40
0.0
 40
0.0
 40
1.0
 40
2.0
 40
3.0
 40
4.0
 40
4.0
 40
4.0
 10
39.13085024307091
 20
7.10689268939271
 30
0.0
 10
38.90368812249247
 20
7.30479153026062
 30
0.0
 10
38.25789008943539
 20
7.370163209068004
 30
0.0
 10
37.66238952152375
 20
7.331303246823572
 30
0.0
 10
37.02612953970865
 20
7.204827559217165
 30
0.0
 10
36.74340177098358
 20
7.106896327692084
 30
0.0
  0
SPLINE
  5
1E7
330
1F
100
AcDbEntity
  8
Default
100
AcDbSpline
210
0.0
220
0.0
230
1.0
 70
    12
 71
     2
 72
     6
 73
     3
 74
     0
 42
0.0000000001
 43
0.0000000001
 40
0.0
 40
0.0
 40
0.0
 40
8.583727431647358
 40
8.583727431647358
 40
8.583727431647358
 10
36.74340177098358
 20
7.106896327692084
 30
0.0
 41
1.0
 10
32.68793386311457
 20
5.702163540322066
 30
0.0
 41
0.99999999997041
 10
28.63244434295544
 20
4.297493149142145
 30
0.0
 41
1.0
  0
SPLINE
  5
1E8
330
1F
100
AcDbEntity
  8
Default
100
AcDbSpline
210
0.0
220
0.0
230
1.0
 70
     8
 71
     3
 72
     8
 73
     4
 74
     0
 42
0.0000000001
 43
0.0000000001
 40
0.0
 40
0.0
 40
0.0
 40
0.0
 40
1.0
 40
1.0
 40
1.0
 40
1.0
 10
28.63244434295544
 20
4.297493149142145
 30
0.0
 10
28.47933157037031
 20
4.244460592383539
 30
0.0
 10
28.34070721400704
 20
4.154606121166153
 30
0.0
 10
28.20474937346026
 20
4.066450356755091
 30
0.0
  0
SPLINE
  5
1E9
330
1F
100
AcDbEntity
  8
Default
100
AcDbSpline
210
0.0
220
0.0
230
1.0
 70
     8
 71
     2
 72
     6
 73
     3
 74
     0
 42
0.0000000001
 43
0.0000000001
 40
0.0
 40
0.0
 40
0.0
 40
1.0
 40
1.0
 40
1.0
 10
28.20474937346026
 20
4.066450356755091
 30
0.0
 10
27.97756853808684
 20
3.919145132419843
 30
0.0
 10
27.70772116838
 20
3.89695580395986
 30
0.0
  0
SPLINE
  5
1EA
330
1F
100
AcDbEntity
  8
Default
100
AcDbSpline
210
0.0
220
0.0
230
1.0
 70
     8
 71
     2
 72
    12
 73
     9
 74
     0
 42
0.0000000001
 43
0.0000000001
 40
0.0
 40
0.0
 40
0.0
 40
1.0
 40
2.0
 40
3.0
 40
4.0
 40
5.0
 40
6.0
 40
7.0
 40
7.0
 40
7.0
 10
27.70772116838
 20
3.89695580395986
 30
0.0
 10
27.68799700023274
 20
3.896507285348974
 30
0.0
 10
27.64421162885733
 20
3.904647033547472
 30
0.0
 10
27.63788789395326
 20
3.94608889502837
 30
0.0
 10
27.66565956014156
 20
3.97822525325443
 30
0.0
 10
27.69476492405093
 20
4.006056813959598
 30
0.0
 10
27.72646006000693
 20
4.031494342297836
 30
0.0
 10
27.75943548156354
 20
4.055113701821941
 30
0.0
 10
27.77625480504221
 20
4.066455028217183
 30
0.0
  0
ARC
  5
1EB
330
1F
100
AcDbEntity
  8
Default
100
AcDbCircle
 10
46.89193121143504
 20
-5.86655450315541
 30
0.0
 40
11.20079460922019
100
AcDbArc
 50
60.81255328373256
 51
64.26031593060155
  0
ARC
  5
1EC
330
1F
100
AcDbEntity
  8
Default
100
AcDbCircle
 10
51.00272811169035
 20
2.394356287640333
 30
0.0
 40
1.977677157831372
100
AcDbArc
 50
67.60361831146133
 51
74.21926851449439
  0
SPLINE
  5
1ED
330
1F
100
AcDbEntity
  8
Default
100
AcDbSpline
210
0.0
220
0.0
230
1.0
 70
    12
 71
     2
 72
     6
 73
     3
 74
     0
 42
0.0000000001
 43
0.0000000001
 40
-10.28975635970554
 40
-10.28975635970554
 40
-10.28975635970554
 40
0.0
 40
0.0
 40
0.0
 10
51.5405705439313
 20
4.297493817796553
 30
0.0
 41
1.0
 10
46.51894171745766
 20
5.674667899963371
 30
0.0
 41
0.9999999999913883
 10
41.58231637575923
 20
7.12363364191873
 30
0.0
 41
1.0
  0
SPLINE
  5
1EE
330
1F
100
AcDbEntity
  8
Default
100
AcDbSpline
210
0.0
220
0.0
230
1.0
 70
     8
 71
     3
 72
    18
 73
    14
 74
     0
 42
0.0000000001
 43
0.0000000001
 40
0.0
 40
0.0
 40
0.0
 40
0.0
 40
1.0
 40
2.0
 40
3.0
 40
4.0
 40
5.0
 40
6.0
 40
7.0
 40
8.0
 40
9.0
 40
10.0
 40
11.0
 40
11.0
 40
11.0
 40
11.0
 10
41.58231637575923
 20
7.12363364191873
 30
0.0
 10
41.53319267303252
 20
7.13805210745789
 30
0.0
 10
41.43473578371172
 20
7.166177327604867
 30
0.0
 10
41.28633978405307
 20
7.205803069916706
 30
0.0
 10
41.13720159332283
 20
7.242527833278234
 30
0.0
 10
40.987271390426
 20
7.275951031045022
 30
0.0
 10
40.8367827018383
 20
7.306420096925582
 30
0.0
 10
40.68571426395758
 20
7.335188390531428
 30
0.0
 10
40.53441651680103
 20
7.357604048846451
 30
0.0
 10
40.37763591567924
 20
7.362403818396249
 30
0.0
 10
40.23576849544324
 20
7.335613019860904
 30
0.0
 10
40.05411116745941
 20
7.276913261765134
 30
0.0
 10
40.111933004458
 20
7.154219603389409
 30
0.0
 10
40.14926900076543
 20
7.123636369765254
 30
0.0
  0
SPLINE
  5
1EF
330
1F
100
AcDbEntity
  8
Default
100
AcDbSpline
210
0.0
220
0.0
230
1.0
 70
    12
 71
     2
 72
     6
 73
     3
 74
     0
 42
0.0000000001
 43
0.0000000001
 40
0.0
 40
0.0
 40
0.0
 40
4.032539305065463
 40
4.032539305065463
 40
4.032539305065463
 10
40.14926900076543
 20
7.123636369765254
 30
0.0
 41
1.0
 10
41.61263485528312
 20
5.702207178856789
 30
0.0
 41
0.9999999999674203
 10
43.05905327674586
 20
4.297494730727383
 30
0.0
 41
1.0
  0
SPLINE
  5
1F0
330
1F
100
AcDbEntity
  8
Default
100
AcDbSpline
210
0.0
220
0.0
230
1.0
 70
    24
 71
     2
 72
     6
 73
     3
 74
     0
 42
0.0000000001
 43
0.0000000001
 40
-1.086278562123957
 40
-1.086278562123957
 40
-1.086278562123957
 40
0.0
 40
0.0
 40
0.0
 10
39.65080660521286
 20
4.643977194417977
 30
0.0
 10
39.6056957663003
 20
4.102647019628606
 30
0.0
 10
39.56058492738774
 20
3.561316844839234
 30
0.0
  0
SPLINE
  5
1F1
330
1F
100
AcDbEntity
  8
Default
100
AcDbSpline
210
0.0
220
0.0
230
1.0
 70
    12
 71
     2
 72
     6
 73
     3
 74
     0
 42
0.0000000001
 43
0.0000000001
 40
-0.0828723162712908
 40
-0.0828723162712908
 40
-0.0828723162712908
 40
0.0
 40
0.0
 40
0.0
 10
39.56058492738774
 20
3.561316844839234
 30
0.0
 41
1.0
 10
39.55713738392669
 20
3.51986543332846
 30
0.0
 41
0.9991371909500295
 10
39.55714183901139
 20
3.478405421208
 30
0.0
 41
1.0
  0
SPLINE
  5
1F2
330
1F
100
AcDbEntity
  8
Default
100
AcDbSpline
210
0.0
220
0.0
230
1.0
 70
    24
 71
     2
 72
     6
 73
     3
 74
     0
 42
0.0000000001
 43
0.0000000001
 40
-2.318405421208
 40
-2.318405421208
 40
-2.318405421208
 40
0.0
 40
0.0
 40
0.0
 10
39.55714183901139
 20
3.478405421208
 30
0.0
 10
39.55633282073396
 20
2.319202710604
 30
0.0
 10
39.55552380245652
 20
1.16
 30
0.0
  0
LINE
  5
1F3
330
1F
100
AcDbEntity
  8
Default
100
AcDbLine
 10
39.55552380245652
 20
1.16
 30
0.0
 11
37.95714183901137
 21
1.16
 31
0.0
  0
SPLINE
  5
1F4
330
1F
100
AcDbEntity
  8
Default
100
AcDbSpline
210
0.0
220
0.0
230
1.0
 70
    24
 71
     2
 72
     6
 73
     3
 74
     0
 42
0.0000000001
 43
0.0000000001
 40
-2.318405421208
 40
-2.318405421208
 40
-2.318405421208
 40
0.0
 40
0.0
 40
0.0
 10
37.95714183901137
 20
1.16
 30
0.0
 10
37.95714183901137
 20
2.319202710604
 30
0.0
 10
37.95714183901137
 20
3.478405421208
 30
0.0
  0
SPLINE
  5
1F5
330
1F
100
AcDbEntity
  8
Default
100
AcDbSpline
210
0.0
220
0.0
230
1.0
 70
    12
 71
     2
 72
     6
 73
     3
 74
     0
 42
0.0000000001
 43
0.0000000001
 40
-0.0828723162712908
 40
-0.0828723162712908
 40
-0.0828723162712908
 40
0.0
 40
0.0
 40
0.0
 10
37.95714183901137
 20
3.478405421208
 30
0.0
 41
1.0
 10
37.95714629409603
 20
3.51986543332846
 30
0.0
 41
0.9991371909500295
 10
37.95369875063497
 20
3.561316844839234
 30
0.0
 41
1.0
  0
SPLINE
  5
1F6
330
1F
100
AcDbEntity
  8
Default
100
AcDbSpline
210
0.0
220
0.0
230
1.0
 70
    24
 71
     2
 72
     6
 73
     3
 74
     0
 42
0.0000000001
 43
0.0000000001
 40
-1.672807390656564
 40
-1.672807390656564
 40
-1.672807390656564
 40
0.0
 40
0.0
 40
0.0
 10
37.95369875063497
 20
3.561316844839234
 30
0.0
 10
37.88423362771564
 20
4.394898427709859
 30
0.0
 10
37.81476850479632
 20
5.228480010580484
 30
0.0
  0
SPLINE
  5
1F7
330
1F
100
AcDbEntity
  8
Default
100
AcDbSpline
210
0.0
220
0.0
230
1.0
 70
    12
 71
     2
 72
     8
 73
     5
 74
     0
 42
0.0000000001
 43
0.0000000001
 40
0.0
 40
0.0
 40
0.0
 40
1.570796326794905
 40
1.570796326794905
 40
3.141592653589806
 40
3.141592653589806
 40
3.141592653589806
 10
51.02463020866136
 20
2.280000000000001
 30
0.0
 41
1.0
 10
50.02463020866136
 20
2.280000000000015
 30
0.0
 41
0.7071067811865387
 10
50.02463020866136
 20
1.280000000000001
 30
0.0
 41
1.0
 10
50.02463020866136
 20
0.2799999999999876
 30
0.0
 41
0.7071067811865377
 10
51.02463020866136
 20
0.2800000000000018
 30
0.0
 41
1.0
  0
SPLINE
  5
1F8
330
1F
100
AcDbEntity
  8
Default
100
AcDbSpline
210
0.0
220
0.0
230
1.0
 70
    12
 71
     2
 72
     8
 73
     5
 74
     0
 42
0.0000000001
 43
0.0000000001
 40
0.0
 40
0.0
 40
0.0
 40
1.668971097219569
 40
1.668971097219569
 40
3.337942194439146
 40
3.337942194439146
 40
3.337942194439146
 10
41.91185199477141
 20
2.342500000000001
 30
0.0
 41
1.0
 10
42.97435199477134
 20
2.342499999999987
 30
0.0
 41
0.7071067811865555
 10
42.97435199477135
 20
1.280000000000001
 30
0.0
 41
1.0
 10
42.97435199477135
 20
0.217500000000014
 30
0.0
 41
0.7071067811865589
 10
41.91185199477141
 20
0.2174999999999925
 30
0.0
 41
1.0
  0
SPLINE
  5
1F9
330
1F
100
AcDbEntity
  8
Default
100
AcDbSpline
210
0.0
220
0.0
230
1.0
 70
    12
 71
     2
 72
     8
 73
     5
 74
     0
 42
0.0000000001
 43
0.0000000001
 40
0.0
 40
0.0
 40
0.0
 40
1.570796326794891
 40
1.570796326794891
 40
3.141592653589781
 40
3.141592653589781
 40
3.141592653589781
 10
27.16709911117138
 20
0.2800000000000011
 30
0.0
 41
1.0
 10
28.16709911117138
 20
0.2800000000000154
 30
0.0
 41
0.7071067811865578
 10
28.16709911117138
 20
1.280000000000001
 30
0.0
 41
1.0
 10
28.16709911117138
 20
2.279999999999986
 30
0.0
 41
0.7071067811865578
 10
27.16709911117138
 20
2.280000000000001
 30
0.0
 41
1.0
  0
SPLINE
  5
1FA
330
1F
100
AcDbEntity
  8
Default
100
AcDbSpline
210
0.0
220
0.0
230
1.0
 70
    12
 71
     2
 72
     8
 73
     5
 74
     0
 42
0.0000000001
 43
0.0000000001
 40
0.0
 40
0.0
 40
0.0
 40
1.57079632679489
 40
1.57079632679489
 40
3.141592653589781
 40
3.141592653589781
 40
3.141592653589781
 10
51.02463020866136
 20
0.2800000000000011
 30
0.0
 41
1.0
 10
52.02463020866134
 20
0.2800000000000155
 30
0.0
 41
0.7071067811865576
 10
52.02463020866136
 20
1.280000000000001
 30
0.0
 41
1.0
 10
52.02463020866136
 20
2.279999999999982
 30
0.0
 41
0.7071067811865617
 10
51.02463020866136
 20
2.280000000000004
 30
0.0
 41
1.0
  0
SPLINE
  5
1FB
330
1F
100
AcDbEntity
  8
Default
100
AcDbSpline
210
0.0
220
0.0
230
1.0
 70
    12
 71
     2
 72
     8
 73
     5
 74
     0
 42
0.0000000001
 43
0.0000000001
 40
0.0
 40
0.0
 40
0.0
 40
1.570796326794905
 40
1.570796326794905
 40
3.141592653589806
 40
3.141592653589806
 40
3.141592653589806
 10
27.16709911117138
 20
2.280000000000001
 30
0.0
 41
1.0
 10
26.16709911117136
 20
2.280000000000015
 30
0.0
 41
0.7071067811865388
 10
26.16709911117138
 20
1.280000000000001
 30
0.0
 41
1.0
 10
26.16709911117136
 20
0.279999999999989
 30
0.0
 41
0.7071067811865381
 10
27.16709911117138
 20
0.2800000000000029
 30
0.0
 41
1.0
  0
SPLINE
  5
1FC
330
1F
100
AcDbEntity
  8
Default
100
AcDbSpline
210
0.0
220
0.0
230
1.0
 70
    12
 71
     2
 72
     8
 73
     5
 74
     0
 42
0.0000000001
 43
0.0000000001
 40
0.0
 40
0.0
 40
0.0
 40
1.668971097219588
 40
1.668971097219588
 40
3.337942194439166
 40
3.337942194439166
 40
3.337942194439166
 10
27.16709911117138
 20
0.2175000000000011
 30
0.0
 41
1.0
 10
26.10459911117135
 20
0.2174999999999868
 30
0.0
 41
0.7071067811865404
 10
26.10459911117138
 20
1.280000000000001
 30
0.0
 41
1.0
 10
26.10459911117139
 20
2.342500000000001
 30
0.0
 41
0.7071067811865475
 10
27.16709911117138
 20
2.342500000000001
 30
0.0
 41
1.0
  0
SPLINE
  5
1FD
330
1F
100
AcDbEntity
  8
Default
100
AcDbSpline
210
0.0
220
0.0
230
1.0
 70
    12
 71
     2
 72
     8
 73
     5
 74
     0
 42
0.0000000001
 43
0.0000000001
 40
0.0
 40
0.0
 40
0.0
 40
1.668971097219579
 40
1.668971097219579
 40
3.337942194439159
 40
3.337942194439159
 40
3.337942194439159
 10
41.91185199477141
 20
0.2175000000000011
 30
0.0
 41
1.0
 10
40.84935199477137
 20
0.2175000000000011
 30
0.0
 41
0.707106781186548
 10
40.84935199477141
 20
1.280000000000001
 30
0.0
 41
1.0
 10
40.84935199477139
 20
2.342500000000011
 30
0.0
 41
0.7071067811865392
 10
41.91185199477141
 20
2.342499999999998
 30
0.0
 41
1.0
  0
SPLINE
  5
1FE
330
1F
100
AcDbEntity
  8
Default
100
AcDbSpline
210
0.0
220
0.0
230
1.0
 70
    12
 71
     3
 72
    12
 73
     8
 74
     0
 42
0.0000000001
 43
0.0000000001
 40
-0.7506706675552426
 40
-0.7506706675552426
 40
-0.7506706675552426
 40
-0.7506706675552426
 40
-0.5013413351104851
 40
-0.5013413351104851
 40
-0.2509175625619049
 40
-0.2509175625619049
 40
0.0
 40
0.0
 40
0.0
 40
0.0
 10
43.41950489719423
 20
3.817382695361858
 30
0.0
 41
1.0
 10
43.4214604017325
 20
3.800134472448533
 30
0.0
 41
1.0
 10
43.4134499337213
 20
3.782344806175977
 30
0.0
 41
1.0
 10
43.36741815587769
 20
3.747185174082857
 30
0.0
 41
1.0
 10
43.32773732178376
 20
3.729973746534604
 30
0.0
 41
1.0
 10
43.20435937841503
 20
3.704084882030646
 30
0.0
 41
1.0
 10
43.12046160284356
 20
3.695674074752883
 30
0.0
 41
1.0
 10
43.01724480644933
 20
3.695694345738939
 30
0.0
 41
1.0
  0
SPLINE
  5
1FF
330
1F
100
AcDbEntity
  8
Default
100
AcDbSpline
210
0.0
220
0.0
230
1.0
 70
    12
 71
     2
 72
     8
 73
     5
 74
     0
 42
0.0000000001
 43
0.0000000001
 40
0.0
 40
0.0
 40
0.0
 40
1.668971097219578
 40
1.668971097219578
 40
3.337942194439155
 40
3.337942194439155
 40
3.337942194439155
 10
51.02463020866136
 20
0.2175000000000011
 30
0.0
 41
1.0
 10
49.96213020866142
 20
0.2175000000000012
 30
0.0
 41
0.7071067811865476
 10
49.96213020866136
 20
1.280000000000001
 30
0.0
 41
1.0
 10
49.96213020866134
 20
2.342500000000001
 30
0.0
 41
0.7071067811865475
 10
51.02463020866136
 20
2.342500000000001
 30
0.0
 41
1.0
  0
SPLINE
  5
200
330
1F
100
AcDbEntity
  8
Default
100
AcDbSpline
210
0.0
220
0.0
230
1.0
 70
    12
 71
     2
 72
     6
 73
     3
 74
     0
 42
0.0000000001
 43
0.0000000001
 40
0.0
 40
0.0
 40
0.0
 40
0.1200599219472092
 40
0.1200599219472092
 40
0.1200599219472092
 10
42.49505475990642
 20
4.124804394423492
 30
0.0
 41
1.0
 10
42.46428677781464
 20
4.176487352524973
 30
0.0
 41
0.9970557903464687
 10
42.42597789753225
 20
4.222857888122846
 30
0.0
 41
1.0
  0
SPLINE
  5
201
330
1F
100
AcDbEntity
  8
Default
100
AcDbSpline
210
0.0
220
0.0
230
1.0
 70
    12
 71
     2
 72
     8
 73
     5
 74
     0
 42
0.0000000001
 43
0.0000000001
 40
0.0
 40
0.0
 40
0.0
 40
2.010619298297466
 40
2.010619298297466
 40
4.021218817798436
 40
4.021218817798436
 40
4.021218817798436
 10
27.16709911117138
 20
0.0
 30
0.0
 41
1.0
 10
28.44709911117138
 20
0.0
 30
0.0
 41
0.7071067811865458
 10
28.44709911117141
 20
1.280000000000001
 30
0.0
 41
1.0
 10
28.44709911117137
 20
2.559980221356322
 30
0.0
 41
0.7071122443377527
 10
27.16711888996784
 20
2.559999999847184
 30
0.0
 41
1.0
  0
SPLINE
  5
202
330
1F
100
AcDbEntity
  8
Default
100
AcDbSpline
210
0.0
220
0.0
230
1.0
 70
     8
 71
     3
 72
    12
 73
     8
 74
     0
 42
0.0000000001
 43
0.0000000001
 40
0.0
 40
0.0
 40
0.0
 40
0.0
 40
0.0390599208682526
 40
0.0683789205482023
 40
0.1390273096120435
 40
0.2351558596793048
 40
0.3634001376436689
 40
0.3634001376436689
 40
0.3634001376436689
 40
0.3634001376436689
 10
43.21629329635633
 20
4.06645036891404
 30
0.0
 10
43.22305310577715
 20
4.054919564402835
 30
0.0
 10
43.23346649129431
 20
4.035452266000479
 30
0.0
 10
43.23614236472795
 20
3.985968219913318
 30
0.0
 10
43.19018351626167
 20
3.933636697624267
 30
0.0
 10
43.09481252629965
 20
3.90407947279546
 30
0.0
 10
43.02064124742381
 20
3.896279698684061
 30
0.0
 10
42.97764481515807
 20
3.896955803960124
 30
0.0
  0
SPLINE
  5
203
330
1F
100
AcDbEntity
  8
Default
100
AcDbSpline
210
0.0
220
0.0
230
1.0
 70
     8
 71
     3
 72
    12
 73
     8
 74
     0
 42
0.0000000001
 43
0.0000000001
 40
0.0
 40
0.0
 40
0.0
 40
0.0
 40
0.0756631192125829
 40
0.1533030128895928
 40
0.2957591290460643
 40
0.4162413172123314
 40
0.5037352283214283
 40
0.5037352283214283
 40
0.5037352283214283
 40
0.5037352283214283
 10
42.97764481515807
 20
3.896955803960124
 30
0.0
 10
42.95235585241247
 20
3.89679128461335
 30
0.0
 10
42.90144014416595
 20
3.899704146148524
 30
0.0
 10
42.80343507401412
 20
3.912653737481822
 30
0.0
 10
42.6934732643463
 20
3.941370914699001
 30
0.0
 10
42.58655880419931
 20
3.990853220791773
 30
0.0
 10
42.53529916621326
 20
4.039357301730401
 30
0.0
 10
42.52297498713918
 20
4.066455084881323
 30
0.0
  0
SPLINE
  5
204
330
1F
100
AcDbEntity
  8
Default
100
AcDbSpline
210
0.0
220
0.0
230
1.0
 70
    12
 71
     2
 72
     6
 73
     3
 74
     0
 42
0.0000000001
 43
0.0000000001
 40
0.0
 40
0.0
 40
0.0
 40
0.0608528141656966
 40
0.0608528141656966
 40
0.0608528141656966
 10
42.27620304836827
 20
3.866722555164484
 30
0.0
 41
1.0
 10
42.26065763800163
 20
3.89295168371463
 30
0.0
 41
0.9968849407324015
 10
42.24943009944477
 20
3.921298982455824
 30
0.0
 41
1.0
  0
SPLINE
  5
205
330
1F
100
AcDbEntity
  8
Default
100
AcDbSpline
210
0.0
220
0.0
230
1.0
 70
    12
 71
     2
 72
     8
 73
     5
 74
     0
 42
0.0000000001
 43
0.0000000001
 40
0.0
 40
0.0
 40
0.0
 40
2.010619298297478
 40
2.010619298297478
 40
4.021238596594946
 40
4.021238596594946
 40
4.021238596594946
 10
41.91185199477141
 20
0.0
 30
0.0
 41
1.0
 10
43.19185199477142
 20
-0.0000000000000142
 30
0.0
 41
0.7071067811865407
 10
43.19185199477138
 20
1.280000000000001
 30
0.0
 41
1.0
 10
43.19185199477138
 20
2.560000000000006
 30
0.0
 41
0.7071067811865446
 10
41.91185199477141
 20
2.559999999999999
 30
0.0
 41
1.0
  0
SPLINE
  5
206
330
1F
100
AcDbEntity
  8
Default
100
AcDbSpline
210
0.0
220
0.0
230
1.0
 70
    12
 71
     2
 72
     8
 73
     5
 74
     0
 42
0.0000000001
 43
0.0000000001
 40
0.0
 40
0.0
 40
0.0
 40
1.570796326794885
 40
1.570796326794885
 40
3.141592653589778
 40
3.141592653589778
 40
3.141592653589778
 10
41.91185199477141
 20
0.2800000000000011
 30
0.0
 41
1.0
 10
42.91185199477133
 20
0.2800000000000226
 30
0.0
 41
0.7071067811865612
 10
42.91185199477135
 20
1.280000000000001
 30
0.0
 41
1.0
 10
42.9118519947714
 20
2.279999999999989
 30
0.0
 41
0.7071067811865569
 10
41.91185199477141
 20
2.280000000000003
 30
0.0
 41
1.0
  0
SPLINE
  5
207
330
1F
100
AcDbEntity
  8
Default
100
AcDbSpline
210
0.0
220
0.0
230
1.0
 70
    12
 71
     2
 72
     8
 73
     5
 74
     0
 42
0.0000000001
 43
0.0000000001
 40
0.0
 40
0.0
 40
0.0
 40
2.010619298297474
 40
2.010619298297474
 40
4.021238596594946
 40
4.021238596594946
 40
4.021238596594946
 10
27.16709911117138
 20
2.56
 30
0.0
 41
1.0
 10
25.88709911117136
 20
2.560000000000015
 30
0.0
 41
0.7071067811865404
 10
25.88709911117135
 20
1.280000000000001
 30
0.0
 41
1.0
 10
25.88709911117136
 20
-0.00000000000001
 30
0.0
 41
0.7071067811865408
 10
27.16709911117138
 20
0.000000000000004
 30
0.0
 41
1.0
  0
SPLINE
  5
208
330
1F
100
AcDbEntity
  8
Default
100
AcDbSpline
210
0.0
220
0.0
230
1.0
 70
    12
 71
     2
 72
     8
 73
     5
 74
     0
 42
0.0000000001
 43
0.0000000001
 40
0.0
 40
0.0
 40
0.0
 40
2.01061929829747
 40
2.01061929829747
 40
4.021238596594942
 40
4.021238596594942
 40
4.021238596594942
 10
41.91185199477141
 20
2.56
 30
0.0
 41
1.0
 10
40.63185199477133
 20
2.560000000000008
 30
0.0
 41
0.7071067811865439
 10
40.63185199477138
 20
1.280000000000001
 30
0.0
 41
1.0
 10
40.6318519947714
 20
-0.0000000000000025
 30
0.0
 41
0.7071067811865468
 10
41.91185199477141
 20
-0.0000000000000024
 30
0.0
 41
1.0
  0
SPLINE
  5
209
330
1F
100
AcDbEntity
  8
Default
100
AcDbSpline
210
0.0
220
0.0
230
1.0
 70
    12
 71
     2
 72
     6
 73
     3
 74
     0
 42
0.0000000001
 43
0.0000000001
 40
0.0
 40
0.0
 40
0.0
 40
0.0646915628535234
 40
0.0646915628535234
 40
0.0646915628535234
 10
42.52297498713918
 20
4.066455084881323
 30
0.0
 41
1.0
 10
42.50972120577676
 20
4.095967720636024
 30
0.0
 41
0.9997070552220858
 10
42.49505475990642
 20
4.124804394423492
 30
0.0
 41
1.0
  0
SPLINE
  5
20A
330
1F
100
AcDbEntity
  8
Default
100
AcDbSpline
210
0.0
220
0.0
230
1.0
 70
    12
 71
     2
 72
     8
 73
     5
 74
     0
 42
0.0000000001
 43
0.0000000001
 40
0.0
 40
0.0
 40
0.0
 40
1.570796326794899
 40
1.570796326794899
 40
3.1415926535898
 40
3.1415926535898
 40
3.1415926535898
 10
41.91185199477141
 20
2.280000000000001
 30
0.0
 41
1.0
 10
40.91185199477138
 20
2.280000000000008
 30
0.0
 41
0.7071067811865418
 10
40.91185199477141
 20
1.280000000000001
 30
0.0
 41
1.0
 10
40.91185199477138
 20
0.2799999999999923
 30
0.0
 41
0.7071067811865419
 10
41.91185199477141
 20
0.2799999999999994
 30
0.0
 41
1.0
  0
SPLINE
  5
20B
330
1F
100
AcDbEntity
  8
Default
100
AcDbSpline
210
0.0
220
0.0
230
1.0
 70
    12
 71
     2
 72
     8
 73
     5
 74
     0
 42
0.0000000001
 43
0.0000000001
 40
0.0
 40
0.0
 40
0.0
 40
1.668971097219553
 40
1.668971097219553
 40
3.337942194439139
 40
3.337942194439139
 40
3.337942194439139
 10
27.16709911117138
 20
2.342500000000001
 30
0.0
 41
1.0
 10
28.22959911117136
 20
2.342499999999973
 30
0.0
 41
0.7071067811865591
 10
28.22959911117132
 20
1.280000000000001
 30
0.0
 41
1.0
 10
28.22959911117137
 20
0.2175000000000017
 30
0.0
 41
0.7071067811865525
 10
27.16709911117138
 20
0.2174999999999874
 30
0.0
 41
1.0
  0
SPLINE
  5
20C
330
1F
100
AcDbEntity
  8
Default
100
AcDbSpline
210
0.0
220
0.0
230
1.0
 70
    12
 71
     2
 72
     6
 73
     3
 74
     0
 42
0.0000000001
 43
0.0000000001
 40
0.0
 40
0.0
 40
0.0
 40
0.10260707896274
 40
0.10260707896274
 40
0.10260707896274
 10
42.42597789753225
 20
4.222857888122846
 30
0.0
 41
1.0
 10
42.39458394578275
 20
4.263644756823613
 30
0.0
 41
0.9951592485373295
 10
42.35581851261495
 20
4.2975031391857
 30
0.0
 41
1.0
  0
SPLINE
  5
20D
330
1F
100
AcDbEntity
  8
Default
100
AcDbSpline
210
0.0
220
0.0
230
1.0
 70
    12
 71
     2
 72
     6
 73
     3
 74
     0
 42
0.0000000001
 43
0.0000000001
 40
0.0
 40
0.0
 40
0.0
 40
0.1137680292301657
 40
0.1137680292301657
 40
0.1137680292301657
 10
43.12221581469979
 20
4.222861706829246
 30
0.0
 41
1.0
 10
43.15380631545663
 20
4.175482275336866
 30
0.0
 41
0.9983857494307745
 10
43.17981967292965
 20
4.124825829551666
 30
0.0
 41
1.0
  0
SPLINE
  5
20E
330
1F
100
AcDbEntity
  8
Default
100
AcDbSpline
210
0.0
220
0.0
230
1.0
 70
    12
 71
     2
 72
     6
 73
     3
 74
     0
 42
0.0000000001
 43
0.0000000001
 40
0.0
 40
0.0
 40
0.0
 40
0.0978958200670163
 40
0.0978958200670163
 40
0.0978958200670163
 10
43.12221581469979
 20
4.222861706829246
 30
0.0
 41
1.0
 10
43.09387857960503
 20
4.262923671147002
 30
0.0
 41
0.9962426159533742
 10
43.05905327674176
 20
4.297494730695343
 30
0.0
 41
1.0
  0
SPLINE
  5
20F
330
1F
100
AcDbEntity
  8
Default
100
AcDbSpline
210
0.0
220
0.0
230
1.0
 70
    12
 71
     2
 72
     8
 73
     5
 74
     0
 42
0.0000000001
 43
0.0000000001
 40
0.0
 40
0.0
 40
0.0
 40
2.010619298297471
 40
2.010619298297471
 40
4.021238596594943
 40
4.021238596594943
 40
4.021238596594943
 10
51.02463020866136
 20
2.56
 30
0.0
 41
1.0
 10
49.74463020866137
 20
2.560000000000008
 30
0.0
 41
0.707106781186544
 10
49.74463020866133
 20
1.280000000000001
 30
0.0
 41
1.0
 10
49.74463020866133
 20
-0.00000000000001
 30
0.0
 41
0.7071067811865408
 10
51.02463020866136
 20
0.000000000000004
 30
0.0
 41
1.0
  0
SPLINE
  5
210
330
1F
100
AcDbEntity
  8
Default
100
AcDbSpline
210
0.0
220
0.0
230
1.0
 70
    12
 71
     3
 72
    12
 73
     8
 74
     0
 42
0.0000000001
 43
0.0000000001
 40
-1.0
 40
-1.0
 40
-1.0
 40
-1.0
 40
-0.4994646976824853
 40
-0.4994646976824853
 40
-0.2491693735934267
 40
-0.2491693735934267
 40
-0.000960095683646
 40
-0.000960095683646
 40
-0.000960095683646
 40
-0.000960095683646
 10
43.01724480644933
 20
3.695694345738939
 30
0.0
 41
1.0
 10
42.81075685055148
 20
3.695662698911317
 30
0.0
 41
1.0
 10
42.61292677014799
 20
3.729312675448694
 30
0.0
 41
1.0
 10
42.42843512622031
 20
3.78241355633619
 30
0.0
 41
1.0
 10
42.38269982406067
 20
3.800433369117865
 30
0.0
 41
1.0
 10
42.31385527989883
 20
3.835004338480922
 30
0.0
 41
1.0
 10
42.29131432875457
 20
3.851070290350116
 30
0.0
 41
1.0
 10
42.27637605508644
 20
3.866543031915286
 30
0.0
 41
1.0
  0
SPLINE
  5
211
330
1F
100
AcDbEntity
  8
Default
100
AcDbSpline
210
0.0
220
0.0
230
1.0
 70
    12
 71
     2
 72
     8
 73
     5
 74
     0
 42
0.0000000001
 43
0.0000000001
 40
0.0
 40
0.0
 40
0.0
 40
1.668971097219574
 40
1.668971097219574
 40
3.337942194439149
 40
3.337942194439149
 40
3.337942194439149
 10
51.02463020866136
 20
2.342500000000001
 30
0.0
 41
1.0
 10
52.08713020866139
 20
2.342499999999994
 30
0.0
 41
0.7071067811865517
 10
52.08713020866136
 20
1.280000000000001
 30
0.0
 41
1.0
 10
52.08713020866133
 20
0.2175000000000034
 30
0.0
 41
0.7071067811865482
 10
51.02463020866136
 20
0.2175000000000034
 30
0.0
 41
1.0
  0
SPLINE
  5
212
330
1F
100
AcDbEntity
  8
Default
100
AcDbSpline
210
0.0
220
0.0
230
1.0
 70
    12
 71
     2
 72
     8
 73
     5
 74
     0
 42
0.0000000001
 43
0.0000000001
 40
0.0
 40
0.0
 40
0.0
 40
2.010619298297466
 40
2.010619298297466
 40
4.021238596594925
 40
4.021238596594925
 40
4.021238596594925
 10
51.02463020866136
 20
0.0
 30
0.0
 41
1.0
 10
52.30463020866133
 20
0.0000000000000142
 30
0.0
 41
0.7071067811865562
 10
52.30463020866139
 20
1.280000000000001
 30
0.0
 41
1.0
 10
52.30463020866134
 20
2.559999999999984
 30
0.0
 41
0.7071067811865566
 10
51.02463020866136
 20
2.559999999999998
 30
0.0
 41
1.0
  0
SPLINE
  5
213
330
1F
100
AcDbEntity
  8
Default
100
AcDbSpline
210
0.0
220
0.0
230
1.0
 70
    12
 71
     2
 72
     6
 73
     3
 74
     0
 42
0.0000000001
 43
0.0000000001
 40
0.0
 40
0.0
 40
0.0
 40
0.0688371162936112
 40
0.0688371162936112
 40
0.0688371162936112
 10
43.17981967292965
 20
4.124825829551666
 30
0.0
 41
1.0
 10
43.19752227513001
 20
4.095304319312432
 30
0.0
 41
0.9998325506387339
 10
43.21629329635633
 20
4.06645036891404
 30
0.0
 41
1.0
  0
SPLINE
  5
214
330
1F
100
AcDbEntity
  8
Default
100
AcDbSpline
210
0.0
220
0.0
230
1.0
 70
    24
 71
     2
 72
     6
 73
     3
 74
     0
 42
0.0000000001
 43
0.0000000001
 40
0.0
 40
0.0
 40
0.0
 40
2.133458434542447
 40
2.133458434542447
 40
2.133458434542447
 10
-0.9800168225590369
 20
7.561541565457564
 30
0.0
 10
-0.9800168225590511
 20
8.628270782728787
 30
0.0
 10
-0.9800168225590653
 20
9.695000000000011
 30
0.0
  0
SPLINE
  5
215
330
1F
100
AcDbEntity
  8
Default
100
AcDbSpline
210
0.0
220
0.0
230
1.0
 70
    24
 71
     2
 72
     6
 73
     3
 74
     0
 42
0.0000000001
 43
0.0000000001
 40
0.0
 40
0.0
 40
0.0
 40
2.133457786270659
 40
2.133457786270659
 40
2.133457786270659
 10
0.9799831774409711
 20
9.695000000000011
 30
0.0
 10
0.9799831774409711
 20
8.62827110686468
 30
0.0
 10
0.9799831774409711
 20
7.561542213729352
 30
0.0
  0
SPLINE
  5
216
330
1F
100
AcDbEntity
  8
Default
100
AcDbSpline
210
0.0
220
0.0
230
1.0
 70
    24
 71
     2
 72
     6
 73
     3
 74
     0
 42
0.0000000001
 43
0.0000000001
 40
0.0
 40
0.0
 40
0.0
 40
0.1739735899772906
 40
0.1739735899772906
 40
0.1739735899772906
 10
0.9780010826612795
 20
9.6969820947797
 30
0.0
 10
0.9164921300511253
 20
9.75849104738986
 30
0.0
 10
0.8549831774409711
 20
9.820000000000018
 30
0.0
  0
SPLINE
  5
217
330
1F
100
AcDbEntity
  8
Default
100
AcDbSpline
210
0.0
220
0.0
230
1.0
 70
    24
 71
     2
 72
     6
 73
     3
 74
     0
 42
0.0000000001
 43
0.0000000001
 40
0.0
 40
0.0
 40
0.0
 40
1.706541446864048
 40
1.706541446864048
 40
1.706541446864048
 10
0.8549831774409711
 20
9.820000000000018
 30
0.0
 10
0.0017124540089526
 20
9.820000000000018
 30
0.0
 10
-0.8515582694230659
 20
9.820000000000018
 30
0.0
  0
SPLINE
  5
218
330
1F
100
AcDbEntity
  8
Default
100
AcDbSpline
210
0.0
220
0.0
230
1.0
 70
    24
 71
     2
 72
     6
 73
     3
 74
     0
 42
0.0000000001
 43
0.0000000001
 40
0.0
 40
0.0
 40
0.0
 40
0.1767766952966369
 40
0.1767766952966369
 40
0.1767766952966369
 10
-0.8550168225590653
 20
9.820000000000018
 30
0.0
 10
-0.9175168225590653
 20
9.757500000000014
 30
0.0
 10
-0.9800168225590653
 20
9.695000000000011
 30
0.0
  0
POLYLINE
  5
219
330
1F
100
AcDbEntity
  8
Default
100
AcDb2dPolyline
 66
     1
 10
0.0
 20
0.0
 30
0.0
  0
VERTEX
  5
21A
330
219
100
AcDbEntity
  8
Default
100
AcDbVertex
100
AcDb2dVertex
 10
-0.359375
 20
0.8425000000000011
 30
0.0
  0
VERTEX
  5
21B
330
219
100
AcDbEntity
  8
Default
100
AcDbVertex
100
AcDb2dVertex
 10
0.359375
 20
0.8425000000000011
 30
0.0
  0
VERTEX
  5
21C
330
219
100
AcDbEntity
  8
Default
100
AcDbVertex
100
AcDb2dVertex
 10
0.359375
 20
2.559999999999986
 30
0.0
  0
VERTEX
  5
21D
330
219
100
AcDbEntity
  8
Default
100
AcDbVertex
100
AcDb2dVertex
 10
-0.359375
 20
2.559999999999986
 30
0.0
  0
VERTEX
  5
21E
330
219
100
AcDbEntity
  8
Default
100
AcDbVertex
100
AcDb2dVertex
 10
-0.359375
 20
0.8425000000000011
 30
0.0
  0
SEQEND
  5
21F
330
219
100
AcDbEntity
  8
Default
  0
SPLINE
  5
220
330
1F
100
AcDbEntity
  8
Default
100
AcDbSpline
210
0.0
220
0.0
230
1.0
 70
    24
 71
     2
 72
     6
 73
     3
 74
     0
 42
0.0000000001
 43
0.0000000001
 40
-0.34375
 40
-0.34375
 40
-0.34375
 40
0.0
 40
0.0
 40
0.0
 10
0.75
 20
2.56
 30
0.0
 10
0.578125
 20
2.56
 30
0.0
 10
0.40625
 20
2.56
 30
0.0
  0
SPLINE
  5
221
330
1F
100
AcDbEntity
  8
Default
100
AcDbSpline
210
0.0
220
0.0
230
1.0
 70
    12
 71
     2
 72
     8
 73
     5
 74
     0
 42
0.0000000001
 43
0.0000000001
 40
0.0
 40
0.0
 40
0.0
 40
0.0245437074331711
 40
0.0245437074331711
 40
0.0490874148663426
 40
0.0490874148663426
 40
0.0490874148663426
 10
0.40625
 20
2.56
 30
0.0
 41
1.0
 10
0.3933058174903759
 20
2.559999999999998
 30
0.0
 41
0.9238794417265827
 10
0.3841529026036312
 20
2.550847076427806
 30
0.0
 41
1.0
 10
0.3749999877169167
 20
2.541694152855611
 30
0.0
 41
0.9238794417264897
 10
0.375
 20
2.528749970346
 30
0.0
 41
1.0
  0
SPLINE
  5
222
330
1F
100
AcDbEntity
  8
Default
100
AcDbSpline
210
0.0
220
0.0
230
1.0
 70
    24
 71
     2
 72
     6
 73
     3
 74
     0
 42
0.0000000001
 43
0.0000000001
 40
0.0
 40
0.0
 40
0.0
 40
2.492448632942286
 40
2.492448632942286
 40
2.492448632942286
 10
0.375
 20
2.528749970346
 30
0.0
 10
0.375
 20
1.281262826937429
 30
0.0
 10
0.375
 20
0.0337756835288575
 30
0.0
  0
SPLINE
  5
223
330
1F
100
AcDbEntity
  8
Default
100
AcDbSpline
210
0.0
220
0.0
230
1.0
 70
    12
 71
     2
 72
     8
 73
     5
 74
     0
 42
0.0000000001
 43
0.0000000001
 40
0.0
 40
0.0
 40
0.0
 40
0.0245437074331714
 40
0.0245437074331714
 40
0.0490874148663431
 40
0.0490874148663431
 40
0.0490874148663431
 10
0.375
 20
0.0337756835288575
 30
0.0
 41
1.0
 10
0.3749999877169247
 20
0.0183058471443899
 30
0.0
 41
0.9238794417265142
 10
0.3841529026036312
 20
0.0091529235721945
 30
0.0
 41
1.0
 10
0.3933058174903952
 20
0.0
 30
0.0
 41
0.9238794417265332
 10
0.40625
 20
-0.0000000000000002
 30
0.0
 41
1.0
  0
SPLINE
  5
224
330
1F
100
AcDbEntity
  8
Default
100
AcDbSpline
210
0.0
220
0.0
230
1.0
 70
    24
 71
     2
 72
     6
 73
     3
 74
     0
 42
0.0000000001
 43
0.0000000001
 40
-0.34375
 40
-0.34375
 40
-0.34375
 40
0.0
 40
0.0
 40
0.0
 10
0.40625
 20
-0.0000000000000002
 30
0.0
 10
0.578125
 20
-0.0000000000000001
 30
0.0
 10
0.75
 20
0.0
 30
0.0
  0
SPLINE
  5
225
330
1F
100
AcDbEntity
  8
Default
100
AcDbSpline
210
0.0
220
0.0
230
1.0
 70
    12
 71
     2
 72
     6
 73
     3
 74
     0
 42
0.0000000001
 43
0.0000000001
 40
0.0
 40
0.0
 40
0.0
 40
0.1963495408493663
 40
0.1963495408493663
 40
0.1963495408493663
 10
0.75
 20
0.0
 30
0.0
 41
1.0
 10
0.8749999999999915
 20
-0.0000000000000089
 30
0.0
 41
0.7071067811864994
 10
0.875
 20
0.125
 30
0.0
 41
1.0
  0
SPLINE
  5
226
330
1F
100
AcDbEntity
  8
Default
100
AcDbSpline
210
0.0
220
0.0
230
1.0
 70
    24
 71
     2
 72
     6
 73
     3
 74
     0
 42
0.0000000001
 43
0.0000000001
 40
0.0
 40
0.0
 40
0.0
 40
2.31
 40
2.31
 40
2.31
 10
0.875
 20
0.125
 30
0.0
 10
0.875
 20
1.28
 30
0.0
 10
0.875
 20
2.435
 30
0.0
  0
SPLINE
  5
227
330
1F
100
AcDbEntity
  8
Default
100
AcDbSpline
210
0.0
220
0.0
230
1.0
 70
    12
 71
     2
 72
     6
 73
     3
 74
     0
 42
0.0000000001
 43
0.0000000001
 40
0.0
 40
0.0
 40
0.0
 40
0.1963495408493654
 40
0.1963495408493654
 40
0.1963495408493654
 10
0.875
 20
2.435
 30
0.0
 41
1.0
 10
0.8749999999999719
 20
2.560000000000009
 30
0.0
 41
0.7071067811864986
 10
0.75
 20
2.56
 30
0.0
 41
1.0
  0
SPLINE
  5
228
330
1F
100
AcDbEntity
  8
Default
100
AcDbSpline
210
0.0
220
0.0
230
1.0
 70
    24
 71
     2
 72
     6
 73
     3
 74
     0
 42
0.0000000001
 43
0.0000000001
 40
-0.34375
 40
-0.34375
 40
-0.34375
 40
0.0
 40
0.0
 40
0.0
 10
-0.75
 20
2.56
 30
0.0
 10
-0.578125
 20
2.56
 30
0.0
 10
-0.40625
 20
2.56
 30
0.0
  0
SPLINE
  5
229
330
1F
100
AcDbEntity
  8
Default
100
AcDbSpline
210
0.0
220
0.0
230
1.0
 70
    12
 71
     2
 72
     8
 73
     5
 74
     0
 42
0.0000000001
 43
0.0000000001
 40
0.0
 40
0.0
 40
0.0
 40
0.0245437074331711
 40
0.0245437074331711
 40
0.0490874148663426
 40
0.0490874148663426
 40
0.0490874148663426
 10
-0.40625
 20
2.56
 30
0.0
 41
1.0
 10
-0.3933058174903806
 20
2.559999999999998
 30
0.0
 41
0.9238794417265827
 10
-0.3841529026036312
 20
2.550847076427806
 30
0.0
 41
1.0
 10
-0.3749999877168956
 20
2.541694152855611
 30
0.0
 41
0.9238794417264897
 10
-0.375
 20
2.528749970346
 30
0.0
 41
1.0
  0
SPLINE
  5
22A
330
1F
100
AcDbEntity
  8
Default
100
AcDbSpline
210
0.0
220
0.0
230
1.0
 70
    24
 71
     2
 72
     6
 73
     3
 74
     0
 42
0.0000000001
 43
0.0000000001
 40
0.0
 40
0.0
 40
0.0
 40
2.492448632942286
 40
2.492448632942286
 40
2.492448632942286
 10
-0.375
 20
2.528749970346
 30
0.0
 10
-0.375
 20
1.281262826937429
 30
0.0
 10
-0.375
 20
0.0337756835288575
 30
0.0
  0
SPLINE
  5
22B
330
1F
100
AcDbEntity
  8
Default
100
AcDbSpline
210
0.0
220
0.0
230
1.0
 70
    12
 71
     2
 72
     8
 73
     5
 74
     0
 42
0.0000000001
 43
0.0000000001
 40
0.0
 40
0.0
 40
0.0
 40
0.0245437074331714
 40
0.0245437074331714
 40
0.0490874148663431
 40
0.0490874148663431
 40
0.0490874148663431
 10
-0.375
 20
0.0337756835288575
 30
0.0
 41
1.0
 10
-0.3749999877169294
 20
0.0183058471443899
 30
0.0
 41
0.9238794417265142
 10
-0.3841529026036312
 20
0.0091529235721945
 30
0.0
 41
1.0
 10
-0.3933058174903726
 20
0.0
 30
0.0
 41
0.9238794417265332
 10
-0.40625
 20
-0.0000000000000002
 30
0.0
 41
1.0
  0
SPLINE
  5
22C
330
1F
100
AcDbEntity
  8
Default
100
AcDbSpline
210
0.0
220
0.0
230
1.0
 70
    24
 71
     2
 72
     6
 73
     3
 74
     0
 42
0.0000000001
 43
0.0000000001
 40
-0.34375
 40
-0.34375
 40
-0.34375
 40
0.0
 40
0.0
 40
0.0
 10
-0.40625
 20
-0.0000000000000002
 30
0.0
 10
-0.578125
 20
-0.0000000000000001
 30
0.0
 10
-0.75
 20
0.0
 30
0.0
  0
SPLINE
  5
22D
330
1F
100
AcDbEntity
  8
Default
100
AcDbSpline
210
0.0
220
0.0
230
1.0
 70
    12
 71
     2
 72
     6
 73
     3
 74
     0
 42
0.0000000001
 43
0.0000000001
 40
0.0
 40
0.0
 40
0.0
 40
0.1963495408493663
 40
0.1963495408493663
 40
0.1963495408493663
 10
-0.75
 20
0.0
 30
0.0
 41
1.0
 10
-0.874999999999981
 20
-0.0000000000000089
 30
0.0
 41
0.7071067811864994
 10
-0.875
 20
0.125
 30
0.0
 41
1.0
  0
SPLINE
  5
22E
330
1F
100
AcDbEntity
  8
Default
100
AcDbSpline
210
0.0
220
0.0
230
1.0
 70
    24
 71
     2
 72
     6
 73
     3
 74
     0
 42
0.0000000001
 43
0.0000000001
 40
0.0
 40
0.0
 40
0.0
 40
2.31
 40
2.31
 40
2.31
 10
-0.875
 20
0.125
 30
0.0
 10
-0.875
 20
1.28
 30
0.0
 10
-0.875
 20
2.435
 30
0.0
  0
SPLINE
  5
22F
330
1F
100
AcDbEntity
  8
Default
100
AcDbSpline
210
0.0
220
0.0
230
1.0
 70
    12
 71
     2
 72
     6
 73
     3
 74
     0
 42
0.0000000001
 43
0.0000000001
 40
0.0
 40
0.0
 40
0.0
 40
0.1963495408493654
 40
0.1963495408493654
 40
0.1963495408493654
 10
-0.875
 20
2.435
 30
0.0
 41
1.0
 10
-0.8750000000000024
 20
2.560000000000009
 30
0.0
 41
0.7071067811864986
 10
-0.75
 20
2.56
 30
0.0
 41
1.0
  0
SPLINE
  5
230
330
1F
100
AcDbEntity
  8
Default
100
AcDbSpline
210
0.0
220
0.0
230
1.0
 70
    24
 71
     2
 72
     6
 73
     3
 74
     0
 42
0.0000000001
 43
0.0000000001
 40
-0.0829573442459228
 40
-0.0829573442459228
 40
-0.0829573442459228
 40
0.0
 40
0.0
 40
0.0
 10
0.3437500000000853
 20
2.559999999999986
 30
0.0
 10
0.3501533480020953
 20
2.601584463637994
 30
0.0
 10
0.3565566960041053
 20
2.643168927276001
 30
0.0
  0
LINE
  5
231
330
1F
100
AcDbEntity
  8
Default
100
AcDbLine
 10
0.3565566960041053
 20
2.643168927276001
 30
0.0
 11
-0.3567451448753047
 21
2.643168927201502
 31
0.0
  0
SPLINE
  5
232
330
1F
100
AcDbEntity
  8
Default
100
AcDbSpline
210
0.0
220
0.0
230
1.0
 70
    24
 71
     2
 72
     6
 73
     3
 74
     0
 42
0.0000000001
 43
0.0000000001
 40
-0.0829573442459228
 40
-0.0829573442459228
 40
-0.0829573442459228
 40
0.0
 40
0.0
 40
0.0
 10
-0.3567451448753047
 20
2.643168927201502
 30
0.0
 10
-0.350247572437695
 20
2.601584463600744
 30
0.0
 10
-0.3437500000000853
 20
2.559999999999986
 30
0.0
  0
SPLINE
  5
233
330
1F
100
AcDbEntity
  8
Default
100
AcDbSpline
210
0.0
220
0.0
230
1.0
 70
    24
 71
     2
 72
     6
 73
     3
 74
     0
 42
0.0000000001
 43
0.0000000001
 40
-0.34375
 40
-0.34375
 40
-0.34375
 40
0.0
 40
0.0
 40
0.0
 10
-7.001808976534051
 20
2.56
 30
0.0
 10
-7.173683976534051
 20
2.56
 30
0.0
 10
-7.345558976534051
 20
2.56
 30
0.0
  0
SPLINE
  5
234
330
1F
100
AcDbEntity
  8
Default
100
AcDbSpline
210
0.0
220
0.0
230
1.0
 70
    12
 71
     2
 72
     8
 73
     5
 74
     0
 42
0.0000000001
 43
0.0000000001
 40
0.0
 40
0.0
 40
0.0
 40
0.0245437074331711
 40
0.0245437074331711
 40
0.0490874148663426
 40
0.0490874148663426
 40
0.0490874148663426
 10
-7.345558976534051
 20
2.56
 30
0.0
 41
1.0
 10
-7.358503159043648
 20
2.559999999999998
 30
0.0
 41
0.9238794417265827
 10
-7.367656073930419
 20
2.550847076427806
 30
0.0
 41
1.0
 10
-7.376808988817118
 20
2.541694152855611
 30
0.0
 41
0.9238794417264897
 10
-7.376808976534051
 20
2.528749970346
 30
0.0
 41
1.0
  0
SPLINE
  5
235
330
1F
100
AcDbEntity
  8
Default
100
AcDbSpline
210
0.0
220
0.0
230
1.0
 70
    24
 71
     2
 72
     6
 73
     3
 74
     0
 42
0.0000000001
 43
0.0000000001
 40
0.0
 40
0.0
 40
0.0
 40
2.492448632942286
 40
2.492448632942286
 40
2.492448632942286
 10
-7.376808976534051
 20
2.528749970346
 30
0.0
 10
-7.376808976534051
 20
1.281262826937429
 30
0.0
 10
-7.376808976534051
 20
0.0337756835288575
 30
0.0
  0
SPLINE
  5
236
330
1F
100
AcDbEntity
  8
Default
100
AcDbSpline
210
0.0
220
0.0
230
1.0
 70
    12
 71
     2
 72
     8
 73
     5
 74
     0
 42
0.0000000001
 43
0.0000000001
 40
0.0
 40
0.0
 40
0.0
 40
0.0245437074331714
 40
0.0245437074331714
 40
0.0490874148663431
 40
0.0490874148663431
 40
0.0490874148663431
 10
-7.376808976534051
 20
0.0337756835288575
 30
0.0
 41
1.0
 10
-7.376808988817152
 20
0.0183058471443899
 30
0.0
 41
0.9238794417265142
 10
-7.367656073930419
 20
0.0091529235721945
 30
0.0
 41
1.0
 10
-7.358503159043675
 20
0.0
 30
0.0
 41
0.9238794417265332
 10
-7.345558976534051
 20
-0.0000000000000002
 30
0.0
 41
1.0
  0
SPLINE
  5
237
330
1F
100
AcDbEntity
  8
Default
100
AcDbSpline
210
0.0
220
0.0
230
1.0
 70
    24
 71
     2
 72
     6
 73
     3
 74
     0
 42
0.0000000001
 43
0.0000000001
 40
-0.34375
 40
-0.34375
 40
-0.34375
 40
0.0
 40
0.0
 40
0.0
 10
-7.345558976534051
 20
-0.0000000000000002
 30
0.0
 10
-7.173683976534051
 20
-0.0000000000000001
 30
0.0
 10
-7.001808976534051
 20
0.0
 30
0.0
  0
SPLINE
  5
238
330
1F
100
AcDbEntity
  8
Default
100
AcDbSpline
210
0.0
220
0.0
230
1.0
 70
    12
 71
     2
 72
     6
 73
     3
 74
     0
 42
0.0000000001
 43
0.0000000001
 40
0.0
 40
0.0
 40
0.0
 40
0.1963495408493663
 40
0.1963495408493663
 40
0.1963495408493663
 10
-7.001808976534051
 20
0.0
 30
0.0
 41
1.0
 10
-6.87680897653403
 20
-0.0000000000000089
 30
0.0
 41
0.7071067811864994
 10
-6.876808976534051
 20
0.125
 30
0.0
 41
1.0
  0
SPLINE
  5
239
330
1F
100
AcDbEntity
  8
Default
100
AcDbSpline
210
0.0
220
0.0
230
1.0
 70
    24
 71
     2
 72
     6
 73
     3
 74
     0
 42
0.0000000001
 43
0.0000000001
 40
0.0
 40
0.0
 40
0.0
 40
2.31
 40
2.31
 40
2.31
 10
-6.876808976534051
 20
0.125
 30
0.0
 10
-6.876808976534051
 20
1.28
 30
0.0
 10
-6.876808976534051
 20
2.435
 30
0.0
  0
SPLINE
  5
23A
330
1F
100
AcDbEntity
  8
Default
100
AcDbSpline
210
0.0
220
0.0
230
1.0
 70
    12
 71
     2
 72
     6
 73
     3
 74
     0
 42
0.0000000001
 43
0.0000000001
 40
0.0
 40
0.0
 40
0.0
 40
0.1963495408493654
 40
0.1963495408493654
 40
0.1963495408493654
 10
-6.876808976534051
 20
2.435
 30
0.0
 41
1.0
 10
-6.876808976534058
 20
2.560000000000009
 30
0.0
 41
0.7071067811864986
 10
-7.001808976534051
 20
2.56
 30
0.0
 41
1.0
  0
POLYLINE
  5
23B
330
1F
100
AcDbEntity
  8
Default
100
AcDb2dPolyline
 66
     1
 10
0.0
 20
0.0
 30
0.0
  0
VERTEX
  5
23C
330
23B
100
AcDbEntity
  8
Default
100
AcDbVertex
100
AcDb2dVertex
 10
-8.11118397653405
 20
0.8425000000000011
 30
0.0
  0
VERTEX
  5
23D
330
23B
100
AcDbEntity
  8
Default
100
AcDbVertex
100
AcDb2dVertex
 10
-7.392433976534051
 20
0.8425000000000011
 30
0.0
  0
VERTEX
  5
23E
330
23B
100
AcDbEntity
  8
Default
100
AcDbVertex
100
AcDb2dVertex
 10
-7.392433976534051
 20
2.559999999999986
 30
0.0
  0
VERTEX
  5
23F
330
23B
100
AcDbEntity
  8
Default
100
AcDbVertex
100
AcDb2dVertex
 10
-8.11118397653405
 20
2.559999999999986
 30
0.0
  0
VERTEX
  5
240
330
23B
100
AcDbEntity
  8
Default
100
AcDbVertex
100
AcDb2dVertex
 10
-8.11118397653405
 20
0.8425000000000011
 30
0.0
  0
SEQEND
  5
241
330
23B
100
AcDbEntity
  8
Default
  0
SPLINE
  5
242
330
1F
100
AcDbEntity
  8
Default
100
AcDbSpline
210
0.0
220
0.0
230
1.0
 70
    24
 71
     2
 72
     6
 73
     3
 74
     0
 42
0.0000000001
 43
0.0000000001
 40
-0.34375
 40
-0.34375
 40
-0.34375
 40
0.0
 40
0.0
 40
0.0
 10
-8.50180897653405
 20
2.56
 30
0.0
 10
-8.32993397653405
 20
2.56
 30
0.0
 10
-8.15805897653405
 20
2.56
 30
0.0
  0
SPLINE
  5
243
330
1F
100
AcDbEntity
  8
Default
100
AcDbSpline
210
0.0
220
0.0
230
1.0
 70
    12
 71
     2
 72
     8
 73
     5
 74
     0
 42
0.0000000001
 43
0.0000000001
 40
0.0
 40
0.0
 40
0.0
 40
0.0245437074331711
 40
0.0245437074331711
 40
0.0490874148663426
 40
0.0490874148663426
 40
0.0490874148663426
 10
-8.15805897653405
 20
2.56
 30
0.0
 41
1.0
 10
-8.145114794024435
 20
2.559999999999998
 30
0.0
 41
0.9238794417265827
 10
-8.135961879137682
 20
2.550847076427806
 30
0.0
 41
1.0
 10
-8.12680896425096
 20
2.541694152855611
 30
0.0
 41
0.9238794417264897
 10
-8.12680897653405
 20
2.528749970346
 30
0.0
 41
1.0
  0
SPLINE
  5
244
330
1F
100
AcDbEntity
  8
Default
100
AcDbSpline
210
0.0
220
0.0
230
1.0
 70
    24
 71
     2
 72
     6
 73
     3
 74
     0
 42
0.0000000001
 43
0.0000000001
 40
0.0
 40
0.0
 40
0.0
 40
2.492448632942286
 40
2.492448632942286
 40
2.492448632942286
 10
-8.12680897653405
 20
2.528749970346
 30
0.0
 10
-8.12680897653405
 20
1.281262826937429
 30
0.0
 10
-8.12680897653405
 20
0.0337756835288575
 30
0.0
  0
SPLINE
  5
245
330
1F
100
AcDbEntity
  8
Default
100
AcDbSpline
210
0.0
220
0.0
230
1.0
 70
    12
 71
     2
 72
     8
 73
     5
 74
     0
 42
0.0000000001
 43
0.0000000001
 40
0.0
 40
0.0
 40
0.0
 40
0.0245437074331714
 40
0.0245437074331714
 40
0.0490874148663431
 40
0.0490874148663431
 40
0.0490874148663431
 10
-8.12680897653405
 20
0.0337756835288575
 30
0.0
 41
1.0
 10
-8.126808964250975
 20
0.0183058471443899
 30
0.0
 41
0.9238794417265142
 10
-8.135961879137682
 20
0.0091529235721945
 30
0.0
 41
1.0
 10
-8.145114794024412
 20
0.0
 30
0.0
 41
0.9238794417265332
 10
-8.15805897653405
 20
-0.0000000000000002
 30
0.0
 41
1.0
  0
SPLINE
  5
246
330
1F
100
AcDbEntity
  8
Default
100
AcDbSpline
210
0.0
220
0.0
230
1.0
 70
    24
 71
     2
 72
     6
 73
     3
 74
     0
 42
0.0000000001
 43
0.0000000001
 40
-0.34375
 40
-0.34375
 40
-0.34375
 40
0.0
 40
0.0
 40
0.0
 10
-8.15805897653405
 20
-0.0000000000000002
 30
0.0
 10
-8.32993397653405
 20
-0.0000000000000001
 30
0.0
 10
-8.50180897653405
 20
0.0
 30
0.0
  0
SPLINE
  5
247
330
1F
100
AcDbEntity
  8
Default
100
AcDbSpline
210
0.0
220
0.0
230
1.0
 70
    12
 71
     2
 72
     6
 73
     3
 74
     0
 42
0.0000000001
 43
0.0000000001
 40
0.0
 40
0.0
 40
0.0
 40
0.1963495408493663
 40
0.1963495408493663
 40
0.1963495408493663
 10
-8.50180897653405
 20
0.0
 30
0.0
 41
1.0
 10
-8.626808976534042
 20
-0.0000000000000089
 30
0.0
 41
0.7071067811864994
 10
-8.62680897653405
 20
0.125
 30
0.0
 41
1.0
  0
SPLINE
  5
248
330
1F
100
AcDbEntity
  8
Default
100
AcDbSpline
210
0.0
220
0.0
230
1.0
 70
    24
 71
     2
 72
     6
 73
     3
 74
     0
 42
0.0000000001
 43
0.0000000001
 40
0.0
 40
0.0
 40
0.0
 40
2.31
 40
2.31
 40
2.31
 10
-8.62680897653405
 20
0.125
 30
0.0
 10
-8.62680897653405
 20
1.28
 30
0.0
 10
-8.62680897653405
 20
2.435
 30
0.0
  0
SPLINE
  5
249
330
1F
100
AcDbEntity
  8
Default
100
AcDbSpline
210
0.0
220
0.0
230
1.0
 70
    12
 71
     2
 72
     6
 73
     3
 74
     0
 42
0.0000000001
 43
0.0000000001
 40
0.0
 40
0.0
 40
0.0
 40
0.1963495408493654
 40
0.1963495408493654
 40
0.1963495408493654
 10
-8.62680897653405
 20
2.435
 30
0.0
 41
1.0
 10
-8.626808976534072
 20
2.560000000000009
 30
0.0
 41
0.7071067811864986
 10
-8.50180897653405
 20
2.56
 30
0.0
 41
1.0
  0
SPLINE
  5
24A
330
1F
100
AcDbEntity
  8
Default
100
AcDbSpline
210
0.0
220
0.0
230
1.0
 70
    24
 71
     2
 72
     6
 73
     3
 74
     0
 42
0.0000000001
 43
0.0000000001
 40
-0.0829573442459228
 40
-0.0829573442459228
 40
-0.0829573442459228
 40
0.0
 40
0.0
 40
0.0
 10
-7.408058976533965
 20
2.559999999999986
 30
0.0
 10
-7.401655628531955
 20
2.601584463637994
 30
0.0
 10
-7.395252280529945
 20
2.643168927276001
 30
0.0
  0
LINE
  5
24B
330
1F
100
AcDbEntity
  8
Default
100
AcDbLine
 10
-7.395252280529945
 20
2.643168927276001
 30
0.0
 11
-8.108554121409355
 21
2.643168927201502
 31
0.0
  0
SPLINE
  5
24C
330
1F
100
AcDbEntity
  8
Default
100
AcDbSpline
210
0.0
220
0.0
230
1.0
 70
    24
 71
     2
 72
     6
 73
     3
 74
     0
 42
0.0000000001
 43
0.0000000001
 40
-0.0829573442459228
 40
-0.0829573442459228
 40
-0.0829573442459228
 40
0.0
 40
0.0
 40
0.0
 10
-8.108554121409355
 20
2.643168927201502
 30
0.0
 10
-8.102056548971746
 20
2.601584463600744
 30
0.0
 10
-8.095558976534136
 20
2.559999999999986
 30
0.0
  0
SPLINE
  5
24D
330
1F
100
AcDbEntity
  8
Default
100
AcDbSpline
210
0.0
220
0.0
230
1.0
 70
    24
 71
     2
 72
     6
 73
     3
 74
     0
 42
0.0000000001
 43
0.0000000001
 40
-0.34375
 40
-0.34375
 40
-0.34375
 40
0.0
 40
0.0
 40
0.0
 10
-11.79265278193904
 20
2.56
 30
0.0
 10
-11.96452778193904
 20
2.56
 30
0.0
 10
-12.13640278193904
 20
2.56
 30
0.0
  0
SPLINE
  5
24E
330
1F
100
AcDbEntity
  8
Default
100
AcDbSpline
210
0.0
220
0.0
230
1.0
 70
    12
 71
     2
 72
     8
 73
     5
 74
     0
 42
0.0000000001
 43
0.0000000001
 40
0.0
 40
0.0
 40
0.0
 40
0.0245437074331711
 40
0.0245437074331711
 40
0.0490874148663426
 40
0.0490874148663426
 40
0.0490874148663426
 10
-12.13640278193904
 20
2.56
 30
0.0
 41
1.0
 10
-12.14934696444864
 20
2.559999999999998
 30
0.0
 41
0.9238794417265827
 10
-12.15849987933541
 20
2.550847076427806
 30
0.0
 41
1.0
 10
-12.16765279422213
 20
2.541694152855611
 30
0.0
 41
0.9238794417264897
 10
-12.16765278193904
 20
2.528749970346
 30
0.0
 41
1.0
  0
SPLINE
  5
24F
330
1F
100
AcDbEntity
  8
Default
100
AcDbSpline
210
0.0
220
0.0
230
1.0
 70
    24
 71
     2
 72
     6
 73
     3
 74
     0
 42
0.0000000001
 43
0.0000000001
 40
0.0
 40
0.0
 40
0.0
 40
2.492448632942286
 40
2.492448632942286
 40
2.492448632942286
 10
-12.16765278193904
 20
2.528749970346
 30
0.0
 10
-12.16765278193904
 20
1.281262826937429
 30
0.0
 10
-12.16765278193904
 20
0.0337756835288575
 30
0.0
  0
SPLINE
  5
250
330
1F
100
AcDbEntity
  8
Default
100
AcDbSpline
210
0.0
220
0.0
230
1.0
 70
    12
 71
     2
 72
     8
 73
     5
 74
     0
 42
0.0000000001
 43
0.0000000001
 40
0.0
 40
0.0
 40
0.0
 40
0.0245437074331714
 40
0.0245437074331714
 40
0.0490874148663431
 40
0.0490874148663431
 40
0.0490874148663431
 10
-12.16765278193904
 20
0.0337756835288575
 30
0.0
 41
1.0
 10
-12.16765279422214
 20
0.0183058471443899
 30
0.0
 41
0.9238794417265142
 10
-12.15849987933541
 20
0.0091529235721945
 30
0.0
 41
1.0
 10
-12.14934696444865
 20
0.0
 30
0.0
 41
0.9238794417265332
 10
-12.13640278193904
 20
-0.0000000000000002
 30
0.0
 41
1.0
  0
SPLINE
  5
251
330
1F
100
AcDbEntity
  8
Default
100
AcDbSpline
210
0.0
220
0.0
230
1.0
 70
    24
 71
     2
 72
     6
 73
     3
 74
     0
 42
0.0000000001
 43
0.0000000001
 40
-0.34375
 40
-0.34375
 40
-0.34375
 40
0.0
 40
0.0
 40
0.0
 10
-12.13640278193904
 20
-0.0000000000000002
 30
0.0
 10
-11.96452778193904
 20
-0.0000000000000001
 30
0.0
 10
-11.79265278193904
 20
0.0
 30
0.0
  0
SPLINE
  5
252
330
1F
100
AcDbEntity
  8
Default
100
AcDbSpline
210
0.0
220
0.0
230
1.0
 70
    12
 71
     2
 72
     6
 73
     3
 74
     0
 42
0.0000000001
 43
0.0000000001
 40
0.0
 40
0.0
 40
0.0
 40
0.1963495408493663
 40
0.1963495408493663
 40
0.1963495408493663
 10
-11.79265278193904
 20
0.0
 30
0.0
 41
1.0
 10
-11.66765278193903
 20
-0.0000000000000089
 30
0.0
 41
0.7071067811864994
 10
-11.66765278193904
 20
0.125
 30
0.0
 41
1.0
  0
SPLINE
  5
253
330
1F
100
AcDbEntity
  8
Default
100
AcDbSpline
210
0.0
220
0.0
230
1.0
 70
    24
 71
     2
 72
     6
 73
     3
 74
     0
 42
0.0000000001
 43
0.0000000001
 40
0.0
 40
0.0
 40
0.0
 40
2.31
 40
2.31
 40
2.31
 10
-11.66765278193904
 20
0.125
 30
0.0
 10
-11.66765278193904
 20
1.28
 30
0.0
 10
-11.66765278193904
 20
2.435
 30
0.0
  0
SPLINE
  5
254
330
1F
100
AcDbEntity
  8
Default
100
AcDbSpline
210
0.0
220
0.0
230
1.0
 70
    12
 71
     2
 72
     6
 73
     3
 74
     0
 42
0.0000000001
 43
0.0000000001
 40
0.0
 40
0.0
 40
0.0
 40
0.1963495408493654
 40
0.1963495408493654
 40
0.1963495408493654
 10
-11.66765278193904
 20
2.435
 30
0.0
 41
1.0
 10
-11.66765278193907
 20
2.560000000000009
 30
0.0
 41
0.7071067811864986
 10
-11.79265278193904
 20
2.56
 30
0.0
 41
1.0
  0
POLYLINE
  5
255
330
1F
100
AcDbEntity
  8
Default
100
AcDb2dPolyline
 66
     1
 10
0.0
 20
0.0
 30
0.0
  0
VERTEX
  5
256
330
255
100
AcDbEntity
  8
Default
100
AcDbVertex
100
AcDb2dVertex
 10
-12.90202778193904
 20
0.8425000000000011
 30
0.0
  0
VERTEX
  5
257
330
255
100
AcDbEntity
  8
Default
100
AcDbVertex
100
AcDb2dVertex
 10
-12.18327778193904
 20
0.8425000000000011
 30
0.0
  0
VERTEX
  5
258
330
255
100
AcDbEntity
  8
Default
100
AcDbVertex
100
AcDb2dVertex
 10
-12.18327778193904
 20
2.559999999999986
 30
0.0
  0
VERTEX
  5
259
330
255
100
AcDbEntity
  8
Default
100
AcDbVertex
100
AcDb2dVertex
 10
-12.90202778193904
 20
2.559999999999986
 30
0.0
  0
VERTEX
  5
25A
330
255
100
AcDbEntity
  8
Default
100
AcDbVertex
100
AcDb2dVertex
 10
-12.90202778193904
 20
0.8425000000000011
 30
0.0
  0
SEQEND
  5
25B
330
255
100
AcDbEntity
  8
Default
  0
SPLINE
  5
25C
330
1F
100
AcDbEntity
  8
Default
100
AcDbSpline
210
0.0
220
0.0
230
1.0
 70
    24
 71
     2
 72
     6
 73
     3
 74
     0
 42
0.0000000001
 43
0.0000000001
 40
-0.34375
 40
-0.34375
 40
-0.34375
 40
0.0
 40
0.0
 40
0.0
 10
-13.29265278193904
 20
2.56
 30
0.0
 10
-13.12077778193904
 20
2.56
 30
0.0
 10
-12.94890278193904
 20
2.56
 30
0.0
  0
SPLINE
  5
25D
330
1F
100
AcDbEntity
  8
Default
100
AcDbSpline
210
0.0
220
0.0
230
1.0
 70
    12
 71
     2
 72
     8
 73
     5
 74
     0
 42
0.0000000001
 43
0.0000000001
 40
0.0
 40
0.0
 40
0.0
 40
0.0245437074331711
 40
0.0245437074331711
 40
0.0490874148663426
 40
0.0490874148663426
 40
0.0490874148663426
 10
-12.94890278193904
 20
2.56
 30
0.0
 41
1.0
 10
-12.93595859942944
 20
2.559999999999998
 30
0.0
 41
0.9238794417265827
 10
-12.92680568454267
 20
2.550847076427806
 30
0.0
 41
1.0
 10
-12.91765276965595
 20
2.541694152855611
 30
0.0
 41
0.9238794417264897
 10
-12.91765278193904
 20
2.528749970346
 30
0.0
 41
1.0
  0
SPLINE
  5
25E
330
1F
100
AcDbEntity
  8
Default
100
AcDbSpline
210
0.0
220
0.0
230
1.0
 70
    24
 71
     2
 72
     6
 73
     3
 74
     0
 42
0.0000000001
 43
0.0000000001
 40
0.0
 40
0.0
 40
0.0
 40
2.492448632942286
 40
2.492448632942286
 40
2.492448632942286
 10
-12.91765278193904
 20
2.528749970346
 30
0.0
 10
-12.91765278193904
 20
1.281262826937429
 30
0.0
 10
-12.91765278193904
 20
0.0337756835288575
 30
0.0
  0
SPLINE
  5
25F
330
1F
100
AcDbEntity
  8
Default
100
AcDbSpline
210
0.0
220
0.0
230
1.0
 70
    12
 71
     2
 72
     8
 73
     5
 74
     0
 42
0.0000000001
 43
0.0000000001
 40
0.0
 40
0.0
 40
0.0
 40
0.0245437074331714
 40
0.0245437074331714
 40
0.0490874148663431
 40
0.0490874148663431
 40
0.0490874148663431
 10
-12.91765278193904
 20
0.0337756835288575
 30
0.0
 41
1.0
 10
-12.91765276965595
 20
0.0183058471443899
 30
0.0
 41
0.9238794417265142
 10
-12.92680568454267
 20
0.0091529235721945
 30
0.0
 41
1.0
 10
-12.93595859942942
 20
0.0
 30
0.0
 41
0.9238794417265332
 10
-12.94890278193904
 20
-0.0000000000000002
 30
0.0
 41
1.0
  0
SPLINE
  5
260
330
1F
100
AcDbEntity
  8
Default
100
AcDbSpline
210
0.0
220
0.0
230
1.0
 70
    24
 71
     2
 72
     6
 73
     3
 74
     0
 42
0.0000000001
 43
0.0000000001
 40
-0.34375
 40
-0.34375
 40
-0.34375
 40
0.0
 40
0.0
 40
0.0
 10
-12.94890278193904
 20
-0.0000000000000002
 30
0.0
 10
-13.12077778193904
 20
-0.0000000000000001
 30
0.0
 10
-13.29265278193904
 20
0.0
 30
0.0
  0
SPLINE
  5
261
330
1F
100
AcDbEntity
  8
Default
100
AcDbSpline
210
0.0
220
0.0
230
1.0
 70
    12
 71
     2
 72
     6
 73
     3
 74
     0
 42
0.0000000001
 43
0.0000000001
 40
0.0
 40
0.0
 40
0.0
 40
0.1963495408493663
 40
0.1963495408493663
 40
0.1963495408493663
 10
-13.29265278193904
 20
0.0
 30
0.0
 41
1.0
 10
-13.41765278193905
 20
-0.0000000000000089
 30
0.0
 41
0.7071067811864994
 10
-13.41765278193904
 20
0.125
 30
0.0
 41
1.0
  0
SPLINE
  5
262
330
1F
100
AcDbEntity
  8
Default
100
AcDbSpline
210
0.0
220
0.0
230
1.0
 70
    24
 71
     2
 72
     6
 73
     3
 74
     0
 42
0.0000000001
 43
0.0000000001
 40
0.0
 40
0.0
 40
0.0
 40
2.31
 40
2.31
 40
2.31
 10
-13.41765278193904
 20
0.125
 30
0.0
 10
-13.41765278193904
 20
1.28
 30
0.0
 10
-13.41765278193904
 20
2.435
 30
0.0
  0
SPLINE
  5
263
330
1F
100
AcDbEntity
  8
Default
100
AcDbSpline
210
0.0
220
0.0
230
1.0
 70
    12
 71
     2
 72
     6
 73
     3
 74
     0
 42
0.0000000001
 43
0.0000000001
 40
0.0
 40
0.0
 40
0.0
 40
0.1963495408493654
 40
0.1963495408493654
 40
0.1963495408493654
 10
-13.41765278193904
 20
2.435
 30
0.0
 41
1.0
 10
-13.41765278193904
 20
2.560000000000009
 30
0.0
 41
0.7071067811864986
 10
-13.29265278193904
 20
2.56
 30
0.0
 41
1.0
  0
SPLINE
  5
264
330
1F
100
AcDbEntity
  8
Default
100
AcDbSpline
210
0.0
220
0.0
230
1.0
 70
    24
 71
     2
 72
     6
 73
     3
 74
     0
 42
0.0000000001
 43
0.0000000001
 40
-0.0829573442459228
 40
-0.0829573442459228
 40
-0.0829573442459228
 40
0.0
 40
0.0
 40
0.0
 10
-12.19890278193895
 20
2.559999999999986
 30
0.0
 10
-12.19249943393693
 20
2.601584463637994
 30
0.0
 10
-12.18609608593491
 20
2.643168927276001
 30
0.0
  0
LINE
  5
265
330
1F
100
AcDbEntity
  8
Default
100
AcDbLine
 10
-12.18609608593491
 20
2.643168927276001
 30
0.0
 11
-12.89939792681437
 21
2.643168927201502
 31
0.0
  0
SPLINE
  5
266
330
1F
100
AcDbEntity
  8
Default
100
AcDbSpline
210
0.0
220
0.0
230
1.0
 70
    24
 71
     2
 72
     6
 73
     3
 74
     0
 42
0.0000000001
 43
0.0000000001
 40
-0.0829573442459228
 40
-0.0829573442459228
 40
-0.0829573442459228
 40
0.0
 40
0.0
 40
0.0
 10
-12.89939792681437
 20
2.643168927201502
 30
0.0
 10
-12.89290035437675
 20
2.601584463600744
 30
0.0
 10
-12.88640278193913
 20
2.559999999999986
 30
0.0
  0
SPLINE
  5
267
330
1F
100
AcDbEntity
  8
Default
100
AcDbSpline
210
0.0
220
0.0
230
1.0
 70
    24
 71
     2
 72
     6
 73
     3
 74
     0
 42
0.0000000001
 43
0.0000000001
 40
-0.34375
 40
-0.34375
 40
-0.34375
 40
0.0
 40
0.0
 40
0.0
 10
7.001808976534051
 20
2.56
 30
0.0
 10
7.173683976534051
 20
2.56
 30
0.0
 10
7.345558976534051
 20
2.56
 30
0.0
  0
SPLINE
  5
268
330
1F
100
AcDbEntity
  8
Default
100
AcDbSpline
210
0.0
220
0.0
230
1.0
 70
    12
 71
     2
 72
     8
 73
     5
 74
     0
 42
0.0000000001
 43
0.0000000001
 40
0.0
 40
0.0
 40
0.0
 40
0.0245437074331711
 40
0.0245437074331711
 40
0.0490874148663426
 40
0.0490874148663426
 40
0.0490874148663426
 10
7.345558976534051
 20
2.56
 30
0.0
 41
1.0
 10
7.358503159043675
 20
2.559999999999998
 30
0.0
 41
0.9238794417265827
 10
7.367656073930419
 20
2.550847076427806
 30
0.0
 41
1.0
 10
7.376808988817139
 20
2.541694152855611
 30
0.0
 41
0.9238794417264897
 10
7.376808976534051
 20
2.528749970346
 30
0.0
 41
1.0
  0
SPLINE
  5
269
330
1F
100
AcDbEntity
  8
Default
100
AcDbSpline
210
0.0
220
0.0
230
1.0
 70
    24
 71
     2
 72
     6
 73
     3
 74
     0
 42
0.0000000001
 43
0.0000000001
 40
0.0
 40
0.0
 40
0.0
 40
2.492448632942286
 40
2.492448632942286
 40
2.492448632942286
 10
7.376808976534051
 20
2.528749970346
 30
0.0
 10
7.376808976534051
 20
1.281262826937429
 30
0.0
 10
7.376808976534051
 20
0.0337756835288575
 30
0.0
  0
SPLINE
  5
26A
330
1F
100
AcDbEntity
  8
Default
100
AcDbSpline
210
0.0
220
0.0
230
1.0
 70
    12
 71
     2
 72
     8
 73
     5
 74
     0
 42
0.0000000001
 43
0.0000000001
 40
0.0
 40
0.0
 40
0.0
 40
0.0245437074331714
 40
0.0245437074331714
 40
0.0490874148663431
 40
0.0490874148663431
 40
0.0490874148663431
 10
7.376808976534051
 20
0.0337756835288575
 30
0.0
 41
1.0
 10
7.376808988817118
 20
0.0183058471443899
 30
0.0
 41
0.9238794417265142
 10
7.367656073930419
 20
0.0091529235721945
 30
0.0
 41
1.0
 10
7.358503159043667
 20
0.0
 30
0.0
 41
0.9238794417265332
 10
7.345558976534051
 20
-0.0000000000000002
 30
0.0
 41
1.0
  0
SPLINE
  5
26B
330
1F
100
AcDbEntity
  8
Default
100
AcDbSpline
210
0.0
220
0.0
230
1.0
 70
    24
 71
     2
 72
     6
 73
     3
 74
     0
 42
0.0000000001
 43
0.0000000001
 40
-0.34375
 40
-0.34375
 40
-0.34375
 40
0.0
 40
0.0
 40
0.0
 10
7.345558976534051
 20
-0.0000000000000002
 30
0.0
 10
7.173683976534051
 20
-0.0000000000000001
 30
0.0
 10
7.001808976534051
 20
0.0
 30
0.0
  0
SPLINE
  5
26C
330
1F
100
AcDbEntity
  8
Default
100
AcDbSpline
210
0.0
220
0.0
230
1.0
 70
    12
 71
     2
 72
     6
 73
     3
 74
     0
 42
0.0000000001
 43
0.0000000001
 40
0.0
 40
0.0
 40
0.0
 40
0.1963495408493663
 40
0.1963495408493663
 40
0.1963495408493663
 10
7.001808976534051
 20
0.0
 30
0.0
 41
1.0
 10
6.87680897653404
 20
-0.0000000000000089
 30
0.0
 41
0.7071067811864994
 10
6.876808976534051
 20
0.125
 30
0.0
 41
1.0
  0
SPLINE
  5
26D
330
1F
100
AcDbEntity
  8
Default
100
AcDbSpline
210
0.0
220
0.0
230
1.0
 70
    24
 71
     2
 72
     6
 73
     3
 74
     0
 42
0.0000000001
 43
0.0000000001
 40
0.0
 40
0.0
 40
0.0
 40
2.31
 40
2.31
 40
2.31
 10
6.876808976534051
 20
0.125
 30
0.0
 10
6.876808976534051
 20
1.28
 30
0.0
 10
6.876808976534051
 20
2.435
 30
0.0
  0
SPLINE
  5
26E
330
1F
100
AcDbEntity
  8
Default
100
AcDbSpline
210
0.0
220
0.0
230
1.0
 70
    12
 71
     2
 72
     6
 73
     3
 74
     0
 42
0.0000000001
 43
0.0000000001
 40
0.0
 40
0.0
 40
0.0
 40
0.1963495408493654
 40
0.1963495408493654
 40
0.1963495408493654
 10
6.876808976534051
 20
2.435
 30
0.0
 41
1.0
 10
6.876808976534067
 20
2.560000000000009
 30
0.0
 41
0.7071067811864986
 10
7.001808976534051
 20
2.56
 30
0.0
 41
1.0
  0
POLYLINE
  5
26F
330
1F
100
AcDbEntity
  8
Default
100
AcDb2dPolyline
 66
     1
 10
0.0
 20
0.0
 30
0.0
  0
VERTEX
  5
270
330
26F
100
AcDbEntity
  8
Default
100
AcDbVertex
100
AcDb2dVertex
 10
8.11118397653405
 20
0.8425000000000011
 30
0.0
  0
VERTEX
  5
271
330
26F
100
AcDbEntity
  8
Default
100
AcDbVertex
100
AcDb2dVertex
 10
7.392433976534051
 20
0.8425000000000011
 30
0.0
  0
VERTEX
  5
272
330
26F
100
AcDbEntity
  8
Default
100
AcDbVertex
100
AcDb2dVertex
 10
7.392433976534051
 20
2.559999999999986
 30
0.0
  0
VERTEX
  5
273
330
26F
100
AcDbEntity
  8
Default
100
AcDbVertex
100
AcDb2dVertex
 10
8.11118397653405
 20
2.559999999999986
 30
0.0
  0
VERTEX
  5
274
330
26F
100
AcDbEntity
  8
Default
100
AcDbVertex
100
AcDb2dVertex
 10
8.11118397653405
 20
0.8425000000000011
 30
0.0
  0
SEQEND
  5
275
330
26F
100
AcDbEntity
  8
Default
  0
SPLINE
  5
276
330
1F
100
AcDbEntity
  8
Default
100
AcDbSpline
210
0.0
220
0.0
230
1.0
 70
    24
 71
     2
 72
     6
 73
     3
 74
     0
 42
0.0000000001
 43
0.0000000001
 40
-0.34375
 40
-0.34375
 40
-0.34375
 40
0.0
 40
0.0
 40
0.0
 10
8.50180897653405
 20
2.56
 30
0.0
 10
8.32993397653405
 20
2.56
 30
0.0
 10
8.15805897653405
 20
2.56
 30
0.0
  0
SPLINE
  5
277
330
1F
100
AcDbEntity
  8
Default
100
AcDbSpline
210
0.0
220
0.0
230
1.0
 70
    12
 71
     2
 72
     8
 73
     5
 74
     0
 42
0.0000000001
 43
0.0000000001
 40
0.0
 40
0.0
 40
0.0
 40
0.0245437074331711
 40
0.0245437074331711
 40
0.0490874148663426
 40
0.0490874148663426
 40
0.0490874148663426
 10
8.15805897653405
 20
2.56
 30
0.0
 41
1.0
 10
8.145114794024432
 20
2.559999999999998
 30
0.0
 41
0.9238794417265827
 10
8.135961879137682
 20
2.550847076427806
 30
0.0
 41
1.0
 10
8.126808964250982
 20
2.541694152855611
 30
0.0
 41
0.9238794417264897
 10
8.12680897653405
 20
2.528749970346
 30
0.0
 41
1.0
  0
SPLINE
  5
278
330
1F
100
AcDbEntity
  8
Default
100
AcDbSpline
210
0.0
220
0.0
230
1.0
 70
    24
 71
     2
 72
     6
 73
     3
 74
     0
 42
0.0000000001
 43
0.0000000001
 40
0.0
 40
0.0
 40
0.0
 40
2.492448632942286
 40
2.492448632942286
 40
2.492448632942286
 10
8.12680897653405
 20
2.528749970346
 30
0.0
 10
8.12680897653405
 20
1.281262826937429
 30
0.0
 10
8.12680897653405
 20
0.0337756835288575
 30
0.0
  0
SPLINE
  5
279
330
1F
100
AcDbEntity
  8
Default
100
AcDbSpline
210
0.0
220
0.0
230
1.0
 70
    12
 71
     2
 72
     8
 73
     5
 74
     0
 42
0.0000000001
 43
0.0000000001
 40
0.0
 40
0.0
 40
0.0
 40
0.0245437074331714
 40
0.0245437074331714
 40
0.0490874148663431
 40
0.0490874148663431
 40
0.0490874148663431
 10
8.12680897653405
 20
0.0337756835288575
 30
0.0
 41
1.0
 10
8.126808964250971
 20
0.0183058471443899
 30
0.0
 41
0.9238794417265142
 10
8.135961879137682
 20
0.0091529235721945
 30
0.0
 41
1.0
 10
8.145114794024435
 20
0.0
 30
0.0
 41
0.9238794417265332
 10
8.15805897653405
 20
-0.0000000000000002
 30
0.0
 41
1.0
  0
SPLINE
  5
27A
330
1F
100
AcDbEntity
  8
Default
100
AcDbSpline
210
0.0
220
0.0
230
1.0
 70
    24
 71
     2
 72
     6
 73
     3
 74
     0
 42
0.0000000001
 43
0.0000000001
 40
-0.34375
 40
-0.34375
 40
-0.34375
 40
0.0
 40
0.0
 40
0.0
 10
8.15805897653405
 20
-0.0000000000000002
 30
0.0
 10
8.32993397653405
 20
-0.0000000000000001
 30
0.0
 10
8.50180897653405
 20
0.0
 30
0.0
  0
SPLINE
  5
27B
330
1F
100
AcDbEntity
  8
Default
100
AcDbSpline
210
0.0
220
0.0
230
1.0
 70
    12
 71
     2
 72
     6
 73
     3
 74
     0
 42
0.0000000001
 43
0.0000000001
 40
0.0
 40
0.0
 40
0.0
 40
0.1963495408493663
 40
0.1963495408493663
 40
0.1963495408493663
 10
8.50180897653405
 20
0.0
 30
0.0
 41
1.0
 10
8.626808976534042
 20
-0.0000000000000089
 30
0.0
 41
0.7071067811864994
 10
8.62680897653405
 20
0.125
 30
0.0
 41
1.0
  0
SPLINE
  5
27C
330
1F
100
AcDbEntity
  8
Default
100
AcDbSpline
210
0.0
220
0.0
230
1.0
 70
    24
 71
     2
 72
     6
 73
     3
 74
     0
 42
0.0000000001
 43
0.0000000001
 40
0.0
 40
0.0
 40
0.0
 40
2.31
 40
2.31
 40
2.31
 10
8.62680897653405
 20
0.125
 30
0.0
 10
8.62680897653405
 20
1.28
 30
0.0
 10
8.62680897653405
 20
2.435
 30
0.0
  0
SPLINE
  5
27D
330
1F
100
AcDbEntity
  8
Default
100
AcDbSpline
210
0.0
220
0.0
230
1.0
 70
    12
 71
     2
 72
     6
 73
     3
 74
     0
 42
0.0000000001
 43
0.0000000001
 40
0.0
 40
0.0
 40
0.0
 40
0.1963495408493654
 40
0.1963495408493654
 40
0.1963495408493654
 10
8.62680897653405
 20
2.435
 30
0.0
 41
1.0
 10
8.626808976534042
 20
2.560000000000009
 30
0.0
 41
0.7071067811864986
 10
8.50180897653405
 20
2.56
 30
0.0
 41
1.0
  0
SPLINE
  5
27E
330
1F
100
AcDbEntity
  8
Default
100
AcDbSpline
210
0.0
220
0.0
230
1.0
 70
    24
 71
     2
 72
     6
 73
     3
 74
     0
 42
0.0000000001
 43
0.0000000001
 40
-0.0829573442459228
 40
-0.0829573442459228
 40
-0.0829573442459228
 40
0.0
 40
0.0
 40
0.0
 10
7.408058976533965
 20
2.559999999999986
 30
0.0
 10
7.401655628531955
 20
2.601584463637994
 30
0.0
 10
7.395252280529945
 20
2.643168927276001
 30
0.0
  0
LINE
  5
27F
330
1F
100
AcDbEntity
  8
Default
100
AcDbLine
 10
7.395252280529945
 20
2.643168927276001
 30
0.0
 11
8.108554121409355
 21
2.643168927201502
 31
0.0
  0
SPLINE
  5
280
330
1F
100
AcDbEntity
  8
Default
100
AcDbSpline
210
0.0
220
0.0
230
1.0
 70
    24
 71
     2
 72
     6
 73
     3
 74
     0
 42
0.0000000001
 43
0.0000000001
 40
-0.0829573442459228
 40
-0.0829573442459228
 40
-0.0829573442459228
 40
0.0
 40
0.0
 40
0.0
 10
8.108554121409355
 20
2.643168927201502
 30
0.0
 10
8.102056548971746
 20
2.601584463600744
 30
0.0
 10
8.095558976534136
 20
2.559999999999986
 30
0.0
  0
SPLINE
  5
281
330
1F
100
AcDbEntity
  8
Default
100
AcDbSpline
210
0.0
220
0.0
230
1.0
 70
    24
 71
     2
 72
     6
 73
     3
 74
     0
 42
0.0000000001
 43
0.0000000001
 40
-0.34375
 40
-0.34375
 40
-0.34375
 40
0.0
 40
0.0
 40
0.0
 10
11.79265278193904
 20
2.56
 30
0.0
 10
11.96452778193904
 20
2.56
 30
0.0
 10
12.13640278193904
 20
2.56
 30
0.0
  0
SPLINE
  5
282
330
1F
100
AcDbEntity
  8
Default
100
AcDbSpline
210
0.0
220
0.0
230
1.0
 70
    12
 71
     2
 72
     8
 73
     5
 74
     0
 42
0.0000000001
 43
0.0000000001
 40
0.0
 40
0.0
 40
0.0
 40
0.0245437074331711
 40
0.0245437074331711
 40
0.0490874148663426
 40
0.0490874148663426
 40
0.0490874148663426
 10
12.13640278193904
 20
2.56
 30
0.0
 41
1.0
 10
12.14934696444867
 20
2.559999999999998
 30
0.0
 41
0.9238794417265827
 10
12.15849987933541
 20
2.550847076427806
 30
0.0
 41
1.0
 10
12.16765279422212
 20
2.541694152855611
 30
0.0
 41
0.9238794417264897
 10
12.16765278193904
 20
2.528749970346
 30
0.0
 41
1.0
  0
SPLINE
  5
283
330
1F
100
AcDbEntity
  8
Default
100
AcDbSpline
210
0.0
220
0.0
230
1.0
 70
    24
 71
     2
 72
     6
 73
     3
 74
     0
 42
0.0000000001
 43
0.0000000001
 40
0.0
 40
0.0
 40
0.0
 40
2.492448632942286
 40
2.492448632942286
 40
2.492448632942286
 10
12.16765278193904
 20
2.528749970346
 30
0.0
 10
12.16765278193904
 20
1.281262826937429
 30
0.0
 10
12.16765278193904
 20
0.0337756835288575
 30
0.0
  0
SPLINE
  5
284
330
1F
100
AcDbEntity
  8
Default
100
AcDbSpline
210
0.0
220
0.0
230
1.0
 70
    12
 71
     2
 72
     8
 73
     5
 74
     0
 42
0.0000000001
 43
0.0000000001
 40
0.0
 40
0.0
 40
0.0
 40
0.0245437074331714
 40
0.0245437074331714
 40
0.0490874148663431
 40
0.0490874148663431
 40
0.0490874148663431
 10
12.16765278193904
 20
0.0337756835288575
 30
0.0
 41
1.0
 10
12.16765279422213
 20
0.0183058471443899
 30
0.0
 41
0.9238794417265142
 10
12.15849987933541
 20
0.0091529235721945
 30
0.0
 41
1.0
 10
12.14934696444867
 20
0.0
 30
0.0
 41
0.9238794417265332
 10
12.13640278193904
 20
-0.0000000000000002
 30
0.0
 41
1.0
  0
SPLINE
  5
285
330
1F
100
AcDbEntity
  8
Default
100
AcDbSpline
210
0.0
220
0.0
230
1.0
 70
    24
 71
     2
 72
     6
 73
     3
 74
     0
 42
0.0000000001
 43
0.0000000001
 40
-0.34375
 40
-0.34375
 40
-0.34375
 40
0.0
 40
0.0
 40
0.0
 10
12.13640278193904
 20
-0.0000000000000002
 30
0.0
 10
11.96452778193904
 20
-0.0000000000000001
 30
0.0
 10
11.79265278193904
 20
0.0
 30
0.0
  0
SPLINE
  5
286
330
1F
100
AcDbEntity
  8
Default
100
AcDbSpline
210
0.0
220
0.0
230
1.0
 70
    12
 71
     2
 72
     6
 73
     3
 74
     0
 42
0.0000000001
 43
0.0000000001
 40
0.0
 40
0.0
 40
0.0
 40
0.1963495408493663
 40
0.1963495408493663
 40
0.1963495408493663
 10
11.79265278193904
 20
0.0
 30
0.0
 41
1.0
 10
11.66765278193903
 20
-0.0000000000000089
 30
0.0
 41
0.7071067811864994
 10
11.66765278193904
 20
0.125
 30
0.0
 41
1.0
  0
SPLINE
  5
287
330
1F
100
AcDbEntity
  8
Default
100
AcDbSpline
210
0.0
220
0.0
230
1.0
 70
    24
 71
     2
 72
     6
 73
     3
 74
     0
 42
0.0000000001
 43
0.0000000001
 40
0.0
 40
0.0
 40
0.0
 40
2.31
 40
2.31
 40
2.31
 10
11.66765278193904
 20
0.125
 30
0.0
 10
11.66765278193904
 20
1.28
 30
0.0
 10
11.66765278193904
 20
2.435
 30
0.0
  0
SPLINE
  5
288
330
1F
100
AcDbEntity
  8
Default
100
AcDbSpline
210
0.0
220
0.0
230
1.0
 70
    12
 71
     2
 72
     6
 73
     3
 74
     0
 42
0.0000000001
 43
0.0000000001
 40
0.0
 40
0.0
 40
0.0
 40
0.1963495408493654
 40
0.1963495408493654
 40
0.1963495408493654
 10
11.66765278193904
 20
2.435
 30
0.0
 41
1.0
 10
11.66765278193904
 20
2.560000000000009
 30
0.0
 41
0.7071067811864986
 10
11.79265278193904
 20
2.56
 30
0.0
 41
1.0
  0
POLYLINE
  5
289
330
1F
100
AcDbEntity
  8
Default
100
AcDb2dPolyline
 66
     1
 10
0.0
 20
0.0
 30
0.0
  0
VERTEX
  5
28A
330
289
100
AcDbEntity
  8
Default
100
AcDbVertex
100
AcDb2dVertex
 10
12.90202778193904
 20
0.8425000000000011
 30
0.0
  0
VERTEX
  5
28B
330
289
100
AcDbEntity
  8
Default
100
AcDbVertex
100
AcDb2dVertex
 10
12.18327778193904
 20
0.8425000000000011
 30
0.0
  0
VERTEX
  5
28C
330
289
100
AcDbEntity
  8
Default
100
AcDbVertex
100
AcDb2dVertex
 10
12.18327778193904
 20
2.559999999999986
 30
0.0
  0
VERTEX
  5
28D
330
289
100
AcDbEntity
  8
Default
100
AcDbVertex
100
AcDb2dVertex
 10
12.90202778193904
 20
2.559999999999986
 30
0.0
  0
VERTEX
  5
28E
330
289
100
AcDbEntity
  8
Default
100
AcDbVertex
100
AcDb2dVertex
 10
12.90202778193904
 20
0.8425000000000011
 30
0.0
  0
SEQEND
  5
28F
330
289
100
AcDbEntity
  8
Default
  0
SPLINE
  5
290
330
1F
100
AcDbEntity
  8
Default
100
AcDbSpline
210
0.0
220
0.0
230
1.0
 70
    24
 71
     2
 72
     6
 73
     3
 74
     0
 42
0.0000000001
 43
0.0000000001
 40
-0.34375
 40
-0.34375
 40
-0.34375
 40
0.0
 40
0.0
 40
0.0
 10
13.29265278193904
 20
2.56
 30
0.0
 10
13.12077778193904
 20
2.56
 30
0.0
 10
12.94890278193904
 20
2.56
 30
0.0
  0
SPLINE
  5
291
330
1F
100
AcDbEntity
  8
Default
100
AcDbSpline
210
0.0
220
0.0
230
1.0
 70
    12
 71
     2
 72
     8
 73
     5
 74
     0
 42
0.0000000001
 43
0.0000000001
 40
0.0
 40
0.0
 40
0.0
 40
0.0245437074331711
 40
0.0245437074331711
 40
0.0490874148663426
 40
0.0490874148663426
 40
0.0490874148663426
 10
12.94890278193904
 20
2.56
 30
0.0
 41
1.0
 10
12.93595859942943
 20
2.559999999999998
 30
0.0
 41
0.9238794417265827
 10
12.92680568454267
 20
2.550847076427806
 30
0.0
 41
1.0
 10
12.91765276965597
 20
2.541694152855611
 30
0.0
 41
0.9238794417264897
 10
12.91765278193904
 20
2.528749970346
 30
0.0
 41
1.0
  0
SPLINE
  5
292
330
1F
100
AcDbEntity
  8
Default
100
AcDbSpline
210
0.0
220
0.0
230
1.0
 70
    24
 71
     2
 72
     6
 73
     3
 74
     0
 42
0.0000000001
 43
0.0000000001
 40
0.0
 40
0.0
 40
0.0
 40
2.492448632942286
 40
2.492448632942286
 40
2.492448632942286
 10
12.91765278193904
 20
2.528749970346
 30
0.0
 10
12.91765278193904
 20
1.281262826937429
 30
0.0
 10
12.91765278193904
 20
0.0337756835288575
 30
0.0
  0
SPLINE
  5
293
330
1F
100
AcDbEntity
  8
Default
100
AcDbSpline
210
0.0
220
0.0
230
1.0
 70
    12
 71
     2
 72
     8
 73
     5
 74
     0
 42
0.0000000001
 43
0.0000000001
 40
0.0
 40
0.0
 40
0.0
 40
0.0245437074331714
 40
0.0245437074331714
 40
0.0490874148663431
 40
0.0490874148663431
 40
0.0490874148663431
 10
12.91765278193904
 20
0.0337756835288575
 30
0.0
 41
1.0
 10
12.91765276965595
 20
0.0183058471443899
 30
0.0
 41
0.9238794417265142
 10
12.92680568454267
 20
0.0091529235721945
 30
0.0
 41
1.0
 10
12.93595859942944
 20
0.0
 30
0.0
 41
0.9238794417265332
 10
12.94890278193904
 20
-0.0000000000000002
 30
0.0
 41
1.0
  0
SPLINE
  5
294
330
1F
100
AcDbEntity
  8
Default
100
AcDbSpline
210
0.0
220
0.0
230
1.0
 70
    24
 71
     2
 72
     6
 73
     3
 74
     0
 42
0.0000000001
 43
0.0000000001
 40
-0.34375
 40
-0.34375
 40
-0.34375
 40
0.0
 40
0.0
 40
0.0
 10
12.94890278193904
 20
-0.0000000000000002
 30
0.0
 10
13.12077778193904
 20
-0.0000000000000001
 30
0.0
 10
13.29265278193904
 20
0.0
 30
0.0
  0
SPLINE
  5
295
330
1F
100
AcDbEntity
  8
Default
100
AcDbSpline
210
0.0
220
0.0
230
1.0
 70
    12
 71
     2
 72
     6
 73
     3
 74
     0
 42
0.0000000001
 43
0.0000000001
 40
0.0
 40
0.0
 40
0.0
 40
0.1963495408493663
 40
0.1963495408493663
 40
0.1963495408493663
 10
13.29265278193904
 20
0.0
 30
0.0
 41
1.0
 10
13.41765278193905
 20
-0.0000000000000089
 30
0.0
 41
0.7071067811864994
 10
13.41765278193904
 20
0.125
 30
0.0
 41
1.0
  0
SPLINE
  5
296
330
1F
100
AcDbEntity
  8
Default
100
AcDbSpline
210
0.0
220
0.0
230
1.0
 70
    24
 71
     2
 72
     6
 73
     3
 74
     0
 42
0.0000000001
 43
0.0000000001
 40
0.0
 40
0.0
 40
0.0
 40
2.31
 40
2.31
 40
2.31
 10
13.41765278193904
 20
0.125
 30
0.0
 10
13.41765278193904
 20
1.28
 30
0.0
 10
13.41765278193904
 20
2.435
 30
0.0
  0
SPLINE
  5
297
330
1F
100
AcDbEntity
  8
Default
100
AcDbSpline
210
0.0
220
0.0
230
1.0
 70
    12
 71
     2
 72
     6
 73
     3
 74
     0
 42
0.0000000001
 43
0.0000000001
 40
0.0
 40
0.0
 40
0.0
 40
0.1963495408493654
 40
0.1963495408493654
 40
0.1963495408493654
 10
13.41765278193904
 20
2.435
 30
0.0
 41
1.0
 10
13.41765278193901
 20
2.560000000000009
 30
0.0
 41
0.7071067811864986
 10
13.29265278193904
 20
2.56
 30
0.0
 41
1.0
  0
SPLINE
  5
298
330
1F
100
AcDbEntity
  8
Default
100
AcDbSpline
210
0.0
220
0.0
230
1.0
 70
    24
 71
     2
 72
     6
 73
     3
 74
     0
 42
0.0000000001
 43
0.0000000001
 40
-0.0829573442459228
 40
-0.0829573442459228
 40
-0.0829573442459228
 40
0.0
 40
0.0
 40
0.0
 10
12.19890278193895
 20
2.559999999999986
 30
0.0
 10
12.19249943393693
 20
2.601584463637994
 30
0.0
 10
12.18609608593491
 20
2.643168927276001
 30
0.0
  0
LINE
  5
299
330
1F
100
AcDbEntity
  8
Default
100
AcDbLine
 10
12.18609608593491
 20
2.643168927276001
 30
0.0
 11
12.89939792681437
 21
2.643168927201502
 31
0.0
  0
SPLINE
  5
29A
330
1F
100
AcDbEntity
  8
Default
100
AcDbSpline
210
0.0
220
0.0
230
1.0
 70
    24
 71
     2
 72
     6
 73
     3
 74
     0
 42
0.0000000001
 43
0.0000000001
 40
-0.0829573442459228
 40
-0.0829573442459228
 40
-0.0829573442459228
 40
0.0
 40
0.0
 40
0.0
 10
12.89939792681437
 20
2.643168927201502
 30
0.0
 10
12.89290035437675
 20
2.601584463600744
 30
0.0
 10
12.88640278193913
 20
2.559999999999986
 30
0.0
  0
SPLINE
  5
29B
330
1F
100
AcDbEntity
  8
Default
100
AcDbSpline
210
0.0
220
0.0
230
1.0
 70
     8
 71
     3
 72
    11
 73
     7
 74
     0
 42
0.0000000001
 43
0.0000000001
 40
-4.0
 40
-4.0
 40
-4.0
 40
-4.0
 40
-3.0
 40
-2.0
 40
-1.0
 40
0.0
 40
0.0
 40
0.0
 40
0.0
 10
-0.9348604348886056
 20
5.138123347955121
 30
0.0
 10
-1.428496823963343
 20
4.978037952198084
 30
0.0
 10
-2.418505990125738
 20
4.666311005015218
 30
0.0
 10
-3.901159384872159
 20
4.19058253180726
 30
0.0
 10
-5.388555979861081
 20
3.732531104798397
 30
0.0
 10
-6.369078750582702
 20
3.385450063614752
 30
0.0
 10
-6.819406690389712
 20
3.123152532142232
 30
0.0
  0
SPLINE
  5
29C
330
1F
100
AcDbEntity
  8
Default
100
AcDbSpline
210
0.0
220
0.0
230
1.0
 70
     8
 71
     3
 72
     8
 73
     4
 74
     0
 42
0.0000000001
 43
0.0000000001
 40
-1.0
 40
-1.0
 40
-1.0
 40
-1.0
 40
0.0
 40
0.0
 40
0.0
 40
0.0
 10
-6.819406690389712
 20
3.123152532142232
 30
0.0
 10
-6.900882832868803
 20
3.075696025101316
 30
0.0
 10
-6.953786706553586
 20
2.983569504850824
 30
0.0
 10
-6.987126924758655
 20
2.895371365959808
 30
0.0
  0
SPLINE
  5
29D
330
1F
100
AcDbEntity
  8
Default
100
AcDbSpline
210
0.0
220
0.0
230
1.0
 70
    12
 71
     2
 72
     6
 73
     3
 74
     0
 42
0.0000000001
 43
0.0000000001
 40
0.0
 40
0.0
 40
0.0
 40
0.2250138153874603
 40
0.2250138153874603
 40
0.2250138153874603
 10
-6.987126924758655
 20
2.895371365959808
 30
0.0
 41
1.0
 10
-7.026909148349961
 20
2.790131560385678
 30
0.0
 41
0.9999859153302073
 10
-7.067905079519335
 20
2.685230771206736
 30
0.0
 41
1.0
  0
SPLINE
  5
29E
330
1F
100
AcDbEntity
  8
Default
100
AcDbSpline
210
0.0
220
0.0
230
1.0
 70
    12
 71
     2
 72
     6
 73
     3
 74
     0
 42
0.0000000001
 43
0.0000000001
 40
0.0
 40
0.0
 40
0.0
 40
0.0522878825032401
 40
0.0522878825032401
 40
0.0522878825032401
 10
-7.067905079519335
 20
2.685230771206736
 30
0.0
 41
1.0
 10
-7.08244260113876
 20
2.660266668835333
 30
0.0
 41
0.8689042862693989
 10
-7.111203084564949
 20
2.66000029771196
 30
0.0
 41
1.0
  0
POLYLINE
  5
29F
330
1F
100
AcDbEntity
  8
Default
100
AcDb2dPolyline
 66
     1
 10
0.0
 20
0.0
 30
0.0
  0
VERTEX
  5
2A0
330
29F
100
AcDbEntity
  8
Default
100
AcDbVertex
100
AcDb2dVertex
 10
-7.111203084564949
 20
2.66000029771196
 30
0.0
  0
VERTEX
  5
2A1
330
29F
100
AcDbEntity
  8
Default
100
AcDbVertex
100
AcDb2dVertex
 10
-8.335704636138786
 20
2.660000000007072
 30
0.0
  0
SEQEND
  5
2A2
330
29F
100
AcDbEntity
  8
Default
  0
SPLINE
  5
2A3
330
1F
100
AcDbEntity
  8
Default
100
AcDbSpline
210
0.0
220
0.0
230
1.0
 70
    12
 71
     2
 72
     8
 73
     5
 74
     0
 42
0.0000000001
 43
0.0000000001
 40
0.0
 40
0.0
 40
0.0
 40
0.0656121709207247
 40
0.0656121709207247
 40
0.1312243418414493
 40
0.1312243418414493
 40
0.1312243418414493
 10
-8.335704636138786
 20
2.660000000007072
 30
0.0
 41
1.0
 10
-8.370480109776887
 20
2.660020433647109
 30
0.0
 41
0.9171775841282426
 10
-8.394196980835716
 20
2.685453561875208
 30
0.0
 41
1.0
 10
-8.417913851894527
 20
2.710886690103307
 30
0.0
 41
0.9171775841282426
 10
-8.415504843517226
 20
2.7456388903067
 30
0.0
 41
1.0
  0
SPLINE
  5
2A4
330
1F
100
AcDbEntity
  8
Default
100
AcDbSpline
210
0.0
220
0.0
230
1.0
 70
    12
 71
     2
 72
     6
 73
     3
 74
     0
 42
0.0000000001
 43
0.0000000001
 40
0.0
 40
0.0
 40
0.0
 40
1.023755484296237
 40
1.023755484296237
 40
1.023755484296237
 10
-8.415504843517226
 20
2.7456388903067
 30
0.0
 41
1.0
 10
-8.377821297449353
 20
3.256188018783275
 30
0.0
 41
0.9999997309287173
 10
-8.339216990190067
 20
3.768794098390993
 30
0.0
 41
1.0
  0
ARC
  5
2A5
330
1F
100
AcDbEntity
  8
Default
100
AcDbCircle
 10
-7.988399059061294
 20
3.735501340110976
 30
0.0
 40
0.3523941380831402
100
AcDbArc
 50
144.1430963100957
 51
174.5788437728514
  0
ARC
  5
2A6
330
1F
100
AcDbEntity
  8
Default
100
AcDbCircle
 10
-7.994828724617321
 20
3.740148275370657
 30
0.0
 40
0.3444610046246585
100
AcDbArc
 50
140.3986852727055
 51
144.1430963100957
  0
SPLINE
  5
2A7
330
1F
100
AcDbEntity
  8
Default
100
AcDbSpline
210
0.0
220
0.0
230
1.0
 70
     8
 71
     3
 72
     9
 73
     5
 74
     0
 42
0.0000000001
 43
0.0000000001
 40
-2.0
 40
-2.0
 40
-2.0
 40
-2.0
 40
-1.0
 40
0.0
 40
0.0
 40
0.0
 40
0.0
 10
-2.653460336707809
 20
5.07143313510629
 30
0.0
 10
-3.531543541593891
 20
4.781276960886567
 30
0.0
 10
-5.267487036774526
 20
4.154756073194898
 30
0.0
 10
-7.053987324645476
 20
3.643756700531216
 30
0.0
 10
-7.8562195853535
 20
3.174050745646266
 30
0.0
  0
SPLINE
  5
2A8
330
1F
100
AcDbEntity
  8
Default
100
AcDbSpline
210
0.0
220
0.0
230
1.0
 70
     8
 71
     3
 72
    11
 73
     7
 74
     0
 42
0.0000000001
 43
0.0000000001
 40
-0.4854906778123655
 40
-0.4854906778123655
 40
-0.4854906778123655
 40
-0.4854906778123655
 40
-0.3387307467635205
 40
-0.2651640397401903
 40
-0.0791861104613142
 40
0.0
 40
0.0
 40
0.0
 40
0.0
 10
-7.8562195853535
 20
3.174050745646266
 30
0.0
 10
-7.925088573872756
 20
3.129541097100286
 30
0.0
 10
-7.972996411310049
 20
3.07209130698932
 30
0.0
 10
-8.033645602602832
 20
2.950877835737859
 30
0.0
 10
-8.07217876352749
 20
2.844449930169419
 30
0.0
 10
-8.11399464082723
 20
2.766346247745584
 30
0.0
 10
-8.129300323095464
 20
2.74478470854692
 30
0.0
  0
SPLINE
  5
2A9
330
1F
100
AcDbEntity
  8
Default
100
AcDbSpline
210
0.0
220
0.0
230
1.0
 70
    24
 71
     2
 72
     6
 73
     3
 74
     0
 42
0.0000000001
 43
0.0000000001
 40
0.0
 40
0.0
 40
0.0
 40
0.9288483722712422
 40
0.9288483722712422
 40
0.9288483722712422
 10
-0.8000168225590301
 20
2.54955704893676
 30
0.0
 10
-0.8000168225590301
 20
3.013981235072381
 30
0.0
 10
-0.8000168225590301
 20
3.478405421208002
 30
0.0
  0
SPLINE
  5
2AA
330
1F
100
AcDbEntity
  8
Default
100
AcDbSpline
210
0.0
220
0.0
230
1.0
 70
    12
 71
     2
 72
     6
 73
     3
 74
     0
 42
0.0000000001
 43
0.0000000001
 40
-0.0828722016194424
 40
-0.0828722016194424
 40
-0.0828722016194424
 40
0.0
 40
0.0
 40
0.0
 10
-0.8000168225590301
 20
3.478405421208002
 30
0.0
 41
1.0
 10
-0.800016822559029
 20
3.519865252893067
 30
0.0
 41
0.9991416475977534
 10
-0.8034599114722312
 20
3.561316849073632
 30
0.0
 41
1.0
  0
SPLINE
  5
2AB
330
1F
100
AcDbEntity
  8
Default
100
AcDbSpline
210
0.0
220
0.0
230
1.0
 70
    24
 71
     2
 72
     6
 73
     3
 74
     0
 42
0.0000000001
 43
0.0000000001
 40
0.0
 40
0.0
 40
0.0
 40
1.652633987892294
 40
1.652633987892294
 40
1.652633987892294
 10
-0.8034599114722312
 20
3.561316849073632
 30
0.0
 10
-0.8720873791667145
 20
4.38484657035001
 30
0.0
 10
-0.9407148468611979
 20
5.208376291626389
 30
0.0
  0
SPLINE
  5
2AC
330
1F
100
AcDbEntity
  8
Default
100
AcDbSpline
210
0.0
220
0.0
230
1.0
 70
     8
 71
     3
 72
     9
 73
     5
 74
     0
 42
0.0000000001
 43
0.0000000001
 40
-2.0
 40
-2.0
 40
-2.0
 40
-2.0
 40
-1.0
 40
0.0
 40
0.0
 40
0.0
 40
0.0
 10
-0.6494938790219749
 20
2.943388452758541
 30
0.0
 10
-0.6548666052106284
 20
3.316296967964139
 30
0.0
 10
-0.7335419764343669
 20
4.057479910335916
 30
0.0
 10
-0.8233028506814719
 20
4.797070913097536
 30
0.0
 10
-0.8691516759483591
 20
5.171403116553943
 30
0.0
  0
SPLINE
  5
2AD
330
1F
100
AcDbEntity
  8
Default
100
AcDbSpline
210
0.0
220
0.0
230
1.0
 70
     8
 71
     3
 72
    12
 73
     8
 74
     0
 42
0.0000000001
 43
0.0000000001
 40
0.0
 40
0.0
 40
0.0
 40
0.0
 40
0.0762472758146101
 40
0.2174213754726994
 40
0.7112675176328244
 40
1.129739836349191
 40
1.563184277084196
 40
1.563184277084196
 40
1.563184277084196
 40
1.563184277084196
 10
-0.8691516759483591
 20
5.171403116553943
 30
0.0
 10
-0.8915949476885032
 20
5.193011400457243
 30
0.0
 10
-0.96180508653012
 20
5.214907965794016
 30
0.0
 10
-1.1980765484806
 20
5.236347721733787
 30
0.0
 10
-1.549661328639019
 20
5.232777585152977
 30
0.0
 10
-1.997544621518045
 20
5.204879044250919
 30
0.0
 10
-2.277237377806557
 20
5.150650512383529
 30
0.0
 10
-2.435513184737147
 20
5.115232068693839
 30
0.0
  0
SPLINE
  5
2AE
330
1F
100
AcDbEntity
  8
Default
100
AcDbSpline
210
0.0
220
0.0
230
1.0
 70
     8
 71
     3
 72
     9
 73
     5
 74
     0
 42
0.0000000001
 43
0.0000000001
 40
-2.0
 40
-2.0
 40
-2.0
 40
-2.0
 40
-1.0
 40
0.0
 40
0.0
 40
0.0
 40
0.0
 10
-2.435513184737147
 20
5.115232068693839
 30
0.0
 10
-3.976769923485818
 20
4.813439031439117
 30
0.0
 10
-7.043757985679946
 20
4.149372983178742
 30
0.0
 10
-10.14955877529226
 20
3.636507032248433
 30
0.0
 10
-11.63785049034345
 20
3.124657080584178
 30
0.0
  0
SPLINE
  5
2AF
330
1F
100
AcDbEntity
  8
Default
100
AcDbSpline
210
0.0
220
0.0
230
1.0
 70
     8
 71
     3
 72
    11
 73
     7
 74
     0
 42
0.0000000001
 43
0.0000000001
 40
0.0
 40
0.0
 40
0.0
 40
0.0
 40
0.0849541098213625
 40
0.1817376514505172
 40
0.265117739275689
 40
0.4157802434908372
 40
0.4157802434908372
 40
0.4157802434908372
 40
0.4157802434908372
 10
-11.63785049034345
 20
3.124657080584178
 30
0.0
 10
-11.74267737667915
 20
3.065999943928567
 30
0.0
 10
-11.77840396604125
 20
3.016965052391664
 30
0.0
 10
-11.81798554779823
 20
2.937279815683627
 30
0.0
 10
-11.84744754236536
 20
2.830866786906407
 30
0.0
 10
-11.86008914625242
 20
2.753758951900859
 30
0.0
 10
-11.86858869549368
 20
2.70334416576432
 30
0.0
  0
SPLINE
  5
2B0
330
1F
100
AcDbEntity
  8
Default
100
AcDbSpline
210
0.0
220
0.0
230
1.0
 70
    12
 71
     2
 72
     6
 73
     3
 74
     0
 42
0.0000000001
 43
0.0000000001
 40
0.0
 40
0.0
 40
0.0
 40
0.0708374901125698
 40
0.0708374901125698
 40
0.0708374901125698
 10
-11.86858869549368
 20
2.70334416576432
 30
0.0
 41
1.0
 10
-11.87539622894316
 20
2.660196383895849
 30
0.0
 41
0.7616422102729029
 10
-11.91814180152215
 20
2.660000000666126
 30
0.0
 41
1.0
  0
POLYLINE
  5
2B1
330
1F
100
AcDbEntity
  8
Default
100
AcDb2dPolyline
 66
     1
 10
0.0
 20
0.0
 30
0.0
  0
VERTEX
  5
2B2
330
2B1
100
AcDbEntity
  8
Default
100
AcDbVertex
100
AcDb2dVertex
 10
-11.91814180152215
 20
2.660000000666126
 30
0.0
  0
VERTEX
  5
2B3
330
2B1
100
AcDbEntity
  8
Default
100
AcDbVertex
100
AcDb2dVertex
 10
-13.12933329540235
 20
2.660037474479959
 30
0.0
  0
SEQEND
  5
2B4
330
2B1
100
AcDbEntity
  8
Default
  0
SPLINE
  5
2B5
330
1F
100
AcDbEntity
  8
Default
100
AcDbSpline
210
0.0
220
0.0
230
1.0
 70
    12
 71
     2
 72
     8
 73
     5
 74
     0
 42
0.0000000001
 43
0.0000000001
 40
0.0
 40
0.0
 40
0.0
 40
0.0644169010726275
 40
0.0644169010726275
 40
0.1288338021452549
 40
0.1288338021452549
 40
0.1288338021452549
 10
-13.12933329540235
 20
2.660037474479959
 30
0.0
 41
1.0
 10
-13.16338511716489
 20
2.661072069394713
 30
0.0
 41
0.920118721993147
 10
-13.18624545472034
 20
2.686330769259006
 30
0.0
 41
1.0
 10
-13.2091057922758
 20
2.711589469123299
 30
0.0
 41
0.920118721993147
 10
-13.20674437162475
 20
2.745646097624975
 30
0.0
 41
1.0
  0
SPLINE
  5
2B6
330
1F
100
AcDbEntity
  8
Default
100
AcDbSpline
210
0.0
220
0.0
230
1.0
 70
    12
 71
     2
 72
     6
 73
     3
 74
     0
 42
0.0000000001
 43
0.0000000001
 40
0.0
 40
0.0
 40
0.0
 40
0.9581386465001401
 40
0.9581386465001401
 40
0.9581386465001401
 10
-13.20674437162475
 20
2.745646097624975
 30
0.0
 41
1.0
 10
-13.17262557987483
 20
3.223569972874844
 30
0.0
 41
0.9999999859440947
 10
-13.13828050650324
 20
3.702319333028696
 30
0.0
 41
1.0
  0
SPLINE
  5
2B7
330
1F
100
AcDbEntity
  8
Default
100
AcDbSpline
210
0.0
220
0.0
230
1.0
 70
    12
 71
     2
 72
     6
 73
     3
 74
     0
 42
0.0000000001
 43
0.0000000001
 40
0.0
 40
0.0
 40
0.0
 40
0.2655856029909658
 40
0.2655856029909658
 40
0.2655856029909658
 10
-13.13828050650324
 20
3.702319333028696
 30
0.0
 41
1.0
 10
-13.12313447385113
 20
3.844922791839252
 30
0.0
 41
0.9009240396863017
 10
-13.00293722273733
 20
3.921457641423499
 30
0.0
 41
1.0
  0
ARC
  5
2B8
330
1F
100
AcDbEntity
  8
Default
100
AcDbCircle
 10
-11.31815004286634
 20
1.547550452192785
 30
0.0
 40
2.911003810464506
100
AcDbArc
 50
107.940691653186
 51
125.3637275571298
  0
LINE
  5
2B9
330
1F
100
AcDbEntity
  8
Default
100
AcDbLine
 10
-12.21483343328234
 20
4.317009258871622
 30
0.0
 11
-2.769787294947577
 21
7.165077811437554
 31
0.0
  0
SPLINE
  5
2BA
330
1F
100
AcDbEntity
  8
Default
100
AcDbSpline
210
0.0
220
0.0
230
1.0
 70
     8
 71
     3
 72
     8
 73
     4
 74
     0
 42
0.0000000001
 43
0.0000000001
 40
0.0
 40
0.0
 40
0.0
 40
0.0
 40
1.0
 40
1.0
 40
1.0
 40
1.0
 10
-2.769787294947577
 20
7.165077811437554
 30
0.0
 10
-2.404232906566392
 20
7.275307443199257
 30
0.0
 10
-2.048667985654248
 20
7.433128947376277
 30
0.0
 10
-1.670826034641578
 20
7.488047456441935
 30
0.0
  0
SPLINE
  5
2BB
330
1F
100
AcDbEntity
  8
Default
100
AcDbSpline
210
0.0
220
0.0
230
1.0
 70
    12
 71
     2
 72
     6
 73
     3
 74
     0
 42
0.0000000001
 43
0.0000000001
 40
0.0
 40
0.0
 40
0.0
 40
0.6278042356401607
 40
0.6278042356401607
 40
0.6278042356401607
 10
-1.670826034641578
 20
7.488047456441935
 30
0.0
 41
1.0
 10
-1.36011235837595
 20
7.533209016192205
 30
0.0
 41
0.999634701259968
 10
-1.047412332379736
 20
7.561515355403906
 30
0.0
 41
1.0
  0
POLYLINE
  5
2BC
330
1F
100
AcDbEntity
  8
Default
100
AcDb2dPolyline
 66
     1
 10
0.0
 20
0.0
 30
0.0
  0
VERTEX
  5
2BD
330
2BC
100
AcDbEntity
  8
Default
100
AcDbVertex
100
AcDb2dVertex
 10
-1.047412332379736
 20
7.561515355403906
 30
0.0
  0
VERTEX
  5
2BE
330
2BC
100
AcDbEntity
  8
Default
100
AcDbVertex
100
AcDb2dVertex
 10
1.047412332379736
 20
7.561515355403906
 30
0.0
  0
SEQEND
  5
2BF
330
2BC
100
AcDbEntity
  8
Default
  0
SPLINE
  5
2C0
330
1F
100
AcDbEntity
  8
Default
100
AcDbSpline
210
0.0
220
0.0
230
1.0
 70
    12
 71
     2
 72
     6
 73
     3
 74
     0
 42
0.0000000001
 43
0.0000000001
 40
-0.6278042356401607
 40
-0.6278042356401607
 40
-0.6278042356401607
 40
0.0
 40
0.0
 40
0.0
 10
1.047412332379736
 20
7.561515355403906
 30
0.0
 41
1.0
 10
1.360112358375954
 20
7.533209016192205
 30
0.0
 41
0.999634701259968
 10
1.670826034641578
 20
7.488047456441935
 30
0.0
 41
1.0
  0
SPLINE
  5
2C1
330
1F
100
AcDbEntity
  8
Default
100
AcDbSpline
210
0.0
220
0.0
230
1.0
 70
     8
 71
     3
 72
     8
 73
     4
 74
     0
 42
0.0000000001
 43
0.0000000001
 40
-1.0
 40
-1.0
 40
-1.0
 40
-1.0
 40
0.0
 40
0.0
 40
0.0
 40
0.0
 10
1.670826034641578
 20
7.488047456441935
 30
0.0
 10
2.048667985654248
 20
7.433128947376277
 30
0.0
 10
2.404232906566392
 20
7.275307443199257
 30
0.0
 10
2.769787294947577
 20
7.165077811437554
 30
0.0
  0
LINE
  5
2C2
330
1F
100
AcDbEntity
  8
Default
100
AcDbLine
 10
2.769787294947577
 20
7.165077811437554
 30
0.0
 11
12.21483343328234
 21
4.317009258871622
 31
0.0
  0
ARC
  5
2C3
330
1F
100
AcDbEntity
  8
Default
100
AcDbCircle
 10
11.31815004286634
 20
1.547550452192785
 30
0.0
 40
2.911003810464506
100
AcDbArc
 50
54.6362724428702
 51
72.05930834681405
  0
SPLINE
  5
2C4
330
1F
100
AcDbEntity
  8
Default
100
AcDbSpline
210
0.0
220
0.0
230
1.0
 70
    12
 71
     2
 72
     6
 73
     3
 74
     0
 42
0.0000000001
 43
0.0000000001
 40
-0.2655856029909658
 40
-0.2655856029909658
 40
-0.2655856029909658
 40
0.0
 40
0.0
 40
0.0
 10
13.00293722273733
 20
3.921457641423499
 30
0.0
 41
1.0
 10
13.12313447385115
 20
3.844922791839252
 30
0.0
 41
0.9009240396863017
 10
13.13828050650324
 20
3.702319333028696
 30
0.0
 41
1.0
  0
SPLINE
  5
2C5
330
1F
100
AcDbEntity
  8
Default
100
AcDbSpline
210
0.0
220
0.0
230
1.0
 70
    12
 71
     2
 72
     6
 73
     3
 74
     0
 42
0.0000000001
 43
0.0000000001
 40
-0.9581386465001401
 40
-0.9581386465001401
 40
-0.9581386465001401
 40
0.0
 40
0.0
 40
0.0
 10
13.13828050650324
 20
3.702319333028696
 30
0.0
 41
1.0
 10
13.17262557987483
 20
3.223569972874844
 30
0.0
 41
0.9999999859440947
 10
13.20674437162475
 20
2.745646097624975
 30
0.0
 41
1.0
  0
SPLINE
  5
2C6
330
1F
100
AcDbEntity
  8
Default
100
AcDbSpline
210
0.0
220
0.0
230
1.0
 70
    12
 71
     2
 72
     8
 73
     5
 74
     0
 42
0.0000000001
 43
0.0000000001
 40
-0.1288338021452549
 40
-0.1288338021452549
 40
-0.1288338021452549
 40
-0.0644169010726275
 40
-0.0644169010726275
 40
0.0
 40
0.0
 40
0.0
 10
13.20674437162475
 20
2.745646097624975
 30
0.0
 41
1.0
 10
13.20910579227577
 20
2.711589469123299
 30
0.0
 41
0.920118721993147
 10
13.18624545472034
 20
2.686330769259006
 30
0.0
 41
1.0
 10
13.16338511716487
 20
2.661072069394713
 30
0.0
 41
0.920118721993147
 10
13.12933329540235
 20
2.660037474479959
 30
0.0
 41
1.0
  0
POLYLINE
  5
2C7
330
1F
100
AcDbEntity
  8
Default
100
AcDb2dPolyline
 66
     1
 10
0.0
 20
0.0
 30
0.0
  0
VERTEX
  5
2C8
330
2C7
100
AcDbEntity
  8
Default
100
AcDbVertex
100
AcDb2dVertex
 10
13.12933329540235
 20
2.660037474479959
 30
0.0
  0
VERTEX
  5
2C9
330
2C7
100
AcDbEntity
  8
Default
100
AcDbVertex
100
AcDb2dVertex
 10
11.91814180152215
 20
2.660000000666126
 30
0.0
  0
SEQEND
  5
2CA
330
2C7
100
AcDbEntity
  8
Default
  0
SPLINE
  5
2CB
330
1F
100
AcDbEntity
  8
Default
100
AcDbSpline
210
0.0
220
0.0
230
1.0
 70
    12
 71
     2
 72
     6
 73
     3
 74
     0
 42
0.0000000001
 43
0.0000000001
 40
-0.0708374901125698
 40
-0.0708374901125698
 40
-0.0708374901125698
 40
0.0
 40
0.0
 40
0.0
 10
11.91814180152215
 20
2.660000000666126
 30
0.0
 41
1.0
 10
11.87539622894316
 20
2.660196383895849
 30
0.0
 41
0.7616422102729029
 10
11.86858869549368
 20
2.70334416576432
 30
0.0
 41
1.0
  0
SPLINE
  5
2CC
330
1F
100
AcDbEntity
  8
Default
100
AcDbSpline
210
0.0
220
0.0
230
1.0
 70
     8
 71
     3
 72
    11
 73
     7
 74
     0
 42
0.0000000001
 43
0.0000000001
 40
-0.4157802434908372
 40
-0.4157802434908372
 40
-0.4157802434908372
 40
-0.4157802434908372
 40
-0.265117739275689
 40
-0.1817376514505172
 40
-0.0849541098213625
 40
0.0
 40
0.0
 40
0.0
 40
0.0
 10
11.86858869549368
 20
2.70334416576432
 30
0.0
 10
11.86008914625242
 20
2.753758951900859
 30
0.0
 10
11.84744754236536
 20
2.830866786906407
 30
0.0
 10
11.81798554779823
 20
2.937279815683627
 30
0.0
 10
11.77840396604125
 20
3.016965052391664
 30
0.0
 10
11.74267737667915
 20
3.065999943928567
 30
0.0
 10
11.63785049034345
 20
3.124657080584178
 30
0.0
  0
SPLINE
  5
2CD
330
1F
100
AcDbEntity
  8
Default
100
AcDbSpline
210
0.0
220
0.0
230
1.0
 70
     8
 71
     3
 72
     9
 73
     5
 74
     0
 42
0.0000000001
 43
0.0000000001
 40
0.0
 40
0.0
 40
0.0
 40
0.0
 40
1.0
 40
2.0
 40
2.0
 40
2.0
 40
2.0
 10
11.63785049034345
 20
3.124657080584178
 30
0.0
 10
10.14955877529226
 20
3.636507032248433
 30
0.0
 10
7.043757985679946
 20
4.149372983178742
 30
0.0
 10
3.976769923485818
 20
4.813439031439117
 30
0.0
 10
2.435513184737147
 20
5.115232068693839
 30
0.0
  0
SPLINE
  5
2CE
330
1F
100
AcDbEntity
  8
Default
100
AcDbSpline
210
0.0
220
0.0
230
1.0
 70
     8
 71
     3
 72
    12
 73
     8
 74
     0
 42
0.0000000001
 43
0.0000000001
 40
-1.563184277084196
 40
-1.563184277084196
 40
-1.563184277084196
 40
-1.563184277084196
 40
-1.129739836349191
 40
-0.7112675176328244
 40
-0.2174213754726994
 40
-0.0762472758146101
 40
0.0
 40
0.0
 40
0.0
 40
0.0
 10
2.435513184737147
 20
5.115232068693839
 30
0.0
 10
2.277237377806557
 20
5.150650512383529
 30
0.0
 10
1.997544621518045
 20
5.204879044250919
 30
0.0
 10
1.549661328639019
 20
5.232777585152977
 30
0.0
 10
1.1980765484806
 20
5.236347721733787
 30
0.0
 10
0.96180508653012
 20
5.214907965794016
 30
0.0
 10
0.8915949476885032
 20
5.193011400457243
 30
0.0
 10
0.8691516759483591
 20
5.171403116553943
 30
0.0
  0
SPLINE
  5
2CF
330
1F
100
AcDbEntity
  8
Default
100
AcDbSpline
210
0.0
220
0.0
230
1.0
 70
     8
 71
     3
 72
     9
 73
     5
 74
     0
 42
0.0000000001
 43
0.0000000001
 40
0.0
 40
0.0
 40
0.0
 40
0.0
 40
1.0
 40
2.0
 40
2.0
 40
2.0
 40
2.0
 10
0.8691516759483591
 20
5.171403116553943
 30
0.0
 10
0.8233028506814719
 20
4.797070913097536
 30
0.0
 10
0.7335419764343669
 20
4.057479910335916
 30
0.0
 10
0.6548666052106284
 20
3.316296967964139
 30
0.0
 10
0.6494938790219749
 20
2.943388452758541
 30
0.0
  0
SPLINE
  5
2D0
330
1F
100
AcDbEntity
  8
Default
100
AcDbSpline
210
0.0
220
0.0
230
1.0
 70
    24
 71
     2
 72
     6
 73
     3
 74
     0
 42
0.0000000001
 43
0.0000000001
 40
0.0
 40
0.0
 40
0.0
 40
0.9288483722712422
 40
0.9288483722712422
 40
0.9288483722712422
 10
0.8000168225590301
 20
2.54955704893676
 30
0.0
 10
0.8000168225590301
 20
3.013981235072381
 30
0.0
 10
0.8000168225590301
 20
3.478405421208002
 30
0.0
  0
SPLINE
  5
2D1
330
1F
100
AcDbEntity
  8
Default
100
AcDbSpline
210
0.0
220
0.0
230
1.0
 70
    12
 71
     2
 72
     6
 73
     3
 74
     0
 42
0.0000000001
 43
0.0000000001
 40
-0.0828722016194424
 40
-0.0828722016194424
 40
-0.0828722016194424
 40
0.0
 40
0.0
 40
0.0
 10
0.8000168225590301
 20
3.478405421208002
 30
0.0
 41
1.0
 10
0.8000168225590543
 20
3.519865252893067
 30
0.0
 41
0.9991416475977534
 10
0.8034599114722312
 20
3.561316849073632
 30
0.0
 41
1.0
  0
SPLINE
  5
2D2
330
1F
100
AcDbEntity
  8
Default
100
AcDbSpline
210
0.0
220
0.0
230
1.0
 70
    24
 71
     2
 72
     6
 73
     3
 74
     0
 42
0.0000000001
 43
0.0000000001
 40
0.0
 40
0.0
 40
0.0
 40
1.652633987892294
 40
1.652633987892294
 40
1.652633987892294
 10
0.8034599114722312
 20
3.561316849073632
 30
0.0
 10
0.8720873791667145
 20
4.38484657035001
 30
0.0
 10
0.9407148468611979
 20
5.208376291626389
 30
0.0
  0
SPLINE
  5
2D3
330
1F
100
AcDbEntity
  8
Default
100
AcDbSpline
210
0.0
220
0.0
230
1.0
 70
    24
 71
     2
 72
     6
 73
     3
 74
     0
 42
0.0000000001
 43
0.0000000001
 40
-1.10621948028922
 40
-1.10621948028922
 40
-1.10621948028922
 40
0.0
 40
0.0
 40
0.0
 10
-0.5861385881102876
 20
3.849105347536227
 30
0.0
 10
-0.6247345445592885
 20
3.297343862120088
 30
0.0
 10
-0.6633305010082893
 20
2.745582376703949
 30
0.0
  0
SPLINE
  5
2D4
330
1F
100
AcDbEntity
  8
Default
100
AcDbSpline
210
0.0
220
0.0
230
1.0
 70
    12
 71
     2
 72
     8
 73
     5
 74
     0
 42
0.0000000001
 43
0.0000000001
 40
0.0
 40
0.0
 40
0.0
 40
0.0656253115149627
 40
0.0656253115149627
 40
0.1312506230299254
 40
0.1312506230299254
 40
0.1312506230299254
 10
-0.6633305010082893
 20
2.745582376703949
 30
0.0
 41
1.0
 10
-0.6657578261505668
 20
2.71088162518006
 30
0.0
 41
0.9170577524687132
 10
-0.64203443855763
 20
2.685440812599038
 30
0.0
 41
1.0
 10
-0.6183110509646444
 20
2.660000000018016
 30
0.0
 41
0.9170577524687132
 10
-0.5835255070754215
 20
2.660000000000002
 30
0.0
 41
1.0
  0
POLYLINE
  5
2D5
330
1F
100
AcDbEntity
  8
Default
100
AcDb2dPolyline
 66
     1
 10
0.0
 20
0.0
 30
0.0
  0
VERTEX
  5
2D6
330
2D5
100
AcDbEntity
  8
Default
100
AcDbVertex
100
AcDb2dVertex
 10
-0.5835255070754215
 20
2.660000000000002
 30
0.0
  0
VERTEX
  5
2D7
330
2D5
100
AcDbEntity
  8
Default
100
AcDbVertex
100
AcDb2dVertex
 10
0.5835255070754215
 20
2.660000000000002
 30
0.0
  0
SEQEND
  5
2D8
330
2D5
100
AcDbEntity
  8
Default
  0
SPLINE
  5
2D9
330
1F
100
AcDbEntity
  8
Default
100
AcDbSpline
210
0.0
220
0.0
230
1.0
 70
    12
 71
     2
 72
     8
 73
     5
 74
     0
 42
0.0000000001
 43
0.0000000001
 40
-0.1312506230299254
 40
-0.1312506230299254
 40
-0.1312506230299254
 40
-0.0656253115149627
 40
-0.0656253115149627
 40
0.0
 40
0.0
 40
0.0
 10
0.5835255070754215
 20
2.660000000000002
 30
0.0
 41
1.0
 10
0.6183110509646598
 20
2.660000000018016
 30
0.0
 41
0.9170577524687132
 10
0.64203443855763
 20
2.685440812599038
 30
0.0
 41
1.0
 10
0.665757826150582
 20
2.71088162518006
 30
0.0
 41
0.9170577524687132
 10
0.6633305010082893
 20
2.745582376703949
 30
0.0
 41
1.0
  0
SPLINE
  5
2DA
330
1F
100
AcDbEntity
  8
Default
100
AcDbSpline
210
0.0
220
0.0
230
1.0
 70
    24
 71
     2
 72
     6
 73
     3
 74
     0
 42
0.0000000001
 43
0.0000000001
 40
0.0
 40
0.0
 40
0.0
 40
1.10621948028922
 40
1.10621948028922
 40
1.10621948028922
 10
0.6633305010082893
 20
2.745582376703949
 30
0.0
 10
0.6247345445592885
 20
3.297343862120088
 30
0.0
 10
0.5861385881102876
 20
3.849105347536227
 30
0.0
  0
SPLINE
  5
2DB
330
1F
100
AcDbEntity
  8
Default
100
AcDbSpline
210
0.0
220
0.0
230
1.0
 70
     8
 71
     3
 72
    11
 73
     7
 74
     0
 42
0.0000000001
 43
0.0000000001
 40
-4.0
 40
-4.0
 40
-4.0
 40
-4.0
 40
-3.0
 40
-2.0
 40
-1.0
 40
0.0
 40
0.0
 40
0.0
 40
0.0
 10
0.9348604348886056
 20
5.138123347955121
 30
0.0
 10
1.428496823963343
 20
4.978037952198084
 30
0.0
 10
2.418505990125738
 20
4.666311005015218
 30
0.0
 10
3.901159384872159
 20
4.19058253180726
 30
0.0
 10
5.388555979861081
 20
3.732531104798397
 30
0.0
 10
6.369078750582702
 20
3.385450063614752
 30
0.0
 10
6.819406690389712
 20
3.123152532142232
 30
0.0
  0
SPLINE
  5
2DC
330
1F
100
AcDbEntity
  8
Default
100
AcDbSpline
210
0.0
220
0.0
230
1.0
 70
     8
 71
     3
 72
     8
 73
     4
 74
     0
 42
0.0000000001
 43
0.0000000001
 40
-1.0
 40
-1.0
 40
-1.0
 40
-1.0
 40
0.0
 40
0.0
 40
0.0
 40
0.0
 10
6.819406690389712
 20
3.123152532142232
 30
0.0
 10
6.900882832868803
 20
3.075696025101316
 30
0.0
 10
6.953786706553586
 20
2.983569504850824
 30
0.0
 10
6.987126924758655
 20
2.895371365959808
 30
0.0
  0
SPLINE
  5
2DD
330
1F
100
AcDbEntity
  8
Default
100
AcDbSpline
210
0.0
220
0.0
230
1.0
 70
    12
 71
     2
 72
     6
 73
     3
 74
     0
 42
0.0000000001
 43
0.0000000001
 40
0.0
 40
0.0
 40
0.0
 40
0.2250138153874603
 40
0.2250138153874603
 40
0.2250138153874603
 10
6.987126924758655
 20
2.895371365959808
 30
0.0
 41
1.0
 10
7.026909148349969
 20
2.790131560385678
 30
0.0
 41
0.9999859153302073
 10
7.067905079519335
 20
2.685230771206736
 30
0.0
 41
1.0
  0
SPLINE
  5
2DE
330
1F
100
AcDbEntity
  8
Default
100
AcDbSpline
210
0.0
220
0.0
230
1.0
 70
    12
 71
     2
 72
     6
 73
     3
 74
     0
 42
0.0000000001
 43
0.0000000001
 40
0.0
 40
0.0
 40
0.0
 40
0.0522878825032401
 40
0.0522878825032401
 40
0.0522878825032401
 10
7.067905079519335
 20
2.685230771206736
 30
0.0
 41
1.0
 10
7.082442601138761
 20
2.660266668835333
 30
0.0
 41
0.8689042862693989
 10
7.111203084564949
 20
2.66000029771196
 30
0.0
 41
1.0
  0
POLYLINE
  5
2DF
330
1F
100
AcDbEntity
  8
Default
100
AcDb2dPolyline
 66
     1
 10
0.0
 20
0.0
 30
0.0
  0
VERTEX
  5
2E0
330
2DF
100
AcDbEntity
  8
Default
100
AcDbVertex
100
AcDb2dVertex
 10
7.111203084564949
 20
2.66000029771196
 30
0.0
  0
VERTEX
  5
2E1
330
2DF
100
AcDbEntity
  8
Default
100
AcDbVertex
100
AcDb2dVertex
 10
8.335704636138786
 20
2.660000000007072
 30
0.0
  0
SEQEND
  5
2E2
330
2DF
100
AcDbEntity
  8
Default
  0
SPLINE
  5
2E3
330
1F
100
AcDbEntity
  8
Default
100
AcDbSpline
210
0.0
220
0.0
230
1.0
 70
    12
 71
     2
 72
     8
 73
     5
 74
     0
 42
0.0000000001
 43
0.0000000001
 40
0.0
 40
0.0
 40
0.0
 40
0.0656121709207247
 40
0.0656121709207247
 40
0.1312243418414493
 40
0.1312243418414493
 40
0.1312243418414493
 10
8.335704636138786
 20
2.660000000007072
 30
0.0
 41
1.0
 10
8.370480109776905
 20
2.660020433647109
 30
0.0
 41
0.9171775841282426
 10
8.394196980835716
 20
2.685453561875208
 30
0.0
 41
1.0
 10
8.417913851894545
 20
2.710886690103307
 30
0.0
 41
0.9171775841282426
 10
8.415504843517226
 20
2.7456388903067
 30
0.0
 41
1.0
  0
SPLINE
  5
2E4
330
1F
100
AcDbEntity
  8
Default
100
AcDbSpline
210
0.0
220
0.0
230
1.0
 70
    12
 71
     2
 72
     6
 73
     3
 74
     0
 42
0.0000000001
 43
0.0000000001
 40
0.0
 40
0.0
 40
0.0
 40
1.023755484296237
 40
1.023755484296237
 40
1.023755484296237
 10
8.415504843517226
 20
2.7456388903067
 30
0.0
 41
1.0
 10
8.377821297449342
 20
3.256188018783275
 30
0.0
 41
0.9999997309287173
 10
8.339216990190067
 20
3.768794098390993
 30
0.0
 41
1.0
  0
ARC
  5
2E5
330
1F
100
AcDbEntity
  8
Default
100
AcDbCircle
 10
7.988399059061294
 20
3.735501340110976
 30
0.0
 40
0.3523941380831402
100
AcDbArc
 50
5.42115622714856
 51
35.85690368990431
  0
ARC
  5
2E6
330
1F
100
AcDbEntity
  8
Default
100
AcDbCircle
 10
7.994828724617321
 20
3.740148275370657
 30
0.0
 40
0.3444610046246585
100
AcDbArc
 50
35.8569036899043
 51
39.60131472729449
  0
SPLINE
  5
2E7
330
1F
100
AcDbEntity
  8
Default
100
AcDbSpline
210
0.0
220
0.0
230
1.0
 70
     8
 71
     3
 72
     9
 73
     5
 74
     0
 42
0.0000000001
 43
0.0000000001
 40
-2.0
 40
-2.0
 40
-2.0
 40
-2.0
 40
-1.0
 40
0.0
 40
0.0
 40
0.0
 40
0.0
 10
2.653460336707809
 20
5.07143313510629
 30
0.0
 10
3.531543541593891
 20
4.781276960886567
 30
0.0
 10
5.267487036774526
 20
4.154756073194898
 30
0.0
 10
7.053987324645476
 20
3.643756700531216
 30
0.0
 10
7.8562195853535
 20
3.174050745646266
 30
0.0
  0
SPLINE
  5
2E8
330
1F
100
AcDbEntity
  8
Default
100
AcDbSpline
210
0.0
220
0.0
230
1.0
 70
     8
 71
     3
 72
    11
 73
     7
 74
     0
 42
0.0000000001
 43
0.0000000001
 40
-0.4854906778123655
 40
-0.4854906778123655
 40
-0.4854906778123655
 40
-0.4854906778123655
 40
-0.3387307467635205
 40
-0.2651640397401903
 40
-0.0791861104613142
 40
0.0
 40
0.0
 40
0.0
 40
0.0
 10
7.8562195853535
 20
3.174050745646266
 30
0.0
 10
7.925088573872756
 20
3.129541097100286
 30
0.0
 10
7.972996411310049
 20
3.07209130698932
 30
0.0
 10
8.033645602602832
 20
2.950877835737859
 30
0.0
 10
8.07217876352749
 20
2.844449930169419
 30
0.0
 10
8.11399464082723
 20
2.766346247745584
 30
0.0
 10
8.129300323095464
 20
2.74478470854692
 30
0.0
  0
ARC
  5
2E9
330
1F
100
AcDbEntity
  8
Default
100
AcDbCircle
 10
-0.0000024599721655
 20
3.169754116000515
 30
0.0
 40
0.9098637576825879
100
AcDbArc
 50
49.99539631686787
 51
130.0046036831318
  0
LINE
  5
2EA
330
1F
100
AcDbEntity
  8
Default
100
AcDbLine
 10
-0.5754663379735518
 20
3.874518887156495
 30
0.0
 11
-0.745990570673456
 21
6.88746221275908
 31
0.0
  0
ARC
  5
2EB
330
1F
100
AcDbEntity
  8
Default
100
AcDbCircle
 10
-1.245191502467691
 20
6.859205714466122
 30
0.0
 40
0.5
100
AcDbArc
 50
3.239682193978395
 51
91.248787440504
  0
SPLINE
  5
2EC
330
1F
100
AcDbEntity
  8
Default
100
AcDbSpline
210
0.0
220
0.0
230
1.0
 70
    12
 71
     3
 72
    10
 73
     6
 74
     0
 42
0.0000000001
 43
0.0000000001
 40
0.0314139243557747
 40
0.0314139243557747
 40
0.0314139243557747
 40
0.0314139243557747
 40
0.4896359139069521
 40
0.4896359139069521
 40
1.0
 40
1.0
 40
1.0
 40
1.0
 10
-1.256088365922864
 20
7.359086958730036
 30
0.0
 41
1.0
 10
-1.430065917666582
 20
7.355294438711859
 30
0.0
 41
1.0
 10
-1.629352709067859
 20
7.324759031622224
 30
0.0
 41
1.0
 10
-2.088679978777805
 20
7.242785826788335
 30
0.0
 41
1.0
 10
-2.300283015828427
 20
7.190274963867086
 30
0.0
 41
1.0
 10
-2.57520333669413
 20
7.106892787834387
 30
0.0
 41
1.0
  0
SPLINE
  5
2ED
330
1F
100
AcDbEntity
  8
Default
100
AcDbSpline
210
0.0
220
0.0
230
1.0
 70
    12
 71
     2
 72
     6
 73
     3
 74
     0
 42
0.0000000001
 43
0.0000000001
 40
-9.876318496713573
 40
-9.876318496713573
 40
-9.876318496713573
 40
0.0
 40
0.0
 40
0.0
 10
-2.57520333669413
 20
7.106892787834387
 30
0.0
 41
1.0
 10
-7.309353086738242
 20
5.70217114044171
 30
0.0
 41
0.9999999999851298
 10
-12.04351815777619
 20
4.297501128337122
 30
0.0
 41
1.0
  0
SPLINE
  5
2EE
330
1F
100
AcDbEntity
  8
Default
100
AcDbSpline
210
0.0
220
0.0
230
1.0
 70
     8
 71
     3
 72
     9
 73
     5
 74
     0
 42
0.0000000001
 43
0.0000000001
 40
-2.0
 40
-2.0
 40
-2.0
 40
-2.0
 40
-1.000000000003721
 40
0.0
 40
0.0
 40
0.0
 40
0.0
 10
-12.04351815777619
 20
4.297501128337122
 30
0.0
 10
-12.2112886895174
 20
4.25281179965044
 30
0.0
 10
-12.51080014166544
 20
4.083799824423187
 30
0.0
 10
-12.81722150219835
 20
3.921848446404307
 30
0.0
 10
-12.98938971618597
 20
3.896955803961847
 30
0.0
  0
LINE
  5
2EF
330
1F
100
AcDbEntity
  8
Default
100
AcDbLine
 10
0.5754663379735518
 20
3.874518887156495
 30
0.0
 11
0.745990570673456
 21
6.88746221275908
 31
0.0
  0
ARC
  5
2F0
330
1F
100
AcDbEntity
  8
Default
100
AcDbCircle
 10
1.245191502467691
 20
6.859205714466122
 30
0.0
 40
0.5
100
AcDbArc
 50
88.751212559496
 51
176.7603178060216
  0
SPLINE
  5
2F1
330
1F
100
AcDbEntity
  8
Default
100
AcDbSpline
210
0.0
220
0.0
230
1.0
 70
    12
 71
     3
 72
    10
 73
     6
 74
     0
 42
0.0000000001
 43
0.0000000001
 40
0.0314139243557747
 40
0.0314139243557747
 40
0.0314139243557747
 40
0.0314139243557747
 40
0.4896359139069521
 40
0.4896359139069521
 40
1.0
 40
1.0
 40
1.0
 40
1.0
 10
1.256088365922864
 20
7.359086958730036
 30
0.0
 41
1.0
 10
1.430065917666582
 20
7.355294438711859
 30
0.0
 41
1.0
 10
1.629352709067859
 20
7.324759031622224
 30
0.0
 41
1.0
 10
2.088679978777805
 20
7.242785826788335
 30
0.0
 41
1.0
 10
2.300283015828427
 20
7.190274963867086
 30
0.0
 41
1.0
 10
2.57520333669413
 20
7.106892787834387
 30
0.0
 41
1.0
  0
SPLINE
  5
2F2
330
1F
100
AcDbEntity
  8
Default
100
AcDbSpline
210
0.0
220
0.0
230
1.0
 70
    12
 71
     2
 72
     6
 73
     3
 74
     0
 42
0.0000000001
 43
0.0000000001
 40
-9.876318496713573
 40
-9.876318496713573
 40
-9.876318496713573
 40
0.0
 40
0.0
 40
0.0
 10
2.57520333669413
 20
7.106892787834387
 30
0.0
 41
1.0
 10
7.309353086738256
 20
5.70217114044171
 30
0.0
 41
0.9999999999851298
 10
12.04351815777619
 20
4.297501128337122
 30
0.0
 41
1.0
  0
SPLINE
  5
2F3
330
1F
100
AcDbEntity
  8
Default
100
AcDbSpline
210
0.0
220
0.0
230
1.0
 70
     8
 71
     3
 72
     9
 73
     5
 74
     0
 42
0.0000000001
 43
0.0000000001
 40
-2.0
 40
-2.0
 40
-2.0
 40
-2.0
 40
-1.000000000003721
 40
0.0
 40
0.0
 40
0.0
 40
0.0
 10
12.04351815777619
 20
4.297501128337122
 30
0.0
 10
12.2112886895174
 20
4.25281179965044
 30
0.0
 10
12.51080014166544
 20
4.083799824423187
 30
0.0
 10
12.81722150219835
 20
3.921848446404307
 30
0.0
 10
12.98938971618597
 20
3.896955803961847
 30
0.0
  0
ENDSEC
  0
SECTION
  2
OBJECTS
  0
DICTIONARY
  5
C
330
0
100
AcDbDictionary
281
     1
  3
ACAD_GROUP
350
D
  3
ACAD_LAYOUT
350
1A
  3
ACAD_MLEADERSTYLE
350
2F5
  3
ACAD_MLINESTYLE
350
17
  3
ACAD_PLOTSETTINGS
350
19
  3
ACAD_PLOTSTYLENAME
350
E
  3
ACAD_TABLESTYLE
350
2F4
  3
ACAD_VISUALSTYLE
350
2A
  0
DICTIONARY
  5
D
102
{ACAD_REACTORS
330
C
102
}
330
C
100
AcDbDictionary
281
     1
  0
DICTIONARY
  5
1A
102
{ACAD_REACTORS
330
C
102
}
330
C
100
AcDbDictionary
281
     1
  3
Layout1
350
1E
  3
Layout2
350
26
  3
Model
350
22
  0
DICTIONARY
  5
2F5
102
{ACAD_REACTORS
330
C
102
}
330
C
100
AcDbDictionary
281
     1
  0
DICTIONARY
  5
17
102
{ACAD_REACTORS
330
C
102
}
330
C
100
AcDbDictionary
281
     1
  3
Standard
350
18
  0
DICTIONARY
  5
19
102
{ACAD_REACTORS
330
C
102
}
330
C
100
AcDbDictionary
281
     1
  0
ACDBDICTIONARYWDFLT
  5
E
102
{ACAD_REACTORS
330
C
102
}
330
C
100
AcDbDictionary
281
     1
  3
Normal
350
F
100
AcDbDictionaryWithDefault
340
F
  0
DICTIONARY
  5
2F4
102
{ACAD_REACTORS
330
C
102
}
330
C
100
AcDbDictionary
281
     1
  0
DICTIONARY
  5
2A
102
{ACAD_REACTORS
330
C
102
}
330
C
100
AcDbDictionary
281
     1
  3
2dWireframe
350
2F
  3
3D Hidden
350
31
  3
3dWireframe
350
30
  3
Basic
350
32
  3
Brighten
350
36
  3
ColorChange
350
3A
  3
Conceptual
350
34
  3
Dim
350
35
  3
Facepattern
350
39
  3
Flat
350
2B
  3
FlatWithEdges
350
2C
  3
Gouraud
350
2D
  3
GouraudWithEdges
350
2E
  3
Linepattern
350
38
  3
Realistic
350
33
  3
Thicken
350
37
  0
LAYOUT
  5
1E
102
{ACAD_REACTORS
330
1A
102
}
330
1A
100
AcDbPlotSettings
  1

  2
none_device
  4

  6

 40
0.0
 41
0.0
 42
0.0
 43
0.0
 44
0.0
 45
0.0
 46
0.0
 47
0.0
 48
0.0
 49
0.0
140
0.0
141
0.0
142
1.0
143
1.0
 70
   688
 72
     0
 73
     0
 74
     5
  7

 75
    16
 76
     0
 77
     2
 78
   300
147
1.0
148
0.0
149
0.0
100
AcDbLayout
  1
Layout1
 70
     1
 71
     1
 10
0.0
 20
0.0
 11
12.0
 21
9.0
 12
0.0
 22
0.0
 32
0.0
 14
1.000000000000000E+20
 24
1.000000000000000E+20
 34
1.000000000000000E+20
 15
-1.000000000000000E+20
 25
-1.000000000000000E+20
 35
-1.000000000000000E+20
146
0.0
 13
0.0
 23
0.0
 33
0.0
 16
1.0
 26
0.0
 36
0.0
 17
0.0
 27
1.0
 37
0.0
 76
     0
330
1B
  0
LAYOUT
  5
26
102
{ACAD_REACTORS
330
1A
102
}
330
1A
100
AcDbPlotSettings
  1

  2
none_device
  4

  6

 40
0.0
 41
0.0
 42
0.0
 43
0.0
 44
0.0
 45
0.0
 46
0.0
 47
0.0
 48
0.0
 49
0.0
140
0.0
141
0.0
142
1.0
143
1.0
 70
   688
 72
     0
 73
     0
 74
     5
  7

 75
    16
 76
     0
 77
     2
 78
   300
147
1.0
148
0.0
149
0.0
100
AcDbLayout
  1
Layout2
 70
     1
 71
     2
 10
0.0
 20
0.0
 11
0.0
 21
0.0
 12
0.0
 22
0.0
 32
0.0
 14
0.0
 24
0.0
 34
0.0
 15
0.0
 25
0.0
 35
0.0
146
0.0
 13
0.0
 23
0.0
 33
0.0
 16
1.0
 26
0.0
 36
0.0
 17
0.0
 27
1.0
 37
0.0
 76
     0
330
23
  0
LAYOUT
  5
22
102
{ACAD_REACTORS
330
1A
102
}
330
1A
100
AcDbPlotSettings
  1

  2
none_device
  4

  6

 40
0.0
 41
0.0
 42
0.0
 43
0.0
 44
0.0
 45
0.0
 46
0.0
 47
0.0
 48
0.0
 49
0.0
140
0.0
141
0.0
142
1.0
143
1.0
 70
  1712
 72
     0
 73
     0
 74
     0
  7

 75
     0
 76
     0
 77
     2
 78
   300
147
1.0
148
0.0
149
0.0
100
AcDbLayout
  1
Model
 70
     1
 71
     0
 10
0.0
 20
0.0
 11
12.0
 21
9.0
 12
0.0
 22
0.0
 32
0.0
 14
-13.41765278193904
 24
-0.0000000000000024
 34
0.0
 15
52.60942666132747
 25
78.07006139280276
 35
0.0
146
0.0
 13
0.0
 23
0.0
 33
0.0
 16
1.0
 26
0.0
 36
0.0
 17
0.0
 27
1.0
 37
0.0
 76
     0
330
1F
331
29
  0
MLINESTYLE
  5
18
102
{ACAD_REACTORS
330
17
102
}
330
17
100
AcDbMlineStyle
  2
Standard
 70
     0
  3

 62
   256
 51
90.0
 52
90.0
 71
     2
 49
0.5
 62
   256
  6
BYLAYER
 49
-0.5
 62
   256
  6
BYLAYER
  0
ACDBPLACEHOLDER
  5
F
102
{ACAD_REACTORS
330
E
102
}
330
E
  0
VISUALSTYLE
  5
2F
102
{ACAD_REACTORS
330
2A
102
}
330
2A
100
AcDbVisualStyle
  2
2dWireframe
 70
     4
 71
     0
 72
     2
 73
     0
 90
        0
 40
-0.6
 41
-30.0
 62
     5
 63
     7
421
 16777215
 74
     1
 91
        4
 64
     7
 65
   257
 75
     1
175
     1
 42
1.0
 92
        0
 66
   257
 43
1.0
 76
     1
 77
     6
 78
     2
 67
     7
 79
     5
170
     0
171
     0
290
     0
174
     0
 93
        1
 44
0.0
173
     0
291
     0
 45
0.0
1001
ACAD
1000
AcDbSavedByObjectVersion
1070
     0
  0
VISUALSTYLE
  5
31
102
{ACAD_REACTORS
330
2A
102
}
330
2A
100
AcDbVisualStyle
  2
3D Hidden
 70
     6
 71
     1
 72
     2
 73
     2
 90
        0
 40
-0.6
 41
-30.0
 62
     5
 63
     7
421
 16777215
 74
     2
 91
        2
 64
     7
 65
   257
 75
     2
175
     1
 42
40.0
 92
        0
 66
   257
 43
1.0
 76
     1
 77
     6
 78
     2
 67
     7
 79
     3
170
     0
171
     0
290
     0
174
     0
 93
        1
 44
0.0
173
     0
291
     0
 45
0.0
1001
ACAD
1000
AcDbSavedByObjectVersion
1070
     0
  0
VISUALSTYLE
  5
30
102
{ACAD_REACTORS
330
2A
102
}
330
2A
100
AcDbVisualStyle
  2
3dWireframe
 70
     5
 71
     0
 72
     2
 73
     0
 90
        0
 40
-0.6
 41
-30.0
 62
     5
 63
     7
421
 16777215
 74
     1
 91
        4
 64
     7
 65
   257
 75
     1
175
     1
 42
1.0
 92
        0
 66
   257
 43
1.0
 76
     1
 77
     6
 78
     2
 67
     7
 79
     5
170
     0
171
     0
290
     0
174
     0
 93
        1
 44
0.0
173
     0
291
     0
 45
0.0
1001
ACAD
1000
AcDbSavedByObjectVersion
1070
     0
  0
VISUALSTYLE
  5
32
102
{ACAD_REACTORS
330
2A
102
}
330
2A
100
AcDbVisualStyle
  2
Basic
 70
     7
 71
     1
 72
     0
 73
     1
 90
        0
 40
-0.6
 41
-30.0
 62
     5
 63
     7
421
 16777215
 74
     0
 91
        4
 64
     7
 65
   257
 75
     1
175
     1
 42
1.0
 92
        8
 66
     7
 43
1.0
 76
     1
 77
     6
 78
     2
 67
     7
 79
     5
170
     0
171
     0
290
     0
174
     0
 93
        1
 44
0.0
173
     0
291
     1
 45
0.0
1001
ACAD
1000
AcDbSavedByObjectVersion
1070
     0
  0
VISUALSTYLE
  5
36
102
{ACAD_REACTORS
330
2A
102
}
330
2A
100
AcDbVisualStyle
  2
Brighten
 70
    12
 71
     2
 72
     2
 73
     0
 90
        0
 40
-0.6
 41
-30.0
 62
     5
 63
     7
421
 16777215
 74
     1
 91
        4
 64
     7
 65
   257
 75
     1
175
     1
 42
1.0
 92
        8
 66
     7
 43
1.0
 76
     1
 77
     6
 78
     2
 67
     7
 79
     5
170
     0
171
     0
290
     0
174
     0
 93
        1
 44
50.0
173
     0
291
     1
 45
0.0
1001
ACAD
1000
AcDbSavedByObjectVersion
1070
     0
  0
VISUALSTYLE
  5
3A
102
{ACAD_REACTORS
330
2A
102
}
330
2A
100
AcDbVisualStyle
  2
ColorChange
 70
    16
 71
     2
 72
     2
 73
     3
 90
        0
 40
-0.6
 41
-30.0
 62
     5
 63
     8
421
  8421504
 74
     1
 91
        4
 64
     7
 65
   257
 75
     1
175
     1
 42
1.0
 92
        8
 66
     8
424
  8421504
 43
1.0
 76
     1
 77
     6
 78
     2
 67
     7
 79
     5
170
     0
171
     0
290
     0
174
     0
 93
        1
 44
0.0
173
     0
291
     1
 45
0.0
1001
ACAD
1000
AcDbSavedByObjectVersion
1070
     0
  0
VISUALSTYLE
  5
34
102
{ACAD_REACTORS
330
2A
102
}
330
2A
100
AcDbVisualStyle
  2
Conceptual
 70
     9
 71
     3
 72
     2
 73
     0
 90
        0
 40
-0.6
 41
-30.0
 62
     5
 63
     7
421
 16777215
 74
     2
 91
        2
 64
     7
 65
   257
 75
     1
175
     1
 42
40.0
 92
        8
 66
     7
 43
1.0
 76
     1
 77
     6
 78
     2
 67
     7
 79
     3
170
     0
171
     0
290
     0
174
     0
 93
        1
 44
0.0
173
     0
291
     0
 45
0.0
1001
ACAD
1000
AcDbSavedByObjectVersion
1070
     0
  0
VISUALSTYLE
  5
35
102
{ACAD_REACTORS
330
2A
102
}
330
2A
100
AcDbVisualStyle
  2
Dim
 70
    11
 71
     2
 72
     2
 73
     0
 90
        0
 40
-0.6
 41
-30.0
 62
     5
 63
     7
421
 16777215
 74
     1
 91
        4
 64
     7
 65
   257
 75
     1
175
     1
 42
1.0
 92
        8
 66
     7
 43
1.0
 76
     1
 77
     6
 78
     2
 67
     7
 79
     5
170
     0
171
     0
290
     0
174
     0
 93
        1
 44
-50.0
173
     0
291
     1
 45
0.0
1001
ACAD
1000
AcDbSavedByObjectVersion
1070
     0
  0
VISUALSTYLE
  5
39
102
{ACAD_REACTORS
330
2A
102
}
330
2A
100
AcDbVisualStyle
  2
Facepattern
 70
    15
 71
     2
 72
     2
 73
     0
 90
        0
 40
-0.6
 41
-30.0
 62
     5
 63
     7
421
 16777215
 74
     1
 91
        4
 64
     7
 65
   257
 75
     1
175
     1
 42
1.0
 92
        8
 66
     7
 43
1.0
 76
     1
 77
     6
 78
     2
 67
     7
 79
     5
170
     0
171
     0
290
     0
174
     0
 93
        1
 44
0.0
173
     0
291
     1
 45
0.0
1001
ACAD
1000
AcDbSavedByObjectVersion
1070
     0
  0
VISUALSTYLE
  5
2B
102
{ACAD_REACTORS
330
2A
102
}
330
2A
100
AcDbVisualStyle
  2
Flat
 70
     0
 71
     2
 72
     1
 73
     1
 90
        2
 40
-0.6
 41
30.0
 62
     5
 63
     7
421
 16777215
 74
     0
 91
        4
 64
     7
 65
   257
 75
     1
175
     1
 42
1.0
 92
        8
 66
     7
 43
1.0
 76
     1
 77
     6
 78
     2
 67
     7
 79
     5
170
     0
171
     0
290
     0
174
     0
 93
       13
 44
0.0
173
     0
291
     1
 45
0.0
1001
ACAD
1000
AcDbSavedByObjectVersion
1070
     0
  0
VISUALSTYLE
  5
2C
102
{ACAD_REACTORS
330
2A
102
}
330
2A
100
AcDbVisualStyle
  2
FlatWithEdges
 70
     1
 71
     2
 72
     1
 73
     1
 90
        2
 40
-0.6
 41
30.0
 62
     5
 63
     7
421
 16777215
 74
     1
 91
        4
 64
     7
 65
   257
 75
     1
175
     1
 42
1.0
 92
        0
 66
   257
 43
1.0
 76
     1
 77
     6
 78
     2
 67
     7
 79
     5
170
     0
171
     0
290
     0
174
     0
 93
       13
 44
0.0
173
     0
291
     1
 45
0.0
1001
ACAD
1000
AcDbSavedByObjectVersion
1070
     0
  0
VISUALSTYLE
  5
2D
102
{ACAD_REACTORS
330
2A
102
}
330
2A
100
AcDbVisualStyle
  2
Gouraud
 70
     2
 71
     2
 72
     2
 73
     1
 90
        2
 40
-0.6
 41
30.0
 62
     5
 63
     7
421
 16777215
 74
     0
 91
        4
 64
     7
 65
   257
 75
     1
175
     1
 42
1.0
 92
        0
 66
     7
 43
1.0
 76
     1
 77
     6
 78
     2
 67
     7
 79
     5
170
     0
171
     0
290
     0
174
     0
 93
       13
 44
0.0
173
     0
291
     1
 45
0.0
1001
ACAD
1000
AcDbSavedByObjectVersion
1070
     0
  0
VISUALSTYLE
  5
2E
102
{ACAD_REACTORS
330
2A
102
}
330
2A
100
AcDbVisualStyle
  2
GouraudWithEdges
 70
     3
 71
     2
 72
     2
 73
     1
 90
        2
 40
-0.6
 41
30.0
 62
     5
 63
     7
421
 16777215
 74
     1
 91
        4
 64
     7
 65
   257
 75
     1
175
     1
 42
1.0
 92
        0
 66
   257
 43
1.0
 76
     1
 77
     6
 78
     2
 67
     7
 79
     5
170
     0
171
     0
290
     0
174
     0
 93
       13
 44
0.0
173
     0
291
     1
 45
0.0
1001
ACAD
1000
AcDbSavedByObjectVersion
1070
     0
  0
VISUALSTYLE
  5
38
102
{ACAD_REACTORS
330
2A
102
}
330
2A
100
AcDbVisualStyle
  2
Linepattern
 70
    14
 71
     2
 72
     2
 73
     0
 90
        0
 40
-0.6
 41
-30.0
 62
     5
 63
     7
421
 16777215
 74
     1
 91
        4
 64
     7
 65
   257
 75
     7
175
     7
 42
1.0
 92
        8
 66
     7
 43
1.0
 76
     1
 77
     6
 78
     2
 67
     7
 79
     5
170
     0
171
     0
290
     0
174
     0
 93
        1
 44
0.0
173
     0
291
     1
 45
0.0
1001
ACAD
1000
AcDbSavedByObjectVersion
1070
     0
  0
VISUALSTYLE
  5
33
102
{ACAD_REACTORS
330
2A
102
}
330
2A
100
AcDbVisualStyle
  2
Realistic
 70
     8
 71
     2
 72
     2
 73
     0
 90
        0
 40
-0.6
 41
-30.0
 62
     5
 63
     7
421
 16777215
 74
     1
 91
        0
 64
     7
 65
   257
 75
     1
175
     1
 42
1.0
 92
        8
 66
     8
424
  7895160
 43
1.0
 76
     1
 77
     6
 78
     2
 67
     7
 79
     5
170
     0
171
     0
290
     0
174
     0
 93
       13
 44
0.0
173
     0
291
     0
 45
0.0
1001
ACAD
1000
AcDbSavedByObjectVersion
1070
     0
  0
VISUALSTYLE
  5
37
102
{ACAD_REACTORS
330
2A
102
}
330
2A
100
AcDbVisualStyle
  2
Thicken
 70
    13
 71
     2
 72
     2
 73
     0
 90
        0
 40
-0.6
 41
-30.0
 62
     5
 63
     7
421
 16777215
 74
     1
 91
        4
 64
     7
 65
   257
 75
     1
175
     1
 42
1.0
 92
       12
 66
     7
 43
1.0
 76
     1
 77
     6
 78
     2
 67
     7
 79
     5
170
     0
171
     0
290
     0
174
     0
 93
        1
 44
0.0
173
     0
291
     1
 45
0.0
1001
ACAD
1000
AcDbSavedByObjectVersion
1070
     0
  0
ENDSEC
  0
EOF
