  0
SECTION
  2
HEADER
  9
$ACADVER
  1
AC1018
  9
$ACADMAINTVER
 70
     0
  9
$DWGCODEPAGE
  3
ANSI_1252
  9
$INSBASE
 10
0.0
 20
0.0
 30
0.0
  9
$EXTMIN
 10
-13.41765292011576
 20
-0.0000531061017243
 30
0.0
  9
$EXTMAX
 10
43.3896534424236
 20
70.29053572520442
 30
0.0
  9
$LIMMIN
 10
0.0
 20
0.0
  9
$LIMMAX
 10
12.0
 20
9.0
  9
$ORTHOMODE
 70
     0
  9
$REGENMODE
 70
     1
  9
$FILLMODE
 70
     1
  9
$QTEXTMODE
 70
     0
  9
$MIRRTEXT
 70
     1
  9
$LTSCALE
 40
0.0393700787401575
  9
$ATTMODE
 70
     1
  9
$TEXTSIZE
 40
0.2
  9
$TRACEWID
 40
0.05
  9
$TEXTSTYLE
  7
Standard
  9
$CLAYER
  8
Default
  9
$CELTYPE
  6
ByLayer
  9
$CECOLOR
 62
   256
  9
$CELTSCALE
 40
1.0
  9
$DISPSILH
 70
     0
  9
$DIMSCALE
 40
1.0
  9
$DIMASZ
 40
0.18
  9
$DIMEXO
 40
0.0625
  9
$DIMDLI
 40
0.38
  9
$DIMRND
 40
0.0
  9
$DIMDLE
 40
0.0
  9
$DIMEXE
 40
0.18
  9
$DIMTP
 40
0.0
  9
$DIMTM
 40
0.0
  9
$DIMTXT
 40
0.18
  9
$DIMCEN
 40
0.09
  9
$DIMTSZ
 40
0.0
  9
$DIMTOL
 70
     0
  9
$DIMLIM
 70
     0
  9
$DIMTIH
 70
     1
  9
$DIMTOH
 70
     1
  9
$DIMSE1
 70
     0
  9
$DIMSE2
 70
     0
  9
$DIMTAD
 70
     0
  9
$DIMZIN
 70
     0
  9
$DIMBLK
  1

  9
$DIMASO
 70
     1
  9
$DIMSHO
 70
     1
  9
$DIMPOST
  1

  9
$DIMAPOST
  1

  9
$DIMALT
 70
     0
  9
$DIMALTD
 70
     2
  9
$DIMALTF
 40
25.4
  9
$DIMLFAC
 40
1.0
  9
$DIMTOFL
 70
     0
  9
$DIMTVP
 40
0.0
  9
$DIMTIX
 70
     0
  9
$DIMSOXD
 70
     0
  9
$DIMSAH
 70
     0
  9
$DIMBLK1
  1

  9
$DIMBLK2
  1

  9
$DIMSTYLE
  2
Standard
  9
$DIMCLRD
 70
     0
  9
$DIMCLRE
 70
     0
  9
$DIMCLRT
 70
     0
  9
$DIMTFAC
 40
1.0
  9
$DIMGAP
 40
0.09
  9
$DIMJUST
 70
     0
  9
$DIMSD1
 70
     0
  9
$DIMSD2
 70
     0
  9
$DIMTOLJ
 70
     1
  9
$DIMTZIN
 70
     0
  9
$DIMALTZ
 70
     0
  9
$DIMALTTZ
 70
     0
  9
$DIMUPT
 70
     0
  9
$DIMDEC
 70
     4
  9
$DIMTDEC
 70
     4
  9
$DIMALTU
 70
     2
  9
$DIMALTTD
 70
     2
  9
$DIMTXSTY
  7
Standard
  9
$DIMAUNIT
 70
     0
  9
$DIMADEC
 70
     0
  9
$DIMALTRND
 40
0.0
  9
$DIMAZIN
 70
     0
  9
$DIMDSEP
 70
    46
  9
$DIMATFIT
 70
     3
  9
$DIMFRAC
 70
     0
  9
$DIMLDRBLK
  1

  9
$DIMLUNIT
 70
     2
  9
$DIMLWD
 70
    -2
  9
$DIMLWE
 70
    -2
  9
$DIMTMOVE
 70
     2
  9
$LUNITS
 70
     2
  9
$LUPREC
 70
     3
  9
$SKETCHINC
 40
0.1
  9
$FILLETRAD
 40
0.5
  9
$AUNITS
 70
     0
  9
$AUPREC
 70
     0
  9
$MENU
  1
.
  9
$ELEVATION
 40
0.0
  9
$PELEVATION
 40
0.0
  9
$THICKNESS
 40
0.0
  9
$LIMCHECK
 70
     0
  9
$CHAMFERA
 40
0.5
  9
$CHAMFERB
 40
0.5
  9
$CHAMFERC
 40
1.0
  9
$CHAMFERD
 40
0.0
  9
$SKPOLY
 70
     0
  9
$TDCREATE
 40
2457317.883309792
  9
$TDUCREATE
 40
2457318.049976458
  9
$TDUPDATE
 40
2457317.883309803
  9
$TDUUPDATE
 40
2457318.04997647
  9
$TDINDWG
 40
0.0000000116
  9
$TDUSRTIMER
 40
0.0000000116
  9
$USRTIMER
 70
     1
  9
$ANGBASE
 50
0.0
  9
$ANGDIR
 70
     0
  9
$PDMODE
 70
     0
  9
$PDSIZE
 40
0.0
  9
$PLINEWID
 40
0.0
  9
$SPLFRAME
 70
     0
  9
$SPLINETYPE
 70
     6
  9
$SPLINESEGS
 70
     8
  9
$HANDSEED
  5
2E2
  9
$SURFTAB1
 70
     6
  9
$SURFTAB2
 70
     6
  9
$SURFTYPE
 70
     6
  9
$SURFU
 70
     6
  9
$SURFV
 70
     6
  9
$UCSBASE
  2

  9
$UCSNAME
  2

  9
$UCSORG
 10
0.0
 20
0.0
 30
0.0
  9
$UCSXDIR
 10
1.0
 20
0.0
 30
0.0
  9
$UCSYDIR
 10
0.0
 20
1.0
 30
0.0
  9
$UCSORTHOREF
  2

  9
$UCSORTHOVIEW
 70
     0
  9
$UCSORGTOP
 10
0.0
 20
0.0
 30
0.0
  9
$UCSORGBOTTOM
 10
0.0
 20
0.0
 30
0.0
  9
$UCSORGLEFT
 10
0.0
 20
0.0
 30
0.0
  9
$UCSORGRIGHT
 10
0.0
 20
0.0
 30
0.0
  9
$UCSORGFRONT
 10
0.0
 20
0.0
 30
0.0
  9
$UCSORGBACK
 10
0.0
 20
0.0
 30
0.0
  9
$PUCSBASE
  2

  9
$PUCSNAME
  2

  9
$PUCSORG
 10
0.0
 20
0.0
 30
0.0
  9
$PUCSXDIR
 10
1.0
 20
0.0
 30
0.0
  9
$PUCSYDIR
 10
0.0
 20
1.0
 30
0.0
  9
$PUCSORTHOREF
  2

  9
$PUCSORTHOVIEW
 70
     0
  9
$PUCSORGTOP
 10
0.0
 20
0.0
 30
0.0
  9
$PUCSORGBOTTOM
 10
0.0
 20
0.0
 30
0.0
  9
$PUCSORGLEFT
 10
0.0
 20
0.0
 30
0.0
  9
$PUCSORGRIGHT
 10
0.0
 20
0.0
 30
0.0
  9
$PUCSORGFRONT
 10
0.0
 20
0.0
 30
0.0
  9
$PUCSORGBACK
 10
0.0
 20
0.0
 30
0.0
  9
$USERI1
 70
     0
  9
$USERI2
 70
     0
  9
$USERI3
 70
     0
  9
$USERI4
 70
     0
  9
$USERI5
 70
     0
  9
$USERR1
 40
0.0
  9
$USERR2
 40
0.0
  9
$USERR3
 40
0.0
  9
$USERR4
 40
0.0
  9
$USERR5
 40
0.0
  9
$WORLDVIEW
 70
     1
  9
$SHADEDGE
 70
     3
  9
$SHADEDIF
 70
    70
  9
$TILEMODE
 70
     1
  9
$MAXACTVP
 70
    64
  9
$PINSBASE
 10
0.0
 20
0.0
 30
0.0
  9
$PLIMCHECK
 70
     0
  9
$PEXTMIN
 10
1.000000000000000E+20
 20
1.000000000000000E+20
 30
1.000000000000000E+20
  9
$PEXTMAX
 10
-1.000000000000000E+20
 20
-1.000000000000000E+20
 30
-1.000000000000000E+20
  9
$PLIMMIN
 10
0.0
 20
0.0
  9
$PLIMMAX
 10
12.0
 20
9.0
  9
$UNITMODE
 70
     0
  9
$VISRETAIN
 70
     1
  9
$PLINEGEN
 70
     0
  9
$PSLTSCALE
 70
     1
  9
$TREEDEPTH
 70
  3020
  9
$CMLSTYLE
  2
Standard
  9
$CMLJUST
 70
     0
  9
$CMLSCALE
 40
1.0
  9
$PROXYGRAPHICS
 70
     1
  9
$MEASUREMENT
 70
     0
  9
$CELWEIGHT
370
    -1
  9
$ENDCAPS
280
     0
  9
$JOINSTYLE
280
     0
  9
$LWDISPLAY
290
     0
  9
$INSUNITS
 70
     1
  9
$HYPERLINKBASE
  1

  9
$STYLESHEET
  1

  9
$XEDIT
290
     1
  9
$CEPSNTYPE
380
     0
  9
$PSTYLEMODE
290
     1
  9
$FINGERPRINTGUID
  2
{98F72324-A106-456C-970C-EB8D9D3F97AA}
  9
$VERSIONGUID
  2
{FAEB1C32-E019-11D5-929B-00C0DF256EC4}
  9
$EXTNAMES
290
     1
  9
$PSVPSCALE
 40
0.0
  9
$OLESTARTUP
290
     0
  9
$SORTENTS
280
   127
  9
$INDEXCTL
280
     0
  9
$HIDETEXT
280
     1
  9
$XCLIPFRAME
290
     0
  9
$HALOGAP
280
     0
  9
$OBSCOLOR
 70
   257
  9
$OBSLTYPE
280
     0
  9
$INTERSECTIONDISPLAY
280
     0
  9
$INTERSECTIONCOLOR
 70
   257
  9
$DIMASSOC
280
     2
  9
$PROJECTNAME
  1

  0
ENDSEC
  0
SECTION
  2
CLASSES
  0
CLASS
  1
ACDBDICTIONARYWDFLT
  2
AcDbDictionaryWithDefault
  3
ObjectDBX Classes
 90
        0
 91
        4
280
     0
281
     0
  0
CLASS
  1
VISUALSTYLE
  2
AcDbVisualStyle
  3
ObjectDBX Classes
 90
     4095
 91
        4
280
     0
281
     0
  0
ENDSEC
  0
SECTION
  2
TABLES
  0
TABLE
  2
VPORT
  5
8
330
0
100
AcDbSymbolTable
 70
     1
  0
VPORT
  5
29
330
8
100
AcDbSymbolTableRecord
100
AcDbViewportTableRecord
  2
*Active
 70
     0
 10
0.0
 20
0.0
 11
1.0
 21
1.0
 12
14.98600026115392
 22
35.14524130955134
 13
0.0
 23
0.0
 14
0.5
 24
0.5
 15
0.5
 25
0.5
 16
0.0
 26
0.0
 36
1.0
 17
0.0
 27
0.0
 37
0.0
 40
71.69640060793228
 41
0.8081779838105214
 42
50.0
 43
0.0
 44
0.0
 50
0.0
 51
0.0
 71
     0
 72
   100
 73
     1
 74
     3
 75
     0
 76
     0
 77
     0
 78
     0
281
     0
 65
     1
110
0.0
120
0.0
130
0.0
111
1.0
121
0.0
131
0.0
112
0.0
122
1.0
132
0.0
 79
     0
146
0.0
  0
ENDTAB
  0
TABLE
  2
LTYPE
  5
5
330
0
100
AcDbSymbolTable
 70
     1
  0
LTYPE
  5
14
330
5
100
AcDbSymbolTableRecord
100
AcDbLinetypeTableRecord
  2
ByBlock
 70
     0
  3

 72
    65
 73
     0
 40
0.0
  0
LTYPE
  5
15
330
5
100
AcDbSymbolTableRecord
100
AcDbLinetypeTableRecord
  2
ByLayer
 70
     0
  3

 72
    65
 73
     0
 40
0.0
  0
LTYPE
  5
16
330
5
100
AcDbSymbolTableRecord
100
AcDbLinetypeTableRecord
  2
Continuous
 70
     0
  3
Solid line
 72
    65
 73
     0
 40
0.0
  0
ENDTAB
  0
TABLE
  2
LAYER
  5
2
330
0
100
AcDbSymbolTable
 70
     2
  0
LAYER
  5
10
330
2
100
AcDbSymbolTableRecord
100
AcDbLayerTableRecord
  2
0
 70
     0
 62
     7
  6
Continuous
370
    -3
390
F
  0
LAYER
  5
3B
330
2
100
AcDbSymbolTableRecord
100
AcDbLayerTableRecord
  2
Default
 70
     0
 62
     7
  6
Continuous
370
    -3
390
F
  0
ENDTAB
  0
TABLE
  2
STYLE
  5
3
330
0
100
AcDbSymbolTable
 70
     1
  0
STYLE
  5
11
330
3
100
AcDbSymbolTableRecord
100
AcDbTextStyleTableRecord
  2
Standard
 70
     0
 40
0.0
 41
1.0
 50
0.0
 71
     0
 42
0.2
  3
txt
  4

  0
ENDTAB
  0
TABLE
  2
VIEW
  5
6
330
0
100
AcDbSymbolTable
 70
     0
  0
ENDTAB
  0
TABLE
  2
UCS
  5
7
330
0
100
AcDbSymbolTable
 70
     0
  0
ENDTAB
  0
TABLE
  2
APPID
  5
9
330
0
100
AcDbSymbolTable
 70
     1
  0
APPID
  5
12
330
9
100
AcDbSymbolTableRecord
100
AcDbRegAppTableRecord
  2
ACAD
 70
     0
  0
ENDTAB
  0
TABLE
  2
DIMSTYLE
  5
A
330
0
100
AcDbSymbolTable
 70
     1
100
AcDbDimStyleTable
  0
DIMSTYLE
105
27
330
A
100
AcDbSymbolTableRecord
100
AcDbDimStyleTableRecord
  2
Standard
 70
     0
340
11
  0
ENDTAB
  0
TABLE
  2
BLOCK_RECORD
  5
1
330
0
100
AcDbSymbolTable
 70
     1
  0
BLOCK_RECORD
  5
1F
330
1
100
AcDbSymbolTableRecord
100
AcDbBlockTableRecord
  2
*Model_Space
340
22
  0
BLOCK_RECORD
  5
1B
330
1
100
AcDbSymbolTableRecord
100
AcDbBlockTableRecord
  2
*Paper_Space
340
1E
  0
BLOCK_RECORD
  5
23
330
1
100
AcDbSymbolTableRecord
100
AcDbBlockTableRecord
  2
*Paper_Space0
340
26
  0
ENDTAB
  0
ENDSEC
  0
SECTION
  2
BLOCKS
  0
BLOCK
  5
20
330
1F
100
AcDbEntity
  8
0
100
AcDbBlockBegin
  2
*Model_Space
 70
     0
 10
0.0
 20
0.0
 30
0.0
  3
*Model_Space
  1

  0
ENDBLK
  5
21
330
1F
100
AcDbEntity
  8
0
100
AcDbBlockEnd
  0
BLOCK
  5
1C
330
1B
100
AcDbEntity
 67
     1
  8
0
100
AcDbBlockBegin
  2
*Paper_Space
 70
     0
 10
0.0
 20
0.0
 30
0.0
  3
*Paper_Space
  1

  0
ENDBLK
  5
1D
330
1B
100
AcDbEntity
 67
     1
  8
0
100
AcDbBlockEnd
  0
BLOCK
  5
24
330
23
100
AcDbEntity
  8
0
100
AcDbBlockBegin
  2
*Paper_Space0
 70
     0
 10
0.0
 20
0.0
 30
0.0
  3
*Paper_Space0
  1

  0
ENDBLK
  5
25
330
23
100
AcDbEntity
  8
0
100
AcDbBlockEnd
  0
ENDSEC
  0
SECTION
  2
ENTITIES
  0
SPLINE
  5
3C
330
1F
100
AcDbEntity
  8
Default
100
AcDbSpline
210
0.0
220
0.0
230
1.0
 70
    24
 71
     2
 72
     6
 73
     3
 74
     0
 42
0.0000000001
 43
0.0000000001
 40
0.0
 40
0.0
 40
0.0
 40
0.1249999999999801
 40
0.1249999999999801
 40
0.1249999999999801
 10
34.81479719599048
 20
14.78033617303269
 30
0.0
 10
34.81207098428017
 20
14.84277668688155
 30
0.0
 10
34.80934477256986
 20
14.90521720073041
 30
0.0
  0
LINE
  5
3D
330
1F
100
AcDbEntity
  8
Default
100
AcDbLine
 10
31.26960833249134
 20
14.62554988446352
 30
0.0
 11
34.81479719599048
 21
14.78033617303269
 31
0.0
  0
SPLINE
  5
3E
330
1F
100
AcDbEntity
  8
Default
100
AcDbSpline
210
0.0
220
0.0
230
1.0
 70
    24
 71
     2
 72
     6
 73
     3
 74
     0
 42
0.0000000001
 43
0.0000000001
 40
0.3302601857484374
 40
0.3302601857484374
 40
0.3302601857484374
 40
0.4671554945533157
 40
0.4671554945533157
 40
0.4671554945533157
 10
26.89558713600141
 20
14.10585963074633
 30
0.0
 10
26.90812283444679
 20
14.03828358354455
 30
0.0
 10
26.92065853289216
 20
13.97070753634277
 30
0.0
  0
SPLINE
  5
3F
330
1F
100
AcDbEntity
  8
Default
100
AcDbSpline
210
0.0
220
0.0
230
1.0
 70
    12
 71
     2
 72
     6
 73
     3
 74
     0
 42
0.0000000001
 43
0.0000000001
 40
0.0
 40
0.0
 40
0.0
 40
0.0611424753167777
 40
0.0611424753167777
 40
0.0611424753167777
 10
26.92065853289216
 20
13.97070753634277
 30
0.0
 41
1.0
 10
26.93011836505023
 20
13.93497688760219
 30
0.0
 41
0.8191713151052452
 10
26.96690639636429
 20
13.93170743721443
 30
0.0
 41
1.0
  0
SPLINE
  5
40
330
1F
100
AcDbEntity
  8
Default
100
AcDbSpline
210
0.0
220
0.0
230
1.0
 70
     8
 71
     3
 72
    18
 73
    14
 74
     0
 42
0.0000000001
 43
0.0000000001
 40
0.0
 40
0.0
 40
0.0
 40
0.0
 40
1.0
 40
2.0
 40
3.0
 40
4.0
 40
5.0
 40
6.0
 40
7.0
 40
8.0
 40
9.0
 40
10.0
 40
11.0
 40
11.0
 40
11.0
 40
11.0
 10
26.96690639636429
 20
13.93170743721443
 30
0.0
 10
27.17021653898431
 20
13.91254624674223
 30
0.0
 10
27.60928104492979
 20
13.87664397213218
 30
0.0
 10
28.25451484544575
 20
13.84031329595147
 30
0.0
 10
28.90434187391349
 20
13.81988861513593
 30
0.0
 10
29.55343497594794
 20
13.81563973237541
 30
0.0
 10
30.2027077649218
 20
13.82767819562008
 30
0.0
 10
30.8514155428756
 20
13.85562621785751
 30
0.0
 10
31.49922994834895
 20
13.90002063431897
 30
0.0
 10
32.145703078743
 20
13.96080668349849
 30
0.0
 10
32.79048458248832
 20
14.03749733897494
 30
0.0
 10
33.43314579419388
 20
14.13029744762253
 30
0.0
 10
33.85991996116377
 20
14.20276915559276
 30
0.0
 10
34.07306870458288
 20
14.24173895873547
 30
0.0
  0
SPLINE
  5
41
330
1F
100
AcDbEntity
  8
Default
100
AcDbSpline
210
0.0
220
0.0
230
1.0
 70
    12
 71
     2
 72
     6
 73
     3
 74
     0
 42
0.0000000001
 43
0.0000000001
 40
0.0
 40
0.0
 40
0.0
 40
0.0642383708293354
 40
0.0642383708293354
 40
0.0642383708293354
 10
34.07306870458288
 20
14.24173895873547
 30
0.0
 41
1.0
 10
34.10959800724004
 20
14.24738544960126
 30
0.0
 41
0.8226493155637911
 10
34.11745081701542
 20
14.28506113854
 30
0.0
 41
1.0
  0
SPLINE
  5
42
330
1F
100
AcDbEntity
  8
Default
100
AcDbSpline
210
0.0
220
0.0
230
1.0
 70
    24
 71
     2
 72
     6
 73
     3
 74
     0
 42
0.0000000001
 43
0.0000000001
 40
0.0
 40
0.0
 40
0.0
 40
0.4664155290576648
 40
0.4664155290576648
 40
0.4664155290576648
 10
34.11745081701542
 20
14.28506113854
 30
0.0
 10
34.13993618314252
 20
14.51807587479505
 30
0.0
 10
34.16242154926962
 20
14.75109061105009
 30
0.0
  0
LINE
  5
43
330
1F
100
AcDbEntity
  8
Default
100
AcDbLine
 10
28.98477470525552
 20
9.820000000000004
 30
0.0
 11
28.98477470525552
 21
11.91000000000023
 31
0.0
  0
LINE
  5
44
330
1F
100
AcDbEntity
  8
Default
100
AcDbLine
 10
30.08477470525551
 20
11.91000000000011
 30
0.0
 11
30.08477470525551
 21
9.820000000000004
 31
0.0
  0
LINE
  5
45
330
1F
100
AcDbEntity
  8
Default
100
AcDbLine
 10
0.5499831774409358
 20
11.90994703304022
 30
0.0
 11
0.5499831774409358
 21
9.819946893898276
 31
0.0
  0
LINE
  5
46
330
1F
100
AcDbEntity
  8
Default
100
AcDbLine
 10
-0.5500168225590301
 20
9.819946893898276
 30
0.0
 11
-0.5500168225590301
 21
11.90994692748517
 31
0.0
  0
SPLINE
  5
47
330
1F
100
AcDbEntity
  8
Default
100
AcDbSpline
210
0.0
220
0.0
230
1.0
 70
    24
 71
     2
 72
     6
 73
     3
 74
     0
 42
0.0000000001
 43
0.0000000001
 40
-0.3629272433277748
 40
-0.3629272433277748
 40
-0.3629272433277748
 40
0.0
 40
0.0
 40
0.0
 10
12.90202764376232
 20
53.90284337597863
 30
0.0
 10
12.90202764376232
 20
54.08430699764252
 30
0.0
 10
12.90202764376232
 20
54.26577061930641
 30
0.0
  0
SPLINE
  5
48
330
1F
100
AcDbEntity
  8
Default
100
AcDbSpline
210
0.0
220
0.0
230
1.0
 70
    24
 71
     2
 72
     6
 73
     3
 74
     0
 42
0.0000000001
 43
0.0000000001
 40
0.0
 40
0.0
 40
0.0
 40
1.280000000000001
 40
1.280000000000001
 40
1.280000000000001
 10
12.90202764376232
 20
54.26577061930641
 30
0.0
 10
12.90202764376232
 20
54.90577061930641
 30
0.0
 10
12.90202764376232
 20
55.54577061930642
 30
0.0
  0
SPLINE
  5
49
330
1F
100
AcDbEntity
  8
Default
100
AcDbSpline
210
0.0
220
0.0
230
1.0
 70
    24
 71
     2
 72
     6
 73
     3
 74
     0
 42
0.0000000001
 43
0.0000000001
 40
0.0
 40
0.0
 40
0.0
 40
0.71875
 40
0.71875
 40
0.71875
 10
12.90202764376232
 20
55.54577061930642
 30
0.0
 10
12.54265264376232
 20
55.54577061930642
 30
0.0
 10
12.18327764376232
 20
55.54577061930642
 30
0.0
  0
LINE
  5
4A
330
1F
100
AcDbEntity
  8
Default
100
AcDbLine
 10
12.18327764376232
 20
55.54577061930642
 30
0.0
 11
12.18327764376232
 21
54.1672695867088
 31
0.0
  0
SPLINE
  5
4B
330
1F
100
AcDbEntity
  8
Default
100
AcDbSpline
210
0.0
220
0.0
230
1.0
 70
    24
 71
     2
 72
     6
 73
     3
 74
     0
 42
0.0000000001
 43
0.0000000001
 40
0.0760787009960024
 40
0.0760787009960024
 40
0.0760787009960024
 40
1.150327919447875
 40
1.150327919447875
 40
1.150327919447875
 10
11.66765264376249
 20
54.34200385599846
 30
0.0
 10
11.66765264376374
 20
54.88021950547965
 30
0.0
 10
11.667652643765
 20
55.41843515496084
 30
0.0
  0
SPLINE
  5
4C
330
1F
100
AcDbEntity
  8
Default
100
AcDbSpline
210
0.0
220
0.0
230
1.0
 70
    12
 71
     2
 72
     6
 73
     3
 74
     0
 42
0.0000000001
 43
0.0000000001
 40
0.0
 40
0.0
 40
0.0
 40
0.1963228425432755
 40
0.1963228425432755
 40
0.1963228425432755
 10
11.667652643765
 20
55.41843515496084
 30
0.0
 41
1.0
 10
11.6677133110051
 20
55.54571110337088
 30
0.0
 41
0.7074467937681248
 10
11.79265264376232
 20
55.54577061930639
 30
0.0
 41
1.0
  0
SPLINE
  5
4D
330
1F
100
AcDbEntity
  8
Default
100
AcDbSpline
210
0.0
220
0.0
230
1.0
 70
    24
 71
     2
 72
     6
 73
     3
 74
     0
 42
0.0000000001
 43
0.0000000001
 40
0.0
 40
0.0
 40
0.0
 40
0.34375
 40
0.34375
 40
0.34375
 10
11.79265264376232
 20
55.54577061930639
 30
0.0
 10
11.96452764376232
 20
55.5457706193064
 30
0.0
 10
12.13640264376232
 20
55.54577061930642
 30
0.0
  0
SPLINE
  5
4E
330
1F
100
AcDbEntity
  8
Default
100
AcDbSpline
210
0.0
220
0.0
230
1.0
 70
    12
 71
     2
 72
     6
 73
     3
 74
     0
 42
0.0000000001
 43
0.0000000001
 40
0.0
 40
0.0
 40
0.0
 40
0.0490324958837578
 40
0.0490324958837578
 40
0.0490324958837578
 10
12.13640264376232
 20
55.54577061930642
 30
0.0
 41
1.0
 10
12.16752484468783
 20
55.54564282022749
 30
0.0
 41
0.7100044327163367
 10
12.16765264376232
 20
55.5119949506028
 30
0.0
 41
1.0
  0
LINE
  5
4F
330
1F
100
AcDbEntity
  8
Default
100
AcDbLine
 10
12.16765264376232
 20
55.5119949506028
 30
0.0
 11
12.16765264376232
 21
54.17256456456607
 31
0.0
  0
POLYLINE
  5
50
330
1F
100
AcDbEntity
  8
Default
100
AcDb2dPolyline
 66
     1
 10
0.0
 20
0.0
 30
0.0
  0
VERTEX
  5
51
330
50
100
AcDbEntity
  8
Default
100
AcDbVertex
100
AcDb2dVertex
 10
9.876493261326203
 20
54.94898940920368
 30
0.0
  0
VERTEX
  5
52
330
50
100
AcDbEntity
  8
Default
100
AcDbVertex
100
AcDb2dVertex
 10
12.74843644066934
 20
53.97574937451931
 30
0.0
  0
SEQEND
  5
53
330
50
100
AcDbEntity
  8
Default
  0
ARC
  5
54
330
1F
100
AcDbEntity
  8
Default
100
AcDbCircle
 10
12.54308989642743
 20
53.34469479480624
 30
0.0
 40
0.6636242052614881
100
AcDbArc
 50
342.0267389845187
 51
71.97499837553637
  0
ARC
  5
55
330
1F
100
AcDbEntity
  8
Default
100
AcDbCircle
 10
12.54328221103796
 20
53.3452844744515
 30
0.0
 40
0.6636235246233622
100
AcDbArc
 50
252.0249349543824
 51
341.9731882500367
  0
POLYLINE
  5
56
330
1F
100
AcDbEntity
  8
Default
100
AcDb2dPolyline
 66
     1
 10
0.0
 20
0.0
 30
0.0
  0
VERTEX
  5
57
330
56
100
AcDbEntity
  8
Default
100
AcDbVertex
100
AcDb2dVertex
 10
12.33848595525481
 20
52.71405181049094
 30
0.0
  0
VERTEX
  5
58
330
56
100
AcDbEntity
  8
Default
100
AcDbVertex
100
AcDb2dVertex
 10
9.980123833656535
 20
53.45328553172506
 30
0.0
  0
SEQEND
  5
59
330
56
100
AcDbEntity
  8
Default
  0
SPLINE
  5
5A
330
1F
100
AcDbEntity
  8
Default
100
AcDbSpline
210
0.0
220
0.0
230
1.0
 70
    24
 71
     2
 72
     6
 73
     3
 74
     0
 42
0.0000000001
 43
0.0000000001
 40
0.0
 40
0.0
 40
0.0
 40
0.1915887464148028
 40
0.1915887464148028
 40
0.1915887464148028
 10
13.10106389734753
 20
52.98577061930641
 30
0.0
 10
13.19685827055493
 20
52.98577061930641
 30
0.0
 10
13.29265264376232
 20
52.98577061930641
 30
0.0
  0
SPLINE
  5
5B
330
1F
100
AcDbEntity
  8
Default
100
AcDbSpline
210
0.0
220
0.0
230
1.0
 70
    12
 71
     2
 72
     6
 73
     3
 74
     0
 42
0.0000000001
 43
0.0000000001
 40
0.0
 40
0.0
 40
0.0
 40
0.1963097587114814
 40
0.1963097587114814
 40
0.1963097587114814
 10
13.29265264376232
 20
52.98577061930641
 30
0.0
 41
1.0
 10
13.41756149891484
 20
52.9858606131275
 30
0.0
 41
0.7076193065308326
 10
13.41765264375965
 20
53.11310608365199
 30
0.0
 41
1.0
  0
SPLINE
  5
5C
330
1F
100
AcDbEntity
  8
Default
100
AcDbSpline
210
0.0
220
0.0
230
1.0
 70
    24
 71
     2
 72
     6
 73
     3
 74
     0
 42
0.0000000001
 43
0.0000000001
 40
-1.150327919447875
 40
-1.150327919447875
 40
-1.150327919447875
 40
0.0
 40
0.0
 40
0.0
 10
13.41765264375965
 20
53.11310608365199
 30
0.0
 10
13.41765264376099
 20
53.6894383514792
 30
0.0
 10
13.41765264376232
 20
54.26577061930641
 30
0.0
  0
SPLINE
  5
5D
330
1F
100
AcDbEntity
  8
Default
100
AcDbSpline
210
0.0
220
0.0
230
1.0
 70
    24
 71
     2
 72
     6
 73
     3
 74
     0
 42
0.0000000001
 43
0.0000000001
 40
0.0
 40
0.0
 40
0.0
 40
1.150327919447875
 40
1.150327919447875
 40
1.150327919447875
 10
13.41765264376232
 20
54.26577061930641
 30
0.0
 10
13.41765264376099
 20
54.84210288713362
 30
0.0
 10
13.41765264375965
 20
55.41843515496084
 30
0.0
  0
SPLINE
  5
5E
330
1F
100
AcDbEntity
  8
Default
100
AcDbSpline
210
0.0
220
0.0
230
1.0
 70
    12
 71
     2
 72
     6
 73
     3
 74
     0
 42
0.0000000001
 43
0.0000000001
 40
0.0
 40
0.0
 40
0.0
 40
0.1963228425432755
 40
0.1963228425432755
 40
0.1963228425432755
 10
13.41765264375965
 20
55.41843515496084
 30
0.0
 41
1.0
 10
13.41759197651954
 20
55.54571110337088
 30
0.0
 41
0.7074467937681248
 10
13.29265264376232
 20
55.54577061930639
 30
0.0
 41
1.0
  0
SPLINE
  5
5F
330
1F
100
AcDbEntity
  8
Default
100
AcDbSpline
210
0.0
220
0.0
230
1.0
 70
    24
 71
     2
 72
     6
 73
     3
 74
     0
 42
0.0000000001
 43
0.0000000001
 40
0.0
 40
0.0
 40
0.0
 40
0.34375
 40
0.34375
 40
0.34375
 10
13.29265264376232
 20
55.54577061930639
 30
0.0
 10
13.12077764376232
 20
55.5457706193064
 30
0.0
 10
12.94890264376232
 20
55.54577061930642
 30
0.0
  0
SPLINE
  5
60
330
1F
100
AcDbEntity
  8
Default
100
AcDbSpline
210
0.0
220
0.0
230
1.0
 70
    12
 71
     2
 72
     6
 73
     3
 74
     0
 42
0.0000000001
 43
0.0000000001
 40
0.0
 40
0.0
 40
0.0
 40
0.0490324958837578
 40
0.0490324958837578
 40
0.0490324958837578
 10
12.94890264376232
 20
55.54577061930642
 30
0.0
 41
1.0
 10
12.91778044283681
 20
55.54564282022749
 30
0.0
 41
0.7100044327163367
 10
12.91765264376232
 20
55.5119949506028
 30
0.0
 41
1.0
  0
LINE
  5
61
330
1F
100
AcDbEntity
  8
Default
100
AcDbLine
 10
12.91765264376232
 20
55.5119949506028
 30
0.0
 11
12.91765264376232
 21
53.89250848039457
 31
0.0
  0
SPLINE
  5
62
330
1F
100
AcDbEntity
  8
Default
100
AcDbSpline
210
0.0
220
0.0
230
1.0
 70
    24
 71
     2
 72
     6
 73
     3
 74
     0
 42
0.0000000001
 43
0.0000000001
 40
-0.3629272433277748
 40
-0.3629272433277748
 40
-0.3629272433277748
 40
0.0
 40
0.0
 40
0.0
 10
-12.90202792011576
 20
53.90284337597863
 30
0.0
 10
-12.90202792011576
 20
54.08430699764252
 30
0.0
 10
-12.90202792011576
 20
54.26577061930641
 30
0.0
  0
SPLINE
  5
63
330
1F
100
AcDbEntity
  8
Default
100
AcDbSpline
210
0.0
220
0.0
230
1.0
 70
    24
 71
     2
 72
     6
 73
     3
 74
     0
 42
0.0000000001
 43
0.0000000001
 40
0.0
 40
0.0
 40
0.0
 40
1.280000000000001
 40
1.280000000000001
 40
1.280000000000001
 10
-12.90202792011576
 20
54.26577061930641
 30
0.0
 10
-12.90202792011576
 20
54.90577061930641
 30
0.0
 10
-12.90202792011576
 20
55.54577061930642
 30
0.0
  0
SPLINE
  5
64
330
1F
100
AcDbEntity
  8
Default
100
AcDbSpline
210
0.0
220
0.0
230
1.0
 70
    24
 71
     2
 72
     6
 73
     3
 74
     0
 42
0.0000000001
 43
0.0000000001
 40
0.0
 40
0.0
 40
0.0
 40
0.71875
 40
0.71875
 40
0.71875
 10
-12.90202792011576
 20
55.54577061930642
 30
0.0
 10
-12.54265292011576
 20
55.54577061930642
 30
0.0
 10
-12.18327792011576
 20
55.54577061930642
 30
0.0
  0
LINE
  5
65
330
1F
100
AcDbEntity
  8
Default
100
AcDbLine
 10
-12.18327792011576
 20
55.54577061930642
 30
0.0
 11
-12.18327792011576
 21
54.1672695867088
 31
0.0
  0
SPLINE
  5
66
330
1F
100
AcDbEntity
  8
Default
100
AcDbSpline
210
0.0
220
0.0
230
1.0
 70
    24
 71
     2
 72
     6
 73
     3
 74
     0
 42
0.0000000001
 43
0.0000000001
 40
0.0760787009960024
 40
0.0760787009960024
 40
0.0760787009960024
 40
1.150327919447875
 40
1.150327919447875
 40
1.150327919447875
 10
-11.66765292011593
 20
54.34200385599846
 30
0.0
 10
-11.66765292011718
 20
54.88021950547965
 30
0.0
 10
-11.66765292011843
 20
55.41843515496084
 30
0.0
  0
SPLINE
  5
67
330
1F
100
AcDbEntity
  8
Default
100
AcDbSpline
210
0.0
220
0.0
230
1.0
 70
    12
 71
     2
 72
     6
 73
     3
 74
     0
 42
0.0000000001
 43
0.0000000001
 40
0.0
 40
0.0
 40
0.0
 40
0.1963228425432755
 40
0.1963228425432755
 40
0.1963228425432755
 10
-11.66765292011843
 20
55.41843515496084
 30
0.0
 41
1.0
 10
-11.66771358735854
 20
55.54571110337088
 30
0.0
 41
0.7074467937681248
 10
-11.79265292011576
 20
55.54577061930639
 30
0.0
 41
1.0
  0
SPLINE
  5
68
330
1F
100
AcDbEntity
  8
Default
100
AcDbSpline
210
0.0
220
0.0
230
1.0
 70
    24
 71
     2
 72
     6
 73
     3
 74
     0
 42
0.0000000001
 43
0.0000000001
 40
0.0
 40
0.0
 40
0.0
 40
0.34375
 40
0.34375
 40
0.34375
 10
-11.79265292011576
 20
55.54577061930639
 30
0.0
 10
-11.96452792011576
 20
55.5457706193064
 30
0.0
 10
-12.13640292011576
 20
55.54577061930642
 30
0.0
  0
SPLINE
  5
69
330
1F
100
AcDbEntity
  8
Default
100
AcDbSpline
210
0.0
220
0.0
230
1.0
 70
    12
 71
     2
 72
     6
 73
     3
 74
     0
 42
0.0000000001
 43
0.0000000001
 40
0.0
 40
0.0
 40
0.0
 40
0.0490324958837578
 40
0.0490324958837578
 40
0.0490324958837578
 10
-12.13640292011576
 20
55.54577061930642
 30
0.0
 41
1.0
 10
-12.16752512104127
 20
55.54564282022749
 30
0.0
 41
0.7100044327163367
 10
-12.16765292011576
 20
55.5119949506028
 30
0.0
 41
1.0
  0
LINE
  5
6A
330
1F
100
AcDbEntity
  8
Default
100
AcDbLine
 10
-12.16765292011576
 20
55.5119949506028
 30
0.0
 11
-12.16765292011576
 21
54.17256456456607
 31
0.0
  0
POLYLINE
  5
6B
330
1F
100
AcDbEntity
  8
Default
100
AcDb2dPolyline
 66
     1
 10
0.0
 20
0.0
 30
0.0
  0
VERTEX
  5
6C
330
6B
100
AcDbEntity
  8
Default
100
AcDbVertex
100
AcDb2dVertex
 10
-9.876493537679636
 20
54.94898940920368
 30
0.0
  0
VERTEX
  5
6D
330
6B
100
AcDbEntity
  8
Default
100
AcDbVertex
100
AcDb2dVertex
 10
-12.74843671702277
 20
53.97574937451931
 30
0.0
  0
SEQEND
  5
6E
330
6B
100
AcDbEntity
  8
Default
  0
ARC
  5
6F
330
1F
100
AcDbEntity
  8
Default
100
AcDbCircle
 10
-12.54309017278086
 20
53.34469479480624
 30
0.0
 40
0.6636242052614881
100
AcDbArc
 50
108.0250016244636
 51
197.9732610154813
  0
ARC
  5
70
330
1F
100
AcDbEntity
  8
Default
100
AcDbCircle
 10
-12.54328248739139
 20
53.3452844744515
 30
0.0
 40
0.6636235246233622
100
AcDbArc
 50
198.0268117499633
 51
287.9750650456176
  0
POLYLINE
  5
71
330
1F
100
AcDbEntity
  8
Default
100
AcDb2dPolyline
 66
     1
 10
0.0
 20
0.0
 30
0.0
  0
VERTEX
  5
72
330
71
100
AcDbEntity
  8
Default
100
AcDbVertex
100
AcDb2dVertex
 10
-12.33848623160824
 20
52.71405181049094
 30
0.0
  0
VERTEX
  5
73
330
71
100
AcDbEntity
  8
Default
100
AcDbVertex
100
AcDb2dVertex
 10
-9.980124110009967
 20
53.45328553172506
 30
0.0
  0
SEQEND
  5
74
330
71
100
AcDbEntity
  8
Default
  0
POLYLINE
  5
75
330
1F
100
AcDbEntity
  8
Default
100
AcDb2dPolyline
 66
     1
 10
0.0
 20
0.0
 30
0.0
  0
VERTEX
  5
76
330
75
100
AcDbEntity
  8
Default
100
AcDbVertex
100
AcDb2dVertex
 10
6.560844957904749
 20
65.2515376348302
 30
0.0
  0
VERTEX
  5
77
330
75
100
AcDbEntity
  8
Default
100
AcDbVertex
100
AcDb2dVertex
 10
8.28892374119755
 20
67.70071795372203
 30
0.0
  0
SEQEND
  5
78
330
75
100
AcDbEntity
  8
Default
  0
SPLINE
  5
79
330
1F
100
AcDbEntity
  8
Default
100
AcDbSpline
210
0.0
220
0.0
230
1.0
 70
    12
 71
     2
 72
     6
 73
     3
 74
     0
 42
0.0000000001
 43
0.0000000001
 40
0.0
 40
0.0
 40
0.0
 40
1.041827519740055
 40
1.041827519740055
 40
1.041827519740055
 10
8.28892374119755
 20
67.70071795372203
 30
0.0
 41
1.0
 10
8.67843709172106
 20
68.23729043199631
 30
0.0
 41
0.7074024770456415
 10
8.142190640425582
 20
68.62725250470402
 30
0.0
 41
1.0
  0
SPLINE
  5
7A
330
1F
100
AcDbEntity
  8
Default
100
AcDbSpline
210
0.0
220
0.0
230
1.0
 70
    12
 71
     2
 72
     6
 73
     3
 74
     0
 42
0.0000000001
 43
0.0000000001
 40
0.0
 40
0.0
 40
0.0
 40
1.041830266836562
 40
1.041830266836562
 40
1.041830266836562
 10
8.142190640425582
 20
68.62725250470402
 30
0.0
 41
1.0
 10
7.605604461894996
 20
69.01675463348509
 30
0.0
 41
0.7073984447108688
 10
7.215659718168439
 20
68.4804900232831
 30
0.0
 41
1.0
  0
POLYLINE
  5
7B
330
1F
100
AcDbEntity
  8
Default
100
AcDb2dPolyline
 66
     1
 10
0.0
 20
0.0
 30
0.0
  0
VERTEX
  5
7C
330
7B
100
AcDbEntity
  8
Default
100
AcDbVertex
100
AcDb2dVertex
 10
7.215659718168439
 20
68.4804900232831
 30
0.0
  0
VERTEX
  5
7D
330
7B
100
AcDbEntity
  8
Default
100
AcDbVertex
100
AcDb2dVertex
 10
5.036511794580321
 20
65.57423037035448
 30
0.0
  0
SEQEND
  5
7E
330
7B
100
AcDbEntity
  8
Default
  0
POLYLINE
  5
7F
330
1F
100
AcDbEntity
  8
Default
100
AcDb2dPolyline
 66
     1
 10
0.0
 20
0.0
 30
0.0
  0
VERTEX
  5
80
330
7F
100
AcDbEntity
  8
Default
100
AcDbVertex
100
AcDb2dVertex
 10
-6.560845234258181
 20
65.2515376348302
 30
0.0
  0
VERTEX
  5
81
330
7F
100
AcDbEntity
  8
Default
100
AcDbVertex
100
AcDb2dVertex
 10
-8.288924017550983
 20
67.70071795372203
 30
0.0
  0
SEQEND
  5
82
330
7F
100
AcDbEntity
  8
Default
  0
SPLINE
  5
83
330
1F
100
AcDbEntity
  8
Default
100
AcDbSpline
210
0.0
220
0.0
230
1.0
 70
    12
 71
     2
 72
     6
 73
     3
 74
     0
 42
0.0000000001
 43
0.0000000001
 40
0.0
 40
0.0
 40
0.0
 40
1.041827519740055
 40
1.041827519740055
 40
1.041827519740055
 10
-8.288924017550983
 20
67.70071795372203
 30
0.0
 41
1.0
 10
-8.678437368074485
 20
68.23729043199631
 30
0.0
 41
0.7074024770456415
 10
-8.142190916779015
 20
68.62725250470402
 30
0.0
 41
1.0
  0
SPLINE
  5
84
330
1F
100
AcDbEntity
  8
Default
100
AcDbSpline
210
0.0
220
0.0
230
1.0
 70
    12
 71
     2
 72
     6
 73
     3
 74
     0
 42
0.0000000001
 43
0.0000000001
 40
0.0
 40
0.0
 40
0.0
 40
1.041830266836562
 40
1.041830266836562
 40
1.041830266836562
 10
-8.142190916779015
 20
68.62725250470402
 30
0.0
 41
1.0
 10
-7.605604738248417
 20
69.01675463348509
 30
0.0
 41
0.7073984447108688
 10
-7.215659994521872
 20
68.4804900232831
 30
0.0
 41
1.0
  0
POLYLINE
  5
85
330
1F
100
AcDbEntity
  8
Default
100
AcDb2dPolyline
 66
     1
 10
0.0
 20
0.0
 30
0.0
  0
VERTEX
  5
86
330
85
100
AcDbEntity
  8
Default
100
AcDbVertex
100
AcDb2dVertex
 10
-7.215659994521872
 20
68.4804900232831
 30
0.0
  0
VERTEX
  5
87
330
85
100
AcDbEntity
  8
Default
100
AcDbVertex
100
AcDb2dVertex
 10
-5.036512070933753
 20
65.57423037035448
 30
0.0
  0
SEQEND
  5
88
330
85
100
AcDbEntity
  8
Default
  0
LINE
  5
89
330
1F
100
AcDbEntity
  8
Default
100
AcDbLine
 10
-7.392434114710767
 20
68.64774947423925
 30
0.0
 11
-7.392434114710767
 21
70.29053572520442
 31
0.0
  0
SPLINE
  5
8A
330
1F
100
AcDbEntity
  8
Default
100
AcDbSpline
210
0.0
220
0.0
230
1.0
 70
    24
 71
     2
 72
     6
 73
     3
 74
     0
 42
0.0000000001
 43
0.0000000001
 40
-0.71875
 40
-0.71875
 40
-0.71875
 40
0.0
 40
0.0
 40
0.0
 10
-7.392434114710767
 20
70.29053572520442
 30
0.0
 10
-7.751809114710767
 20
70.29053572520442
 30
0.0
 10
-8.111184114710767
 20
70.29053572520442
 30
0.0
  0
LINE
  5
8B
330
1F
100
AcDbEntity
  8
Default
100
AcDbLine
 10
-8.111184114710767
 20
70.29053572520442
 30
0.0
 11
-8.111184114710767
 21
68.64844840809403
 31
0.0
  0
LINE
  5
8C
330
1F
100
AcDbEntity
  8
Default
100
AcDbLine
 10
-7.376809114710738
 20
68.63733907511246
 30
0.0
 11
-7.376809114710738
 21
70.2592857251492
 31
0.0
  0
SPLINE
  5
8D
330
1F
100
AcDbEntity
  8
Default
100
AcDbSpline
210
0.0
220
0.0
230
1.0
 70
    12
 71
     2
 72
     6
 73
     3
 74
     0
 42
0.0000000001
 43
0.0000000001
 40
0.0
 40
0.0
 40
0.0
 40
0.0490228527406757
 40
0.0490228527406757
 40
0.0490228527406757
 10
-7.376809114710738
 20
70.2592857251492
 30
0.0
 41
1.0
 10
-7.376658881037699
 20
70.29038549147639
 30
0.0
 41
0.710514313144177
 10
-7.345559114710767
 20
70.29053572520442
 30
0.0
 41
1.0
  0
SPLINE
  5
8E
330
1F
100
AcDbEntity
  8
Default
100
AcDbSpline
210
0.0
220
0.0
230
1.0
 70
    24
 71
     2
 72
     6
 73
     3
 74
     0
 42
0.0000000001
 43
0.0000000001
 40
0.0
 40
0.0
 40
0.0
 40
0.34375
 40
0.34375
 40
0.34375
 10
-7.345559114710767
 20
70.29053572520442
 30
0.0
 10
-7.173684114710767
 20
70.29053572520442
 30
0.0
 10
-7.001809114710767
 20
70.29053572520442
 30
0.0
  0
SPLINE
  5
8F
330
1F
100
AcDbEntity
  8
Default
100
AcDbSpline
210
0.0
220
0.0
230
1.0
 70
    12
 71
     2
 72
     6
 73
     3
 74
     0
 42
0.0000000001
 43
0.0000000001
 40
0.0
 40
0.0
 40
0.0
 40
0.1963097587114712
 40
0.1963097587114712
 40
0.1963097587114712
 10
-7.001809114710767
 20
70.29053572520442
 30
0.0
 41
1.0
 10
-6.87690025955825
 20
70.29044573138331
 30
0.0
 41
0.7076193065308615
 10
-6.87680911471341
 20
70.16553687706539
 30
0.0
 41
1.0
  0
LINE
  5
90
330
1F
100
AcDbEntity
  8
Default
100
AcDbLine
 10
-6.87680911471341
 20
70.16553687706539
 30
0.0
 11
-6.876809114710767
 21
68.00477537042303
 31
0.0
  0
SPLINE
  5
91
330
1F
100
AcDbEntity
  8
Default
100
AcDbSpline
210
0.0
220
0.0
230
1.0
 70
    24
 71
     2
 72
     6
 73
     3
 74
     0
 42
0.0000000001
 43
0.0000000001
 40
0.0
 40
0.0
 40
0.0
 40
0.1924572732197012
 40
0.1924572732197012
 40
0.1924572732197012
 10
-8.309351841491065
 20
67.73053572520442
 30
0.0
 10
-8.405580478100916
 20
67.73053572520442
 30
0.0
 10
-8.501809114710767
 20
67.73053572520442
 30
0.0
  0
SPLINE
  5
92
330
1F
100
AcDbEntity
  8
Default
100
AcDbSpline
210
0.0
220
0.0
230
1.0
 70
    12
 71
     2
 72
     6
 73
     3
 74
     0
 42
0.0000000001
 43
0.0000000001
 40
0.0
 40
0.0
 40
0.0
 40
0.1963097587114392
 40
0.1963097587114392
 40
0.1963097587114392
 10
-8.501809114710767
 20
67.73053572520442
 30
0.0
 41
1.0
 10
-8.626717969863186
 20
67.73062571902558
 30
0.0
 41
0.7076193065313929
 10
-8.626809114708124
 20
67.85787118955
 30
0.0
 41
1.0
  0
LINE
  5
93
330
1F
100
AcDbEntity
  8
Default
100
AcDbLine
 10
-8.626809114708124
 20
67.85787118955
 30
0.0
 11
-8.626809114708124
 21
70.16553687706539
 31
0.0
  0
SPLINE
  5
94
330
1F
100
AcDbEntity
  8
Default
100
AcDbSpline
210
0.0
220
0.0
230
1.0
 70
    12
 71
     2
 72
     6
 73
     3
 74
     0
 42
0.0000000001
 43
0.0000000001
 40
0.0
 40
0.0
 40
0.0
 40
0.1963228425425605
 40
0.1963228425425605
 40
0.1963228425425605
 10
-8.626809114708124
 20
70.16553687706539
 30
0.0
 41
1.0
 10
-8.62674844746628
 20
70.29047620926717
 30
0.0
 41
0.7074467937778354
 10
-8.501809114710767
 20
70.29053572520442
 30
0.0
 41
1.0
  0
SPLINE
  5
95
330
1F
100
AcDbEntity
  8
Default
100
AcDbSpline
210
0.0
220
0.0
230
1.0
 70
    24
 71
     2
 72
     6
 73
     3
 74
     0
 42
0.0000000001
 43
0.0000000001
 40
0.0
 40
0.0
 40
0.0
 40
0.34375
 40
0.34375
 40
0.34375
 10
-8.501809114710767
 20
70.29053572520442
 30
0.0
 10
-8.329934114710767
 20
70.29053572520442
 30
0.0
 10
-8.158059114710767
 20
70.29053572520442
 30
0.0
  0
SPLINE
  5
96
330
1F
100
AcDbEntity
  8
Default
100
AcDbSpline
210
0.0
220
0.0
230
1.0
 70
    12
 71
     2
 72
     6
 73
     3
 74
     0
 42
0.0000000001
 43
0.0000000001
 40
0.0
 40
0.0
 40
0.0
 40
0.0490324958834727
 40
0.0490324958834727
 40
0.0490324958834727
 10
-8.158059114710767
 20
70.29053572520442
 30
0.0
 41
1.0
 10
-8.12693691378551
 20
70.29040792612551
 30
0.0
 41
0.7100044327187858
 10
-8.126809114710767
 20
70.25928572520024
 30
0.0
 41
1.0
  0
LINE
  5
97
330
1F
100
AcDbEntity
  8
Default
100
AcDbLine
 10
-8.126809114710767
 20
70.25928572520024
 30
0.0
 11
-8.126809114710767
 21
68.63809256786726
 31
0.0
  0
SPLINE
  5
98
330
1F
100
AcDbEntity
  8
Default
100
AcDbSpline
210
0.0
220
0.0
230
1.0
 70
    12
 71
     2
 72
     6
 73
     3
 74
     0
 42
0.0000000001
 43
0.0000000001
 40
0.0
 40
0.0
 40
0.0
 40
0.948847999391868
 40
0.948847999391868
 40
0.948847999391868
 10
0.6737642900550043
 20
45.91138524217
 30
0.0
 41
1.0
 10
0.6655492335516489
 20
45.43703147608068
 30
0.0
 41
0.999997164098621
 10
0.663298240313452
 20
44.23155465991356
 30
0.0
 41
1.0
  0
SPLINE
  5
99
330
1F
100
AcDbEntity
  8
Default
100
AcDbSpline
210
0.0
220
0.0
230
1.0
 70
    12
 71
     2
 72
     6
 73
     3
 74
     0
 42
0.0000000001
 43
0.0000000001
 40
-1.041830266836458
 40
-1.041830266836458
 40
-1.041830266836458
 40
0.0
 40
0.0
 40
0.0
 10
0.663298240313452
 20
44.23155465991356
 30
0.0
 41
1.0
 10
0.6630347449740571
 20
43.56850370720903
 30
0.0
 41
0.7073984447139825
 10
-0.0000161994357768
 20
43.56822010640859
 30
0.0
 41
1.0
  0
SPLINE
  5
9A
330
1F
100
AcDbEntity
  8
Default
100
AcDbSpline
210
0.0
220
0.0
230
1.0
 70
    12
 71
     2
 72
     6
 73
     3
 74
     0
 42
0.0000000001
 43
0.0000000001
 40
0.0
 40
0.0
 40
0.0
 40
1.041830266836458
 40
1.041830266836458
 40
1.041830266836458
 10
-0.0000161994357768
 20
43.56822010640859
 30
0.0
 41
1.0
 10
-0.6630671438456059
 20
43.56850370720903
 30
0.0
 41
0.7073984447139825
 10
-0.6633306391850056
 20
44.23155465991356
 30
0.0
 41
1.0
  0
SPLINE
  5
9B
330
1F
100
AcDbEntity
  8
Default
100
AcDbSpline
210
0.0
220
0.0
230
1.0
 70
    12
 71
     2
 72
     6
 73
     3
 74
     0
 42
0.0000000001
 43
0.0000000001
 40
-0.948847999391868
 40
-0.948847999391868
 40
-0.948847999391868
 40
0.0
 40
0.0
 40
0.0
 10
-0.6633306391850056
 20
44.23155465991356
 30
0.0
 41
1.0
 10
-0.6655816324232369
 20
45.43703147608068
 30
0.0
 41
0.999997164098621
 10
-0.6737966889265579
 20
45.91138524217
 30
0.0
 41
1.0
  0
SPLINE
  5
9C
330
1F
100
AcDbEntity
  8
Default
100
AcDbSpline
210
0.0
220
0.0
230
1.0
 70
    24
 71
     2
 72
     6
 73
     3
 74
     0
 42
0.0000000001
 43
0.0000000001
 40
0.0
 40
0.0
 40
0.0
 40
0.192070639225884
 40
0.192070639225884
 40
0.192070639225884
 10
-0.5579294989508412
 20
43.87302440382441
 30
0.0
 10
-0.6539648185637787
 20
43.87302440382441
 30
0.0
 10
-0.7500001381767163
 20
43.87302440382441
 30
0.0
  0
ARC
  5
9D
330
1F
100
AcDbEntity
  8
Default
100
AcDbCircle
 10
-0.7476428562532931
 20
44.00035986817027
 30
0.0
 40
0.1273572819207617
100
AcDbArc
 50
180.0000000001311
 51
268.9394401613037
  0
LINE
  5
9E
330
1F
100
AcDbEntity
  8
Default
100
AcDbLine
 10
-0.8750001381740731
 20
44.00035986816998
 30
0.0
 11
-0.87500013817845
 21
45.91303408454014
 31
0.0
  0
SPLINE
  5
9F
330
1F
100
AcDbEntity
  8
Default
100
AcDbSpline
210
0.0
220
0.0
230
1.0
 70
    24
 71
     2
 72
     6
 73
     3
 74
     0
 42
0.0000000001
 43
0.0000000001
 40
0.0
 40
0.0
 40
0.0
 40
0.192070639225884
 40
0.192070639225884
 40
0.192070639225884
 10
0.5578971000792876
 20
43.87302440382441
 30
0.0
 10
0.6539324196922252
 20
43.87302440382441
 30
0.0
 10
0.7499677393051627
 20
43.87302440382441
 30
0.0
  0
ARC
  5
A0
330
1F
100
AcDbEntity
  8
Default
100
AcDbCircle
 10
0.7476104573817395
 20
44.00035986817027
 30
0.0
 40
0.1273572819207617
100
AcDbArc
 50
271.0605598386963
 51
359.999999999869
  0
LINE
  5
A1
330
1F
100
AcDbEntity
  8
Default
100
AcDbLine
 10
0.8749677393025195
 20
44.00035986816998
 30
0.0
 11
0.8749677393068964
 21
45.91303408454014
 31
0.0
  0
SPLINE
  5
A2
330
1F
100
AcDbEntity
  8
Default
100
AcDbSpline
210
0.0
220
0.0
230
1.0
 70
    24
 71
     2
 72
     6
 73
     3
 74
     0
 42
0.0000000001
 43
0.0000000001
 40
0.0
 40
0.0
 40
0.0
 40
0.1915887464148028
 40
0.1915887464148028
 40
0.1915887464148028
 10
-13.10106417370096
 20
52.98577061930641
 30
0.0
 10
-13.19685854690836
 20
52.98577061930641
 30
0.0
 10
-13.29265292011576
 20
52.98577061930641
 30
0.0
  0
SPLINE
  5
A3
330
1F
100
AcDbEntity
  8
Default
100
AcDbSpline
210
0.0
220
0.0
230
1.0
 70
    12
 71
     2
 72
     6
 73
     3
 74
     0
 42
0.0000000001
 43
0.0000000001
 40
0.0
 40
0.0
 40
0.0
 40
0.1963097587114814
 40
0.1963097587114814
 40
0.1963097587114814
 10
-13.29265292011576
 20
52.98577061930641
 30
0.0
 41
1.0
 10
-13.41756177526827
 20
52.9858606131275
 30
0.0
 41
0.7076193065308326
 10
-13.41765292011308
 20
53.11310608365199
 30
0.0
 41
1.0
  0
SPLINE
  5
A4
330
1F
100
AcDbEntity
  8
Default
100
AcDbSpline
210
0.0
220
0.0
230
1.0
 70
    24
 71
     2
 72
     6
 73
     3
 74
     0
 42
0.0000000001
 43
0.0000000001
 40
-1.150327919447875
 40
-1.150327919447875
 40
-1.150327919447875
 40
0.0
 40
0.0
 40
0.0
 10
-13.41765292011308
 20
53.11310608365199
 30
0.0
 10
-13.41765292011442
 20
53.6894383514792
 30
0.0
 10
-13.41765292011576
 20
54.26577061930641
 30
0.0
  0
SPLINE
  5
A5
330
1F
100
AcDbEntity
  8
Default
100
AcDbSpline
210
0.0
220
0.0
230
1.0
 70
    24
 71
     2
 72
     6
 73
     3
 74
     0
 42
0.0000000001
 43
0.0000000001
 40
0.0
 40
0.0
 40
0.0
 40
1.150327919447875
 40
1.150327919447875
 40
1.150327919447875
 10
-13.41765292011576
 20
54.26577061930641
 30
0.0
 10
-13.41765292011442
 20
54.84210288713362
 30
0.0
 10
-13.41765292011308
 20
55.41843515496084
 30
0.0
  0
SPLINE
  5
A6
330
1F
100
AcDbEntity
  8
Default
100
AcDbSpline
210
0.0
220
0.0
230
1.0
 70
    12
 71
     2
 72
     6
 73
     3
 74
     0
 42
0.0000000001
 43
0.0000000001
 40
0.0
 40
0.0
 40
0.0
 40
0.1963228425432755
 40
0.1963228425432755
 40
0.1963228425432755
 10
-13.41765292011308
 20
55.41843515496084
 30
0.0
 41
1.0
 10
-13.41759225287298
 20
55.54571110337088
 30
0.0
 41
0.7074467937681248
 10
-13.29265292011576
 20
55.54577061930639
 30
0.0
 41
1.0
  0
SPLINE
  5
A7
330
1F
100
AcDbEntity
  8
Default
100
AcDbSpline
210
0.0
220
0.0
230
1.0
 70
    24
 71
     2
 72
     6
 73
     3
 74
     0
 42
0.0000000001
 43
0.0000000001
 40
0.0
 40
0.0
 40
0.0
 40
0.34375
 40
0.34375
 40
0.34375
 10
-13.29265292011576
 20
55.54577061930639
 30
0.0
 10
-13.12077792011576
 20
55.5457706193064
 30
0.0
 10
-12.94890292011576
 20
55.54577061930642
 30
0.0
  0
SPLINE
  5
A8
330
1F
100
AcDbEntity
  8
Default
100
AcDbSpline
210
0.0
220
0.0
230
1.0
 70
    12
 71
     2
 72
     6
 73
     3
 74
     0
 42
0.0000000001
 43
0.0000000001
 40
0.0
 40
0.0
 40
0.0
 40
0.0490324958837578
 40
0.0490324958837578
 40
0.0490324958837578
 10
-12.94890292011576
 20
55.54577061930642
 30
0.0
 41
1.0
 10
-12.91778071919025
 20
55.54564282022749
 30
0.0
 41
0.7100044327163367
 10
-12.91765292011576
 20
55.5119949506028
 30
0.0
 41
1.0
  0
LINE
  5
A9
330
1F
100
AcDbEntity
  8
Default
100
AcDbLine
 10
-12.91765292011576
 20
55.5119949506028
 30
0.0
 11
-12.91765292011576
 21
53.89250848039457
 31
0.0
  0
LINE
  5
AA
330
1F
100
AcDbEntity
  8
Default
100
AcDbLine
 10
7.392433838357334
 20
68.64774947423925
 30
0.0
 11
7.392433838357334
 21
70.29053572520442
 31
0.0
  0
SPLINE
  5
AB
330
1F
100
AcDbEntity
  8
Default
100
AcDbSpline
210
0.0
220
0.0
230
1.0
 70
    24
 71
     2
 72
     6
 73
     3
 74
     0
 42
0.0000000001
 43
0.0000000001
 40
-0.71875
 40
-0.71875
 40
-0.71875
 40
0.0
 40
0.0
 40
0.0
 10
7.392433838357334
 20
70.29053572520442
 30
0.0
 10
7.751808838357334
 20
70.29053572520442
 30
0.0
 10
8.111183838357334
 20
70.29053572520442
 30
0.0
  0
LINE
  5
AC
330
1F
100
AcDbEntity
  8
Default
100
AcDbLine
 10
8.111183838357334
 20
70.29053572520442
 30
0.0
 11
8.111183838357334
 21
68.64844840809403
 31
0.0
  0
LINE
  5
AD
330
1F
100
AcDbEntity
  8
Default
100
AcDbLine
 10
7.376808838357306
 20
68.63733907511246
 30
0.0
 11
7.376808838357306
 21
70.2592857251492
 31
0.0
  0
SPLINE
  5
AE
330
1F
100
AcDbEntity
  8
Default
100
AcDbSpline
210
0.0
220
0.0
230
1.0
 70
    12
 71
     2
 72
     6
 73
     3
 74
     0
 42
0.0000000001
 43
0.0000000001
 40
0.0
 40
0.0
 40
0.0
 40
0.0490228527406757
 40
0.0490228527406757
 40
0.0490228527406757
 10
7.376808838357306
 20
70.2592857251492
 30
0.0
 41
1.0
 10
7.376658604684267
 20
70.29038549147639
 30
0.0
 41
0.710514313144177
 10
7.345558838357334
 20
70.29053572520442
 30
0.0
 41
1.0
  0
SPLINE
  5
AF
330
1F
100
AcDbEntity
  8
Default
100
AcDbSpline
210
0.0
220
0.0
230
1.0
 70
    24
 71
     2
 72
     6
 73
     3
 74
     0
 42
0.0000000001
 43
0.0000000001
 40
0.0
 40
0.0
 40
0.0
 40
0.34375
 40
0.34375
 40
0.34375
 10
7.345558838357334
 20
70.29053572520442
 30
0.0
 10
7.173683838357334
 20
70.29053572520442
 30
0.0
 10
7.001808838357334
 20
70.29053572520442
 30
0.0
  0
SPLINE
  5
B0
330
1F
100
AcDbEntity
  8
Default
100
AcDbSpline
210
0.0
220
0.0
230
1.0
 70
    12
 71
     2
 72
     6
 73
     3
 74
     0
 42
0.0000000001
 43
0.0000000001
 40
0.0
 40
0.0
 40
0.0
 40
0.1963097587114712
 40
0.1963097587114712
 40
0.1963097587114712
 10
7.001808838357334
 20
70.29053572520442
 30
0.0
 41
1.0
 10
6.876899983204812
 20
70.29044573138331
 30
0.0
 41
0.7076193065308615
 10
6.876808838359977
 20
70.16553687706539
 30
0.0
 41
1.0
  0
LINE
  5
B1
330
1F
100
AcDbEntity
  8
Default
100
AcDbLine
 10
6.876808838359977
 20
70.16553687706539
 30
0.0
 11
6.876808838357334
 21
68.00477537042303
 31
0.0
  0
SPLINE
  5
B2
330
1F
100
AcDbEntity
  8
Default
100
AcDbSpline
210
0.0
220
0.0
230
1.0
 70
    24
 71
     2
 72
     6
 73
     3
 74
     0
 42
0.0000000001
 43
0.0000000001
 40
0.0
 40
0.0
 40
0.0
 40
0.1924572732197012
 40
0.1924572732197012
 40
0.1924572732197012
 10
8.309351565137632
 20
67.73053572520442
 30
0.0
 10
8.405580201747483
 20
67.73053572520442
 30
0.0
 10
8.501808838357334
 20
67.73053572520442
 30
0.0
  0
SPLINE
  5
B3
330
1F
100
AcDbEntity
  8
Default
100
AcDbSpline
210
0.0
220
0.0
230
1.0
 70
    12
 71
     2
 72
     6
 73
     3
 74
     0
 42
0.0000000001
 43
0.0000000001
 40
0.0
 40
0.0
 40
0.0
 40
0.1963097587114392
 40
0.1963097587114392
 40
0.1963097587114392
 10
8.501808838357334
 20
67.73053572520442
 30
0.0
 41
1.0
 10
8.62671769350976
 20
67.73062571902558
 30
0.0
 41
0.7076193065313929
 10
8.626808838354691
 20
67.85787118955
 30
0.0
 41
1.0
  0
LINE
  5
B4
330
1F
100
AcDbEntity
  8
Default
100
AcDbLine
 10
8.626808838354691
 20
67.85787118955
 30
0.0
 11
8.626808838354691
 21
70.16553687706539
 31
0.0
  0
SPLINE
  5
B5
330
1F
100
AcDbEntity
  8
Default
100
AcDbSpline
210
0.0
220
0.0
230
1.0
 70
    12
 71
     2
 72
     6
 73
     3
 74
     0
 42
0.0000000001
 43
0.0000000001
 40
0.0
 40
0.0
 40
0.0
 40
0.1963228425425605
 40
0.1963228425425605
 40
0.1963228425425605
 10
8.626808838354691
 20
70.16553687706539
 30
0.0
 41
1.0
 10
8.626748171112846
 20
70.29047620926717
 30
0.0
 41
0.7074467937778354
 10
8.501808838357334
 20
70.29053572520442
 30
0.0
 41
1.0
  0
SPLINE
  5
B6
330
1F
100
AcDbEntity
  8
Default
100
AcDbSpline
210
0.0
220
0.0
230
1.0
 70
    24
 71
     2
 72
     6
 73
     3
 74
     0
 42
0.0000000001
 43
0.0000000001
 40
0.0
 40
0.0
 40
0.0
 40
0.34375
 40
0.34375
 40
0.34375
 10
8.501808838357334
 20
70.29053572520442
 30
0.0
 10
8.329933838357334
 20
70.29053572520442
 30
0.0
 10
8.158058838357334
 20
70.29053572520442
 30
0.0
  0
SPLINE
  5
B7
330
1F
100
AcDbEntity
  8
Default
100
AcDbSpline
210
0.0
220
0.0
230
1.0
 70
    12
 71
     2
 72
     6
 73
     3
 74
     0
 42
0.0000000001
 43
0.0000000001
 40
0.0
 40
0.0
 40
0.0
 40
0.0490324958834727
 40
0.0490324958834727
 40
0.0490324958834727
 10
8.158058838357334
 20
70.29053572520442
 30
0.0
 41
1.0
 10
8.126936637432069
 20
70.29040792612551
 30
0.0
 41
0.7100044327187858
 10
8.126808838357334
 20
70.25928572520024
 30
0.0
 41
1.0
  0
LINE
  5
B8
330
1F
100
AcDbEntity
  8
Default
100
AcDbLine
 10
8.126808838357334
 20
70.25928572520024
 30
0.0
 11
8.126808838357334
 21
68.63809256786726
 31
0.0
  0
CIRCLE
  5
B9
330
1F
100
AcDbEntity
  8
Default
100
AcDbCircle
 10
24.60234796883748
 20
25.28993720729554
 30
0.0
 40
0.176581507221572
  0
SPLINE
  5
BA
330
1F
100
AcDbEntity
  8
Default
100
AcDbSpline
210
0.0
220
0.0
230
1.0
 70
    12
 71
     2
 72
     6
 73
     3
 74
     0
 42
0.0000000001
 43
0.0000000001
 40
0.0
 40
0.0
 40
0.0
 40
1.363406155824878
 40
1.363406155824878
 40
1.363406155824878
 10
24.58765776485461
 20
14.44121425497009
 30
0.0
 41
1.0
 10
23.91211899605516
 20
14.57701938236314
 30
0.0
 41
0.9840739674029351
 10
23.32678451535102
 20
14.94058396600147
 30
0.0
 41
1.0
  0
CIRCLE
  5
BB
330
1F
100
AcDbEntity
  8
Default
100
AcDbCircle
 10
24.60234796883748
 20
25.28993720729554
 30
0.0
 40
0.2987517985712799
  0
SPLINE
  5
BC
330
1F
100
AcDbEntity
  8
Default
100
AcDbSpline
210
0.0
220
0.0
230
1.0
 70
     8
 71
     3
 72
     8
 73
     4
 74
     0
 42
0.0000000001
 43
0.0000000001
 40
0.0
 40
0.0
 40
0.0
 40
0.0
 40
1.0
 40
1.0
 40
1.0
 40
1.0
 10
22.70605025197062
 20
17.9897274004481
 30
0.0
 10
22.74720125409448
 20
18.00445057814914
 30
0.0
 10
22.78537912107669
 20
18.03133951701654
 30
0.0
 10
22.81362122008147
 20
18.06469458831342
 30
0.0
  0
SPLINE
  5
BD
330
1F
100
AcDbEntity
  8
Default
100
AcDbSpline
210
0.0
220
0.0
230
1.0
 70
     8
 71
     2
 72
    10
 73
     7
 74
     0
 42
0.0000000001
 43
0.0000000001
 40
-5.0
 40
-5.0
 40
-5.0
 40
-4.0
 40
-3.0
 40
-2.0
 40
-1.0
 40
0.0
 40
0.0
 40
0.0
 10
22.81362122008147
 20
18.06469458831342
 30
0.0
 10
23.04468163903564
 20
18.33758637113727
 30
0.0
 10
23.26215077203298
 20
19.01738963080973
 30
0.0
 10
23.50526957594315
 20
19.68046443732978
 30
0.0
 10
23.73816625085746
 20
20.34848526384682
 30
0.0
 10
23.96577650512228
 20
21.01809364740014
 30
0.0
 10
24.07541979168431
 20
21.35430996704157
 30
0.0
  0
POLYLINE
  5
BE
330
1F
100
AcDbEntity
  8
Default
100
AcDb2dPolyline
 66
     1
 10
0.0
 20
0.0
 30
0.0
  0
VERTEX
  5
BF
330
BE
100
AcDbEntity
  8
Default
100
AcDbVertex
100
AcDb2dVertex
 10
24.07541979168431
 20
21.35430996704157
 30
0.0
  0
VERTEX
  5
C0
330
BE
100
AcDbEntity
  8
Default
100
AcDbVertex
100
AcDb2dVertex
 10
24.20082813868041
 20
21.3788373467312
 30
0.0
  0
SEQEND
  5
C1
330
BE
100
AcDbEntity
  8
Default
  0
SPLINE
  5
C2
330
1F
100
AcDbEntity
  8
Default
100
AcDbSpline
210
0.0
220
0.0
230
1.0
 70
     8
 71
     2
 72
    15
 73
    12
 74
     0
 42
0.0000000001
 43
0.0000000001
 40
-10.0
 40
-10.0
 40
-10.0
 40
-9.0
 40
-8.0
 40
-7.0
 40
-6.0
 40
-5.0
 40
-4.0
 40
-3.0
 40
-2.0
 40
-1.0
 40
0.0
 40
0.0
 40
0.0
 10
24.20082813868041
 20
21.3788373467312
 30
0.0
 10
24.31182601813194
 20
21.71622587966873
 30
0.0
 10
24.51686367488566
 20
22.39637137217542
 30
0.0
 10
24.69673091443499
 20
23.08365855199276
 30
0.0
 10
24.84263324100317
 20
23.77902250992884
 30
0.0
 10
24.94525183914322
 20
24.48217885819005
 30
0.0
 10
24.99459393449678
 20
25.19118247232966
 30
0.0
 10
24.98347447718646
 20
25.90179527933985
 30
0.0
 10
24.92189433978766
 20
26.60974098361642
 30
0.0
 10
24.81446036131464
 20
27.31196388497239
 30
0.0
 10
24.67387820023885
 20
28.00897690105769
 30
0.0
 10
24.57015206501472
 20
28.34815187442169
 30
0.0
  0
ARC
  5
C3
330
1F
100
AcDbEntity
  8
Default
100
AcDbCircle
 10
24.34004218123096
 20
28.27777991069738
 30
0.0
 40
0.2406299480392973
100
AcDbArc
 50
17.00462514181461
 51
70.01716167536749
  0
SPLINE
  5
C4
330
1F
100
AcDbEntity
  8
Default
100
AcDbSpline
210
0.0
220
0.0
230
1.0
 70
    12
 71
     2
 72
     6
 73
     3
 74
     0
 42
0.0000000001
 43
0.0000000001
 40
0.0
 40
0.0
 40
0.0
 40
8.529860917845644
 40
8.529860917845644
 40
8.529860917845644
 10
24.4222747381875
 20
28.50392273828601
 30
0.0
 41
1.0
 10
23.46539205234453
 20
32.66013001202673
 30
0.0
 41
0.9999978741802621
 10
22.52565724413634
 20
36.82024802321379
 30
0.0
 41
1.0
  0
SPLINE
  5
C5
330
1F
100
AcDbEntity
  8
Default
100
AcDbSpline
210
0.0
220
0.0
230
1.0
 70
    12
 71
     2
 72
     6
 73
     3
 74
     0
 42
0.0000000001
 43
0.0000000001
 40
-0.005723862983831
 40
-0.005723862983831
 40
-0.005723862983831
 40
0.0
 40
0.0
 40
0.0
 10
22.52565724413634
 20
36.82024802321379
 30
0.0
 41
1.0
 10
22.52502268169008
 20
36.82303872466507
 30
0.0
 41
0.9999970493225033
 10
22.52437456804626
 20
36.82582631014236
 30
0.0
 41
1.0
  0
SPLINE
  5
C6
330
1F
100
AcDbEntity
  8
Default
100
AcDbSpline
210
0.0
220
0.0
230
1.0
 70
    12
 71
     3
 72
    10
 73
     6
 74
     0
 42
0.0000000001
 43
0.0000000001
 40
0.0
 40
0.0
 40
0.0
 40
0.0
 40
0.4999755880411084
 40
0.4999755880411084
 40
0.721110677010105
 40
0.721110677010105
 40
0.721110677010105
 40
0.721110677010105
 10
22.52437456804626
 20
36.82582631014236
 30
0.0
 41
1.0
 10
22.50543178396077
 20
36.90731565214679
 30
0.0
 41
1.0
 10
22.47739381515038
 20
36.97463643101183
 30
0.0
 41
1.0
 10
22.42748264652258
 20
37.04241115569769
 30
0.0
 41
1.0
 10
22.41094050463545
 20
37.05895938806594
 30
0.0
 41
1.0
 10
22.39524739513686
 20
37.0699622934965
 30
0.0
 41
1.0
  0
LINE
  5
C7
330
1F
100
AcDbEntity
  8
Default
100
AcDbLine
 10
22.39524739513686
 20
37.0699622934965
 30
0.0
 11
21.36124390872558
 21
36.93317888722832
 31
0.0
  0
SPLINE
  5
C8
330
1F
100
AcDbEntity
  8
Default
100
AcDbSpline
210
0.0
220
0.0
230
1.0
 70
    12
 71
     2
 72
     8
 73
     5
 74
     0
 42
0.0000000001
 43
0.0000000001
 40
0.0
 40
0.0
 40
0.0
 40
0.0337004256858843
 40
0.0337004256858843
 40
0.0676078594830842
 40
0.0676078594830842
 40
0.0676078594830842
 10
21.3612439087256
 20
36.93317888722832
 30
0.0
 41
0.9993138393477355
 10
21.34415984723395
 20
36.92956022652639
 30
0.0
 41
0.9437522920023937
 10
21.32850734697791
 20
36.93730325081527
 30
0.0
 41
1.0
 10
21.31275292929776
 20
36.94509669159557
 30
0.0
 41
0.9434063992425662
 10
21.30534066271844
 20
36.96103399688202
 30
0.0
 41
1.0
  0
SPLINE
  5
C9
330
1F
100
AcDbEntity
  8
Default
100
AcDbSpline
210
0.0
220
0.0
230
1.0
 70
    12
 71
     2
 72
     6
 73
     3
 74
     0
 42
0.0000000001
 43
0.0000000001
 40
-0.9392717215617592
 40
-0.9392717215617592
 40
-0.9392717215617592
 40
0.0
 40
0.0
 40
0.0
 10
21.30534066271844
 20
36.96103399688202
 30
0.0
 41
1.0
 10
21.10726730163801
 20
37.38691740914913
 30
0.0
 41
0.9998235715185331
 10
20.92533018598834
 20
37.81994006809789
 30
0.0
 41
1.0
  0
SPLINE
  5
CA
330
1F
100
AcDbEntity
  8
Default
100
AcDbSpline
210
0.0
220
0.0
230
1.0
 70
    12
 71
     2
 72
     6
 73
     3
 74
     0
 42
0.0000000001
 43
0.0000000001
 40
0.0
 40
0.0
 40
0.0
 40
0.0102062836495725
 40
0.0102062836495725
 40
0.0102062836495725
 10
20.92533018598834
 20
37.81994006809789
 30
0.0
 41
1.0
 10
20.9233465358677
 20
37.8246612027677
 30
0.0
 41
0.9947961025043801
 10
20.92236109591852
 20
37.8296864279844
 30
0.0
 41
1.0
  0
SPLINE
  5
CB
330
1F
100
AcDbEntity
  8
Default
100
AcDbSpline
210
0.0
220
0.0
230
1.0
 70
    12
 71
     2
 72
     6
 73
     3
 74
     0
 42
0.0000000001
 43
0.0000000001
 40
0.0
 40
0.0
 40
0.0
 40
0.0101917901547119
 40
0.0101917901547119
 40
0.0101917901547119
 10
20.92236109591852
 20
37.8296864279844
 30
0.0
 41
1.0
 10
20.92137715002737
 20
37.83470448408195
 30
0.0
 41
0.9948108531069998
 10
20.92142936668728
 20
37.83981783033809
 30
0.0
 41
1.0
  0
POLYLINE
  5
CC
330
1F
100
AcDbEntity
  8
Default
100
AcDb2dPolyline
 66
     1
 10
0.0
 20
0.0
 30
0.0
  0
VERTEX
  5
CD
330
CC
100
AcDbEntity
  8
Default
100
AcDbVertex
100
AcDb2dVertex
 10
20.92142936668728
 20
37.83981783033809
 30
0.0
  0
VERTEX
  5
CE
330
CC
100
AcDbEntity
  8
Default
100
AcDbVertex
100
AcDb2dVertex
 10
20.9252678662763
 20
38.21604360662668
 30
0.0
  0
SEQEND
  5
CF
330
CC
100
AcDbEntity
  8
Default
  0
SPLINE
  5
D0
330
1F
100
AcDbEntity
  8
Default
100
AcDbSpline
210
0.0
220
0.0
230
1.0
 70
     8
 71
     3
 72
    11
 73
     7
 74
     0
 42
0.0000000001
 43
0.0000000001
 40
-1.005347685702052
 40
-1.005347685702052
 40
-1.005347685702052
 40
-1.005347685702052
 40
-0.9675293700150954
 40
-0.9486845698650325
 40
-0.9296303075512194
 40
0.0
 40
0.0
 40
0.0
 40
0.0
 10
20.9252678662763
 20
38.21604360662668
 30
0.0
 10
20.92531705697755
 20
38.23161393235242
 30
0.0
 10
20.93338645872819
 20
38.24246001532021
 30
0.0
 10
20.95405176241741
 20
38.2654071419192
 30
0.0
 10
21.27650508030328
 20
38.26374516191959
 30
0.0
 10
21.59277675091224
 20
38.26006976929929
 30
0.0
 10
21.91329281917911
 20
38.25960665578144
 30
0.0
  0
SPLINE
  5
D1
330
1F
100
AcDbEntity
  8
Default
100
AcDbSpline
210
0.0
220
0.0
230
1.0
 70
     8
 71
     3
 72
    12
 73
     8
 74
     0
 42
0.0000000001
 43
0.0000000001
 40
-1.993628892346381
 40
-1.993628892346381
 40
-1.993628892346381
 40
-1.993628892346381
 40
-1.431043820193449
 40
-0.94154687341736
 40
-0.4803027879350533
 40
-0.2392108430634213
 40
0.0
 40
0.0
 40
0.0
 40
0.0
 10
21.91329281917911
 20
38.25960665578144
 30
0.0
 10
22.10085114502152
 20
38.26213376085803
 30
0.0
 10
22.45209097109426
 20
38.22619028182731
 30
0.0
 10
22.92815844777417
 20
38.03960626052184
 30
0.0
 10
23.22280583386697
 20
37.76168553742745
 30
0.0
 10
23.38756986354795
 20
37.49398616677014
 30
0.0
 10
23.44946720384002
 20
37.34544433619978
 30
0.0
 10
23.4723985598655
 20
37.26911238856679
 30
0.0
  0
SPLINE
  5
D2
330
1F
100
AcDbEntity
  8
Default
100
AcDbSpline
210
0.0
220
0.0
230
1.0
 70
     8
 71
     2
 72
    15
 73
    12
 74
     0
 42
0.0000000001
 43
0.0000000001
 40
-10.0
 40
-10.0
 40
-10.0
 40
-9.0
 40
-8.0
 40
-7.0
 40
-6.0
 40
-5.0
 40
-4.0
 40
-3.0
 40
-2.0
 40
-1.0
 40
0.0
 40
0.0
 40
0.0
 10
23.4723985598655
 20
37.26911238856679
 30
0.0
 10
23.72171151327348
 20
36.3558101766827
 30
0.0
 10
24.18863077213578
 20
34.64169224950837
 30
0.0
 10
24.65614591942213
 20
32.92774384359311
 30
0.0
 10
25.12461411993991
 20
31.21401571491484
 30
0.0
 10
25.5869110193216
 20
29.49883404921162
 30
0.0
 10
26.07950986918448
 20
27.79058096819293
 30
0.0
 10
26.36335509726882
 20
26.03402901788084
 30
0.0
 10
26.36806763080398
 20
24.25368037875098
 30
0.0
 10
26.08875560164469
 20
22.4952412562622
 30
0.0
 10
25.54532072437618
 20
20.80189951966393
 30
0.0
 10
25.27889707877409
 20
19.95482512201886
 30
0.0
  0
SPLINE
  5
D3
330
1F
100
AcDbEntity
  8
Default
100
AcDbSpline
210
0.0
220
0.0
230
1.0
 70
     8
 71
     2
 72
    10
 73
     7
 74
     0
 42
0.0000000001
 43
0.0000000001
 40
-5.0
 40
-5.0
 40
-5.0
 40
-4.0
 40
-3.0
 40
-2.0
 40
-1.0
 40
0.0
 40
0.0
 40
0.0
 10
25.27889707877409
 20
19.95482512201886
 30
0.0
 10
25.12874057535052
 20
19.47526849396293
 30
0.0
 10
24.88979871162826
 20
18.6556483495374
 30
0.0
 10
24.67216315403786
 20
17.82737733731495
 30
0.0
 10
24.66310053995787
 20
16.96905709323694
 30
0.0
 10
24.88073740173667
 20
16.13443250872118
 30
0.0
 10
25.14057101316061
 20
15.7886631907282
 30
0.0
  0
SPLINE
  5
D4
330
1F
100
AcDbEntity
  8
Default
100
AcDbSpline
210
0.0
220
0.0
230
1.0
 70
    12
 71
     3
 72
    13
 73
     9
 74
     0
 42
0.0000000001
 43
0.0000000001
 40
-2.484180543018979
 40
-2.484180543018979
 40
-2.484180543018979
 40
-2.484180543018979
 40
-1.754339780719557
 40
-1.754339780719557
 40
-1.130517289884455
 40
-0.8575900417950381
 40
-0.4677165333480701
 40
-0.026246924816995
 40
-0.026246924816995
 40
-0.026246924816995
 40
-0.026246924816995
 10
25.14057101316061
 20
15.7886631907282
 30
0.0
 41
1.0
 10
25.28413485281948
 20
15.59761796507297
 30
0.0
 41
1.0
 10
25.53624758058641
 20
15.39510760329454
 30
0.0
 41
1.0
 10
25.9183065800521
 20
15.17685597640916
 30
0.0
 41
1.0
 10
26.19085161406267
 20
15.06895279843084
 30
0.0
 41
1.0
 10
26.59864228438227
 20
14.97921308042521
 30
0.0
 41
1.0
 10
26.95452577953728
 20
14.93744948173353
 30
0.0
 41
1.0
 10
27.22341790485817
 20
14.93043892953329
 30
0.0
 41
1.0
 10
27.36578993400423
 20
14.93161367073831
 30
0.0
 41
1.0
  0
SPLINE
  5
D5
330
1F
100
AcDbEntity
  8
Default
100
AcDbSpline
210
0.0
220
0.0
230
1.0
 70
    12
 71
     2
 72
     6
 73
     3
 74
     0
 42
0.0000000001
 43
0.0000000001
 40
-3.602231231807048
 40
-3.602231231807048
 40
-3.602231231807048
 40
0.0
 40
0.0
 40
0.0
 10
27.36578993400423
 20
14.93161367073831
 30
0.0
 41
1.0
 10
29.16684465661242
 20
14.94647454761026
 30
0.0
 41
0.999999653753747
 10
30.98783520402588
 20
14.96189811357425
 30
0.0
 41
1.0
  0
SPLINE
  5
D6
330
1F
100
AcDbEntity
  8
Default
100
AcDbSpline
210
0.0
220
0.0
230
1.0
 70
     8
 71
     3
 72
    12
 73
     8
 74
     0
 42
0.0000000001
 43
0.0000000001
 40
-0.3822541388704888
 40
-0.3822541388704888
 40
-0.3822541388704888
 40
-0.3822541388704888
 40
-0.1998492310580056
 40
-0.0886962957808693
 40
-0.0423967111047821
 40
-0.021298544610181
 40
0.0
 40
0.0
 40
0.0
 40
0.0
 10
30.98783520402588
 20
14.96189811357425
 30
0.0
 10
31.04866144636745
 20
14.96241330436556
 30
0.0
 10
31.15418096343342
 20
14.96014158621418
 30
0.0
 10
31.26745444357931
 20
14.95690504814824
 30
0.0
 10
31.32576436603344
 20
14.9406867444899
 30
0.0
 10
31.34363405198283
 20
14.91329332806308
 30
0.0
 10
31.34604102223773
 20
14.90094327922922
 30
0.0
 10
31.34626141495687
 20
14.89317511072792
 30
0.0
  0
POLYLINE
  5
D7
330
1F
100
AcDbEntity
  8
Default
100
AcDb2dPolyline
 66
     1
 10
0.0
 20
0.0
 30
0.0
  0
VERTEX
  5
D8
330
D7
100
AcDbEntity
  8
Default
100
AcDbVertex
100
AcDb2dVertex
 10
31.34626141495687
 20
14.89317511072792
 30
0.0
  0
VERTEX
  5
D9
330
D7
100
AcDbEntity
  8
Default
100
AcDbVertex
100
AcDb2dVertex
 10
31.34297286096734
 20
14.81422903434746
 30
0.0
  0
SEQEND
  5
DA
330
D7
100
AcDbEntity
  8
Default
  0
SPLINE
  5
DB
330
1F
100
AcDbEntity
  8
Default
100
AcDbSpline
210
0.0
220
0.0
230
1.0
 70
    24
 71
     2
 72
     6
 73
     3
 74
     0
 42
0.0000000001
 43
0.0000000001
 40
-0.4391140737961417
 40
-0.4391140737961417
 40
-0.4391140737961417
 40
0.0
 40
0.0
 40
0.0
 10
31.34297286096734
 20
14.81422903434746
 30
0.0
 10
31.26340531082808
 20
14.60959693174306
 30
0.0
 10
31.18383776068882
 20
14.40496482913866
 30
0.0
  0
SPLINE
  5
DC
330
1F
100
AcDbEntity
  8
Default
100
AcDbSpline
210
0.0
220
0.0
230
1.0
 70
     8
 71
     3
 72
     8
 73
     4
 74
     0
 42
0.0000000001
 43
0.0000000001
 40
0.0
 40
0.0
 40
0.0
 40
0.0
 40
1.0
 40
1.0
 40
1.0
 40
1.0
 10
31.18383776068882
 20
14.40496482913866
 30
0.0
 10
31.17166265438112
 20
14.37365284832721
 30
0.0
 10
31.1292176224778
 20
14.36231504826546
 30
0.0
 10
31.09650793948342
 20
14.35465019377578
 30
0.0
  0
SPLINE
  5
DD
330
1F
100
AcDbEntity
  8
Default
100
AcDbSpline
210
0.0
220
0.0
230
1.0
 70
     8
 71
     2
 72
    23
 73
    20
 74
     0
 42
0.0000000001
 43
0.0000000001
 40
-18.0
 40
-18.0
 40
-18.0
 40
-17.0
 40
-16.0
 40
-15.0
 40
-14.0
 40
-13.0
 40
-12.0
 40
-11.0
 40
-10.0
 40
-9.0
 40
-8.0
 40
-7.0
 40
-6.0
 40
-5.0
 40
-4.0
 40
-3.0
 40
-2.0
 40
-1.0
 40
-0.0391756961826075
 40
-0.0391756961826075
 40
-0.0391756961826075
 10
31.09650793948342
 20
14.35465019377578
 30
0.0
 10
30.86992798513057
 20
14.31346394516028
 30
0.0
 10
30.41069023316834
 20
14.27706030697877
 30
0.0
 10
29.95093016029037
 20
14.25385753448492
 30
0.0
 10
29.49110447759611
 20
14.23121925273674
 30
0.0
 10
29.03128273477921
 20
14.20863274518393
 30
0.0
 10
28.5714532902013
 20
14.18618706078889
 30
0.0
 10
28.11161768117847
 20
14.16386068238248
 30
0.0
 10
27.65177550603849
 20
14.14169352658123
 30
0.0
 10
27.19193092637676
 20
14.11946777074704
 30
0.0
 10
26.73205747219714
 20
14.09845034218688
 30
0.0
 10
26.27231231618742
 20
14.07125762023364
 30
0.0
 10
25.81168560433753
 20
14.0830399699004
 30
0.0
 10
25.35688650366336
 20
14.15943140631398
 30
0.0
 10
24.91582855107248
 20
14.29340580385544
 30
0.0
 10
24.49458774319055
 20
14.48038283332356
 30
0.0
 10
24.09643342515488
 20
14.71278701129167
 30
0.0
 10
23.72862894468383
 20
14.98923706964232
 30
0.0
 10
23.37003972322981
 20
15.26755490467992
 30
0.0
 10
23.16323138354636
 20
15.34693749145742
 30
0.0
  0
POLYLINE
  5
DE
330
1F
100
AcDbEntity
  8
Default
100
AcDb2dPolyline
 66
     1
 10
0.0
 20
0.0
 30
0.0
  0
VERTEX
  5
DF
330
DE
100
AcDbEntity
  8
Default
100
AcDbVertex
100
AcDb2dVertex
 10
23.16323138354636
 20
15.34693749145742
 30
0.0
  0
VERTEX
  5
E0
330
DE
100
AcDbEntity
  8
Default
100
AcDbVertex
100
AcDb2dVertex
 10
23.13114821412535
 20
15.33399431437856
 30
0.0
  0
VERTEX
  5
E1
330
DE
100
AcDbEntity
  8
Default
100
AcDbVertex
100
AcDb2dVertex
 10
22.00342469505279
 20
14.85456391223867
 30
0.0
  0
SEQEND
  5
E2
330
DE
100
AcDbEntity
  8
Default
  0
SPLINE
  5
E3
330
1F
100
AcDbEntity
  8
Default
100
AcDbSpline
210
0.0
220
0.0
230
1.0
 70
    12
 71
     2
 72
     6
 73
     3
 74
     0
 42
0.0000000001
 43
0.0000000001
 40
0.0
 40
0.0
 40
0.0
 40
0.0393698870588887
 40
0.0393698870588887
 40
0.0393698870588887
 10
22.00342469505279
 20
14.85456391223867
 30
0.0
 41
1.0
 10
21.98265596563127
 20
14.85441331821394
 30
0.0
 41
0.9234960296783741
 10
21.96789298540719
 20
14.86902212429962
 30
0.0
 41
1.0
  0
SPLINE
  5
E4
330
1F
100
AcDbEntity
  8
Default
100
AcDbSpline
210
0.0
220
0.0
230
1.0
 70
    12
 71
     3
 72
    11
 73
     7
 74
     0
 42
0.0000000001
 43
0.0000000001
 40
-1.0
 40
-1.0
 40
-1.0
 40
-1.0
 40
-0.751747707933104
 40
-0.4967532473490238
 40
-0.2417587867649437
 40
0.0
 40
0.0
 40
0.0
 40
0.0
 10
21.96789298540719
 20
14.86902212429962
 30
0.0
 41
1.0
 10
21.78649550180788
 20
15.04852447385085
 30
0.0
 41
1.0
 10
21.47882174694467
 20
15.42780283044395
 30
0.0
 41
1.0
 10
21.20855731884859
 20
16.04883273956298
 30
0.0
 41
1.0
 10
21.13977511604239
 20
16.71561878758732
 30
0.0
 41
1.0
 10
21.22179366416049
 20
17.18891788773377
 30
0.0
 41
1.0
 10
21.29089608772858
 20
17.42674647373726
 30
0.0
 41
1.0
  0
SPLINE
  5
E5
330
1F
100
AcDbEntity
  8
Default
100
AcDbSpline
210
0.0
220
0.0
230
1.0
 70
    12
 71
     3
 72
    12
 73
     8
 74
     0
 42
0.0000000001
 43
0.0000000001
 40
0.0
 40
0.0
 40
0.0
 40
0.0
 40
0.250076577802299
 40
0.250076577802299
 40
0.5000740705379157
 40
0.5000740705379157
 40
1.0
 40
1.0
 40
1.0
 40
1.0
 10
21.29089608772858
 20
17.42674647373726
 30
0.0
 41
1.0
 10
21.29089658215892
 20
17.42674939838106
 30
0.0
 41
1.0
 10
21.33615976832104
 20
17.44508574771262
 30
0.0
 41
1.0
 10
21.50774451540769
 20
17.5152226595681
 30
0.0
 41
1.0
 10
21.62688219306986
 20
17.56456771692571
 30
0.0
 41
1.0
 10
22.01900996045921
 20
17.72587418815446
 30
0.0
 41
1.0
 10
22.36576521330869
 20
17.86797879568395
 30
0.0
 41
1.0
 10
22.70605025197062
 20
17.9897274004481
 30
0.0
 41
1.0
  0
SPLINE
  5
E6
330
1F
100
AcDbEntity
  8
Default
100
AcDbSpline
210
0.0
220
0.0
230
1.0
 70
     8
 71
     2
 72
    11
 73
     8
 74
     0
 42
0.0000000001
 43
0.0000000001
 40
0.0
 40
0.0
 40
0.0
 40
1.0
 40
2.0
 40
3.0
 40
4.0
 40
5.0
 40
6.0
 40
6.0
 40
6.0
 10
30.24854664937732
 20
14.64167364308737
 30
0.0
 10
30.12330094963477
 20
14.62022286992682
 30
0.0
 10
29.87315579313389
 20
14.5750727159482
 30
0.0
 10
29.62127932802613
 20
14.5411655839958
 30
0.0
 10
29.36767962923628
 20
14.52280759509927
 30
0.0
 10
29.11386862834669
 20
14.51391736413633
 30
0.0
 10
28.85861077268927
 20
14.51158693874544
 30
0.0
 10
28.73507489085929
 20
14.54007172243967
 30
0.0
  0
SPLINE
  5
E7
330
1F
100
AcDbEntity
  8
Default
100
AcDbSpline
210
0.0
220
0.0
230
1.0
 70
    24
 71
     2
 72
     6
 73
     3
 74
     0
 42
0.0000000001
 43
0.0000000001
 40
-0.0910107681867677
 40
-0.0910107681867677
 40
-0.0910107681867677
 40
0.0
 40
0.0
 40
0.0
 10
28.73507489085929
 20
14.54007172243967
 30
0.0
 10
28.69691301715334
 20
14.56485904534347
 30
0.0
 10
28.65875114344738
 20
14.58964636824727
 30
0.0
  0
SPLINE
  5
E8
330
1F
100
AcDbEntity
  8
Default
100
AcDbSpline
210
0.0
220
0.0
230
1.0
 70
     8
 71
     2
 72
     9
 73
     6
 74
     0
 42
0.0000000001
 43
0.0000000001
 40
0.0
 40
0.0
 40
0.0
 40
1.0
 40
2.0
 40
3.0
 40
4.0
 40
4.0
 40
4.0
 10
24.39457540264158
 20
25.50360480127281
 30
0.0
 10
24.46422017601262
 20
25.63619323849498
 30
0.0
 10
24.57856854065619
 20
25.91306173908674
 30
0.0
 10
24.66588083493372
 20
26.19961477717899
 30
0.0
 10
24.72487894171817
 20
26.49331291972056
 30
0.0
 10
24.7399880620286
 20
26.64235122954809
 30
0.0
  0
SPLINE
  5
E9
330
1F
100
AcDbEntity
  8
Default
100
AcDbSpline
210
0.0
220
0.0
230
1.0
 70
    12
 71
     2
 72
     6
 73
     3
 74
     0
 42
0.0000000001
 43
0.0000000001
 40
-0.2644863227660741
 40
-0.2644863227660741
 40
-0.2644863227660741
 40
0.0
 40
0.0
 40
0.0
 10
24.7399880620286
 20
26.64235122954809
 30
0.0
 41
1.0
 10
24.75400546308119
 20
26.78684723757049
 30
0.0
 41
0.871773081097649
 10
24.88470106272541
 20
26.84999946391708
 30
0.0
 41
1.0
  0
SPLINE
  5
EA
330
1F
100
AcDbEntity
  8
Default
100
AcDbSpline
210
0.0
220
0.0
230
1.0
 70
    12
 71
     2
 72
    32
 73
    29
 74
     0
 42
0.0000000001
 43
0.0000000001
 40
0.0
 40
0.0
 40
0.0
 40
0.8743213322720992
 40
0.8743213322720992
 40
1.874321332272099
 40
2.874321332272099
 40
3.874321332272099
 40
4.874321332272099
 40
5.874321332272099
 40
6.874321332272099
 40
6.874321332272099
 40
7.874321332272099
 40
8.8743213322721
 40
9.8743213322721
 40
10.8743213322721
 40
11.8743213322721
 40
12.8743213322721
 40
13.8743213322721
 40
14.8743213322721
 40
15.8743213322721
 40
16.8743213322721
 40
17.8743213322721
 40
18.8743213322721
 40
19.8743213322721
 40
20.8743213322721
 40
21.8743213322721
 40
22.8743213322721
 40
23.8743213322721
 40
24.8743213322721
 40
24.8743213322721
 40
24.8743213322721
 10
20.92142936668728
 20
37.83981783033806
 30
0.0
 41
1.0
 10
21.35857977769837
 20
37.83681949623926
 30
0.0
 41
0.9999999064488203
 10
21.79675804453942
 20
37.83419369805674
 30
0.0
 41
1.0
 10
21.95112269626122
 20
37.83400420695143
 30
0.0
 41
1.0
 10
22.25572671104274
 20
37.7954788075572
 30
0.0
 41
1.0
 10
22.5470900136863
 20
37.69625814155335
 30
0.0
 41
1.0
 10
22.80201826523125
 20
37.52181744757265
 30
0.0
 41
1.0
 10
22.98272131031794
 20
37.27090305267357
 30
0.0
 41
1.0
 10
23.07741389684406
 20
36.97815657411579
 30
0.0
 41
1.0
 10
23.1154876553172
 20
36.82618218491469
 30
0.0
 41
1.0
 10
23.25443631861842
 20
36.31248281412777
 30
0.0
 41
1.0
 10
23.53067127669294
 20
35.29214777196113
 30
0.0
 41
1.0
 10
23.80713937901697
 20
34.27187597207075
 30
0.0
 41
1.0
 10
24.08383943511893
 20
33.25166668797843
 30
0.0
 41
1.0
 10
24.36077869880688
 20
32.23152289465314
 30
0.0
 41
1.0
 10
24.63791361300702
 20
31.2114318974826
 30
0.0
 41
1.0
 10
24.91549949230756
 20
30.19146228776558
 30
0.0
 41
1.0
 10
25.19204702581931
 20
29.17121873802287
 30
0.0
 41
1.0
 10
25.47623681628238
 20
28.15300434478335
 30
0.0
 41
1.0
 10
25.71747445712958
 20
27.12339614278964
 30
0.0
 41
1.0
 10
25.84138126669518
 20
26.07198920618138
 30
0.0
 41
1.0
 10
25.8173176079417
 20
25.01347047810616
 30
0.0
 41
1.0
 10
25.64278214839595
 20
23.96959455405086
 30
0.0
 41
1.0
 10
25.37721988053818
 20
22.94602033040374
 30
0.0
 41
1.0
 10
25.05648460641964
 20
21.93863316767293
 30
0.0
 41
1.0
 10
24.71077398693757
 20
20.93969839958633
 30
0.0
 41
1.0
 10
24.35759236277704
 20
19.94324842032464
 30
0.0
 41
1.0
 10
24.05957401237904
 20
18.91585427379338
 30
0.0
 41
1.0
 10
23.91868195683477
 20
18.40622470398581
 30
0.0
 41
1.0
  0
SPLINE
  5
EB
330
1F
100
AcDbEntity
  8
Default
100
AcDbSpline
210
0.0
220
0.0
230
1.0
 70
     8
 71
     2
 72
    11
 73
     8
 74
     0
 42
0.0000000001
 43
0.0000000001
 40
0.0
 40
0.0
 40
0.0
 40
1.0
 40
2.0
 40
3.0
 40
4.0
 40
5.0
 40
6.0
 40
6.0
 40
6.0
 10
23.91868195683477
 20
18.40622470398581
 30
0.0
 10
23.78080920293456
 20
17.90751644121744
 30
0.0
 10
23.84326144103795
 20
16.87697937019109
 30
0.0
 10
24.2101451306396
 20
15.91318895292589
 30
0.0
 10
24.83803821376836
 20
15.09186337789704
 30
0.0
 10
25.73082652429247
 20
14.56692542054686
 30
0.0
 10
26.73403345095144
 20
14.33192401783429
 30
0.0
 10
27.24850668534955
 20
14.33655703499974
 30
0.0
  0
SPLINE
  5
EC
330
1F
100
AcDbEntity
  8
Default
100
AcDbSpline
210
0.0
220
0.0
230
1.0
 70
     8
 71
     2
 72
     7
 73
     4
 74
     0
 42
0.0000000001
 43
0.0000000001
 40
-2.0
 40
-2.0
 40
-2.0
 40
-1.0
 40
0.0
 40
0.0
 40
0.0
 10
27.24850668534955
 20
14.33655703499974
 30
0.0
 10
27.60427508435566
 20
14.33976085784088
 30
0.0
 10
28.32689384833665
 20
14.35202975426535
 30
0.0
 10
28.68215972357893
 20
14.37128705730485
 30
0.0
  0
SPLINE
  5
ED
330
1F
100
AcDbEntity
  8
Default
100
AcDbSpline
210
0.0
220
0.0
230
1.0
 70
    12
 71
     2
 72
     6
 73
     3
 74
     0
 42
0.0000000001
 43
0.0000000001
 40
0.0
 40
0.0
 40
0.0
 40
0.0716505734488554
 40
0.0716505734488554
 40
0.0716505734488554
 10
28.68215972357893
 20
14.37128705730485
 30
0.0
 41
1.0
 10
28.71176354269904
 20
14.351105142594
 30
0.0
 41
0.999857080525624
 10
28.7420327393404
 20
14.33193559584459
 30
0.0
 41
1.0
  0
SPLINE
  5
EE
330
1F
100
AcDbEntity
  8
Default
100
AcDbSpline
210
0.0
220
0.0
230
1.0
 70
     8
 71
     2
 72
    11
 73
     8
 74
     0
 42
0.0000000001
 43
0.0000000001
 40
0.0
 40
0.0
 40
0.0
 40
1.0
 40
2.0
 40
3.0
 40
4.0
 40
5.0
 40
6.0
 40
6.0
 40
6.0
 10
28.7420327393404
 20
14.33193559584459
 30
0.0
 10
28.86174605689391
 20
14.3101352822603
 30
0.0
 10
29.10640682665206
 20
14.31703150810206
 30
0.0
 10
29.34990608035071
 20
14.32881574556232
 30
0.0
 10
29.59312346393801
 20
14.34781726820997
 30
0.0
 10
29.83552743373266
 20
14.37530528496677
 30
0.0
 10
30.0762249753744
 20
14.41498509144401
 30
0.0
 10
30.19687401970901
 20
14.43373080484301
 30
0.0
  0
SPLINE
  5
EF
330
1F
100
AcDbEntity
  8
Default
100
AcDbSpline
210
0.0
220
0.0
230
1.0
 70
     8
 71
     2
 72
    11
 73
     8
 74
     0
 42
0.0000000001
 43
0.0000000001
 40
0.0
 40
0.0
 40
0.0
 40
1.0
 40
2.0
 40
3.0
 40
4.0
 40
5.0
 40
6.0
 40
6.0
 40
6.0
 10
30.19687401970901
 20
14.43373080484301
 30
0.0
 10
30.27932985238968
 20
14.43498149446338
 30
0.0
 10
30.44400254408762
 20
14.43594874160463
 30
0.0
 10
30.60843364400395
 20
14.44410843989126
 30
0.0
 10
30.77278661784578
 20
14.45446773363418
 30
0.0
 10
30.93723607513488
 20
14.46015220510837
 30
0.0
 10
31.10230369479447
 20
14.46419635903979
 30
0.0
 10
31.18342264452565
 20
14.45482586705555
 30
0.0
  0
SPLINE
  5
F0
330
1F
100
AcDbEntity
  8
Default
100
AcDbSpline
210
0.0
220
0.0
230
1.0
 70
    12
 71
     2
 72
     6
 73
     3
 74
     0
 42
0.0000000001
 43
0.0000000001
 40
0.0
 40
0.0
 40
0.0
 40
0.2143036890227085
 40
0.2143036890227085
 40
0.2143036890227085
 10
30.19672978207572
 20
14.43372873941496
 30
0.0
 41
1.0
 10
30.22262082144984
 20
14.53770552565372
 30
0.0
 41
0.9999999860058614
 10
30.24854664937732
 20
14.64167364308735
 30
0.0
 41
1.0
  0
SPLINE
  5
F1
330
1F
100
AcDbEntity
  8
Default
100
AcDbSpline
210
0.0
220
0.0
230
1.0
 70
     8
 71
     3
 72
     8
 73
     4
 74
     0
 42
0.0000000001
 43
0.0000000001
 40
-1.0
 40
-1.0
 40
-1.0
 40
-1.0
 40
0.0
 40
0.0
 40
0.0
 40
0.0
 10
30.24854664937732
 20
14.64167364308735
 30
0.0
 10
30.25428189717954
 20
14.66467321396626
 30
0.0
 10
30.24224263267052
 20
14.70690457608764
 30
0.0
 10
30.21855080135694
 20
14.70614929006541
 30
0.0
  0
SPLINE
  5
F2
330
1F
100
AcDbEntity
  8
Default
100
AcDbSpline
210
0.0
220
0.0
230
1.0
 70
    12
 71
     2
 72
     6
 73
     3
 74
     0
 42
0.0000000001
 43
0.0000000001
 40
0.0
 40
0.0
 40
0.0
 40
1.512659028087905
 40
1.512659028087905
 40
1.512659028087905
 10
30.21855080135694
 20
14.70614929006541
 30
0.0
 41
1.0
 10
29.46260531648077
 20
14.68205005304416
 30
0.0
 41
0.999999979657174
 10
28.70666961507879
 20
14.65764585923232
 30
0.0
 41
1.0
  0
SPLINE
  5
F3
330
1F
100
AcDbEntity
  8
Default
100
AcDbSpline
210
0.0
220
0.0
230
1.0
 70
     8
 71
     3
 72
     8
 73
     4
 74
     0
 42
0.0000000001
 43
0.0000000001
 40
-1.0
 40
-1.0
 40
-1.0
 40
-1.0
 40
0.0
 40
0.0
 40
0.0
 40
0.0
 10
28.70666961507879
 20
14.65764585923232
 30
0.0
 10
28.67895498610585
 20
14.65675113607581
 30
0.0
 10
28.65578933712439
 20
14.61721680335337
 30
0.0
 10
28.6587511434474
 20
14.58964636824727
 30
0.0
  0
SPLINE
  5
F4
330
1F
100
AcDbEntity
  8
Default
100
AcDbSpline
210
0.0
220
0.0
230
1.0
 70
    12
 71
     2
 72
     6
 73
     3
 74
     0
 42
0.0000000001
 43
0.0000000001
 40
0.0
 40
0.0
 40
0.0
 40
0.2196104530593145
 40
0.2196104530593145
 40
0.2196104530593145
 10
28.6587511434474
 20
14.58964636824727
 30
0.0
 41
1.0
 10
28.67047969575796
 20
14.48046931374003
 30
0.0
 41
0.9999999753084411
 10
28.68215972357899
 20
14.37128705730485
 30
0.0
 41
1.0
  0
SPLINE
  5
F5
330
1F
100
AcDbEntity
  8
Default
100
AcDbSpline
210
0.0
220
0.0
230
1.0
 70
     8
 71
     2
 72
     9
 73
     6
 74
     0
 42
0.0000000001
 43
0.0000000001
 40
0.0
 40
0.0
 40
0.0
 40
1.0
 40
2.0
 40
3.0
 40
4.0
 40
4.0
 40
4.0
 10
24.38837621830925
 20
25.08247788608883
 30
0.0
 10
24.45408813385495
 20
24.94789693536312
 30
0.0
 10
24.56023745182833
 20
24.66778260618594
 30
0.0
 10
24.63907735386863
 20
24.37878373037812
 30
0.0
 10
24.68940502372209
 20
24.08347626148573
 30
0.0
 10
24.70012072132698
 20
23.93405779831052
 30
0.0
  0
SPLINE
  5
F6
330
1F
100
AcDbEntity
  8
Default
100
AcDbSpline
210
0.0
220
0.0
230
1.0
 70
    12
 71
     2
 72
     6
 73
     3
 74
     0
 42
0.0000000001
 43
0.0000000001
 40
-0.2644863227660741
 40
-0.2644863227660741
 40
-0.2644863227660741
 40
0.0
 40
0.0
 40
0.0
 10
24.70012072132698
 20
23.93405779831052
 30
0.0
 41
1.0
 10
24.70987887332993
 20
23.78921180307362
 30
0.0
 41
0.871773081097649
 10
24.83865898626377
 20
23.72223997338649
 30
0.0
 41
1.0
  0
SPLINE
  5
F7
330
1F
100
AcDbEntity
  8
Default
100
AcDbSpline
210
0.0
220
0.0
230
1.0
 70
    12
 71
     2
 72
     6
 73
     3
 74
     0
 42
0.0000000001
 43
0.0000000001
 40
-0.5257451705229547
 40
-0.5257451705229547
 40
-0.5257451705229547
 40
0.0
 40
0.0
 40
0.0
 10
23.627551810716
 20
15.06742802457704
 30
0.0
 41
1.0
 10
23.38523184739046
 20
14.96553024259101
 30
0.0
 41
0.9999986268397032
 10
23.14325094500776
 20
14.86282987510467
 30
0.0
 41
1.0
  0
SPLINE
  5
F8
330
1F
100
AcDbEntity
  8
Default
100
AcDbSpline
210
0.0
220
0.0
230
1.0
 70
    24
 71
     2
 72
     6
 73
     3
 74
     0
 42
0.0000000001
 43
0.0000000001
 40
0.0
 40
0.0
 40
0.0
 40
1.133640208637252
 40
1.133640208637252
 40
1.133640208637252
 10
23.14325094500776
 20
14.86282987510467
 30
0.0
 10
22.57644574485626
 20
14.85871943218684
 30
0.0
 10
22.00964054470475
 20
14.85460898926901
 30
0.0
  0
SPLINE
  5
F9
330
1F
100
AcDbEntity
  8
Default
100
AcDbSpline
210
0.0
220
0.0
230
1.0
 70
    12
 71
     2
 72
     7
 73
     4
 74
     0
 42
0.0000000001
 43
0.0000000001
 40
-2.503957112930287
 40
-2.503957112930287
 40
-2.503957112930287
 40
-2.139115446905204
 40
-0.0000000000000004
 40
-0.0000000000000004
 40
-0.0000000000000004
 10
40.2762787944703
 20
14.84469578425305
 30
0.0
 41
1.0
 10
40.10216309237954
 20
14.8929013737258
 30
0.0
 41
1.001134924532993
 10
38.86634424562223
 20
15.11824520819492
 30
0.0
 41
0.9933457857868965
 10
37.7934016912657
 20
15.06360132866371
 30
0.0
 41
1.0
  0
LINE
  5
FA
330
1F
100
AcDbEntity
  8
Default
100
AcDbLine
 10
37.7934016912657
 20
15.06360132866371
 30
0.0
 11
31.29875151529629
 21
14.73283536139726
 31
0.0
  0
SPLINE
  5
FB
330
1F
100
AcDbEntity
  8
Default
100
AcDbSpline
210
0.0
220
0.0
230
1.0
 70
     8
 71
     2
 72
    13
 73
    10
 74
     0
 42
0.0000000001
 43
0.0000000001
 40
0.0
 40
0.0
 40
0.0
 40
1.0
 40
2.0
 40
3.0
 40
4.0
 40
5.0
 40
6.0
 40
7.0
 40
8.0
 40
8.0
 40
8.0
 10
33.73778497970881
 20
17.85365296100962
 30
0.0
 10
33.18879173429414
 20
17.85272112080091
 30
0.0
 10
31.71410794293845
 20
17.84428605056478
 30
0.0
 10
30.61617506807693
 20
17.83327586525527
 30
0.0
 10
29.51828559353174
 20
17.81850460304826
 30
0.0
 10
28.42047971205335
 20
17.79848591918072
 30
0.0
 10
27.32261908590766
 20
17.78189137709543
 30
0.0
 10
26.22561629943306
 20
17.71792534123465
 30
0.0
 10
25.14782787579372
 20
17.4929021709236
 30
0.0
 10
24.64322231951144
 20
17.27128325121936
 30
0.0
  0
SPLINE
  5
FC
330
1F
100
AcDbEntity
  8
Default
100
AcDbSpline
210
0.0
220
0.0
230
1.0
 70
     8
 71
     2
 72
    16
 73
    13
 74
     0
 42
0.0000000001
 43
0.0000000001
 40
-11.0
 40
-11.0
 40
-11.0
 40
-10.0
 40
-9.0
 40
-8.0
 40
-7.0
 40
-6.0
 40
-5.0
 40
-4.0
 40
-3.0
 40
-2.0
 40
-1.0
 40
0.0
 40
0.0
 40
0.0
 10
33.73778497970881
 20
17.85365296100962
 30
0.0
 10
34.0557633200832
 20
17.85419268532414
 30
0.0
 10
34.69172104812452
 20
17.8539968210051
 30
0.0
 10
35.3276765314022
 20
17.85256097602326
 30
0.0
 10
35.96363079081445
 20
17.84968569075949
 30
0.0
 10
36.59956055216938
 20
17.84653333637933
 30
0.0
 10
37.2355863026159
 20
17.83633011621213
 30
0.0
 10
37.86879243508284
 20
17.77313550994488
 30
0.0
 10
38.49517182413737
 20
17.66150486013058
 30
0.0
 10
39.11106134911832
 20
17.50148718063213
 30
0.0
 10
39.71212662900842
 20
17.29360477842665
 30
0.0
 10
40.29468242386295
 20
17.03305953520361
 30
0.0
 10
40.54983776437308
 20
16.8426253982856
 30
0.0
  0
POLYLINE
  5
FD
330
1F
100
AcDbEntity
  8
Default
100
AcDb2dPolyline
 66
     1
 10
0.0
 20
0.0
 30
0.0
  0
VERTEX
  5
FE
330
FD
100
AcDbEntity
  8
Default
100
AcDbVertex
100
AcDb2dVertex
 10
40.54983776437308
 20
16.8426253982856
 30
0.0
  0
VERTEX
  5
FF
330
FD
100
AcDbEntity
  8
Default
100
AcDbVertex
100
AcDb2dVertex
 10
40.99357047214801
 20
16.35801312809342
 30
0.0
  0
SEQEND
  5
100
330
FD
100
AcDbEntity
  8
Default
  0
SPLINE
  5
101
330
1F
100
AcDbEntity
  8
Default
100
AcDbSpline
210
0.0
220
0.0
230
1.0
 70
    12
 71
     2
 72
     6
 73
     3
 74
     0
 42
0.0000000001
 43
0.0000000001
 40
-0.2855308194945555
 40
-0.2855308194945555
 40
-0.2855308194945555
 40
0.0
 40
0.0
 40
0.0
 10
40.99357047214801
 20
16.35801312809342
 30
0.0
 41
1.0
 10
41.09424672456466
 20
16.23283279709495
 30
0.0
 41
0.8411392925190023
 10
41.02214045490422
 20
16.08928312295666
 30
0.0
 41
1.0
  0
POLYLINE
  5
102
330
1F
100
AcDbEntity
  8
Default
100
AcDb2dPolyline
 66
     1
 10
0.0
 20
0.0
 30
0.0
  0
VERTEX
  5
103
330
102
100
AcDbEntity
  8
Default
100
AcDbVertex
100
AcDb2dVertex
 10
41.02214045490422
 20
16.08928312295666
 30
0.0
  0
VERTEX
  5
104
330
102
100
AcDbEntity
  8
Default
100
AcDbVertex
100
AcDb2dVertex
 10
40.40822686179993
 20
14.87077842718515
 30
0.0
  0
SEQEND
  5
105
330
102
100
AcDbEntity
  8
Default
  0
SPLINE
  5
106
330
1F
100
AcDbEntity
  8
Default
100
AcDbSpline
210
0.0
220
0.0
230
1.0
 70
     8
 71
     3
 72
     8
 73
     4
 74
     0
 42
0.0000000001
 43
0.0000000001
 40
-1.0
 40
-1.0
 40
-1.0
 40
-1.0
 40
0.0
 40
0.0
 40
0.0
 40
0.0
 10
40.40822686179993
 20
14.87077842718515
 30
0.0
 10
40.38805415524325
 20
14.83073934360429
 30
0.0
 10
40.31896002572896
 20
14.8309706685136
 30
0.0
 10
40.2762787944703
 20
14.84469578425305
 30
0.0
  0
SPLINE
  5
107
330
1F
100
AcDbEntity
  8
Default
100
AcDbSpline
210
0.0
220
0.0
230
1.0
 70
     8
 71
     2
 72
    17
 73
    14
 74
     0
 42
0.0000000001
 43
0.0000000001
 40
-0.5755149710134627
 40
-0.5755149710134627
 40
-0.5755149710134627
 40
0.0
 40
1.0
 40
2.0
 40
3.0
 40
4.0
 40
5.0
 40
6.0
 40
7.0
 40
8.0
 40
9.0
 40
10.0
 40
11.0
 40
11.0
 40
11.0
 10
40.2762787944703
 20
14.84469578425305
 30
0.0
 10
40.04061310816363
 20
14.92047941853425
 30
0.0
 10
39.39013446083783
 20
15.11375255669783
 30
0.0
 10
38.54005942831452
 20
15.25508293046011
 30
0.0
 10
37.67998308933059
 20
15.29187098242568
 30
0.0
 10
36.81972470331266
 20
15.30977451917726
 30
0.0
 10
35.95975627496426
 20
15.33996931216714
 30
0.0
 10
35.0998092496522
 20
15.37019163559646
 30
0.0
 10
34.23969830871701
 20
15.39561740075897
 30
0.0
 10
33.37932122802857
 20
15.41008834818372
 30
0.0
 10
32.51880471214415
 20
15.40768196921446
 30
0.0
 10
31.65864128560042
 20
15.38198833849621
 30
0.0
 10
30.79974732332332
 20
15.32906840668189
 30
0.0
 10
30.37031374403188
 20
15.30285065372
 30
0.0
  0
POLYLINE
  5
108
330
1F
100
AcDbEntity
  8
Default
100
AcDb2dPolyline
 66
     1
 10
0.0
 20
0.0
 30
0.0
  0
VERTEX
  5
109
330
108
100
AcDbEntity
  8
Default
100
AcDbVertex
100
AcDb2dVertex
 10
30.37031374403188
 20
15.30285065372
 30
0.0
  0
VERTEX
  5
10A
330
108
100
AcDbEntity
  8
Default
100
AcDbVertex
100
AcDb2dVertex
 10
27.21636036011745
 20
15.10227772944785
 30
0.0
  0
SEQEND
  5
10B
330
108
100
AcDbEntity
  8
Default
  0
SPLINE
  5
10C
330
1F
100
AcDbEntity
  8
Default
100
AcDbSpline
210
0.0
220
0.0
230
1.0
 70
    12
 71
     3
 72
    12
 73
     8
 74
     0
 42
0.0000000001
 43
0.0000000001
 40
-1.0
 40
-1.0
 40
-1.0
 40
-1.0
 40
-0.7499369727866703
 40
-0.7499369727866703
 40
-0.5000660320550964
 40
-0.5000660320550964
 40
0.0
 40
0.0
 40
0.0
 40
0.0
 10
27.21636036011745
 20
15.10227772944785
 30
0.0
 41
1.0
 10
26.96929423917214
 20
15.10157166024321
 30
0.0
 41
1.0
 10
26.67927627631255
 20
15.14791217356198
 30
0.0
 41
1.0
 10
26.07329192839779
 20
15.36562284043341
 30
0.0
 41
1.0
 10
25.76494001020137
 20
15.53883927927361
 30
0.0
 41
1.0
 10
25.00813939176732
 20
16.14678718746511
 30
0.0
 41
1.0
 10
24.75895013119123
 20
16.61399445275098
 30
0.0
 41
1.0
 10
24.68944438723281
 20
17.02336249276146
 30
0.0
 41
1.0
  0
SPLINE
  5
10D
330
1F
100
AcDbEntity
  8
Default
100
AcDbSpline
210
0.0
220
0.0
230
1.0
 70
    12
 71
     2
 72
     6
 73
     3
 74
     0
 42
0.0000000001
 43
0.0000000001
 40
0.0
 40
0.0
 40
0.0
 40
2.327886943247079
 40
2.327886943247079
 40
2.327886943247079
 10
-8.542246165911052
 20
63.77062470845397
 30
0.0
 41
1.0
 10
-8.727547599278063
 20
62.62152601044884
 30
0.0
 41
0.9999999812716688
 10
-8.912404231997613
 20
61.4723556730729
 30
0.0
 41
1.0
  0
SPLINE
  5
10E
330
1F
100
AcDbEntity
  8
Default
100
AcDbSpline
210
0.0
220
0.0
230
1.0
 70
     8
 71
     3
 72
    12
 73
     8
 74
     0
 42
0.0000000001
 43
0.0000000001
 40
0.0
 40
0.0
 40
0.0
 40
0.0
 40
0.1718621888137236
 40
0.290572263594108
 40
0.3575568754929188
 40
0.3732783408708742
 40
0.3907771773000948
 40
0.3907771773000948
 40
0.3907771773000948
 40
0.3907771773000948
 10
-8.912404231997613
 20
61.4723556730729
 30
0.0
 10
-8.921883344517965
 20
61.41608098551077
 30
0.0
 10
-8.93881195502587
 20
61.32002572087167
 30
0.0
 10
-8.969154620913827
 20
61.20552220606457
 30
0.0
 10
-8.99426986814072
 20
61.14185182886717
 30
0.0
 10
-9.021934851082392
 20
61.12096613726594
 30
0.0
 10
-9.034704417845717
 20
61.13124891649014
 30
0.0
 10
-9.037140933246292
 20
61.13473531666602
 30
0.0
  0
SPLINE
  5
10F
330
1F
100
AcDbEntity
  8
Default
100
AcDbSpline
210
0.0
220
0.0
230
1.0
 70
     8
 71
     3
 72
    12
 73
     8
 74
     0
 42
0.0000000001
 43
0.0000000001
 40
2.718664120547174
 40
2.718664120547174
 40
2.718664120547174
 40
2.718664120547174
 40
2.773853659112983
 40
2.858542739877446
 40
3.159325610408737
 40
3.972965331333879
 40
4.217555591940402
 40
4.217555591940402
 40
4.217555591940402
 40
4.217555591940402
 10
-9.037140933246292
 20
61.13473531666602
 30
0.0
 10
-9.04830975001991
 20
61.14955979776256
 30
0.0
 10
-9.065875164453104
 20
61.19296770829826
 30
0.0
 10
-9.102347897855623
 20
61.33545695564472
 30
0.0
 10
-9.166725894967897
 20
61.73009770803655
 30
0.0
 10
-9.220344151861724
 20
62.17993405381137
 30
0.0
 10
-9.26637574592985
 20
62.52968376820127
 30
0.0
 10
-9.264131092409713
 20
62.61164864750231
 30
0.0
  0
ARC
  5
110
330
1F
100
AcDbEntity
  8
Default
100
AcDbCircle
 10
-237.9170906555556
 20
68.87343631738607
 30
0.0
 40
228.7386847514175
100
AcDbArc
 50
358.4313154879783
 51
358.5770257530392
  0
SPLINE
  5
111
330
1F
100
AcDbEntity
  8
Default
100
AcDbSpline
210
0.0
220
0.0
230
1.0
 70
    12
 71
     3
 72
    52
 73
    48
 74
     0
 42
0.0000000001
 43
0.0000000001
 40
-20.20640238538248
 40
-20.20640238538248
 40
-20.20640238538248
 40
-20.20640238538248
 40
-19.20640238538248
 40
-19.20640238538248
 40
-18.20640238538248
 40
-18.20640238538248
 40
-17.20640238538248
 40
-17.20640238538248
 40
-16.20640238538248
 40
-16.20640238538248
 40
-16.20640238538248
 40
-15.20640238538248
 40
-15.20640238538248
 40
-15.20640238538248
 40
-15.0
 40
-15.0
 40
-15.0
 40
-14.0
 40
-14.0
 40
-14.0
 40
-13.0
 40
-13.0
 40
-12.0
 40
-12.0
 40
-11.0
 40
-11.0
 40
-10.0
 40
-10.0
 40
-9.0
 40
-9.0
 40
-8.0
 40
-8.0
 40
-7.0
 40
-7.0
 40
-6.0
 40
-6.0
 40
-5.0
 40
-5.0
 40
-4.0
 40
-4.0
 40
-3.0
 40
-3.0
 40
-2.0
 40
-2.0
 40
-1.0
 40
-1.0
 40
0.0
 40
0.0
 40
0.0
 40
0.0
 10
9.145176334201324
 20
60.69538261801819
 30
0.0
 41
1.0
 10
9.14156521169491
 20
60.68266582190341
 30
0.0
 41
1.0
 10
9.137293755961423
 20
60.67016852422472
 30
0.0
 41
1.0
 10
9.127430178040271
 20
60.64561292573943
 30
0.0
 41
1.0
 10
9.120167806260952
 20
60.6345846943033
 30
0.0
 41
1.0
 10
9.103318417632778
 20
60.61395421270836
 30
0.0
 41
1.0
 10
9.093152821377714
 20
60.60566528218168
 30
0.0
 41
1.0
 10
9.069339824985605
 20
60.59314004166981
 30
0.0
 41
1.0
 10
9.056618354765249
 20
60.59037041034331
 30
0.0
 41
1.0
 10
9.04308191252062
 20
60.59109376794625
 30
0.0
 41
1.0
 10
9.034156112877582
 20
60.59157074298277
 30
0.0
 41
1.0
 10
9.02517939312574
 20
60.59366220344464
 30
0.0
 41
1.0
 10
9.016970813202022
 20
60.59720008700533
 30
0.0
 41
1.0
 10
8.953786948122868
 20
60.62443222211785
 30
0.0
 41
0.9999491787514204
 10
8.890944145344651
 20
60.65244243682794
 30
0.0
 41
0.9999491787514204
 10
8.828451986116477
 20
60.68122646059335
 30
0.0
 41
1.0
 10
8.809771668923304
 20
60.68983065511431
 30
0.0
 41
1.0
 10
8.793023114437801
 20
60.70591133582812
 30
0.0
 41
1.0
 10
8.784677997392492
 20
60.72470882064103
 30
0.0
 41
1.0
 10
8.757091154557429
 20
60.78684854335695
 30
0.0
 41
1.0
 10
8.736596030864632
 20
60.85125843423231
 30
0.0
 41
1.0
 10
8.709789221763629
 20
60.98461855230194
 30
0.0
 41
1.0
 10
8.697793464429026
 20
61.05143464581268
 30
0.0
 41
1.0
 10
8.676617244191533
 20
61.18533890178595
 30
0.0
 41
1.0
 10
8.666117019081753
 20
61.25232180274085
 30
0.0
 41
1.0
 10
8.64529233888004
 20
61.38634915058717
 30
0.0
 41
1.0
 10
8.634567294221824
 20
61.45330998984333
 30
0.0
 41
1.0
 10
8.612491795790731
 20
61.58712599902169
 30
0.0
 41
1.0
 10
8.601278076254914
 20
61.65400477439546
 30
0.0
 41
1.0
 10
8.578498696542852
 20
61.78770386671216
 30
0.0
 41
1.0
 10
8.567010042865888
 20
61.85453631210241
 30
0.0
 41
1.0
 10
8.543834807870098
 20
61.98816700134665
 30
0.0
 41
1.0
 10
8.532213516277238
 20
62.05497649491083
 30
0.0
 41
1.0
 10
8.508903584901702
 20
62.18858377992335
 30
0.0
 41
1.0
 10
8.497248810446877
 20
62.25538744920816
 30
0.0
 41
1.0
 10
8.473939644003053
 20
62.38899484133491
 30
0.0
 41
1.0
 10
8.462367544422932
 20
62.45581287880223
 30
0.0
 41
1.0
 10
8.439388312546441
 20
62.58947763654477
 30
0.0
 41
1.0
 10
8.428069634478618
 20
62.6563389234542
 30
0.0
 41
1.0
 10
8.405774154083957
 20
62.79011931334935
 30
0.0
 41
1.0
 10
8.39466191254678
 20
62.85701538857764
 30
0.0
 41
1.0
 10
8.37250842679282
 20
62.99081929959554
 30
0.0
 41
1.0
 10
8.361331791065822
 20
63.05770456426619
 30
0.0
 41
1.0
 10
8.338778733911795
 20
63.19144171193092
 30
0.0
 41
1.0
 10
8.327239796447373
 20
63.25826581718275
 30
0.0
 41
1.0
 10
8.303637103743739
 20
63.39182509052529
 30
0.0
 41
1.0
 10
8.291189326438996
 20
63.45848358019963
 30
0.0
 41
1.0
 10
8.278095118181312
 20
63.52502092287703
 30
0.0
 41
1.0
  0
SPLINE
  5
112
330
1F
100
AcDbEntity
  8
Default
100
AcDbSpline
210
0.0
220
0.0
230
1.0
 70
     8
 71
     3
 72
     8
 73
     4
 74
     0
 42
0.0000000001
 43
0.0000000001
 40
0.0
 40
0.0
 40
0.0
 40
0.0
 40
1.0
 40
1.0
 40
1.0
 40
1.0
 10
8.278095118181312
 20
63.52502092287703
 30
0.0
 10
8.209593476035877
 20
63.87310743163678
 30
0.0
 10
8.161209836084083
 20
64.3123423265044
 30
0.0
 10
7.863459122913355
 20
64.50521846645826
 30
0.0
  0
SPLINE
  5
113
330
1F
100
AcDbEntity
  8
Default
100
AcDbSpline
210
0.0
220
0.0
230
1.0
 70
     8
 71
     3
 72
    12
 73
     8
 74
     0
 42
0.0000000001
 43
0.0000000001
 40
-5.0
 40
-5.0
 40
-5.0
 40
-5.0
 40
-3.999999983061461
 40
-2.999999966122921
 40
-1.999999949184381
 40
-0.9999999322458418
 40
0.0
 40
0.0
 40
0.0
 40
0.0
 10
7.863459122913355
 20
64.50521846645826
 30
0.0
 10
7.410980206911489
 20
64.79832401707002
 30
0.0
 10
6.348050159431949
 20
65.00604963997581
 30
0.0
 10
4.789765981265219
 20
65.35869556621198
 30
0.0
 10
3.199825909324204
 20
65.58433085658704
 30
0.0
 10
1.603220425427395
 20
65.72705357792881
 30
0.0
 10
0.5342973336193495
 20
65.75823537315351
 30
0.0
 10
-0.0000001381767163
 20
65.75870268534953
 30
0.0
  0
SPLINE
  5
114
330
1F
100
AcDbEntity
  8
Default
100
AcDbSpline
210
0.0
220
0.0
230
1.0
 70
     8
 71
     3
 72
    12
 73
     8
 74
     0
 42
0.0000000001
 43
0.0000000001
 40
0.0
 40
0.0
 40
0.0
 40
0.0
 40
0.9999999322458418
 40
1.999999949184381
 40
2.999999966122921
 40
3.999999983061461
 40
5.0
 40
5.0
 40
5.0
 40
5.0
 10
-0.0000001381767163
 20
65.75870268534953
 30
0.0
 10
-0.5342976099727821
 20
65.75823537315351
 30
0.0
 10
-1.603220701780828
 20
65.72705357792881
 30
0.0
 10
-3.199826185677637
 20
65.58433085658704
 30
0.0
 10
-4.789766257618652
 20
65.35869556621198
 30
0.0
 10
-6.348050435785382
 20
65.00604963997581
 30
0.0
 10
-7.410980483264922
 20
64.79832401707002
 30
0.0
 10
-7.863459399266787
 20
64.50521846645826
 30
0.0
  0
SPLINE
  5
115
330
1F
100
AcDbEntity
  8
Default
100
AcDbSpline
210
0.0
220
0.0
230
1.0
 70
     8
 71
     3
 72
     8
 73
     4
 74
     0
 42
0.0000000001
 43
0.0000000001
 40
-1.0
 40
-1.0
 40
-1.0
 40
-1.0
 40
0.0
 40
0.0
 40
0.0
 40
0.0
 10
-7.863459399266787
 20
64.50521846645826
 30
0.0
 10
-8.161210112437516
 20
64.3123423265044
 30
0.0
 10
-8.20959375238931
 20
63.87310743163678
 30
0.0
 10
-8.278095394534745
 20
63.52502092287703
 30
0.0
  0
SPLINE
  5
116
330
1F
100
AcDbEntity
  8
Default
100
AcDbSpline
210
0.0
220
0.0
230
1.0
 70
    12
 71
     3
 72
    52
 73
    48
 74
     0
 42
0.0000000001
 43
0.0000000001
 40
0.0
 40
0.0
 40
0.0
 40
0.0
 40
1.0
 40
1.0
 40
2.0
 40
2.0
 40
3.0
 40
3.0
 40
4.0
 40
4.0
 40
5.0
 40
5.0
 40
6.0
 40
6.0
 40
7.0
 40
7.0
 40
8.0
 40
8.0
 40
9.0
 40
9.0
 40
10.0
 40
10.0
 40
11.0
 40
11.0
 40
12.0
 40
12.0
 40
13.0
 40
13.0
 40
14.0
 40
14.0
 40
14.0
 40
15.0
 40
15.0
 40
15.0
 40
15.20640238538248
 40
15.20640238538248
 40
15.20640238538248
 40
16.20640238538248
 40
16.20640238538248
 40
16.20640238538248
 40
17.20640238538248
 40
17.20640238538248
 40
18.20640238538248
 40
18.20640238538248
 40
19.20640238538248
 40
19.20640238538248
 40
20.20640238538248
 40
20.20640238538248
 40
20.20640238538248
 40
20.20640238538248
 10
-8.278095394534745
 20
63.52502092287703
 30
0.0
 41
1.0
 10
-8.291189602792429
 20
63.45848358019963
 30
0.0
 41
1.0
 10
-8.303637380097172
 20
63.39182509052529
 30
0.0
 41
1.0
 10
-8.327240072800805
 20
63.25826581718275
 30
0.0
 41
1.0
 10
-8.338779010265227
 20
63.19144171193092
 30
0.0
 41
1.0
 10
-8.361332067419255
 20
63.05770456426619
 30
0.0
 41
1.0
 10
-8.372508703146252
 20
62.99081929959554
 30
0.0
 41
1.0
 10
-8.394662188900213
 20
62.85701538857764
 30
0.0
 41
1.0
 10
-8.40577443043739
 20
62.79011931334935
 30
0.0
 41
1.0
 10
-8.42806991083205
 20
62.6563389234542
 30
0.0
 41
1.0
 10
-8.439388588899874
 20
62.58947763654477
 30
0.0
 41
1.0
 10
-8.462367820776365
 20
62.45581287880223
 30
0.0
 41
1.0
 10
-8.473939920356486
 20
62.38899484133491
 30
0.0
 41
1.0
 10
-8.49724908680031
 20
62.25538744920816
 30
0.0
 41
1.0
 10
-8.508903861255135
 20
62.18858377992335
 30
0.0
 41
1.0
 10
-8.532213792630671
 20
62.05497649491083
 30
0.0
 41
1.0
 10
-8.54383508422353
 20
61.98816700134665
 30
0.0
 41
1.0
 10
-8.567010319219321
 20
61.85453631210241
 30
0.0
 41
1.0
 10
-8.578498972896284
 20
61.78770386671216
 30
0.0
 41
1.0
 10
-8.601278352608347
 20
61.65400477439546
 30
0.0
 41
1.0
 10
-8.612492072144164
 20
61.58712599902169
 30
0.0
 41
1.0
 10
-8.634567570575257
 20
61.45330998984333
 30
0.0
 41
1.0
 10
-8.645292615233473
 20
61.38634915058717
 30
0.0
 41
1.0
 10
-8.666117295435185
 20
61.25232180274085
 30
0.0
 41
1.0
 10
-8.676617520544966
 20
61.18533890178595
 30
0.0
 41
1.0
 10
-8.697793740782458
 20
61.05143464581268
 30
0.0
 41
1.0
 10
-8.709789498117061
 20
60.98461855230194
 30
0.0
 41
1.0
 10
-8.736596307218065
 20
60.85125843423231
 30
0.0
 41
1.0
 10
-8.757091430910862
 20
60.78684854335695
 30
0.0
 41
1.0
 10
-8.784678273745925
 20
60.72470882064103
 30
0.0
 41
1.0
 10
-8.793023390791234
 20
60.70591133582812
 30
0.0
 41
1.0
 10
-8.809771945276736
 20
60.68983065511431
 30
0.0
 41
1.0
 10
-8.82845226246991
 20
60.68122646059335
 30
0.0
 41
1.0
 10
-8.890944421698078
 20
60.65244243682794
 30
0.0
 41
0.9999491787514204
 10
-8.953787224476294
 20
60.62443222211785
 30
0.0
 41
0.9999491787514204
 10
-9.016971089555454
 20
60.59720008700533
 30
0.0
 41
1.0
 10
-9.025179669479172
 20
60.59366220344464
 30
0.0
 41
1.0
 10
-9.034156389231015
 20
60.59157074298277
 30
0.0
 41
1.0
 10
-9.043082188874052
 20
60.59109376794625
 30
0.0
 41
1.0
 10
-9.056618631118681
 20
60.59037041034331
 30
0.0
 41
1.0
 10
-9.069340101339037
 20
60.59314004166981
 30
0.0
 41
1.0
 10
-9.093153097731147
 20
60.60566528218168
 30
0.0
 41
1.0
 10
-9.10331869398621
 20
60.61395421270836
 30
0.0
 41
1.0
 10
-9.120168082614384
 20
60.6345846943033
 30
0.0
 41
1.0
 10
-9.127430454393703
 20
60.64561292573943
 30
0.0
 41
1.0
 10
-9.137294032314855
 20
60.67016852422472
 30
0.0
 41
1.0
 10
-9.141565488048343
 20
60.68266582190341
 30
0.0
 41
1.0
 10
-9.145176610554756
 20
60.69538261801819
 30
0.0
 41
1.0
  0
SPLINE
  5
117
330
1F
100
AcDbEntity
  8
Default
100
AcDbSpline
210
0.0
220
0.0
230
1.0
 70
    12
 71
     2
 72
     6
 73
     3
 74
     0
 42
0.0000000001
 43
0.0000000001
 40
-0.82036355020759
 40
-0.82036355020759
 40
-0.82036355020759
 40
0.0
 40
0.0
 40
0.0
 10
-8.562802639221673
 20
63.64272414004593
 30
0.0
 41
1.0
 10
-8.910541405257604
 20
63.42506571281343
 30
0.0
 41
0.9997845240414619
 10
-9.248946011540852
 20
63.19316107121305
 30
0.0
 41
1.0
  0
SPLINE
  5
118
330
1F
100
AcDbEntity
  8
Default
100
AcDbSpline
210
0.0
220
0.0
230
1.0
 70
     8
 71
     3
 72
     8
 73
     4
 74
     0
 42
0.0000000001
 43
0.0000000001
 40
-1.0
 40
-1.0
 40
-1.0
 40
-1.0
 40
0.0
 40
0.0
 40
0.0
 40
0.0
 10
-9.248946011540852
 20
63.19316107121305
 30
0.0
 10
-9.29341003583528
 20
63.16269040554641
 30
0.0
 10
-9.283777961133922
 20
63.0897887530349
 30
0.0
 10
-9.286936257246936
 20
63.03597856730499
 30
0.0
  0
SPLINE
  5
119
330
1F
100
AcDbEntity
  8
Default
100
AcDbSpline
210
0.0
220
0.0
230
1.0
 70
    12
 71
     2
 72
     6
 73
     3
 74
     0
 42
0.0000000001
 43
0.0000000001
 40
-0.8330522065920086
 40
-0.8330522065920086
 40
-0.8330522065920086
 40
0.0
 40
0.0
 40
0.0
 10
-9.286936257246936
 20
63.03597856730499
 30
0.0
 41
1.0
 10
-9.311341539301935
 20
62.62016804378812
 30
0.0
 41
0.9999999371767105
 10
-9.33553491468544
 20
62.20291086625323
 30
0.0
 41
1.0
  0
SPLINE
  5
11A
330
1F
100
AcDbEntity
  8
Default
100
AcDbSpline
210
0.0
220
0.0
230
1.0
 70
     8
 71
     3
 72
     9
 73
     5
 74
     0
 42
0.0000000001
 43
0.0000000001
 40
0.0
 40
0.0
 40
0.0
 40
0.0
 40
1.0
 40
2.0
 40
2.0
 40
2.0
 40
2.0
 10
-9.33553491468544
 20
62.20291086625323
 30
0.0
 10
-9.332307380485531
 20
62.11425343064546
 30
0.0
 10
-9.325926552152112
 20
61.93979347836587
 30
0.0
 10
-9.316732500229165
 20
61.76543075544704
 30
0.0
 10
-9.314725681312979
 20
61.67817538375053
 30
0.0
  0
SPLINE
  5
11B
330
1F
100
AcDbEntity
  8
Default
100
AcDbSpline
210
0.0
220
0.0
230
1.0
 70
    12
 71
     3
 72
    12
 73
     8
 74
     0
 42
0.0000000001
 43
0.0000000001
 40
0.0
 40
0.0
 40
0.0
 40
0.0
 40
0.2499529364330814
 40
0.2499529364330814
 40
0.5000632807527418
 40
0.5000632807527418
 40
1.0
 40
1.0
 40
1.0
 40
1.0
 10
-9.314725681312979
 20
61.67817538375053
 30
0.0
 41
1.0
 10
-9.307076084613811
 20
61.54333445839751
 30
0.0
 41
1.0
 10
-9.280194505631329
 20
61.40792086792746
 30
0.0
 41
1.0
 10
-9.24327844182639
 20
61.13129574515753
 30
0.0
 41
1.0
 10
-9.223601611073775
 20
60.99926039524019
 30
0.0
 41
1.0
 10
-9.164618536770746
 20
60.70925789174174
 30
0.0
 41
1.0
 10
-9.12528990138955
 20
60.63109935261352
 30
0.0
 41
1.0
 10
-9.08685553444056
 20
60.64843820308816
 30
0.0
 41
1.0
  0
SPLINE
  5
11C
330
1F
100
AcDbEntity
  8
Default
100
AcDbSpline
210
0.0
220
0.0
230
1.0
 70
    12
 71
     3
 72
     8
 73
     4
 74
     0
 42
0.0000000001
 43
0.0000000001
 40
0.0
 40
0.0
 40
0.0
 40
0.0
 40
1.0
 40
1.0
 40
1.0
 40
1.0
 10
-9.08685553444056
 20
60.64843820308816
 30
0.0
 41
1.0
 10
-9.0431854122032
 20
60.66750277838476
 30
0.0
 41
1.0
 10
-8.996136125694363
 20
60.81663241209161
 30
0.0
 41
1.0
 10
-8.95518784212959
 20
61.06868837560187
 30
0.0
 41
1.0
  0
SPLINE
  5
11D
330
1F
100
AcDbEntity
  8
Default
100
AcDbSpline
210
0.0
220
0.0
230
1.0
 70
    12
 71
     2
 72
     6
 73
     3
 74
     0
 42
0.0000000001
 43
0.0000000001
 40
0.0
 40
0.0
 40
0.0
 40
2.473814814921534
 40
2.473814814921534
 40
2.473814814921534
 10
-8.95518784212959
 20
61.06868837560187
 30
0.0
 41
1.0
 10
-8.759699210465557
 20
62.29004997224659
 30
0.0
 41
0.999999990079095
 10
-8.560707161638248
 20
63.53869345856505
 30
0.0
 41
1.0
  0
SPLINE
  5
11E
330
1F
100
AcDbEntity
  8
Default
100
AcDbSpline
210
0.0
220
0.0
230
1.0
 70
     8
 71
     3
 72
    12
 73
     8
 74
     0
 42
0.0000000001
 43
0.0000000001
 40
0.0
 40
0.0
 40
0.0
 40
0.0
 40
0.3556540268143964
 40
0.5829384906569121
 40
1.112841209819618
 40
1.617002821852822
 40
2.288684243502986
 40
2.288684243502986
 40
2.288684243502986
 40
2.288684243502986
 10
-8.560707161638248
 20
63.53869345856505
 30
0.0
 10
-8.544839055449984
 20
63.65617288819273
 30
0.0
 10
-8.545255155738403
 20
63.85171471142056
 30
0.0
 10
-8.461017392035728
 20
64.2149639513149
 30
0.0
 10
-8.2481851704583
 20
64.58665991806157
 30
0.0
 10
-7.792352436591415
 20
64.94533754309879
 30
0.0
 10
-7.401383073741215
 20
65.03511179333033
 30
0.0
 10
-7.187147759259318
 20
65.09305461896201
 30
0.0
  0
SPLINE
  5
11F
330
1F
100
AcDbEntity
  8
Default
100
AcDbSpline
210
0.0
220
0.0
230
1.0
 70
    12
 71
     2
 72
     6
 73
     3
 74
     0
 42
0.0000000001
 43
0.0000000001
 40
0.0
 40
0.0
 40
0.0
 40
7.268552561359619
 40
7.268552561359619
 40
7.268552561359619
 10
-7.187147759259318
 20
65.09305461896201
 30
0.0
 41
1.0
 10
-3.65468087516613
 20
66.03027097158144
 30
0.0
 41
0.9916460156397756
 10
-0.0000001381767098
 20
66.03261394210776
 30
0.0
 41
0.9999999996870765
  0
SPLINE
  5
120
330
1F
100
AcDbEntity
  8
Default
100
AcDbSpline
210
0.0
220
0.0
230
1.0
 70
    12
 71
     2
 72
     6
 73
     3
 74
     0
 42
0.0000000001
 43
0.0000000001
 40
-7.268552561359619
 40
-7.268552561359619
 40
-7.268552561359619
 40
0.0
 40
0.0
 40
0.0
 10
-0.0000001381767098
 20
66.03261394210776
 30
0.0
 41
0.9999999996870765
 10
3.654680598812701
 20
66.03027097158144
 30
0.0
 41
0.9916460156397756
 10
7.187147482905885
 20
65.09305461896201
 30
0.0
 41
1.0
  0
SPLINE
  5
121
330
1F
100
AcDbEntity
  8
Default
100
AcDbSpline
210
0.0
220
0.0
230
1.0
 70
     8
 71
     3
 72
    12
 73
     8
 74
     0
 42
0.0000000001
 43
0.0000000001
 40
-2.288684243502986
 40
-2.288684243502986
 40
-2.288684243502986
 40
-2.288684243502986
 40
-1.617002821852822
 40
-1.112841209819618
 40
-0.5829384906569121
 40
-0.3556540268143964
 40
0.0
 40
0.0
 40
0.0
 40
0.0
 10
7.187147482905885
 20
65.09305461896201
 30
0.0
 10
7.401382797387782
 20
65.03511179333033
 30
0.0
 10
7.792352160237982
 20
64.94533754309879
 30
0.0
 10
8.248184894104867
 20
64.58665991806157
 30
0.0
 10
8.461017115682296
 20
64.2149639513149
 30
0.0
 10
8.54525487938497
 20
63.85171471142056
 30
0.0
 10
8.544838779096551
 20
63.65617288819273
 30
0.0
 10
8.560706885284816
 20
63.53869345856505
 30
0.0
  0
SPLINE
  5
122
330
1F
100
AcDbEntity
  8
Default
100
AcDbSpline
210
0.0
220
0.0
230
1.0
 70
    12
 71
     2
 72
     6
 73
     3
 74
     0
 42
0.0000000001
 43
0.0000000001
 40
-2.473814814921534
 40
-2.473814814921534
 40
-2.473814814921534
 40
0.0
 40
0.0
 40
0.0
 10
8.560706885284816
 20
63.53869345856505
 30
0.0
 41
1.0
 10
8.759698934112102
 20
62.29004997224659
 30
0.0
 41
0.999999990079095
 10
8.955187565776157
 20
61.06868837560187
 30
0.0
 41
1.0
  0
SPLINE
  5
123
330
1F
100
AcDbEntity
  8
Default
100
AcDbSpline
210
0.0
220
0.0
230
1.0
 70
    12
 71
     3
 72
     8
 73
     4
 74
     0
 42
0.0000000001
 43
0.0000000001
 40
-1.0
 40
-1.0
 40
-1.0
 40
-1.0
 40
0.0
 40
0.0
 40
0.0
 40
0.0
 10
8.955187565776157
 20
61.06868837560187
 30
0.0
 41
1.0
 10
8.99613584934093
 20
60.81663241209161
 30
0.0
 41
1.0
 10
9.043185135849768
 20
60.66750277838476
 30
0.0
 41
1.0
 10
9.086855258087127
 20
60.64843820308816
 30
0.0
 41
1.0
  0
SPLINE
  5
124
330
1F
100
AcDbEntity
  8
Default
100
AcDbSpline
210
0.0
220
0.0
230
1.0
 70
    12
 71
     3
 72
    12
 73
     8
 74
     0
 42
0.0000000001
 43
0.0000000001
 40
-1.0
 40
-1.0
 40
-1.0
 40
-1.0
 40
-0.5000632807527418
 40
-0.5000632807527418
 40
-0.2499529364330814
 40
-0.2499529364330814
 40
0.0
 40
0.0
 40
0.0
 40
0.0
 10
9.086855258087127
 20
60.64843820308816
 30
0.0
 41
1.0
 10
9.125289625036118
 20
60.63109935261352
 30
0.0
 41
1.0
 10
9.164618260417313
 20
60.70925789174174
 30
0.0
 41
1.0
 10
9.223601334720342
 20
60.99926039524019
 30
0.0
 41
1.0
 10
9.243278165472958
 20
61.13129574515753
 30
0.0
 41
1.0
 10
9.280194229277896
 20
61.40792086792746
 30
0.0
 41
1.0
 10
9.307075808260379
 20
61.54333445839751
 30
0.0
 41
1.0
 10
9.314725404959546
 20
61.67817538375053
 30
0.0
 41
1.0
  0
SPLINE
  5
125
330
1F
100
AcDbEntity
  8
Default
100
AcDbSpline
210
0.0
220
0.0
230
1.0
 70
     8
 71
     3
 72
     9
 73
     5
 74
     0
 42
0.0000000001
 43
0.0000000001
 40
-2.0
 40
-2.0
 40
-2.0
 40
-2.0
 40
-1.0
 40
0.0
 40
0.0
 40
0.0
 40
0.0
 10
9.314725404959546
 20
61.67817538375053
 30
0.0
 10
9.316732223875732
 20
61.76543075544704
 30
0.0
 10
9.325926275798679
 20
61.93979347836587
 30
0.0
 10
9.332307104132099
 20
62.11425343064546
 30
0.0
 10
9.335534638332007
 20
62.20291086625323
 30
0.0
  0
SPLINE
  5
126
330
1F
100
AcDbEntity
  8
Default
100
AcDbSpline
210
0.0
220
0.0
230
1.0
 70
    12
 71
     2
 72
     6
 73
     3
 74
     0
 42
0.0000000001
 43
0.0000000001
 40
0.0
 40
0.0
 40
0.0
 40
0.8330522065920086
 40
0.8330522065920086
 40
0.8330522065920086
 10
9.335534638332007
 20
62.20291086625323
 30
0.0
 41
1.0
 10
9.311341262948524
 20
62.62016804378812
 30
0.0
 41
0.9999999371767105
 10
9.286935980893503
 20
63.03597856730499
 30
0.0
 41
1.0
  0
SPLINE
  5
127
330
1F
100
AcDbEntity
  8
Default
100
AcDbSpline
210
0.0
220
0.0
230
1.0
 70
     8
 71
     3
 72
     8
 73
     4
 74
     0
 42
0.0000000001
 43
0.0000000001
 40
0.0
 40
0.0
 40
0.0
 40
0.0
 40
1.0
 40
1.0
 40
1.0
 40
1.0
 10
9.286935980893503
 20
63.03597856730499
 30
0.0
 10
9.283777684780489
 20
63.0897887530349
 30
0.0
 10
9.293409759481847
 20
63.16269040554641
 30
0.0
 10
9.24894573518742
 20
63.19316107121305
 30
0.0
  0
SPLINE
  5
128
330
1F
100
AcDbEntity
  8
Default
100
AcDbSpline
210
0.0
220
0.0
230
1.0
 70
    12
 71
     2
 72
     6
 73
     3
 74
     0
 42
0.0000000001
 43
0.0000000001
 40
0.0
 40
0.0
 40
0.0
 40
0.82036355020759
 40
0.82036355020759
 40
0.82036355020759
 10
9.24894573518742
 20
63.19316107121305
 30
0.0
 41
1.0
 10
8.91054112890416
 20
63.42506571281343
 30
0.0
 41
0.9997845240414619
 10
8.56280236286824
 20
63.64272414004593
 30
0.0
 41
1.0
  0
SPLINE
  5
129
330
1F
100
AcDbEntity
  8
Default
100
AcDbSpline
210
0.0
220
0.0
230
1.0
 70
     8
 71
     3
 72
    11
 73
     7
 74
     0
 42
0.0000000001
 43
0.0000000001
 40
-0.21018922034502
 40
-0.21018922034502
 40
-0.21018922034502
 40
-0.21018922034502
 40
-0.127177191241357
 40
-0.0700381206658692
 40
-0.03171839376249
 40
0.0
 40
0.0
 40
0.0
 40
0.0
 10
-8.74294560177563
 20
60.84697956514078
 30
0.0
 10
-8.736198221644372
 20
60.82017572803259
 30
0.0
 10
-8.723486840329173
 20
60.77508740537657
 30
0.0
 10
-8.701236179011374
 20
60.71989387354843
 30
0.0
 10
-8.674864781394177
 20
60.68545650547887
 30
0.0
 10
-8.651346115997029
 20
60.67772401391377
 30
0.0
 10
-8.640771477198257
 20
60.67861861697116
 30
0.0
  0
SPLINE
  5
12A
330
1F
100
AcDbEntity
  8
Default
100
AcDbSpline
210
0.0
220
0.0
230
1.0
 70
     8
 71
     3
 72
     8
 73
     4
 74
     0
 42
0.0000000001
 43
0.0000000001
 40
0.0
 40
0.0
 40
0.0
 40
0.0
 40
1.0
 40
1.0
 40
1.0
 40
1.0
 10
-8.640771477198257
 20
60.67861861697116
 30
0.0
 10
-2.900761193214578
 20
61.16421730712118
 30
0.0
 10
2.900760916861145
 20
61.16421730712095
 30
0.0
 10
8.640771200844824
 20
60.67861861697116
 30
0.0
  0
SPLINE
  5
12B
330
1F
100
AcDbEntity
  8
Default
100
AcDbSpline
210
0.0
220
0.0
230
1.0
 70
     8
 71
     3
 72
    11
 73
     7
 74
     0
 42
0.0000000001
 43
0.0000000001
 40
0.0
 40
0.0
 40
0.0
 40
0.0
 40
0.03171839376249
 40
0.0700381206658692
 40
0.127177191241357
 40
0.21018922034502
 40
0.21018922034502
 40
0.21018922034502
 40
0.21018922034502
 10
8.640771200844824
 20
60.67861861697116
 30
0.0
 10
8.651345839643596
 20
60.67772401391377
 30
0.0
 10
8.674864505040745
 20
60.68545650547887
 30
0.0
 10
8.701235902657942
 20
60.71989387354843
 30
0.0
 10
8.72348656397574
 20
60.77508740537657
 30
0.0
 10
8.73619794529094
 20
60.82017572803259
 30
0.0
 10
8.742945325422198
 20
60.84697956514078
 30
0.0
  0
SPLINE
  5
12C
330
1F
100
AcDbEntity
  8
Default
100
AcDbSpline
210
0.0
220
0.0
230
1.0
 70
    12
 71
     2
 72
     6
 73
     3
 74
     0
 42
0.0000000001
 43
0.0000000001
 40
0.0
 40
0.0
 40
0.0
 40
2.327886943247079
 40
2.327886943247079
 40
2.327886943247079
 10
8.54224588955762
 20
63.77062470845397
 30
0.0
 41
1.0
 10
8.727547322924643
 20
62.62152601044884
 30
0.0
 41
0.9999999812716688
 10
8.91240395564418
 20
61.4723556730729
 30
0.0
 41
1.0
  0
SPLINE
  5
12D
330
1F
100
AcDbEntity
  8
Default
100
AcDbSpline
210
0.0
220
0.0
230
1.0
 70
     8
 71
     3
 72
    12
 73
     8
 74
     0
 42
0.0000000001
 43
0.0000000001
 40
0.0
 40
0.0
 40
0.0
 40
0.0
 40
0.1718621888137236
 40
0.290572263594108
 40
0.3575568754929188
 40
0.3732783408708742
 40
0.3907771773000948
 40
0.3907771773000948
 40
0.3907771773000948
 40
0.3907771773000948
 10
8.91240395564418
 20
61.4723556730729
 30
0.0
 10
8.921883068164533
 20
61.41608098551077
 30
0.0
 10
8.938811678672437
 20
61.32002572087167
 30
0.0
 10
8.969154344560394
 20
61.20552220606457
 30
0.0
 10
8.994269591787287
 20
61.14185182886717
 30
0.0
 10
9.02193457472896
 20
61.12096613726594
 30
0.0
 10
9.034704141492284
 20
61.13124891649014
 30
0.0
 10
9.03714065689286
 20
61.13473531666602
 30
0.0
  0
SPLINE
  5
12E
330
1F
100
AcDbEntity
  8
Default
100
AcDbSpline
210
0.0
220
0.0
230
1.0
 70
     8
 71
     3
 72
    12
 73
     8
 74
     0
 42
0.0000000001
 43
0.0000000001
 40
2.718664120547174
 40
2.718664120547174
 40
2.718664120547174
 40
2.718664120547174
 40
2.773853659112983
 40
2.858542739877446
 40
3.159325610408737
 40
3.972965331333879
 40
4.217555591940402
 40
4.217555591940402
 40
4.217555591940402
 40
4.217555591940402
 10
9.03714065689286
 20
61.13473531666602
 30
0.0
 10
9.048309473666478
 20
61.14955979776256
 30
0.0
 10
9.065874888099671
 20
61.19296770829826
 30
0.0
 10
9.10234762150219
 20
61.33545695564472
 30
0.0
 10
9.166725618614464
 20
61.73009770803655
 30
0.0
 10
9.220343875508291
 20
62.17993405381137
 30
0.0
 10
9.266375469576417
 20
62.52968376820127
 30
0.0
 10
9.26413081605628
 20
62.61164864750231
 30
0.0
  0
ARC
  5
12F
330
1F
100
AcDbEntity
  8
Default
100
AcDbCircle
 10
237.9170903792022
 20
68.87343631738607
 30
0.0
 40
228.7386847514175
100
AcDbArc
 50
181.4229742469608
 51
181.5686845120217
  0
SPLINE
  5
130
330
1F
100
AcDbEntity
  8
Default
100
AcDbSpline
210
0.0
220
0.0
230
1.0
 70
     8
 71
     3
 72
    10
 73
     6
 74
     0
 42
0.0000000001
 43
0.0000000001
 40
-12.24581096497875
 40
-12.24581096497875
 40
-12.24581096497875
 40
-12.24581096497875
 40
-11.9855312274426
 40
-10.9855312274426
 40
-9.985531227442603
 40
-9.985531227442603
 40
-9.985531227442603
 40
-9.985531227442603
 10
-9.250821988353039
 20
61.18926787576018
 30
0.0
 10
-9.322873385489686
 20
60.67075159595603
 30
0.0
 10
-9.621546666004633
 20
58.1476692226824
 30
0.0
 10
-10.00410222436625
 20
53.60826025564691
 30
0.0
 10
-10.21018708372253
 20
49.5805331463953
 30
0.0
 10
-10.19165145403275
 20
47.56457072020915
 30
0.0
  0
SPLINE
  5
131
330
1F
100
AcDbEntity
  8
Default
100
AcDbSpline
210
0.0
220
0.0
230
1.0
 70
     8
 71
     3
 72
     8
 73
     4
 74
     0
 42
0.0000000001
 43
0.0000000001
 40
-9.985531227442603
 40
-9.985531227442603
 40
-9.985531227442603
 40
-9.985531227442603
 40
-8.985531227442603
 40
-8.985531227442603
 40
-8.985531227442603
 40
-8.985531227442603
 10
-10.19165145403275
 20
47.56457072020915
 30
0.0
 10
-10.18478553024798
 20
46.81782272174185
 30
0.0
 10
-9.736459674464243
 20
46.41101419988804
 30
0.0
 10
-8.971889097524695
 20
46.33773654933824
 30
0.0
  0
SPLINE
  5
132
330
1F
100
AcDbEntity
  8
Default
100
AcDbSpline
210
0.0
220
0.0
230
1.0
 70
    12
 71
     2
 72
     6
 73
     3
 74
     0
 42
0.0000000001
 43
0.0000000001
 40
-8.985531227442603
 40
-8.985531227442603
 40
-8.985531227442603
 40
0.0
 40
0.0
 40
0.0
 10
-8.971889097524695
 20
46.33773654933824
 30
0.0
 41
1.0
 10
-4.496207560490378
 20
45.9087801684168
 30
0.0
 41
0.9988578034794814
 10
-0.0000001381767163
 20
45.90900506572845
 30
0.0
 41
1.0
  0
SPLINE
  5
133
330
1F
100
AcDbEntity
  8
Default
100
AcDbSpline
210
0.0
220
0.0
230
1.0
 70
    12
 71
     2
 72
     6
 73
     3
 74
     0
 42
0.0000000001
 43
0.0000000001
 40
0.0
 40
0.0
 40
0.0
 40
8.985531227442603
 40
8.985531227442603
 40
8.985531227442603
 10
-0.0000001381767163
 20
45.90900506572845
 30
0.0
 41
1.0
 10
4.496207284136925
 20
45.9087801684168
 30
0.0
 41
0.9988578034794814
 10
8.971888821171262
 20
46.33773654933824
 30
0.0
 41
1.0
  0
SPLINE
  5
134
330
1F
100
AcDbEntity
  8
Default
100
AcDbSpline
210
0.0
220
0.0
230
1.0
 70
     8
 71
     3
 72
     8
 73
     4
 74
     0
 42
0.0000000001
 43
0.0000000001
 40
8.985531227442603
 40
8.985531227442603
 40
8.985531227442603
 40
8.985531227442603
 40
9.985531227442603
 40
9.985531227442603
 40
9.985531227442603
 40
9.985531227442603
 10
8.971888821171262
 20
46.33773654933824
 30
0.0
 10
9.73645939811081
 20
46.41101419988804
 30
0.0
 10
10.18478525389455
 20
46.81782272174185
 30
0.0
 10
10.19165117767932
 20
47.56457072020915
 30
0.0
  0
SPLINE
  5
135
330
1F
100
AcDbEntity
  8
Default
100
AcDbSpline
210
0.0
220
0.0
230
1.0
 70
     8
 71
     3
 72
    10
 73
     6
 74
     0
 42
0.0000000001
 43
0.0000000001
 40
9.985531227442603
 40
9.985531227442603
 40
9.985531227442603
 40
9.985531227442603
 40
10.9855312274426
 40
11.9855312274426
 40
12.24581096497875
 40
12.24581096497875
 40
12.24581096497875
 40
12.24581096497875
 10
10.19165117767932
 20
47.56457072020915
 30
0.0
 10
10.2101868073691
 20
49.5805331463953
 30
0.0
 10
10.00410194801282
 20
53.60826025564691
 30
0.0
 10
9.6215463896512
 20
58.1476692226824
 30
0.0
 10
9.322873109136253
 20
60.67075159595603
 30
0.0
 10
9.250821711999606
 20
61.18926787576018
 30
0.0
  0
SPLINE
  5
136
330
1F
100
AcDbEntity
  8
Default
100
AcDbSpline
210
0.0
220
0.0
230
1.0
 70
     8
 71
     2
 72
    10
 73
     7
 74
     0
 42
0.0000000001
 43
0.0000000001
 40
-5.0
 40
-5.0
 40
-5.0
 40
-4.0
 40
-3.0
 40
-2.0
 40
-1.0
 40
0.0
 40
0.0
 40
0.0
 10
8.155787930314261
 20
14.80674459376006
 30
0.0
 10
8.182200421790583
 20
14.78212549896993
 30
0.0
 10
8.167304396156368
 20
14.70757046723701
 30
0.0
 10
8.147777727309887
 20
14.63987761033602
 30
0.0
 10
8.12267728806438
 20
14.57303492558823
 30
0.0
 10
8.094109236276978
 20
14.50779851376367
 30
0.0
 10
8.078663488378766
 20
14.47569781637454
 30
0.0
  0
SPLINE
  5
137
330
1F
100
AcDbEntity
  8
Default
100
AcDbSpline
210
0.0
220
0.0
230
1.0
 70
    12
 71
     2
 72
     8
 73
     5
 74
     0
 42
0.0000000001
 43
0.0000000001
 40
-0.1292021222891379
 40
-0.1292021222891379
 40
-0.1292021222891379
 40
-0.0258868090984241
 40
-0.0258868090984241
 40
0.0
 40
0.0
 40
0.0
 10
8.078663488378766
 20
14.47569781637454
 30
0.0
 41
1.0
 10
8.056151136899745
 20
14.42920364233244
 30
0.0
 41
0.9999998021234121
 10
8.033697301187033
 20
14.38268118054505
 30
0.0
 41
1.0
 10
8.028071241672686
 20
14.37102445808792
 30
0.0
 41
0.9999999875680456
 10
8.022448858570527
 20
14.3593659619433
 30
0.0
 41
1.0
  0
SPLINE
  5
138
330
1F
100
AcDbEntity
  8
Default
100
AcDbSpline
210
0.0
220
0.0
230
1.0
 70
    12
 71
     2
 72
     8
 73
     5
 74
     0
 42
0.0000000001
 43
0.0000000001
 40
-0.0516147083710311
 40
-0.0516147083710311
 40
-0.0516147083710311
 40
-0.0382455557015038
 40
-0.0382455557015038
 40
0.0
 40
0.0
 40
0.0
 10
8.022448858570527
 20
14.3593659619433
 30
0.0
 41
1.0
 10
8.019745026534718
 20
14.35320978979853
 30
0.0
 41
0.9912778962014248
 10
8.015526646376514
 20
14.34797391050325
 30
0.0
 41
1.0
 10
8.002923548522356
 20
14.33222635003402
 30
0.0
 41
0.9239178704950614
 10
7.98287705173064
 20
14.3299988620697
 30
0.0
 41
1.0
  0
SPLINE
  5
139
330
1F
100
AcDbEntity
  8
Default
100
AcDbSpline
210
0.0
220
0.0
230
1.0
 70
     8
 71
     2
 72
    23
 73
    20
 74
     0
 42
0.0000000001
 43
0.0000000001
 40
0.0
 40
0.0
 40
0.0
 40
1.0
 40
2.0
 40
3.0
 40
4.0
 40
5.0
 40
6.0
 40
7.0
 40
8.0
 40
9.0
 40
10.0
 40
11.0
 40
12.0
 40
13.0
 40
14.0
 40
15.0
 40
16.0
 40
17.0
 40
18.0
 40
18.0
 40
18.0
 10
7.98287705173064
 20
14.3299988620697
 30
0.0
 10
7.924197955469253
 20
14.32945947135389
 30
0.0
 10
7.807095180060514
 20
14.3219968539004
 30
0.0
 10
7.690237209494114
 20
14.31147012462233
 30
0.0
 10
7.573303686276688
 20
14.30185981397728
 30
0.0
 10
7.456365283921485
 20
14.2922998199781
 30
0.0
 10
7.339415657808985
 20
14.28292812775113
 30
0.0
 10
7.222424089436061
 20
14.27378831108302
 30
0.0
 10
7.105427134513945
 20
14.26655596534834
 30
0.0
 10
6.987591680319952
 20
14.26089931398976
 30
0.0
 10
6.873974709365172
 20
14.25913440602812
 30
0.0
 10
6.735112324417116
 20
14.25703443736762
 30
0.0
 10
6.743969719497045
 20
14.30084421714872
 30
0.0
 10
6.877670860981993
 20
14.31795987630088
 30
0.0
 10
6.991056502908094
 20
14.33262509346701
 30
0.0
 10
7.10811066382476
 20
14.34624057090991
 30
0.0
 10
7.224557376017913
 20
14.35986921558486
 30
0.0
 10
7.341063440790549
 20
14.37375822906321
 30
0.0
 10
7.457903824113004
 20
14.38536147265891
 30
0.0
 10
7.515279590059322
 20
14.39786799892195
 30
0.0
  0
SPLINE
  5
13A
330
1F
100
AcDbEntity
  8
Default
100
AcDbSpline
210
0.0
220
0.0
230
1.0
 70
     8
 71
     3
 72
     8
 73
     4
 74
     0
 42
0.0000000001
 43
0.0000000001
 40
0.0
 40
0.0
 40
0.0
 40
0.0
 40
1.0
 40
1.0
 40
1.0
 40
1.0
 10
7.515279590059322
 20
14.39786799892195
 30
0.0
 10
7.534560626371444
 20
14.40207079749098
 30
0.0
 10
7.553631134289787
 20
14.41842180464818
 30
0.0
 10
7.559459527973161
 20
14.43727523150254
 30
0.0
  0
SPLINE
  5
13B
330
1F
100
AcDbEntity
  8
Default
100
AcDbSpline
210
0.0
220
0.0
230
1.0
 70
     8
 71
     2
 72
    13
 73
    10
 74
     0
 42
0.0000000001
 43
0.0000000001
 40
-8.0
 40
-8.0
 40
-8.0
 40
-7.0
 40
-6.0
 40
-5.0
 40
-4.0
 40
-3.0
 40
-2.0
 40
-1.0
 40
0.0
 40
0.0
 40
0.0
 10
7.559459527973161
 20
14.43727523150254
 30
0.0
 10
7.568621248331311
 20
14.46691115419675
 30
0.0
 10
7.586908238529674
 20
14.52619370218736
 30
0.0
 10
7.605428349744216
 20
14.5854070941724
 30
0.0
 10
7.626279481196008
 20
14.64385108027588
 30
0.0
 10
7.649989754821547
 20
14.70118695457881
 30
0.0
 10
7.67729871993663
 20
14.75698824508594
 30
0.0
 10
7.708636908476933
 20
14.81016565053943
 30
0.0
 10
7.747498267551123
 20
14.86131085481592
 30
0.0
 10
7.778841320886897
 20
14.86674174792795
 30
0.0
  0
SPLINE
  5
13C
330
1F
100
AcDbEntity
  8
Default
100
AcDbSpline
210
0.0
220
0.0
230
1.0
 70
    12
 71
     2
 72
     6
 73
     3
 74
     0
 42
0.0000000001
 43
0.0000000001
 40
-0.3816932761729621
 40
-0.3816932761729621
 40
-0.3816932761729621
 40
0.0
 40
0.0
 40
0.0
 10
7.778841320886897
 20
14.86674174792795
 30
0.0
 41
1.0
 10
7.967472922882836
 20
14.83773771174618
 30
0.0
 41
0.9999860778425367
 10
8.155787930314261
 20
14.80674459376006
 30
0.0
 41
1.0
  0
SPLINE
  5
13D
330
1F
100
AcDbEntity
  8
Default
100
AcDbSpline
210
0.0
220
0.0
230
1.0
 70
     8
 71
     2
 72
    28
 73
    25
 74
     0
 42
0.0000000001
 43
0.0000000001
 40
0.0
 40
0.0
 40
0.0
 40
1.0
 40
2.0
 40
3.0
 40
4.0
 40
5.0
 40
6.0
 40
7.0
 40
8.0
 40
9.0
 40
10.0
 40
11.0
 40
12.0
 40
13.0
 40
14.0
 40
15.0
 40
16.0
 40
17.0
 40
18.0
 40
19.0
 40
20.0
 40
21.0
 40
22.0
 40
23.0
 40
23.0
 40
23.0
 10
5.620818390796359
 20
14.26464119533517
 30
0.0
 10
5.572612490933921
 20
14.28732743736231
 30
0.0
 10
5.685273803030469
 20
14.30811394405166
 30
0.0
 10
5.764940804155884
 20
14.32195140608838
 30
0.0
 10
5.850796195752821
 20
14.33366548637791
 30
0.0
 10
5.935853517923732
 20
14.34373594420875
 30
0.0
 10
6.021216454239323
 20
14.35260213311894
 30
0.0
 10
6.106650075154221
 20
14.36043939735954
 30
0.0
 10
6.192167749446185
 20
14.36736331311959
 30
0.0
 10
6.27775585685697
 20
14.37333245955141
 30
0.0
 10
6.363372470455317
 20
14.37887602681352
 30
0.0
 10
6.448984152392882
 20
14.38449313021522
 30
0.0
 10
6.534596700998577
 20
14.39009803421015
 30
0.0
 10
6.620209023756047
 20
14.39570526116918
 30
0.0
 10
6.705821414850391
 20
14.40131236233971
 30
0.0
 10
6.791433789997285
 20
14.40691885703762
 30
0.0
 10
6.877045942213186
 20
14.41252944912816
 30
0.0
 10
6.962659608048
 20
14.4181152343029
 30
0.0
 10
7.048264662498923
 20
14.42384327700457
 30
0.0
 10
7.133923716000993
 20
14.42868180597151
 30
0.0
 10
7.219669184630305
 20
14.43193535874675
 30
0.0
 10
7.305422116481594
 20
14.4329302013298
 30
0.0
 10
7.391447891501343
 20
14.43199273695376
 30
0.0
 10
7.475422236286363
 20
14.41458034238751
 30
0.0
 10
7.517137899675959
 20
14.4045325394158
 30
0.0
  0
SPLINE
  5
13E
330
1F
100
AcDbEntity
  8
Default
100
AcDbSpline
210
0.0
220
0.0
230
1.0
 70
    12
 71
     3
 72
    23
 73
    19
 74
     0
 42
0.0000000001
 43
0.0000000001
 40
-0.1321406403462559
 40
-0.1321406403462559
 40
-0.1321406403462559
 40
-0.1321406403462559
 40
0.0
 40
0.0
 40
0.0
 40
0.2003496537097945
 40
0.2003496537097945
 40
0.2003496537097945
 40
0.9323566350869398
 40
0.9323566350869398
 40
0.9323566350869398
 40
1.93235663508694
 40
1.93235663508694
 40
1.93235663508694
 40
2.283459282416877
 40
2.546898747415158
 40
2.655699652714654
 40
2.694275768201841
 40
2.694275768201841
 40
2.694275768201841
 40
2.694275768201841
 10
8.72935243591084
 20
15.02339061112806
 30
0.0
 41
1.0
 10
8.717704221958334
 20
15.01059368346941
 30
0.0
 41
0.9967849731773842
 10
8.704856919906064
 20
14.99900105323459
 30
0.0
 41
0.9967849731773842
 10
8.690934443016062
 20
14.98872453227504
 30
0.0
 41
1.0
 10
8.635215391704724
 20
14.94759693672059
 30
0.0
 41
0.9604668392684216
 10
8.56884838594234
 20
14.92781026592278
 30
0.0
 41
0.9604668392684216
 10
8.499704518247114
 20
14.93171120879259
 30
0.0
 41
1.0
 10
8.255812235167811
 20
14.93903904871671
 30
0.0
 41
0.9999998767016653
 10
8.011924453914057
 20
14.94651522011183
 30
0.0
 41
0.9999998767016653
 10
7.768041264698809
 20
14.95413972021256
 30
0.0
 41
1.0
 10
7.254035399581852
 20
14.97020904332979
 30
0.0
 41
1.0
 10
6.739654510044772
 20
14.92207967771573
 30
0.0
 41
1.0
 10
6.226951993065484
 20
14.88212493327704
 30
0.0
 41
1.0
 10
6.111013101549389
 20
14.87308985225516
 30
0.0
 41
1.0
 10
5.904310680925789
 20
14.86088416057222
 30
0.0
 41
1.0
 10
5.667695529454733
 20
14.83018811672399
 30
0.0
 41
1.0
 10
5.529847517228916
 20
14.81133027386988
 30
0.0
 41
1.0
 10
5.487228943994467
 20
14.7861902903484
 30
0.0
 41
1.0
 10
5.493214280883933
 20
14.76294328120555
 30
0.0
 41
1.0
  0
SPLINE
  5
13F
330
1F
100
AcDbEntity
  8
Default
100
AcDbSpline
210
0.0
220
0.0
230
1.0
 70
    24
 71
     2
 72
     6
 73
     3
 74
     0
 42
0.0000000001
 43
0.0000000001
 40
0.0
 40
0.0
 40
0.0
 40
0.4440809439702916
 40
0.4440809439702916
 40
0.4440809439702916
 10
5.493214280883933
 20
14.76294328120555
 30
0.0
 10
5.516595554126212
 20
14.54213728658367
 30
0.0
 10
5.539976827368491
 20
14.3213312919618
 30
0.0
  0
SPLINE
  5
140
330
1F
100
AcDbEntity
  8
Default
100
AcDbSpline
210
0.0
220
0.0
230
1.0
 70
     8
 71
     3
 72
     8
 73
     4
 74
     0
 42
0.0000000001
 43
0.0000000001
 40
-1.0
 40
-1.0
 40
-1.0
 40
-1.0
 40
0.0
 40
0.0
 40
0.0
 40
0.0
 10
5.539976827368491
 20
14.3213312919618
 30
0.0
 10
5.543442580224166
 20
14.28860172251205
 30
0.0
 10
5.588461385808955
 20
14.27066285519489
 30
0.0
 10
5.620818390796359
 20
14.26464119533517
 30
0.0
  0
SPLINE
  5
141
330
1F
100
AcDbEntity
  8
Default
100
AcDbSpline
210
0.0
220
0.0
230
1.0
 70
    12
 71
     2
 72
     6
 73
     3
 74
     0
 42
0.0000000001
 43
0.0000000001
 40
0.0
 40
0.0
 40
0.0
 40
1.048392173312309
 40
1.048392173312309
 40
1.048392173312309
 10
5.620818390796359
 20
14.26464119533517
 30
0.0
 41
1.0
 10
6.136170370437268
 20
14.16873385376771
 30
0.0
 41
0.999988143980322
 10
6.654088952370898
 20
14.07757418689686
 30
0.0
 41
1.0
  0
SPLINE
  5
142
330
1F
100
AcDbEntity
  8
Default
100
AcDbSpline
210
0.0
220
0.0
230
1.0
 70
    12
 71
     2
 72
     6
 73
     3
 74
     0
 42
0.0000000001
 43
0.0000000001
 40
-0.0705200709639872
 40
-0.0705200709639872
 40
-0.0705200709639872
 40
0.0
 40
0.0
 40
0.0
 10
6.654088952370898
 20
14.07757418689686
 30
0.0
 41
1.0
 10
6.690783640197595
 20
14.07165539012835
 30
0.0
 41
0.9903099973300198
 10
6.726037598399492
 20
14.07573735060617
 30
0.0
 41
0.9999995892251643
  0
SPLINE
  5
143
330
1F
100
AcDbEntity
  8
Default
100
AcDbSpline
210
0.0
220
0.0
230
1.0
 70
    12
 71
     2
 72
     6
 73
     3
 74
     0
 42
0.0000000001
 43
0.0000000001
 40
0.0
 40
0.0
 40
0.0
 40
1.561400665371137
 40
1.561400665371137
 40
1.561400665371137
 10
6.726037598399498
 20
14.07573735060617
 30
0.0
 41
0.999999999226411
 10
7.501398341322358
 20
14.16861048388024
 30
0.0
 41
0.9996090367327185
 10
8.270332466906751
 20
14.30480884629264
 30
0.0
 41
1.0
  0
SPLINE
  5
144
330
1F
100
AcDbEntity
  8
Default
100
AcDbSpline
210
0.0
220
0.0
230
1.0
 70
     8
 71
     3
 72
     8
 73
     4
 74
     0
 42
0.0000000001
 43
0.0000000001
 40
6.818669621819565
 40
6.818669621819565
 40
6.818669621819565
 40
6.818669621819565
 40
7.818669621819565
 40
7.818669621819565
 40
7.818669621819565
 40
7.818669621819565
 10
8.270332466906751
 20
14.30480884629264
 30
0.0
 10
8.500652006987707
 20
14.34560446603024
 30
0.0
 10
8.66812105791513
 20
14.58767257189712
 30
0.0
 10
8.768618358241326
 20
14.79888731039805
 30
0.0
  0
ARC
  5
145
330
1F
100
AcDbEntity
  8
Default
100
AcDbCircle
 10
7.199204183535244
 20
15.54562444044428
 30
0.0
 40
1.738009549213706
100
AcDbArc
 50
334.5546012293002
 51
342.7402107826719
  0
SPLINE
  5
146
330
1F
100
AcDbEntity
  8
Default
100
AcDbSpline
210
0.0
220
0.0
230
1.0
 70
    12
 71
     2
 72
     6
 73
     3
 74
     0
 42
0.0000000001
 43
0.0000000001
 40
0.0
 40
0.0
 40
0.0
 40
0.2849032416868664
 40
0.2849032416868664
 40
0.2849032416868664
 10
8.266979638549003
 20
14.30963518130478
 30
0.0
 41
1.0
 10
8.12453224757721
 20
14.31429089193355
 30
0.0
 41
0.9992441612154034
 10
7.98287705173064
 20
14.3299988620697
 30
0.0
 41
1.0
  0
SPLINE
  5
147
330
1F
100
AcDbEntity
  8
Default
100
AcDbSpline
210
0.0
220
0.0
230
1.0
 70
     8
 71
     2
 72
    10
 73
     7
 74
     0
 42
0.0000000001
 43
0.0000000001
 40
-5.0
 40
-5.0
 40
-5.0
 40
-4.0
 40
-3.0
 40
-2.0
 40
-1.0
 40
0.0
 40
0.0
 40
0.0
 10
-8.155787930314261
 20
14.80674459376006
 30
0.0
 10
-8.182200421790583
 20
14.78212549896993
 30
0.0
 10
-8.167304396156368
 20
14.70757046723701
 30
0.0
 10
-8.147777727309887
 20
14.63987761033602
 30
0.0
 10
-8.12267728806438
 20
14.57303492558823
 30
0.0
 10
-8.094109236276978
 20
14.50779851376367
 30
0.0
 10
-8.078663488378766
 20
14.47569781637454
 30
0.0
  0
SPLINE
  5
148
330
1F
100
AcDbEntity
  8
Default
100
AcDbSpline
210
0.0
220
0.0
230
1.0
 70
    12
 71
     2
 72
     8
 73
     5
 74
     0
 42
0.0000000001
 43
0.0000000001
 40
-0.1292021222891379
 40
-0.1292021222891379
 40
-0.1292021222891379
 40
-0.0258868090984241
 40
-0.0258868090984241
 40
0.0
 40
0.0
 40
0.0
 10
-8.078663488378766
 20
14.47569781637454
 30
0.0
 41
1.0
 10
-8.056151136899762
 20
14.42920364233244
 30
0.0
 41
0.9999998021234121
 10
-8.033697301187033
 20
14.38268118054505
 30
0.0
 41
1.0
 10
-8.028071241672682
 20
14.37102445808792
 30
0.0
 41
0.9999999875680456
 10
-8.022448858570527
 20
14.3593659619433
 30
0.0
 41
1.0
  0
SPLINE
  5
149
330
1F
100
AcDbEntity
  8
Default
100
AcDbSpline
210
0.0
220
0.0
230
1.0
 70
    12
 71
     2
 72
     8
 73
     5
 74
     0
 42
0.0000000001
 43
0.0000000001
 40
-0.0516147083710311
 40
-0.0516147083710311
 40
-0.0516147083710311
 40
-0.0382455557015038
 40
-0.0382455557015038
 40
0.0
 40
0.0
 40
0.0
 10
-8.022448858570527
 20
14.3593659619433
 30
0.0
 41
1.0
 10
-8.01974502653471
 20
14.35320978979853
 30
0.0
 41
0.9912778962014248
 10
-8.015526646376514
 20
14.34797391050325
 30
0.0
 41
1.0
 10
-8.002923548522382
 20
14.33222635003402
 30
0.0
 41
0.9239178704950614
 10
-7.98287705173064
 20
14.3299988620697
 30
0.0
 41
1.0
  0
SPLINE
  5
14A
330
1F
100
AcDbEntity
  8
Default
100
AcDbSpline
210
0.0
220
0.0
230
1.0
 70
     8
 71
     2
 72
    23
 73
    20
 74
     0
 42
0.0000000001
 43
0.0000000001
 40
0.0
 40
0.0
 40
0.0
 40
1.0
 40
2.0
 40
3.0
 40
4.0
 40
5.0
 40
6.0
 40
7.0
 40
8.0
 40
9.0
 40
10.0
 40
11.0
 40
12.0
 40
13.0
 40
14.0
 40
15.0
 40
16.0
 40
17.0
 40
18.0
 40
18.0
 40
18.0
 10
-7.98287705173064
 20
14.3299988620697
 30
0.0
 10
-7.924197955469253
 20
14.32945947135389
 30
0.0
 10
-7.807095180060514
 20
14.3219968539004
 30
0.0
 10
-7.690237209494114
 20
14.31147012462233
 30
0.0
 10
-7.573303686276688
 20
14.30185981397728
 30
0.0
 10
-7.456365283921485
 20
14.2922998199781
 30
0.0
 10
-7.339415657808985
 20
14.28292812775113
 30
0.0
 10
-7.222424089436061
 20
14.27378831108302
 30
0.0
 10
-7.105427134513945
 20
14.26655596534834
 30
0.0
 10
-6.987591680319952
 20
14.26089931398976
 30
0.0
 10
-6.873974709365172
 20
14.25913440602812
 30
0.0
 10
-6.735112324417116
 20
14.25703443736762
 30
0.0
 10
-6.743969719497045
 20
14.30084421714872
 30
0.0
 10
-6.877670860981993
 20
14.31795987630088
 30
0.0
 10
-6.991056502908094
 20
14.33262509346701
 30
0.0
 10
-7.10811066382476
 20
14.34624057090991
 30
0.0
 10
-7.224557376017913
 20
14.35986921558486
 30
0.0
 10
-7.341063440790549
 20
14.37375822906321
 30
0.0
 10
-7.457903824113004
 20
14.38536147265891
 30
0.0
 10
-7.515279590059322
 20
14.39786799892195
 30
0.0
  0
SPLINE
  5
14B
330
1F
100
AcDbEntity
  8
Default
100
AcDbSpline
210
0.0
220
0.0
230
1.0
 70
     8
 71
     3
 72
     8
 73
     4
 74
     0
 42
0.0000000001
 43
0.0000000001
 40
0.0
 40
0.0
 40
0.0
 40
0.0
 40
1.0
 40
1.0
 40
1.0
 40
1.0
 10
-7.515279590059322
 20
14.39786799892195
 30
0.0
 10
-7.534560626371444
 20
14.40207079749098
 30
0.0
 10
-7.553631134289787
 20
14.41842180464818
 30
0.0
 10
-7.559459527973161
 20
14.43727523150254
 30
0.0
  0
SPLINE
  5
14C
330
1F
100
AcDbEntity
  8
Default
100
AcDbSpline
210
0.0
220
0.0
230
1.0
 70
     8
 71
     2
 72
    13
 73
    10
 74
     0
 42
0.0000000001
 43
0.0000000001
 40
-8.0
 40
-8.0
 40
-8.0
 40
-7.0
 40
-6.0
 40
-5.0
 40
-4.0
 40
-3.0
 40
-2.0
 40
-1.0
 40
0.0
 40
0.0
 40
0.0
 10
-7.559459527973161
 20
14.43727523150254
 30
0.0
 10
-7.568621248331311
 20
14.46691115419675
 30
0.0
 10
-7.586908238529674
 20
14.52619370218736
 30
0.0
 10
-7.605428349744216
 20
14.5854070941724
 30
0.0
 10
-7.626279481196008
 20
14.64385108027588
 30
0.0
 10
-7.649989754821547
 20
14.70118695457881
 30
0.0
 10
-7.67729871993663
 20
14.75698824508594
 30
0.0
 10
-7.708636908476933
 20
14.81016565053943
 30
0.0
 10
-7.747498267551123
 20
14.86131085481592
 30
0.0
 10
-7.778841320886897
 20
14.86674174792795
 30
0.0
  0
SPLINE
  5
14D
330
1F
100
AcDbEntity
  8
Default
100
AcDbSpline
210
0.0
220
0.0
230
1.0
 70
    12
 71
     2
 72
     6
 73
     3
 74
     0
 42
0.0000000001
 43
0.0000000001
 40
-0.3816932761729621
 40
-0.3816932761729621
 40
-0.3816932761729621
 40
0.0
 40
0.0
 40
0.0
 10
-7.778841320886897
 20
14.86674174792795
 30
0.0
 41
1.0
 10
-7.967472922882846
 20
14.83773771174618
 30
0.0
 41
0.9999860778425367
 10
-8.155787930314261
 20
14.80674459376006
 30
0.0
 41
1.0
  0
SPLINE
  5
14E
330
1F
100
AcDbEntity
  8
Default
100
AcDbSpline
210
0.0
220
0.0
230
1.0
 70
     8
 71
     2
 72
    28
 73
    25
 74
     0
 42
0.0000000001
 43
0.0000000001
 40
0.0
 40
0.0
 40
0.0
 40
1.0
 40
2.0
 40
3.0
 40
4.0
 40
5.0
 40
6.0
 40
7.0
 40
8.0
 40
9.0
 40
10.0
 40
11.0
 40
12.0
 40
13.0
 40
14.0
 40
15.0
 40
16.0
 40
17.0
 40
18.0
 40
19.0
 40
20.0
 40
21.0
 40
22.0
 40
23.0
 40
23.0
 40
23.0
 10
-5.620818390796359
 20
14.26464119533517
 30
0.0
 10
-5.572612490933921
 20
14.28732743736231
 30
0.0
 10
-5.685273803030469
 20
14.30811394405166
 30
0.0
 10
-5.764940804155884
 20
14.32195140608838
 30
0.0
 10
-5.850796195752821
 20
14.33366548637791
 30
0.0
 10
-5.935853517923732
 20
14.34373594420875
 30
0.0
 10
-6.021216454239323
 20
14.35260213311894
 30
0.0
 10
-6.106650075154221
 20
14.36043939735954
 30
0.0
 10
-6.192167749446185
 20
14.36736331311959
 30
0.0
 10
-6.27775585685697
 20
14.37333245955141
 30
0.0
 10
-6.363372470455317
 20
14.37887602681352
 30
0.0
 10
-6.448984152392882
 20
14.38449313021522
 30
0.0
 10
-6.534596700998577
 20
14.39009803421015
 30
0.0
 10
-6.620209023756047
 20
14.39570526116918
 30
0.0
 10
-6.705821414850391
 20
14.40131236233971
 30
0.0
 10
-6.791433789997285
 20
14.40691885703762
 30
0.0
 10
-6.877045942213186
 20
14.41252944912816
 30
0.0
 10
-6.962659608048
 20
14.4181152343029
 30
0.0
 10
-7.048264662498923
 20
14.42384327700457
 30
0.0
 10
-7.133923716000993
 20
14.42868180597151
 30
0.0
 10
-7.219669184630305
 20
14.43193535874675
 30
0.0
 10
-7.305422116481594
 20
14.4329302013298
 30
0.0
 10
-7.391447891501343
 20
14.43199273695376
 30
0.0
 10
-7.475422236286363
 20
14.41458034238751
 30
0.0
 10
-7.517137899675959
 20
14.4045325394158
 30
0.0
  0
SPLINE
  5
14F
330
1F
100
AcDbEntity
  8
Default
100
AcDbSpline
210
0.0
220
0.0
230
1.0
 70
    12
 71
     3
 72
    23
 73
    19
 74
     0
 42
0.0000000001
 43
0.0000000001
 40
-0.1321406403462559
 40
-0.1321406403462559
 40
-0.1321406403462559
 40
-0.1321406403462559
 40
0.0
 40
0.0
 40
0.0
 40
0.2003496537097945
 40
0.2003496537097945
 40
0.2003496537097945
 40
0.9323566350869398
 40
0.9323566350869398
 40
0.9323566350869398
 40
1.93235663508694
 40
1.93235663508694
 40
1.93235663508694
 40
2.283459282416877
 40
2.546898747415158
 40
2.655699652714654
 40
2.694275768201841
 40
2.694275768201841
 40
2.694275768201841
 40
2.694275768201841
 10
-8.72935243591084
 20
15.02339061112806
 30
0.0
 41
1.0
 10
-8.71770422195833
 20
15.01059368346941
 30
0.0
 41
0.9967849731773842
 10
-8.704856919906032
 20
14.99900105323459
 30
0.0
 41
0.9967849731773842
 10
-8.690934443016062
 20
14.98872453227504
 30
0.0
 41
1.0
 10
-8.635215391704744
 20
14.94759693672059
 30
0.0
 41
0.9604668392684216
 10
-8.568848385942358
 20
14.92781026592278
 30
0.0
 41
0.9604668392684216
 10
-8.499704518247114
 20
14.93171120879259
 30
0.0
 41
1.0
 10
-8.255812235167804
 20
14.93903904871671
 30
0.0
 41
0.9999998767016653
 10
-8.01192445391405
 20
14.94651522011183
 30
0.0
 41
0.9999998767016653
 10
-7.768041264698809
 20
14.95413972021256
 30
0.0
 41
1.0
 10
-7.254035399581852
 20
14.97020904332979
 30
0.0
 41
1.0
 10
-6.739654510044772
 20
14.92207967771573
 30
0.0
 41
1.0
 10
-6.226951993065484
 20
14.88212493327704
 30
0.0
 41
1.0
 10
-6.111013101549389
 20
14.87308985225516
 30
0.0
 41
1.0
 10
-5.904310680925789
 20
14.86088416057222
 30
0.0
 41
1.0
 10
-5.667695529454733
 20
14.83018811672399
 30
0.0
 41
1.0
 10
-5.529847517228916
 20
14.81133027386988
 30
0.0
 41
1.0
 10
-5.487228943994467
 20
14.7861902903484
 30
0.0
 41
1.0
 10
-5.493214280883933
 20
14.76294328120555
 30
0.0
 41
1.0
  0
SPLINE
  5
150
330
1F
100
AcDbEntity
  8
Default
100
AcDbSpline
210
0.0
220
0.0
230
1.0
 70
    24
 71
     2
 72
     6
 73
     3
 74
     0
 42
0.0000000001
 43
0.0000000001
 40
0.0
 40
0.0
 40
0.0
 40
0.4440809439702916
 40
0.4440809439702916
 40
0.4440809439702916
 10
-5.493214280883933
 20
14.76294328120555
 30
0.0
 10
-5.516595554126212
 20
14.54213728658367
 30
0.0
 10
-5.539976827368491
 20
14.3213312919618
 30
0.0
  0
SPLINE
  5
151
330
1F
100
AcDbEntity
  8
Default
100
AcDbSpline
210
0.0
220
0.0
230
1.0
 70
     8
 71
     3
 72
     8
 73
     4
 74
     0
 42
0.0000000001
 43
0.0000000001
 40
-1.0
 40
-1.0
 40
-1.0
 40
-1.0
 40
0.0
 40
0.0
 40
0.0
 40
0.0
 10
-5.539976827368491
 20
14.3213312919618
 30
0.0
 10
-5.543442580224166
 20
14.28860172251205
 30
0.0
 10
-5.588461385808955
 20
14.27066285519489
 30
0.0
 10
-5.620818390796359
 20
14.26464119533517
 30
0.0
  0
SPLINE
  5
152
330
1F
100
AcDbEntity
  8
Default
100
AcDbSpline
210
0.0
220
0.0
230
1.0
 70
    12
 71
     2
 72
     6
 73
     3
 74
     0
 42
0.0000000001
 43
0.0000000001
 40
0.0
 40
0.0
 40
0.0
 40
1.048392173312309
 40
1.048392173312309
 40
1.048392173312309
 10
-5.620818390796359
 20
14.26464119533517
 30
0.0
 41
1.0
 10
-6.136170370437254
 20
14.16873385376771
 30
0.0
 41
0.999988143980322
 10
-6.654088952370898
 20
14.07757418689686
 30
0.0
 41
1.0
  0
SPLINE
  5
153
330
1F
100
AcDbEntity
  8
Default
100
AcDbSpline
210
0.0
220
0.0
230
1.0
 70
    12
 71
     2
 72
     6
 73
     3
 74
     0
 42
0.0000000001
 43
0.0000000001
 40
-0.0705200709639872
 40
-0.0705200709639872
 40
-0.0705200709639872
 40
0.0
 40
0.0
 40
0.0
 10
-6.654088952370898
 20
14.07757418689686
 30
0.0
 41
1.0
 10
-6.690783640197575
 20
14.07165539012835
 30
0.0
 41
0.9903099973300198
 10
-6.726037598399474
 20
14.07573735060617
 30
0.0
 41
0.9999995892251643
  0
SPLINE
  5
154
330
1F
100
AcDbEntity
  8
Default
100
AcDbSpline
210
0.0
220
0.0
230
1.0
 70
    12
 71
     2
 72
     6
 73
     3
 74
     0
 42
0.0000000001
 43
0.0000000001
 40
0.0
 40
0.0
 40
0.0
 40
1.561400665371137
 40
1.561400665371137
 40
1.561400665371137
 10
-6.726037598399498
 20
14.07573735060617
 30
0.0
 41
0.999999999226411
 10
-7.501398341322367
 20
14.16861048388024
 30
0.0
 41
0.9996090367327185
 10
-8.270332466906751
 20
14.30480884629264
 30
0.0
 41
1.0
  0
SPLINE
  5
155
330
1F
100
AcDbEntity
  8
Default
100
AcDbSpline
210
0.0
220
0.0
230
1.0
 70
     8
 71
     3
 72
     8
 73
     4
 74
     0
 42
0.0000000001
 43
0.0000000001
 40
6.818669621819565
 40
6.818669621819565
 40
6.818669621819565
 40
6.818669621819565
 40
7.818669621819565
 40
7.818669621819565
 40
7.818669621819565
 40
7.818669621819565
 10
-8.270332466906751
 20
14.30480884629264
 30
0.0
 10
-8.500652006987707
 20
14.34560446603024
 30
0.0
 10
-8.66812105791513
 20
14.58767257189712
 30
0.0
 10
-8.768618358241326
 20
14.79888731039805
 30
0.0
  0
ARC
  5
156
330
1F
100
AcDbEntity
  8
Default
100
AcDbCircle
 10
-7.199204183535244
 20
15.54562444044428
 30
0.0
 40
1.738009549213706
100
AcDbArc
 50
197.2597892173282
 51
205.4453987706998
  0
SPLINE
  5
157
330
1F
100
AcDbEntity
  8
Default
100
AcDbSpline
210
0.0
220
0.0
230
1.0
 70
     8
 71
     2
 72
    20
 73
    17
 74
     0
 42
0.0000000001
 43
0.0000000001
 40
0.0
 40
0.0
 40
0.0
 40
1.0
 40
2.0
 40
3.0
 40
4.0
 40
5.0
 40
6.0
 40
7.0
 40
8.0
 40
9.0
 40
10.0
 40
11.0
 40
12.0
 40
13.0
 40
14.0
 40
15.0
 40
15.0
 40
15.0
 10
9.327401576560277
 20
17.82043961784425
 30
0.0
 10
9.339175438284599
 20
18.4669166238352
 30
0.0
 10
9.324754972708831
 20
19.76018441862834
 30
0.0
 10
9.281011925559596
 20
21.05257796166295
 30
0.0
 10
9.220948520894297
 20
22.344394671613
 30
0.0
 10
9.164343088115828
 20
23.63633976989486
 30
0.0
 10
9.106214364702225
 20
24.92822249150988
 30
0.0
 10
9.046513807232486
 20
26.2200315894461
 30
0.0
 10
8.986749253711196
 20
27.51183888911683
 30
0.0
 10
8.929322296080102
 20
28.80375154755846
 30
0.0
 10
8.872920586184648
 20
30.09570956308054
 30
0.0
 10
8.816492599920366
 20
31.38766602056259
 30
0.0
 10
8.760113379848463
 20
32.67962535649342
 30
0.0
 10
8.70378471703097
 20
33.97158632951629
 30
0.0
 10
8.647504374210968
 20
35.26354931665148
 30
0.0
 10
8.591272986795417
 20
36.55551455686621
 30
0.0
 10
8.56071853214587
 20
37.26253226436119
 30
0.0
  0
SPLINE
  5
158
330
1F
100
AcDbEntity
  8
Default
100
AcDbSpline
210
0.0
220
0.0
230
1.0
 70
     8
 71
     3
 72
    12
 73
     8
 74
     0
 42
0.0000000001
 43
0.0000000001
 40
0.0
 40
0.0
 40
0.0
 40
0.0
 40
0.5145012973161913
 40
0.6149809796849599
 40
0.7015309309911637
 40
0.889820677509146
 40
1.096997512121291
 40
1.096997512121291
 40
1.096997512121291
 40
1.096997512121291
 10
8.56071853214587
 20
37.26253226436119
 30
0.0
 10
8.550216335343777
 20
37.43358141813476
 30
0.0
 10
8.550752227762132
 20
37.63919486573361
 30
0.0
 10
8.524980825614193
 20
37.87166174052973
 30
0.0
 10
8.49204967809996
 20
37.99295960545813
 30
0.0
 10
8.39952331383293
 20
38.13081181534995
 30
0.0
 10
8.272248447864655
 20
38.18383614723927
 30
0.0
 10
8.206786600746199
 20
38.20224587407944
 30
0.0
  0
SPLINE
  5
159
330
1F
100
AcDbEntity
  8
Default
100
AcDbSpline
210
0.0
220
0.0
230
1.0
 70
     8
 71
     3
 72
     8
 73
     4
 74
     0
 42
0.0000000001
 43
0.0000000001
 40
0.0
 40
0.0
 40
0.0
 40
0.0
 40
1.0
 40
1.0
 40
1.0
 40
1.0
 10
8.206786600746199
 20
38.20224587407944
 30
0.0
 10
7.947286784928963
 20
38.27438718199232
 30
0.0
 10
7.517304655490676
 20
38.25829437976966
 30
0.0
 10
7.171796758175077
 20
38.25862282530824
 30
0.0
  0
SPLINE
  5
15A
330
1F
100
AcDbEntity
  8
Default
100
AcDbSpline
210
0.0
220
0.0
230
1.0
 70
    12
 71
     2
 72
     6
 73
     3
 74
     0
 42
0.0000000001
 43
0.0000000001
 40
0.0
 40
0.0
 40
0.0
 40
7.171798561792252
 40
7.171798561792252
 40
7.171798561792252
 10
7.171796758175077
 20
38.25862282530824
 30
0.0
 41
1.0
 10
3.585899018835589
 20
38.26203163918321
 30
0.0
 41
0.9999999670875365
 10
0.0000000024233202
 20
38.26360043037293
 30
0.0
 41
1.0
  0
ARC
  5
15B
330
1F
100
AcDbEntity
  8
Default
100
AcDbCircle
 10
7.804029820137259
 20
37.63408916427615
 30
0.0
 40
0.5082412054742199
100
AcDbArc
 50
74.90713562936028
 51
86.78833248594485
  0
SPLINE
  5
15C
330
1F
100
AcDbEntity
  8
Default
100
AcDbSpline
210
0.0
220
0.0
230
1.0
 70
     8
 71
     3
 72
    13
 73
     9
 74
     0
 42
0.0000000001
 43
0.0000000001
 40
0.0
 40
0.0
 40
0.0
 40
0.0
 40
0.1011114235856447
 40
0.1908176730666353
 40
0.358002531591635
 40
0.5167347040232743
 40
0.5994853469645667
 40
1.021240316048459
 40
1.021240316048459
 40
1.021240316048459
 40
1.021240316048459
 10
7.936367833600542
 20
38.12479862325822
 30
0.0
 10
7.969217498450121
 20
38.11593949223975
 30
0.0
 10
8.028042319062905
 20
38.09339732648266
 30
0.0
 10
8.133747943373692
 20
38.03426636652944
 30
0.0
 10
8.216626486273242
 20
37.91704393764539
 30
0.0
 10
8.236147222449887
 20
37.78003249814343
 30
0.0
 10
8.249543910598192
 20
37.56005724587722
 30
0.0
 10
8.260717399032671
 20
37.39172406158481
 30
0.0
 10
8.267843644526778
 20
37.25151088298433
 30
0.0
  0
SPLINE
  5
15D
330
1F
100
AcDbEntity
  8
Default
100
AcDbSpline
210
0.0
220
0.0
230
1.0
 70
     8
 71
     2
 72
    22
 73
    19
 74
     0
 42
0.0000000001
 43
0.0000000001
 40
0.0
 40
0.0
 40
0.0
 40
1.0
 40
2.0
 40
3.0
 40
4.0
 40
5.0
 40
6.0
 40
7.0
 40
8.0
 40
9.0
 40
10.0
 40
11.0
 40
12.0
 40
13.0
 40
14.0
 40
15.0
 40
16.0
 40
17.0
 40
17.0
 40
17.0
 10
8.267843644526778
 20
37.25151088298433
 30
0.0
 10
8.306677962892593
 20
36.48754815077309
 30
0.0
 10
8.358864516746962
 20
35.35523481189025
 30
0.0
 10
8.409814513395759
 20
34.22286670921127
 30
0.0
 10
8.461592453386174
 20
33.09053591205423
 30
0.0
 10
8.514642176581049
 20
31.95826363729789
 30
0.0
 10
8.567482490841542
 20
30.8259820655093
 30
0.0
 10
8.619635308172832
 20
29.69366835424547
 30
0.0
 10
8.6689169929723
 20
28.56122497179425
 30
0.0
 10
8.717675094073911
 20
27.4287620596366
 30
0.0
 10
8.76580751033842
 20
26.29626996061734
 30
0.0
 10
8.81204393579975
 20
25.16369972121753
 30
0.0
 10
8.858391022321456
 20
24.03113317662544
 30
0.0
 10
8.90651180939588
 20
22.89864275197975
 30
0.0
 10
8.955783289437619
 20
21.76618949637528
 30
0.0
 10
9.015559620417946
 20
20.63427368509703
 30
0.0
 10
9.044910624734257
 20
19.50067376095481
 30
0.0
 10
8.962458301582359
 20
18.36958691076596
 30
0.0
 10
8.920678526336616
 20
17.80447080263117
 30
0.0
  0
SPLINE
  5
15E
330
1F
100
AcDbEntity
  8
Default
100
AcDbSpline
210
0.0
220
0.0
230
1.0
 70
    12
 71
     2
 72
     6
 73
     3
 74
     0
 42
0.0000000001
 43
0.0000000001
 40
-7.148852270491535
 40
-7.148852270491535
 40
-7.148852270491535
 40
0.0
 40
0.0
 40
0.0
 10
0.0000000024233202
 20
38.1249678529967
 30
0.0
 41
1.0
 10
3.574472404336048
 20
38.13227874924073
 30
0.0
 41
0.9999774472872072
 10
7.148524155659317
 20
38.18760035535302
 30
0.0
 41
1.0
  0
SPLINE
  5
15F
330
1F
100
AcDbEntity
  8
Default
100
AcDbSpline
210
0.0
220
0.0
230
1.0
 70
     8
 71
     3
 72
    13
 73
     9
 74
     0
 42
0.0000000001
 43
0.0000000001
 40
-1.583040050612919
 40
-1.583040050612919
 40
-1.583040050612919
 40
-1.583040050612919
 40
-1.246184874263875
 40
-1.050736369641932
 40
-0.7448323123169374
 40
-0.5191552596967214
 40
-0.3776274005172509
 40
0.0
 40
0.0
 40
0.0
 40
0.0
 10
7.148524155659317
 20
38.18760035535302
 30
0.0
 10
7.258907512985104
 20
38.18993574271278
 30
0.0
 10
7.441828651661211
 20
38.19593453938194
 30
0.0
 10
7.712614479926373
 20
38.1811426963313
 30
0.0
 10
7.964781397914663
 20
38.11189966098572
 30
0.0
 10
8.07678175997691
 20
37.90217294765105
 30
0.0
 10
8.089895330038303
 20
37.65339613783788
 30
0.0
 10
8.1055039278844
 20
37.48158244525336
 30
0.0
 10
8.10950279686071
 20
37.35550708770754
 30
0.0
  0
SPLINE
  5
160
330
1F
100
AcDbEntity
  8
Default
100
AcDbSpline
210
0.0
220
0.0
230
1.0
 70
     8
 71
     2
 72
    22
 73
    19
 74
     0
 42
0.0000000001
 43
0.0000000001
 40
-17.0
 40
-17.0
 40
-17.0
 40
-16.0
 40
-15.0
 40
-14.0
 40
-13.0
 40
-12.0
 40
-11.0
 40
-10.0
 40
-9.0
 40
-8.0
 40
-7.0
 40
-6.0
 40
-5.0
 40
-4.0
 40
-3.0
 40
-2.0
 40
-1.0
 40
0.0
 40
0.0
 40
0.0
 10
8.10950279686071
 20
37.35550708770754
 30
0.0
 10
8.139506648186853
 20
36.48980105889094
 30
0.0
 10
8.18741294323533
 20
35.35673868500498
 30
0.0
 10
8.238214382668389
 20
34.2238162731486
 30
0.0
 10
8.289339007061699
 20
33.09090642286685
 30
0.0
 10
8.340769277303338
 20
31.95801024323649
 30
0.0
 10
8.392001738765856
 20
30.82510577806632
 30
0.0
 10
8.442893826791192
 20
29.69218492837585
 30
0.0
 10
8.49050004969277
 20
28.55912157984304
 30
0.0
 10
8.537694555470125
 20
27.4260435435336
 30
0.0
 10
8.586743012497834
 20
26.29304106802336
 30
0.0
 10
8.63513401004775
 20
25.16001285840689
 30
0.0
 10
8.677947258543355
 20
24.02675593875116
 30
0.0
 10
8.725694324199992
 20
22.89369822878271
 30
0.0
 10
8.775884398499159
 20
21.76074682456275
 30
0.0
 10
8.839671102740908
 20
20.6284062075535
 30
0.0
 10
8.860666433380914
 20
19.49429618442444
 30
0.0
 10
8.78298726050329
 20
18.36248345526697
 30
0.0
 10
8.736205370053852
 20
17.79745925975664
 30
0.0
  0
SPLINE
  5
161
330
1F
100
AcDbEntity
  8
Default
100
AcDbSpline
210
0.0
220
0.0
230
1.0
 70
     8
 71
     2
 72
    20
 73
    17
 74
     0
 42
0.0000000001
 43
0.0000000001
 40
0.0
 40
0.0
 40
0.0
 40
1.0
 40
2.0
 40
3.0
 40
4.0
 40
5.0
 40
6.0
 40
7.0
 40
8.0
 40
9.0
 40
10.0
 40
11.0
 40
12.0
 40
13.0
 40
14.0
 40
15.0
 40
15.0
 40
15.0
 10
-9.327401576560277
 20
17.82043961784425
 30
0.0
 10
-9.339175438284599
 20
18.4669166238352
 30
0.0
 10
-9.324754972708831
 20
19.76018441862834
 30
0.0
 10
-9.281011925559596
 20
21.05257796166295
 30
0.0
 10
-9.220948520894297
 20
22.344394671613
 30
0.0
 10
-9.164343088115828
 20
23.63633976989486
 30
0.0
 10
-9.106214364702225
 20
24.92822249150988
 30
0.0
 10
-9.046513807232486
 20
26.2200315894461
 30
0.0
 10
-8.986749253711196
 20
27.51183888911683
 30
0.0
 10
-8.929322296080102
 20
28.80375154755846
 30
0.0
 10
-8.872920586184648
 20
30.09570956308054
 30
0.0
 10
-8.816492599920366
 20
31.38766602056259
 30
0.0
 10
-8.760113379848463
 20
32.67962535649342
 30
0.0
 10
-8.70378471703097
 20
33.97158632951629
 30
0.0
 10
-8.647504374210968
 20
35.26354931665148
 30
0.0
 10
-8.591272986795417
 20
36.55551455686621
 30
0.0
 10
-8.56071853214587
 20
37.26253226436119
 30
0.0
  0
SPLINE
  5
162
330
1F
100
AcDbEntity
  8
Default
100
AcDbSpline
210
0.0
220
0.0
230
1.0
 70
     8
 71
     3
 72
    12
 73
     8
 74
     0
 42
0.0000000001
 43
0.0000000001
 40
0.0
 40
0.0
 40
0.0
 40
0.0
 40
0.5145012973161913
 40
0.6149809796849599
 40
0.7015309309911637
 40
0.889820677509146
 40
1.096997512121291
 40
1.096997512121291
 40
1.096997512121291
 40
1.096997512121291
 10
-8.56071853214587
 20
37.26253226436119
 30
0.0
 10
-8.550216335343777
 20
37.43358141813476
 30
0.0
 10
-8.550752227762132
 20
37.63919486573361
 30
0.0
 10
-8.524980825614193
 20
37.87166174052973
 30
0.0
 10
-8.49204967809996
 20
37.99295960545813
 30
0.0
 10
-8.39952331383293
 20
38.13081181534995
 30
0.0
 10
-8.272248447864655
 20
38.18383614723927
 30
0.0
 10
-8.206786600746199
 20
38.20224587407944
 30
0.0
  0
SPLINE
  5
163
330
1F
100
AcDbEntity
  8
Default
100
AcDbSpline
210
0.0
220
0.0
230
1.0
 70
     8
 71
     3
 72
     8
 73
     4
 74
     0
 42
0.0000000001
 43
0.0000000001
 40
0.0
 40
0.0
 40
0.0
 40
0.0
 40
1.0
 40
1.0
 40
1.0
 40
1.0
 10
-8.206786600746199
 20
38.20224587407944
 30
0.0
 10
-7.947286784928963
 20
38.27438718199232
 30
0.0
 10
-7.517304655490676
 20
38.25829437976966
 30
0.0
 10
-7.171796758175077
 20
38.25862282530824
 30
0.0
  0
SPLINE
  5
164
330
1F
100
AcDbEntity
  8
Default
100
AcDbSpline
210
0.0
220
0.0
230
1.0
 70
    12
 71
     2
 72
     6
 73
     3
 74
     0
 42
0.0000000001
 43
0.0000000001
 40
0.0
 40
0.0
 40
0.0
 40
7.171798561792252
 40
7.171798561792252
 40
7.171798561792252
 10
-7.171796758175077
 20
38.25862282530824
 30
0.0
 41
1.0
 10
-3.585899018835574
 20
38.26203163918321
 30
0.0
 41
0.9999999670875365
 10
-0.0000000024233202
 20
38.26360043037293
 30
0.0
 41
1.0
  0
ARC
  5
165
330
1F
100
AcDbEntity
  8
Default
100
AcDbCircle
 10
-7.804029820137259
 20
37.63408916427615
 30
0.0
 40
0.5082412054742199
100
AcDbArc
 50
93.21166751405515
 51
105.0928643706397
  0
SPLINE
  5
166
330
1F
100
AcDbEntity
  8
Default
100
AcDbSpline
210
0.0
220
0.0
230
1.0
 70
     8
 71
     3
 72
    13
 73
     9
 74
     0
 42
0.0000000001
 43
0.0000000001
 40
0.0
 40
0.0
 40
0.0
 40
0.0
 40
0.1011114235856447
 40
0.1908176730666353
 40
0.358002531591635
 40
0.5167347040232743
 40
0.5994853469645667
 40
1.021240316048459
 40
1.021240316048459
 40
1.021240316048459
 40
1.021240316048459
 10
-7.936367833600542
 20
38.12479862325822
 30
0.0
 10
-7.969217498450121
 20
38.11593949223975
 30
0.0
 10
-8.028042319062905
 20
38.09339732648266
 30
0.0
 10
-8.133747943373692
 20
38.03426636652944
 30
0.0
 10
-8.216626486273242
 20
37.91704393764539
 30
0.0
 10
-8.236147222449887
 20
37.78003249814343
 30
0.0
 10
-8.249543910598192
 20
37.56005724587722
 30
0.0
 10
-8.260717399032671
 20
37.39172406158481
 30
0.0
 10
-8.267843644526778
 20
37.25151088298433
 30
0.0
  0
SPLINE
  5
167
330
1F
100
AcDbEntity
  8
Default
100
AcDbSpline
210
0.0
220
0.0
230
1.0
 70
     8
 71
     2
 72
    22
 73
    19
 74
     0
 42
0.0000000001
 43
0.0000000001
 40
0.0
 40
0.0
 40
0.0
 40
1.0
 40
2.0
 40
3.0
 40
4.0
 40
5.0
 40
6.0
 40
7.0
 40
8.0
 40
9.0
 40
10.0
 40
11.0
 40
12.0
 40
13.0
 40
14.0
 40
15.0
 40
16.0
 40
17.0
 40
17.0
 40
17.0
 10
-8.267843644526778
 20
37.25151088298433
 30
0.0
 10
-8.306677962892593
 20
36.48754815077309
 30
0.0
 10
-8.358864516746962
 20
35.35523481189025
 30
0.0
 10
-8.409814513395759
 20
34.22286670921127
 30
0.0
 10
-8.461592453386174
 20
33.09053591205423
 30
0.0
 10
-8.514642176581049
 20
31.95826363729789
 30
0.0
 10
-8.567482490841542
 20
30.8259820655093
 30
0.0
 10
-8.619635308172832
 20
29.69366835424547
 30
0.0
 10
-8.6689169929723
 20
28.56122497179425
 30
0.0
 10
-8.717675094073911
 20
27.4287620596366
 30
0.0
 10
-8.76580751033842
 20
26.29626996061734
 30
0.0
 10
-8.81204393579975
 20
25.16369972121753
 30
0.0
 10
-8.858391022321456
 20
24.03113317662544
 30
0.0
 10
-8.90651180939588
 20
22.89864275197975
 30
0.0
 10
-8.955783289437619
 20
21.76618949637528
 30
0.0
 10
-9.015559620417946
 20
20.63427368509703
 30
0.0
 10
-9.044910624734257
 20
19.50067376095481
 30
0.0
 10
-8.962458301582359
 20
18.36958691076596
 30
0.0
 10
-8.920678526336616
 20
17.80447080263117
 30
0.0
  0
SPLINE
  5
168
330
1F
100
AcDbEntity
  8
Default
100
AcDbSpline
210
0.0
220
0.0
230
1.0
 70
    12
 71
     2
 72
     6
 73
     3
 74
     0
 42
0.0000000001
 43
0.0000000001
 40
-7.148852270491535
 40
-7.148852270491535
 40
-7.148852270491535
 40
0.0
 40
0.0
 40
0.0
 10
-0.0000000024233202
 20
38.1249678529967
 30
0.0
 41
1.0
 10
-3.574472404336046
 20
38.13227874924073
 30
0.0
 41
0.9999774472872072
 10
-7.148524155659317
 20
38.18760035535302
 30
0.0
 41
1.0
  0
SPLINE
  5
169
330
1F
100
AcDbEntity
  8
Default
100
AcDbSpline
210
0.0
220
0.0
230
1.0
 70
     8
 71
     3
 72
    13
 73
     9
 74
     0
 42
0.0000000001
 43
0.0000000001
 40
-1.583040050612919
 40
-1.583040050612919
 40
-1.583040050612919
 40
-1.583040050612919
 40
-1.246184874263875
 40
-1.050736369641932
 40
-0.7448323123169374
 40
-0.5191552596967214
 40
-0.3776274005172509
 40
0.0
 40
0.0
 40
0.0
 40
0.0
 10
-7.148524155659317
 20
38.18760035535302
 30
0.0
 10
-7.258907512985104
 20
38.18993574271278
 30
0.0
 10
-7.441828651661211
 20
38.19593453938194
 30
0.0
 10
-7.712614479926373
 20
38.1811426963313
 30
0.0
 10
-7.964781397914663
 20
38.11189966098572
 30
0.0
 10
-8.07678175997691
 20
37.90217294765105
 30
0.0
 10
-8.089895330038303
 20
37.65339613783788
 30
0.0
 10
-8.1055039278844
 20
37.48158244525336
 30
0.0
 10
-8.10950279686071
 20
37.35550708770754
 30
0.0
  0
SPLINE
  5
16A
330
1F
100
AcDbEntity
  8
Default
100
AcDbSpline
210
0.0
220
0.0
230
1.0
 70
     8
 71
     2
 72
    22
 73
    19
 74
     0
 42
0.0000000001
 43
0.0000000001
 40
-17.0
 40
-17.0
 40
-17.0
 40
-16.0
 40
-15.0
 40
-14.0
 40
-13.0
 40
-12.0
 40
-11.0
 40
-10.0
 40
-9.0
 40
-8.0
 40
-7.0
 40
-6.0
 40
-5.0
 40
-4.0
 40
-3.0
 40
-2.0
 40
-1.0
 40
0.0
 40
0.0
 40
0.0
 10
-8.10950279686071
 20
37.35550708770754
 30
0.0
 10
-8.139506648186853
 20
36.48980105889094
 30
0.0
 10
-8.18741294323533
 20
35.35673868500498
 30
0.0
 10
-8.238214382668389
 20
34.2238162731486
 30
0.0
 10
-8.289339007061699
 20
33.09090642286685
 30
0.0
 10
-8.340769277303338
 20
31.95801024323649
 30
0.0
 10
-8.392001738765856
 20
30.82510577806632
 30
0.0
 10
-8.442893826791192
 20
29.69218492837585
 30
0.0
 10
-8.49050004969277
 20
28.55912157984304
 30
0.0
 10
-8.537694555470125
 20
27.4260435435336
 30
0.0
 10
-8.586743012497834
 20
26.29304106802336
 30
0.0
 10
-8.63513401004775
 20
25.16001285840689
 30
0.0
 10
-8.677947258543355
 20
24.02675593875116
 30
0.0
 10
-8.725694324199992
 20
22.89369822878271
 30
0.0
 10
-8.775884398499159
 20
21.76074682456275
 30
0.0
 10
-8.839671102740908
 20
20.6284062075535
 30
0.0
 10
-8.860666433380914
 20
19.49429618442444
 30
0.0
 10
-8.78298726050329
 20
18.36248345526697
 30
0.0
 10
-8.736205370053852
 20
17.79745925975664
 30
0.0
  0
SPLINE
  5
16B
330
1F
100
AcDbEntity
  8
Default
100
AcDbSpline
210
0.0
220
0.0
230
1.0
 70
     8
 71
     3
 72
     9
 73
     5
 74
     0
 42
0.0000000001
 43
0.0000000001
 40
0.0
 40
0.0
 40
0.0
 40
0.0
 40
1.0
 40
2.0
 40
2.0
 40
2.0
 40
2.0
 10
0.0
 20
17.64077437923833
 30
0.0
 10
1.649199287787326
 20
17.63856738767915
 30
0.0
 10
4.947596271407861
 20
17.67040748919018
 30
0.0
 10
8.244563450511748
 20
17.77303356798954
 30
0.0
 10
9.892233721554163
 20
17.84373603484239
 30
0.0
  0
SPLINE
  5
16C
330
1F
100
AcDbEntity
  8
Default
100
AcDbSpline
210
0.0
220
0.0
230
1.0
 70
     8
 71
     3
 72
    11
 73
     7
 74
     0
 42
0.0000000001
 43
0.0000000001
 40
-0.7982100111278871
 40
-0.7982100111278871
 40
-0.7982100111278871
 40
-0.7982100111278871
 40
-0.5021656213029607
 40
-0.3211098970399187
 40
-0.1789646551136944
 40
0.0
 40
0.0
 40
0.0
 40
0.0
 10
9.892233721554163
 20
17.84373603484239
 30
0.0
 10
10.04429985861123
 20
17.84814235657745
 30
0.0
 10
10.17177273974022
 20
17.69351734541535
 30
0.0
 10
10.18969740164536
 20
17.48385689971922
 30
0.0
 10
10.19782474755746
 20
17.31896541530968
 30
0.0
 10
10.19206000354731
 20
17.20977167859629
 30
0.0
 10
10.19204955103166
 20
17.15097344909081
 30
0.0
  0
SPLINE
  5
16D
330
1F
100
AcDbEntity
  8
Default
100
AcDbSpline
210
0.0
220
0.0
230
1.0
 70
    12
 71
     2
 72
     6
 73
     3
 74
     0
 42
0.0000000001
 43
0.0000000001
 40
-1.7974048894451
 40
-1.7974048894451
 40
-1.7974048894451
 40
0.0
 40
0.0
 40
0.0
 10
10.19204955103166
 20
17.15097344909081
 30
0.0
 41
1.0
 10
10.03410561711512
 20
16.17301909989226
 30
0.0
 41
0.9999999892929199
 10
9.885092246161435
 20
15.28450077354242
 30
0.0
 41
1.0
  0
SPLINE
  5
16E
330
1F
100
AcDbEntity
  8
Default
100
AcDbSpline
210
0.0
220
0.0
230
1.0
 70
     8
 71
     3
 72
     9
 73
     5
 74
     0
 42
0.0000000001
 43
0.0000000001
 40
-2.0
 40
-2.0
 40
-2.0
 40
-2.0
 40
-1.0
 40
0.0
 40
0.0
 40
0.0
 40
0.0
 10
9.885092246161435
 20
15.28450077354242
 30
0.0
 10
9.725848844225936
 20
15.15528739809177
 30
0.0
 10
9.313991056582154
 20
15.07407372847035
 30
0.0
 10
8.913613615940989
 20
15.0284997854776
 30
0.0
 10
8.708882184104965
 20
15.02275967637381
 30
0.0
  0
SPLINE
  5
16F
330
1F
100
AcDbEntity
  8
Default
100
AcDbSpline
210
0.0
220
0.0
230
1.0
 70
     8
 71
     3
 72
    10
 73
     6
 74
     0
 42
0.0000000001
 43
0.0000000001
 40
0.0
 40
0.0
 40
0.0
 40
0.0
 40
1.0
 40
2.0
 40
3.0
 40
3.0
 40
3.0
 40
3.0
 10
8.708882184104965
 20
15.02275967637381
 30
0.0
 10
7.74180197080301
 20
14.98388349290475
 30
0.0
 10
5.80703707935379
 20
14.91912929293194
 30
0.0
 10
2.903618821371367
 20
14.87940946947499
 30
0.0
 10
0.9678900974950011
 20
14.87053093958135
 30
0.0
 10
0.0
 20
14.87072532108342
 30
0.0
  0
SPLINE
  5
170
330
1F
100
AcDbEntity
  8
Default
100
AcDbSpline
210
0.0
220
0.0
230
1.0
 70
     8
 71
     3
 72
    10
 73
     6
 74
     0
 42
0.0000000001
 43
0.0000000001
 40
-3.0
 40
-3.0
 40
-3.0
 40
-3.0
 40
-2.0
 40
-1.0
 40
0.0
 40
0.0
 40
0.0
 40
0.0
 10
0.0
 20
14.87072532108342
 30
0.0
 10
-0.9678900974950011
 20
14.87053093958135
 30
0.0
 10
-2.903618821371367
 20
14.87940946947499
 30
0.0
 10
-5.80703707935379
 20
14.91912929293194
 30
0.0
 10
-7.74180197080301
 20
14.98388349290475
 30
0.0
 10
-8.708882184104965
 20
15.02275967637381
 30
0.0
  0
SPLINE
  5
171
330
1F
100
AcDbEntity
  8
Default
100
AcDbSpline
210
0.0
220
0.0
230
1.0
 70
     8
 71
     3
 72
     9
 73
     5
 74
     0
 42
0.0000000001
 43
0.0000000001
 40
0.0
 40
0.0
 40
0.0
 40
0.0
 40
1.0
 40
2.0
 40
2.0
 40
2.0
 40
2.0
 10
-8.708882184104965
 20
15.02275967637381
 30
0.0
 10
-8.913613615940989
 20
15.0284997854776
 30
0.0
 10
-9.313991056582154
 20
15.07407372847035
 30
0.0
 10
-9.725848844225936
 20
15.15528739809177
 30
0.0
 10
-9.885092246161435
 20
15.28450077354242
 30
0.0
  0
SPLINE
  5
172
330
1F
100
AcDbEntity
  8
Default
100
AcDbSpline
210
0.0
220
0.0
230
1.0
 70
    12
 71
     2
 72
     6
 73
     3
 74
     0
 42
0.0000000001
 43
0.0000000001
 40
0.0
 40
0.0
 40
0.0
 40
1.7974048894451
 40
1.7974048894451
 40
1.7974048894451
 10
-9.885092246161435
 20
15.28450077354242
 30
0.0
 41
1.0
 10
-10.0341056171151
 20
16.17301909989226
 30
0.0
 41
0.9999999892929199
 10
-10.19204955103166
 20
17.15097344909081
 30
0.0
 41
1.0
  0
SPLINE
  5
173
330
1F
100
AcDbEntity
  8
Default
100
AcDbSpline
210
0.0
220
0.0
230
1.0
 70
     8
 71
     3
 72
    11
 73
     7
 74
     0
 42
0.0000000001
 43
0.0000000001
 40
0.0
 40
0.0
 40
0.0
 40
0.0
 40
0.1789646551136944
 40
0.3211098970399187
 40
0.5021656213029607
 40
0.7982100111278871
 40
0.7982100111278871
 40
0.7982100111278871
 40
0.7982100111278871
 10
-10.19204955103166
 20
17.15097344909081
 30
0.0
 10
-10.19206000354731
 20
17.20977167859629
 30
0.0
 10
-10.19782474755746
 20
17.31896541530968
 30
0.0
 10
-10.18969740164536
 20
17.48385689971922
 30
0.0
 10
-10.17177273974022
 20
17.69351734541535
 30
0.0
 10
-10.04429985861123
 20
17.84814235657745
 30
0.0
 10
-9.892233721554163
 20
17.84373603484239
 30
0.0
  0
SPLINE
  5
174
330
1F
100
AcDbEntity
  8
Default
100
AcDbSpline
210
0.0
220
0.0
230
1.0
 70
     8
 71
     3
 72
     9
 73
     5
 74
     0
 42
0.0000000001
 43
0.0000000001
 40
-2.0
 40
-2.0
 40
-2.0
 40
-2.0
 40
-1.0
 40
0.0
 40
0.0
 40
0.0
 40
0.0
 10
-9.892233721554163
 20
17.84373603484239
 30
0.0
 10
-8.244563450511748
 20
17.77303356798954
 30
0.0
 10
-4.947596271407861
 20
17.67040748919018
 30
0.0
 10
-1.649199287787326
 20
17.63856738767915
 30
0.0
 10
0.0
 20
17.64077437923833
 30
0.0
  0
SPLINE
  5
175
330
1F
100
AcDbEntity
  8
Default
100
AcDbSpline
210
0.0
220
0.0
230
1.0
 70
     8
 71
     3
 72
     9
 73
     5
 74
     0
 42
0.0000000001
 43
0.0000000001
 40
0.0
 40
0.0
 40
0.0
 40
0.0
 40
1.0
 40
2.0
 40
2.0
 40
2.0
 40
2.0
 10
10.18648494910281
 20
17.08127315468553
 30
0.0
 10
10.10029924163348
 20
16.85846957725983
 30
0.0
 10
9.652784366113764
 20
16.65654884468991
 30
0.0
 10
9.21108817115379
 20
16.5721519274976
 30
0.0
 10
8.979993842666914
 20
16.55753411001458
 30
0.0
  0
SPLINE
  5
176
330
1F
100
AcDbEntity
  8
Default
100
AcDbSpline
210
0.0
220
0.0
230
1.0
 70
     8
 71
     3
 72
     9
 73
     5
 74
     0
 42
0.0000000001
 43
0.0000000001
 40
0.0
 40
0.0
 40
0.0
 40
0.0
 40
1.0
 40
2.0
 40
2.0
 40
2.0
 40
2.0
 10
8.979993842666914
 20
16.55753411001458
 30
0.0
 10
7.487802879888307
 20
16.41206790847641
 30
0.0
 10
4.497458204752093
 20
16.18106554462336
 30
0.0
 10
1.499345786601737
 20
16.08936209383819
 30
0.0
 10
0.0
 20
16.08923001685493
 30
0.0
  0
SPLINE
  5
177
330
1F
100
AcDbEntity
  8
Default
100
AcDbSpline
210
0.0
220
0.0
230
1.0
 70
     8
 71
     3
 72
     9
 73
     5
 74
     0
 42
0.0000000001
 43
0.0000000001
 40
-2.0
 40
-2.0
 40
-2.0
 40
-2.0
 40
-1.0
 40
0.0
 40
0.0
 40
0.0
 40
0.0
 10
0.0
 20
16.08923001685493
 30
0.0
 10
-1.499345786601737
 20
16.08936209383819
 30
0.0
 10
-4.497458204752093
 20
16.18106554462336
 30
0.0
 10
-7.487802879888307
 20
16.41206790847641
 30
0.0
 10
-8.979993842666914
 20
16.55753411001458
 30
0.0
  0
SPLINE
  5
178
330
1F
100
AcDbEntity
  8
Default
100
AcDbSpline
210
0.0
220
0.0
230
1.0
 70
     8
 71
     3
 72
     9
 73
     5
 74
     0
 42
0.0000000001
 43
0.0000000001
 40
-2.0
 40
-2.0
 40
-2.0
 40
-2.0
 40
-1.0
 40
0.0
 40
0.0
 40
0.0
 40
0.0
 10
-8.979993842666914
 20
16.55753411001458
 30
0.0
 10
-9.21108817115379
 20
16.5721519274976
 30
0.0
 10
-9.652784366113764
 20
16.65654884468991
 30
0.0
 10
-10.10029924163348
 20
16.85846957725983
 30
0.0
 10
-10.18648494910281
 20
17.08127315468553
 30
0.0
  0
SPLINE
  5
179
330
1F
100
AcDbEntity
  8
Default
100
AcDbSpline
210
0.0
220
0.0
230
1.0
 70
    12
 71
     2
 72
     6
 73
     3
 74
     0
 42
0.0000000001
 43
0.0000000001
 40
0.0
 40
0.0
 40
0.0
 40
0.0040916936930117
 40
0.0040916936930117
 40
0.0040916936930117
 10
-9.884821637443878
 20
15.28252098720841
 30
0.0
 41
1.0
 10
-9.885263138097999
 20
15.28451907948275
 30
0.0
 41
0.9996764741398925
 10
-9.885602456812592
 20
15.28653703844526
 30
0.0
 41
1.0
  0
SPLINE
  5
17A
330
1F
100
AcDbEntity
  8
Default
100
AcDbSpline
210
0.0
220
0.0
230
1.0
 70
    12
 71
     2
 72
     6
 73
     3
 74
     0
 42
0.0000000001
 43
0.0000000001
 40
0.0
 40
0.0
 40
0.0
 40
0.2849032416868664
 40
0.2849032416868664
 40
0.2849032416868664
 10
-8.266979638549003
 20
14.30963518130478
 30
0.0
 41
1.0
 10
-8.124532247577214
 20
14.31429089193355
 30
0.0
 41
0.9992441612154034
 10
-7.98287705173064
 20
14.3299988620697
 30
0.0
 41
1.0
  0
SPLINE
  5
17B
330
1F
100
AcDbEntity
  8
Default
100
AcDbSpline
210
0.0
220
0.0
230
1.0
 70
    15
 71
     2
 72
    12
 73
     9
 74
     0
 42
0.0000000001
 43
0.0000000001
 40
0.0
 40
0.0
 40
0.0
 40
1.570796326794897
 40
1.570796326794897
 40
3.141592653589793
 40
3.141592653589793
 40
4.71238898038469
 40
4.71238898038469
 40
6.283185307179586
 40
6.283185307179586
 40
6.283185307179586
 10
29.80860781468206
 20
13.55722066937363
 30
0.0
 41
1.0
 10
29.81684137656203
 20
13.38054634369402
 30
0.0
 41
0.7071067811865475
 10
29.4216241017952
 20
13.36212801451511
 30
0.0
 41
1.0
 10
29.02640682702836
 20
13.3437096853362
 30
0.0
 41
0.7071067811865475
 10
29.01817326514839
 20
13.52038401101581
 30
0.0
 41
1.0
 10
29.0099397032684
 20
13.69705833669542
 30
0.0
 41
0.7071067811865475
 10
29.40515697803525
 20
13.71547666587433
 30
0.0
 41
1.0
 10
29.80037425280209
 20
13.73389499505324
 30
0.0
 41
0.7071067811865475
 10
29.80860781468206
 20
13.55722066937363
 30
0.0
 41
1.0
  0
SPLINE
  5
17C
330
1F
100
AcDbEntity
  8
Default
100
AcDbSpline
210
0.0
220
0.0
230
1.0
 70
     8
 71
     3
 72
    13
 73
     9
 74
     0
 42
0.0000000001
 43
0.0000000001
 40
0.0
 40
0.0
 40
0.0
 40
0.0
 40
0.2981212301897421
 40
0.6520033169486958
 40
1.75866747796116
 40
2.02792014509328
 40
2.255864737809856
 40
2.398137421766556
 40
2.398137421766556
 40
2.398137421766556
 40
2.398137421766556
 10
27.32156148479618
 20
13.90084109768012
 30
0.0
 10
27.36625570566062
 20
13.81200118606837
 30
0.0
 10
27.4746150205072
 20
13.6235892947377
 30
0.0
 10
27.79978208089196
 20
13.13517285548259
 30
0.0
 10
28.1664840744638
 20
12.68928141601311
 30
0.0
 10
28.48152686266988
 20
12.25739389131447
 30
0.0
 10
28.59275657026348
 20
12.07503389510526
 30
0.0
 10
28.63553109807458
 20
11.95809361000831
 30
0.0
 10
28.63650147611054
 20
11.91000000000027
 30
0.0
  0
POLYLINE
  5
17D
330
1F
100
AcDbEntity
  8
Default
100
AcDb2dPolyline
 66
     1
 10
0.0
 20
0.0
 30
0.0
  0
VERTEX
  5
17E
330
17D
100
AcDbEntity
  8
Default
100
AcDbVertex
100
AcDb2dVertex
 10
28.63650147611054
 20
11.91000000000027
 30
0.0
  0
VERTEX
  5
17F
330
17D
100
AcDbEntity
  8
Default
100
AcDbVertex
100
AcDb2dVertex
 10
30.43650632821519
 20
11.91000000000007
 30
0.0
  0
SEQEND
  5
180
330
17D
100
AcDbEntity
  8
Default
  0
SPLINE
  5
181
330
1F
100
AcDbEntity
  8
Default
100
AcDbSpline
210
0.0
220
0.0
230
1.0
 70
     8
 71
     3
 72
    15
 73
    11
 74
     0
 42
0.0000000001
 43
0.0000000001
 40
0.0
 40
0.0
 40
0.0
 40
0.0
 40
0.088124537773721
 40
0.2036322619254046
 40
0.5536785235545338
 40
0.9663894600886548
 40
2.317551417327636
 40
3.055061107656349
 40
3.592815813003495
 40
4.012666374301555
 40
4.012666374301555
 40
4.012666374301555
 40
4.012666374301555
 10
30.43650632821519
 20
11.91000000000007
 30
0.0
 10
30.43710256370764
 20
11.93895775382463
 30
0.0
 10
30.45722487856526
 20
12.0064440679532
 30
0.0
 10
30.57883954806431
 20
12.14756875534938
 30
0.0
 10
30.82233568803807
 20
12.31296863728652
 30
0.0
 10
31.44160522640175
 20
12.64828444875094
 30
0.0
 10
32.19850269662092
 20
13.00069909328631
 30
0.0
 10
32.95293882836407
 20
13.44680512307155
 30
0.0
 10
33.39892400483546
 20
13.79685923891439
 30
0.0
 10
33.60166405399482
 20
14.04723611313205
 30
0.0
 10
33.66673510102532
 20
14.17154300680757
 30
0.0
  0
SPLINE
  5
182
330
1F
100
AcDbEntity
  8
Default
100
AcDbSpline
210
0.0
220
0.0
230
1.0
 70
    24
 71
     2
 72
     6
 73
     3
 74
     0
 42
0.0000000001
 43
0.0000000001
 40
0.0
 40
0.0
 40
0.0
 40
0.3849119340617779
 40
0.3849119340617779
 40
0.3849119340617779
 10
-2.756837171962275
 20
14.3767178688659
 30
0.0
 10
-2.94929313899317
 20
14.3767178688659
 30
0.0
 10
-3.141749106024065
 20
14.3767178688659
 30
0.0
  0
SPLINE
  5
183
330
1F
100
AcDbEntity
  8
Default
100
AcDbSpline
210
0.0
220
0.0
230
1.0
 70
    12
 71
     2
 72
     6
 73
     3
 74
     0
 42
0.0000000001
 43
0.0000000001
 40
0.0
 40
0.0
 40
0.0
 40
0.7853981633974483
 40
0.7853981633974483
 40
0.7853981633974483
 10
-3.141749106024065
 20
14.3767178688659
 30
0.0
 41
1.0
 10
-3.641749106024037
 20
14.37671786886591
 30
0.0
 41
0.7071067811865476
 10
-3.641749106024065
 20
14.39852756254859
 30
0.0
 41
1.0
  0
SPLINE
  5
184
330
1F
100
AcDbEntity
  8
Default
100
AcDbSpline
210
0.0
220
0.0
230
1.0
 70
    24
 71
     2
 72
     6
 73
     3
 74
     0
 42
0.0000000001
 43
0.0000000001
 40
0.0
 40
0.0
 40
0.0
 40
0.359945810699692
 40
0.359945810699692
 40
0.359945810699692
 10
-3.641749106024065
 20
14.39852756254859
 30
0.0
 10
-3.641749106024065
 20
14.57850046789843
 30
0.0
 10
-3.641749106024065
 20
14.75847337324828
 30
0.0
  0
SPLINE
  5
185
330
1F
100
AcDbEntity
  8
Default
100
AcDbSpline
210
0.0
220
0.0
230
1.0
 70
    12
 71
     2
 72
     6
 73
     3
 74
     0
 42
0.0000000001
 43
0.0000000001
 40
0.0
 40
0.0
 40
0.0
 40
0.7853981633974483
 40
0.7853981633974483
 40
0.7853981633974483
 10
-3.641749106024065
 20
14.75847337324828
 30
0.0
 41
1.0
 10
-3.641749106024037
 20
14.78028306693095
 30
0.0
 41
0.7071067811865476
 10
-3.141749106024065
 20
14.78028306693096
 30
0.0
 41
1.0
  0
SPLINE
  5
186
330
1F
100
AcDbEntity
  8
Default
100
AcDbSpline
210
0.0
220
0.0
230
1.0
 70
    24
 71
     2
 72
     6
 73
     3
 74
     0
 42
0.0000000001
 43
0.0000000001
 40
0.0
 40
0.0
 40
0.0
 40
6.283464566930007
 40
6.283464566930007
 40
6.283464566930007
 10
-3.141749106024065
 20
14.78028306693096
 30
0.0
 10
-0.0000168225590471
 20
14.78028306693096
 30
0.0
 10
3.141715460905971
 20
14.78028306693096
 30
0.0
  0
SPLINE
  5
187
330
1F
100
AcDbEntity
  8
Default
100
AcDbSpline
210
0.0
220
0.0
230
1.0
 70
    12
 71
     2
 72
     6
 73
     3
 74
     0
 42
0.0000000001
 43
0.0000000001
 40
0.0
 40
0.0
 40
0.0
 40
0.7853981633974483
 40
0.7853981633974483
 40
0.7853981633974483
 10
3.141715460905971
 20
14.78028306693096
 30
0.0
 41
1.0
 10
3.641715460905972
 20
14.78028306693095
 30
0.0
 41
0.7071067811865476
 10
3.641715460905971
 20
14.75847337324828
 30
0.0
 41
1.0
  0
SPLINE
  5
188
330
1F
100
AcDbEntity
  8
Default
100
AcDbSpline
210
0.0
220
0.0
230
1.0
 70
    24
 71
     2
 72
     6
 73
     3
 74
     0
 42
0.0000000001
 43
0.0000000001
 40
0.0
 40
0.0
 40
0.0
 40
0.359945810699692
 40
0.359945810699692
 40
0.359945810699692
 10
3.641715460905971
 20
14.75847337324828
 30
0.0
 10
3.641715460905971
 20
14.57850046789843
 30
0.0
 10
3.641715460905971
 20
14.39852756254859
 30
0.0
  0
SPLINE
  5
189
330
1F
100
AcDbEntity
  8
Default
100
AcDbSpline
210
0.0
220
0.0
230
1.0
 70
    12
 71
     2
 72
     6
 73
     3
 74
     0
 42
0.0000000001
 43
0.0000000001
 40
0.0
 40
0.0
 40
0.0
 40
0.7853981633984484
 40
0.7853981633984484
 40
0.7853981633984484
 10
3.641715460905971
 20
14.39852756254859
 30
0.0
 41
1.0
 10
3.641715460905961
 20
14.37671786886587
 30
0.0
 41
0.7071067811858404
 10
3.141715460904948
 20
14.3767178688659
 30
0.0
 41
1.0
  0
SPLINE
  5
18A
330
1F
100
AcDbEntity
  8
Default
100
AcDbSpline
210
0.0
220
0.0
230
1.0
 70
    24
 71
     2
 72
     6
 73
     3
 74
     0
 42
0.0000000001
 43
0.0000000001
 40
0.0
 40
0.0
 40
0.0
 40
0.384898494982103
 40
0.384898494982103
 40
0.384898494982103
 10
3.141715460904948
 20
14.3767178688659
 30
0.0
 10
2.949266213413893
 20
14.3767178688659
 30
0.0
 10
2.756816965922837
 20
14.3767178688659
 30
0.0
  0
SPLINE
  5
18B
330
1F
100
AcDbEntity
  8
Default
100
AcDbSpline
210
0.0
220
0.0
230
1.0
 70
    12
 71
     2
 72
     6
 73
     3
 74
     0
 42
0.0000000001
 43
0.0000000001
 40
-0.0927557571444814
 40
-0.0927557571444814
 40
-0.0927557571444814
 40
0.0
 40
0.0
 40
0.0
 10
2.632562796050649
 20
13.8818578792777
 30
0.0
 41
1.0
 10
2.629920981097029
 20
13.92816403313907
 30
0.0
 41
0.9998844437718732
 10
2.625872662754944
 20
13.97436847221458
 30
0.0
 41
1.0
  0
SPLINE
  5
18C
330
1F
100
AcDbEntity
  8
Default
100
AcDbSpline
210
0.0
220
0.0
230
1.0
 70
     8
 71
     3
 72
    22
 73
    18
 74
     0
 42
0.0000000001
 43
0.0000000001
 40
0.0
 40
0.0
 40
0.0
 40
0.0
 40
1.0
 40
2.0
 40
3.0
 40
4.0
 40
5.0
 40
6.0
 40
7.0
 40
8.0
 40
9.0
 40
10.0
 40
11.0
 40
12.0
 40
13.0
 40
14.0
 40
15.0
 40
15.0
 40
15.0
 40
15.0
 10
2.625872662754944
 20
13.97436847221458
 30
0.0
 10
2.528447911769348
 20
14.03582201971472
 30
0.0
 10
2.286937103862499
 20
14.05849693902899
 30
0.0
 10
1.940779182341146
 20
14.11663625533982
 30
0.0
 10
1.588391997058153
 20
14.15414821706089
 30
0.0
 10
1.236406168625791
 20
14.18513918456443
 30
0.0
 10
0.8834929433612615
 20
14.207689437237
 30
0.0
 10
0.5302604429188875
 20
14.22270610451391
 30
0.0
 10
0.1767646404413767
 20
14.23011733499341
 30
0.0
 10
-0.1768005199460845
 20
14.23014861361948
 30
0.0
 10
-0.5302974991675455
 20
14.22278590951873
 30
0.0
 10
-0.8835302496125337
 20
14.20776874863349
 30
0.0
 10
-1.236439212706557
 20
14.18514425069738
 30
0.0
 10
-1.588407291520184
 20
14.15393387112554
 30
0.0
 10
-1.940785852387933
 20
14.1164086542144
 30
0.0
 10
-2.287051985259666
 20
14.05897953005596
 30
0.0
 10
-2.528462706534583
 20
14.03571109498409
 30
0.0
 10
-2.625906311258689
 20
13.97436847221458
 30
0.0
  0
SPLINE
  5
18D
330
1F
100
AcDbEntity
  8
Default
100
AcDbSpline
210
0.0
220
0.0
230
1.0
 70
    12
 71
     2
 72
     6
 73
     3
 74
     0
 42
0.0000000001
 43
0.0000000001
 40
0.0
 40
0.0
 40
0.0
 40
0.0927557571444814
 40
0.0927557571444814
 40
0.0927557571444814
 10
-2.625906311258689
 20
13.97436847221458
 30
0.0
 41
1.0
 10
-2.629954634277921
 20
13.92816403313907
 30
0.0
 41
0.9998844437718732
 10
-2.632596449231585
 20
13.8818578792777
 30
0.0
 41
1.0
  0
POLYLINE
  5
18E
330
1F
100
AcDbEntity
  8
Default
100
AcDb2dPolyline
 66
     1
 10
0.0
 20
0.0
 30
0.0
  0
VERTEX
  5
18F
330
18E
100
AcDbEntity
  8
Default
100
AcDbVertex
100
AcDb2dVertex
 10
-2.180323590594725
 20
13.85478910067268
 30
0.0
  0
VERTEX
  5
190
330
18E
100
AcDbEntity
  8
Default
100
AcDbVertex
100
AcDb2dVertex
 10
-2.574145395122912
 20
13.82792077651975
 30
0.0
  0
SEQEND
  5
191
330
18E
100
AcDbEntity
  8
Default
  0
ARC
  5
192
330
1F
100
AcDbEntity
  8
Default
100
AcDbCircle
 10
-2.617012959583462
 20
13.88565030515318
 30
0.0
 40
0.0719049828524945
100
AcDbArc
 50
202.2948126658247
 51
306.5960548147258
  0
SPLINE
  5
193
330
1F
100
AcDbEntity
  8
Default
100
AcDbSpline
210
0.0
220
0.0
230
1.0
 70
    12
 71
     2
 72
    14
 73
    11
 74
     0
 42
0.0000000001
 43
0.0000000001
 40
-6.133786681467222
 40
-6.133786681467222
 40
-6.133786681467222
 40
-5.417515997292589
 40
-5.417515997292589
 40
-5.232992932541986
 40
-5.232992932541986
 40
0.0000000000000001
 40
0.0000000000000001
 40
0.1845073348419032
 40
0.1845073348419032
 40
0.9803787898738036
 40
0.9803787898738036
 40
0.9803787898738036
 10
-2.683542618503566
 20
13.85837153973041
 30
0.0
 41
1.0
 10
-2.749814121838398
 20
14.32679383267561
 30
0.0
 41
1.0
 10
-2.799703491566731
 20
14.68143727902718
 30
0.0
 41
1.0
 10
-2.707577879201779
 20
14.68620797965428
 30
0.0
 41
1.0
 10
-2.615452266836826
 20
14.69097868028138
 30
0.0
 41
1.0
 10
-0.0000168251813138
 20
14.82641831733031
 30
0.0
 41
0.9986618594433156
 10
2.615418607172842
 20
14.69097850066643
 30
0.0
 41
1.0
 10
2.707552565575156
 20
14.68620736149772
 30
0.0
 41
1.0
 10
2.799686523977414
 20
14.68143622232902
 30
0.0
 41
1.0
 10
2.744248541347247
 20
14.2873810570088
 30
0.0
 41
1.0
 10
2.683508974677068
 20
13.85837153973041
 30
0.0
 41
1.0
  0
ARC
  5
194
330
1F
100
AcDbEntity
  8
Default
100
AcDbCircle
 10
2.616979315756936
 20
13.88565030515318
 30
0.0
 40
0.0719049828524945
100
AcDbArc
 50
233.403945185273
 51
337.7051873341738
  0
POLYLINE
  5
195
330
1F
100
AcDbEntity
  8
Default
100
AcDb2dPolyline
 66
     1
 10
0.0
 20
0.0
 30
0.0
  0
VERTEX
  5
196
330
195
100
AcDbEntity
  8
Default
100
AcDbVertex
100
AcDb2dVertex
 10
2.574111751296385
 20
13.82792077651975
 30
0.0
  0
VERTEX
  5
197
330
195
100
AcDbEntity
  8
Default
100
AcDbVertex
100
AcDb2dVertex
 10
2.180289946768198
 20
13.85478910067268
 30
0.0
  0
SEQEND
  5
198
330
195
100
AcDbEntity
  8
Default
  0
SPLINE
  5
199
330
1F
100
AcDbEntity
  8
Default
100
AcDbSpline
210
0.0
220
0.0
230
1.0
 70
     8
 71
     3
 72
    12
 73
     8
 74
     0
 42
0.0000000001
 43
0.0000000001
 40
-5.0
 40
-5.0
 40
-5.0
 40
-5.0
 40
-4.0
 40
-3.0
 40
-2.0
 40
-1.0
 40
0.0
 40
0.0
 40
0.0
 40
0.0
 10
-2.282468573984886
 20
14.06393351322859
 30
0.0
 10
-2.209934727431431
 20
13.90854398813727
 30
0.0
 10
-2.053673335577315
 20
13.6018611553655
 30
0.0
 10
-1.750890034680765
 20
13.18455458868981
 30
0.0
 10
-1.439129071951413
 20
12.77427955516502
 30
0.0
 10
-1.126921117611232
 20
12.36848574956351
 30
0.0
 10
-0.9248332236678038
 20
12.08222780171213
 30
0.0
 10
-0.9000311741494897
 20
11.9099468938981
 30
0.0
  0
POLYLINE
  5
19A
330
1F
100
AcDbEntity
  8
Default
100
AcDb2dPolyline
 66
     1
 10
0.0
 20
0.0
 30
0.0
  0
VERTEX
  5
19B
330
19A
100
AcDbEntity
  8
Default
100
AcDbVertex
100
AcDb2dVertex
 10
-0.9000311741494897
 20
11.9099468938981
 30
0.0
  0
VERTEX
  5
19C
330
19A
100
AcDbEntity
  8
Default
100
AcDbVertex
100
AcDb2dVertex
 10
0.8999981811644489
 20
11.90994706662735
 30
0.0
  0
SEQEND
  5
19D
330
19A
100
AcDbEntity
  8
Default
  0
SPLINE
  5
19E
330
1F
100
AcDbEntity
  8
Default
100
AcDbSpline
210
0.0
220
0.0
230
1.0
 70
     8
 71
     3
 72
    12
 73
     8
 74
     0
 42
0.0000000001
 43
0.0000000001
 40
0.0
 40
0.0
 40
0.0
 40
0.0
 40
1.0
 40
2.0
 40
3.0
 40
4.0
 40
5.0
 40
5.0
 40
5.0
 40
5.0
 10
0.8999981811644489
 20
11.90994706662735
 30
0.0
 10
0.9248001976189357
 20
12.08222797920133
 30
0.0
 10
1.126888036624223
 20
12.36848596583707
 30
0.0
 10
1.439095913085168
 20
12.77427983135698
 30
0.0
 10
1.750856797075244
 20
13.18455492471438
 30
0.0
 10
2.053640017883026
 20
13.60186154949971
 30
0.0
 10
2.209901350879136
 20
13.90854441226088
 30
0.0
 10
2.282435167610458
 20
14.06393395127277
 30
0.0
  0
SPLINE
  5
19F
330
1F
100
AcDbEntity
  8
Default
100
AcDbSpline
210
0.0
220
0.0
230
1.0
 70
    12
 71
     2
 72
     6
 73
     3
 74
     0
 42
0.0000000001
 43
0.0000000001
 40
0.0
 40
0.0
 40
0.0
 40
6.308534519420058
 40
6.308534519420058
 40
6.308534519420058
 10
-1.890698333391697
 20
13.37781884075985
 30
0.0
 41
1.0
 10
-5.044966186421717
 20
13.38101743534277
 30
0.0
 41
0.999998946622504
 10
-8.199576578108832
 20
13.37505676511268
 30
0.0
 41
1.0
  0
SPLINE
  5
1A0
330
1F
100
AcDbEntity
  8
Default
100
AcDbSpline
210
0.0
220
0.0
230
1.0
 70
    12
 71
     2
 72
     6
 73
     3
 74
     0
 42
0.0000000001
 43
0.0000000001
 40
0.0
 40
0.0
 40
0.0
 40
0.0785831248997358
 40
0.0785831248997358
 40
0.0785831248997358
 10
-8.199576578108832
 20
13.37505676511268
 30
0.0
 41
1.0
 10
-8.249901664725993
 20
13.37507402133137
 30
0.0
 41
0.7080614882125202
 10
-8.250016822538953
 20
13.42505243534092
 30
0.0
 41
1.0
  0
POLYLINE
  5
1A1
330
1F
100
AcDbEntity
  8
Default
100
AcDb2dPolyline
 66
     1
 10
0.0
 20
0.0
 30
0.0
  0
VERTEX
  5
1A2
330
1A1
100
AcDbEntity
  8
Default
100
AcDbVertex
100
AcDb2dVertex
 10
-8.250016822538953
 20
13.42505243534092
 30
0.0
  0
VERTEX
  5
1A3
330
1A1
100
AcDbEntity
  8
Default
100
AcDbVertex
100
AcDb2dVertex
 10
-8.250016822557825
 20
13.64485293444455
 30
0.0
  0
SEQEND
  5
1A4
330
1A1
100
AcDbEntity
  8
Default
  0
SPLINE
  5
1A5
330
1F
100
AcDbEntity
  8
Default
100
AcDbSpline
210
0.0
220
0.0
230
1.0
 70
    12
 71
     2
 72
     6
 73
     3
 74
     0
 42
0.0000000001
 43
0.0000000001
 40
0.0
 40
0.0
 40
0.0
 40
0.0785685106525353
 40
0.0785685106525353
 40
0.0785685106525353
 10
-8.250016822557825
 20
13.64485293444455
 30
0.0
 41
1.0
 10
-8.249866015472367
 20
13.69479564595041
 30
0.0
 41
0.7085750451979772
 10
-8.199583924998137
 20
13.69484342735279
 30
0.0
 41
1.0
  0
SPLINE
  5
1A6
330
1F
100
AcDbEntity
  8
Default
100
AcDbSpline
210
0.0
220
0.0
230
1.0
 70
    12
 71
     2
 72
     6
 73
     3
 74
     0
 42
0.0000000001
 43
0.0000000001
 40
0.0
 40
0.0
 40
0.0
 40
6.107059540251874
 40
6.107059540251874
 40
6.107059540251874
 10
-8.199583924998137
 20
13.69484342735279
 30
0.0
 41
1.0
 10
-5.145718434640787
 20
13.68904325490695
 30
0.0
 41
0.9999990036808405
 10
-2.092187947402749
 20
13.69187289579165
 30
0.0
 41
1.0
  0
SPLINE
  5
1A7
330
1F
100
AcDbEntity
  8
Default
100
AcDbSpline
210
0.0
220
0.0
230
1.0
 70
    24
 71
     2
 72
     6
 73
     3
 74
     0
 42
0.0000000001
 43
0.0000000001
 40
0.0
 40
0.0
 40
0.0
 40
0.0829573442458843
 40
0.0829573442458843
 40
0.0829573442458843
 10
43.06923198975758
 20
2.559999999999992
 30
0.0
 10
43.07563533775782
 20
2.600981427201475
 30
0.0
 10
43.08203868575805
 20
2.641962854402959
 30
0.0
  0
POLYLINE
  5
1A8
330
1F
100
AcDbEntity
  8
Default
100
AcDb2dPolyline
 66
     1
 10
0.0
 20
0.0
 30
0.0
  0
VERTEX
  5
1A9
330
1A8
100
AcDbEntity
  8
Default
100
AcDbVertex
100
AcDb2dVertex
 10
43.08203868575805
 20
2.641962854402959
 30
0.0
  0
VERTEX
  5
1AA
330
1A8
100
AcDbEntity
  8
Default
100
AcDbVertex
100
AcDb2dVertex
 10
42.368925293757
 20
2.641962854402998
 30
0.0
  0
SEQEND
  5
1AB
330
1A8
100
AcDbEntity
  8
Default
  0
SPLINE
  5
1AC
330
1F
100
AcDbEntity
  8
Default
100
AcDbSpline
210
0.0
220
0.0
230
1.0
 70
    24
 71
     2
 72
     6
 73
     3
 74
     0
 42
0.0000000001
 43
0.0000000001
 40
0.0
 40
0.0
 40
0.0
 40
0.0829573442459229
 40
0.0829573442459229
 40
0.0829573442459229
 10
42.368925293757
 20
2.641962854402998
 30
0.0
 10
42.37532864175724
 20
2.600981427201495
 30
0.0
 10
42.38173198975747
 20
2.559999999999992
 30
0.0
  0
LINE
  5
1AD
330
1F
100
AcDbEntity
  8
Default
100
AcDbLine
 10
41.91987067026659
 20
2.56
 30
0.0
 11
43.08485698975753
 21
2.56
 31
0.0
  0
SPLINE
  5
1AE
330
1F
100
AcDbEntity
  8
Default
100
AcDbSpline
210
0.0
220
0.0
230
1.0
 70
    24
 71
     2
 72
     6
 73
     3
 74
     0
 42
0.0000000001
 43
0.0000000001
 40
-1.16498631949094
 40
-1.16498631949094
 40
-1.16498631949094
 40
0.0
 40
0.0
 40
0.0
 10
43.08485698975753
 20
2.56
 30
0.0
 10
43.08485698975753
 20
1.977506840254531
 30
0.0
 10
43.08485698975753
 20
1.395013680509061
 30
0.0
  0
SPLINE
  5
1AF
330
1F
100
AcDbEntity
  8
Default
100
AcDbSpline
210
0.0
220
0.0
230
1.0
 70
    24
 71
     2
 72
     6
 73
     3
 74
     0
 42
0.0000000001
 43
0.0000000001
 40
-6.854073546591319
 40
-6.854073546591319
 40
-6.854073546591319
 40
0.0
 40
0.0
 40
0.0
 10
33.22611240454961
 20
4.949157620436264
 30
0.0
 10
36.59134921759738
 20
4.301267014215739
 30
0.0
 10
39.95658603064516
 20
3.653376407995214
 30
0.0
  0
SPLINE
  5
1B0
330
1F
100
AcDbEntity
  8
Default
100
AcDbSpline
210
0.0
220
0.0
230
1.0
 70
    12
 71
     2
 72
     6
 73
     3
 74
     0
 42
0.0000000001
 43
0.0000000001
 40
-2.090936080365765
 40
-2.090936080365765
 40
-2.090936080365765
 40
-0.1184497281738283
 40
-0.1184497281738283
 40
-0.1184497281738283
 10
39.95658603064516
 20
3.653376407995214
 30
0.0
 41
1.0
 10
40.92613164964886
 20
3.4657543060015
 30
0.0
 41
0.9979820033929416
 10
41.86520047939123
 20
3.160188448137491
 30
0.0
 41
0.9997713644603425
  0
LINE
  5
1B1
330
1F
100
AcDbEntity
  8
Default
100
AcDbLine
 10
41.86520047939123
 20
3.160188448137491
 30
0.0
 11
41.87586645169739
 21
3.15395291849355
 31
0.0
  0
SPLINE
  5
1B2
330
1F
100
AcDbEntity
  8
Default
100
AcDbSpline
210
0.0
220
0.0
230
1.0
 70
     8
 71
     2
 72
     8
 73
     5
 74
     0
 42
0.0000000001
 43
0.0000000001
 40
0.0
 40
0.0
 40
0.0
 40
1.0
 40
2.0
 40
3.0
 40
3.0
 40
3.0
 10
41.87586645169739
 20
3.15395291849355
 30
0.0
 10
41.950429166101
 20
3.110362141895778
 30
0.0
 10
42.0433722141638
 20
2.964445921513677
 30
0.0
 10
42.05757475714518
 20
2.79308509632571
 30
0.0
 10
42.05571426068281
 20
2.708618522286542
 30
0.0
  0
SPLINE
  5
1B3
330
1F
100
AcDbEntity
  8
Default
100
AcDbSpline
210
0.0
220
0.0
230
1.0
 70
    12
 71
     2
 72
     6
 73
     3
 74
     0
 42
0.0000000001
 43
0.0000000001
 40
0.0
 40
0.0
 40
0.0
 40
0.0771581621093029
 40
0.0771581621093029
 40
0.0771581621093029
 10
42.05571426068281
 20
2.708618522286542
 30
0.0
 41
1.0
 10
42.0570580801789
 20
2.659999999707501
 30
0.0
 41
0.7168087313008373
 10
42.10569517084647
 20
2.66
 30
0.0
 41
1.0
  0
LINE
  5
1B4
330
1F
100
AcDbEntity
  8
Default
100
AcDbLine
 10
42.10569517084647
 20
2.66
 30
0.0
 11
43.30985568475643
 21
2.659999999999999
 31
0.0
  0
SPLINE
  5
1B5
330
1F
100
AcDbEntity
  8
Default
100
AcDbSpline
210
0.0
220
0.0
230
1.0
 70
    12
 71
     2
 72
     8
 73
     5
 74
     0
 42
0.0000000001
 43
0.0000000001
 40
-0.1312418974498821
 40
-0.1312418974498821
 40
-0.1312418974498821
 40
-0.0656209487249411
 40
-0.0656209487249411
 40
0.0
 40
0.0
 40
0.0
 10
43.30985568475643
 20
2.659999999999999
 30
0.0
 41
1.0
 10
43.34463863484966
 20
2.659999999982475
 30
0.0
 41
0.9170686251440676
 10
43.36836164079958
 20
2.685437621842381
 30
0.0
 41
1.0
 10
43.39208464674951
 20
2.710875243702286
 30
0.0
 41
0.9170686251440676
 10
43.3896534424168
 20
2.745685996062573
 30
0.0
 41
1.0
  0
SPLINE
  5
1B6
330
1F
100
AcDbEntity
  8
Default
100
AcDbSpline
210
0.0
220
0.0
230
1.0
 70
    12
 71
     2
 72
     6
 73
     3
 74
     0
 42
0.0000000001
 43
0.0000000001
 40
0.0
 40
0.0
 40
0.0
 40
0.9522035080094
 40
0.9522035080094
 40
0.9522035080094
 10
43.3896534424168
 20
2.745685996062573
 30
0.0
 41
1.0
 10
43.3564975184031
 20
3.220744722471785
 30
0.0
 41
0.9999999988183028
 10
43.32339561810849
 20
3.695694345821771
 30
0.0
 41
1.0
  0
SPLINE
  5
1B7
330
1F
100
AcDbEntity
  8
Default
100
AcDbSpline
210
0.0
220
0.0
230
1.0
 70
    12
 71
     2
 72
     6
 73
     3
 74
     0
 42
0.0000000001
 43
0.0000000001
 40
0.0
 40
0.0
 40
0.0
 40
0.2487553277819785
 40
0.2487553277819785
 40
0.2487553277819785
 10
43.32339561810849
 20
3.695694345821771
 30
0.0
 41
1.0
 10
43.31394959062771
 20
3.831133994138056
 30
0.0
 41
0.8787732984471257
 10
43.19520357964916
 20
3.896955803957431
 30
0.0
 41
1.0
  0
SPLINE
  5
1B8
330
1F
100
AcDbEntity
  8
Default
100
AcDbSpline
210
0.0
220
0.0
230
1.0
 70
    12
 71
     2
 72
    20
 73
    17
 74
     0
 42
0.0000000001
 43
0.0000000001
 40
0.0
 40
0.0
 40
0.0
 40
0.4643734255394482
 40
0.4643734255394482
 40
0.9222224345378158
 40
0.9222224345378158
 40
11.27930755387938
 40
12.47712251619995
 40
12.47712251619995
 40
13.10585240426605
 40
13.10585240426605
 40
15.19995564663804
 40
15.19995564663804
 40
15.8477962145331
 40
15.8477962145331
 40
16.88631587994969
 40
25.27634439949363
 40
25.27634439949363
 40
25.27634439949363
 10
43.19520357964916
 20
3.896955803957431
 30
0.0
 41
1.0
 10
42.99154126451583
 20
4.009847361859968
 30
0.0
 41
1.0
 10
42.74325942595155
 20
4.147471854514516
 30
0.0
 41
1.0
 10
42.5409836319065
 20
4.259593510138113
 30
0.0
 41
0.9934565288642211
 10
42.31983205877799
 20
4.322518529943504
 30
0.0
 41
1.0
 10
37.34148263692035
 20
5.748471527330162
 30
0.0
 41
1.0
 10
31.78841587566293
 20
7.342955909076033
 30
0.0
 41
1.0
 10
31.20881613957209
 20
7.487954687550683
 30
0.0
 41
1.0
 10
30.89764576650903
 20
7.533193335811984
 30
0.0
 41
0.999634201029002
 10
30.58448465094314
 20
7.561542093567248
 30
0.0
 41
0.9999998524176973
 10
29.53743253857489
 20
7.561542034970172
 30
0.0
 41
0.9999998524176973
 10
28.49038042620667
 20
7.561541976373098
 30
0.0
 41
0.9999998524176973
 10
28.16769420055864
 20
7.532335734027783
 30
0.0
 41
0.9996110882515188
 10
27.84713864246394
 20
7.485188095637477
 30
0.0
 41
0.9999998524176973
 10
27.37304261628869
 20
7.280765644897766
 30
0.0
 41
0.9999998524176973
 10
22.93091779887396
 20
5.702188017485591
 30
0.0
 41
0.9999998524176973
 10
18.97807034118677
 20
4.297502424094267
 30
0.0
 41
0.9999998524176973
  0
SPLINE
  5
1B9
330
1F
100
AcDbEntity
  8
Default
100
AcDbSpline
210
0.0
220
0.0
230
1.0
 70
     8
 71
     3
 72
     8
 73
     4
 74
     0
 42
0.0000000001
 43
0.0000000001
 40
0.0
 40
0.0
 40
0.0
 40
0.0
 40
1.0
 40
1.0
 40
1.0
 40
1.0
 10
18.97807034118676
 20
4.297502424094266
 30
0.0
 10
18.81258408370891
 20
4.238695155594359
 30
0.0
 10
18.65952522844174
 20
4.145864560215716
 30
0.0
 10
18.51525195613289
 20
4.045718571081129
 30
0.0
  0
SPLINE
  5
1BA
330
1F
100
AcDbEntity
  8
Default
100
AcDbSpline
210
0.0
220
0.0
230
1.0
 70
     8
 71
     3
 72
    11
 73
     7
 74
     0
 42
0.0000000001
 43
0.0000000001
 40
0.0
 40
0.0
 40
0.0
 40
0.0
 40
0.1314236413480431
 40
0.2346101477028872
 40
0.3239100364253512
 40
0.4110019264731688
 40
0.4110019264731688
 40
0.4110019264731688
 40
0.4110019264731688
 10
18.51525195613289
 20
4.045718571081129
 30
0.0
 10
18.47925145520406
 20
4.020729148458626
 30
0.0
 10
18.41661779833802
 20
3.973752562814968
 30
0.0
 10
18.34081020954591
 20
3.896130806040171
 30
0.0
 10
18.29322703055323
 20
3.814985866274454
 30
0.0
 10
18.2794816124113
 20
3.757068550402222
 30
0.0
 10
18.27716912909912
 20
3.728150080667853
 30
0.0
  0
SPLINE
  5
1BB
330
1F
100
AcDbEntity
  8
Default
100
AcDbSpline
210
0.0
220
0.0
230
1.0
 70
    12
 71
     3
 72
    70
 73
    66
 74
     0
 42
0.0000000001
 43
0.0000000001
 40
0.0
 40
0.0
 40
0.0
 40
0.0
 40
0.9733358469104075
 40
0.9733358469104075
 40
0.9733358469104075
 40
1.038942553595811
 40
1.038942553595811
 40
1.038942553595811
 40
1.104549260281215
 40
1.104549260281215
 40
1.104549260281215
 40
2.322215484563071
 40
2.322215484563071
 40
2.322215484563071
 40
2.382163434467255
 40
2.382163434467255
 40
2.382163434467255
 40
2.595278793662235
 40
2.701076059324852
 40
2.701076059324852
 40
2.701076059324852
 40
3.701076059324852
 40
3.701076059324852
 40
3.701076059324852
 40
4.701076059324851
 40
4.701076059324851
 40
5.701076059324851
 40
5.701076059324851
 40
6.701076059324851
 40
6.701076059324851
 40
6.701076059324851
 40
7.701076059324851
 40
7.701076059324851
 40
7.701076059324851
 40
10.58956476235931
 40
10.58956476235931
 40
10.58956476235931
 40
11.41952517875065
 40
11.41952517875065
 40
11.41952517875065
 40
11.85084035962133
 40
11.85084035962133
 40
11.85084035962133
 40
11.96600976270871
 40
11.96600976270871
 40
11.96600976270871
 40
13.18268738209123
 40
13.18268738209123
 40
13.18268738209123
 40
13.24830052978707
 40
13.24830052978707
 40
13.24830052978707
 40
13.31391367748291
 40
13.31391367748291
 40
13.31391367748291
 40
14.38661485551377
 40
14.38661485551377
 40
14.38661485551377
 40
14.56001544671149
 40
14.56001544671149
 40
14.56001544671149
 40
15.56001544671149
 40
15.56001544671149
 40
15.56001544671149
 40
19.58477574569441
 40
19.58477574569441
 40
19.58477574569441
 40
19.58477574569441
 10
18.27716912909912
 20
3.728150080667853
 30
0.0
 41
1.0
 10
18.25193516890056
 20
3.39290389311721
 30
0.0
 41
0.9999997380155814
 10
18.22785573576223
 20
3.069319170865574
 30
0.0
 41
0.9999997380155814
 10
18.20406103716957
 20
2.745679201995566
 30
0.0
 41
1.0
 10
18.20250458964881
 20
2.723162717945524
 30
0.0
 41
0.9448107965438592
 10
18.21002253608558
 20
2.70191638111808
 30
0.0
 41
0.9448107965438592
 10
18.2253701480534
 20
2.685457896730837
 30
0.0
 41
1.0
 10
18.24071776002123
 20
2.668999412343593
 30
0.0
 41
0.9448107965438592
 10
18.2613517309703
 20
2.660017756354119
 30
0.0
 41
0.9448107965438592
 10
18.28385574363818
 20
2.660000000081741
 30
0.0
 41
1.0
 10
18.68974448506546
 20
2.660000000054494
 30
0.0
 41
1.0
 10
19.09563322649274
 20
2.660000000027247
 30
0.0
 41
1.0
 10
19.50152196792004
 20
2.66
 30
0.0
 41
1.0
 10
19.52277416742834
 20
2.660171995231419
 30
0.0
 41
0.8860027821911703
 10
19.54033199326188
 20
2.67226152568667
 30
0.0
 41
0.8860027821911703
 10
19.54819081553319
 20
2.692134072856212
 30
0.0
 41
1.0
 10
19.57511325099412
 20
2.758184590910365
 30
0.0
 41
1.0
 10
19.59801782622131
 20
2.86264168468771
 30
0.0
 41
1.0
 10
19.64264049933806
 20
2.959679166605115
 30
0.0
 41
1.0
 10
19.66107046124426
 20
2.989759784919145
 30
0.0
 41
1.0
 10
19.70056636625105
 20
3.05422336056422
 30
0.0
 41
1.0
 10
19.77163624874802
 20
3.099164578127106
 30
0.0
 41
1.0
 10
19.84223252891573
 20
3.126213502758872
 30
0.0
 41
1.0
 10
20.68734234264539
 20
3.450016847677774
 30
0.0
 41
1.0
 10
21.55234593947313
 20
3.706312953557234
 30
0.0
 41
1.0
 10
23.32214069932473
 20
4.083890687237267
 30
0.0
 41
1.0
 10
24.20396479849728
 20
4.282871617828673
 30
0.0
 41
1.0
 10
25.96146643533586
 20
4.701217606514262
 30
0.0
 41
1.0
 10
26.84250760815229
 20
4.908571612855071
 30
0.0
 41
1.0
 10
27.72583913536585
 20
5.114106631193899
 30
0.0
 41
1.0
 10
28.34164505965043
 20
5.257773894377562
 30
0.0
 41
1.0
 10
29.07074986163369
 20
5.436591419349244
 30
0.0
 41
1.0
 10
29.61274971711038
 20
5.120777261808773
 30
0.0
 41
1.0
 10
30.44465691618956
 20
4.636038993755232
 30
0.0
 41
1.0
 10
31.27656411526874
 20
4.151300725701691
 30
0.0
 41
1.0
 10
32.1084713143479
 20
3.66656245764815
 30
0.0
 41
1.0
 10
32.35272775672617
 20
3.522085839479792
 30
0.0
 41
0.9933765536404024
 10
32.57424237665029
 20
3.344699323643473
 30
0.0
 41
0.9933765536404024
 10
32.76861360351137
 20
3.137927640356867
 30
0.0
 41
1.0
 10
32.86970999806953
 20
3.03038151835839
 30
0.0
 41
0.9491499727381721
 10
32.92189903146631
 20
2.892312861007494
 30
0.0
 41
0.9491499727381721
 10
32.91721926238876
 20
2.744784053275071
 30
0.0
 41
1.0
 10
32.91292010062627
 20
2.702707148756911
 30
0.0
 41
0.8282968271422514
 10
32.93791581113311
 20
2.668587313733398
 30
0.0
 41
0.8282968271422514
 10
32.9793308655037
 20
2.659999999997294
 30
0.0
 41
1.0
 10
33.38500043839485
 20
2.659999999999125
 30
0.0
 41
1.0
 10
33.79067001128601
 20
2.660000000000956
 30
0.0
 41
1.0
 10
34.19633958417714
 20
2.660000000002787
 30
0.0
 41
1.0
 10
34.21891603631778
 20
2.660013172304279
 30
0.0
 41
0.9447834927321687
 10
34.2395913472614
 20
2.668993758391062
 30
0.0
 41
0.9447834927321687
 10
34.25494066163708
 20
2.685454128472346
 30
0.0
 41
1.0
 10
34.27028997601271
 20
2.701914498553629
 30
0.0
 41
0.9447834927321687
 10
34.27780814863338
 20
2.723137000690925
 30
0.0
 41
0.9447834927321687
 10
34.27624979779961
 20
2.745606137553717
 30
0.0
 41
1.0
 10
34.25063445218129
 20
3.102271596537205
 30
0.0
 41
0.9999999994382733
 10
34.22498370441355
 20
3.459222618605346
 30
0.0
 41
0.9999999994382733
 10
34.19929755453961
 20
3.816459203156611
 30
0.0
 41
1.0
 10
34.19435873444962
 20
3.875195613287665
 30
0.0
 41
0.9810402261245104
 10
34.17580980555969
 20
3.930835040768761
 30
0.0
 41
0.9810402261245104
 10
34.14470581836198
 20
3.980212752709089
 30
0.0
 41
1.0
 10
34.08485492370437
 20
4.075226302482908
 30
0.0
 41
1.0
 10
34.02762719852643
 20
4.174844520131929
 30
0.0
 41
1.0
 10
33.94690761680903
 20
4.252908938142355
 30
0.0
 41
1.0
 10
32.98253422668148
 20
5.185560543159535
 30
0.0
 41
0.999999999810432
 10
32.01818307825457
 20
6.118235145823858
 30
0.0
 41
0.999999999810432
 10
31.05385417207668
 20
7.050932745604913
 30
0.0
 41
1.0
  0
SPLINE
  5
1BC
330
1F
100
AcDbEntity
  8
Default
100
AcDbSpline
210
0.0
220
0.0
230
1.0
 70
    24
 71
     2
 72
     6
 73
     3
 74
     0
 42
0.0000000001
 43
0.0000000001
 40
0.0
 40
0.0
 40
0.0
 40
2.133459288680166
 40
2.133459288680166
 40
2.133459288680166
 10
30.51736862010753
 20
7.561540711319834
 30
0.0
 10
30.51687309641261
 20
8.628765879354848
 30
0.0
 10
30.51637757271769
 20
9.69599104738986
 30
0.0
  0
SPLINE
  5
1BD
330
1F
100
AcDbEntity
  8
Default
100
AcDbSpline
210
0.0
220
0.0
230
1.0
 70
    24
 71
     2
 72
     6
 73
     3
 74
     0
 42
0.0000000001
 43
0.0000000001
 40
0.0
 40
0.0
 40
0.0
 40
0.1739735899772819
 40
0.1739735899772819
 40
0.1739735899772819
 10
30.51637757271769
 20
9.69599104738986
 30
0.0
 10
30.45350845812861
 20
9.757995523694941
 30
0.0
 10
30.39063934353953
 20
9.820000000000022
 30
0.0
  0
LINE
  5
1BE
330
1F
100
AcDbEntity
  8
Default
100
AcDbLine
 10
30.39063934353953
 20
9.820000000000022
 30
0.0
 11
28.6823686201075
 21
9.820000000000022
 31
0.0
  0
SPLINE
  5
1BF
330
1F
100
AcDbEntity
  8
Default
100
AcDbSpline
210
0.0
220
0.0
230
1.0
 70
    24
 71
     2
 72
     6
 73
     3
 74
     0
 42
0.0000000001
 43
0.0000000001
 40
0.0
 40
0.0
 40
0.0
 40
0.1739735899772856
 40
0.1739735899772856
 40
0.1739735899772856
 10
28.6823686201075
 20
9.820000000000022
 30
0.0
 10
28.62036414380242
 20
9.757995523694937
 30
0.0
 10
28.55835966749734
 20
9.695991047389855
 30
0.0
  0
SPLINE
  5
1C0
330
1F
100
AcDbEntity
  8
Default
100
AcDbSpline
210
0.0
220
0.0
230
1.0
 70
    24
 71
     2
 72
     6
 73
     3
 74
     0
 42
0.0000000001
 43
0.0000000001
 40
0.0
 40
0.0
 40
0.0
 40
2.133457839906034
 40
2.133457839906034
 40
2.133457839906034
 10
28.55835966749734
 20
9.695991047389855
 30
0.0
 10
28.55786414380243
 20
8.628766603741909
 30
0.0
 10
28.55736862010752
 20
7.561542160093962
 30
0.0
  0
SPLINE
  5
1C1
330
1F
100
AcDbEntity
  8
Default
100
AcDbSpline
210
0.0
220
0.0
230
1.0
 70
    24
 71
     2
 72
     6
 73
     3
 74
     0
 42
0.0000000001
 43
0.0000000001
 40
0.0
 40
0.0
 40
0.0
 40
0.0829573442458832
 40
0.0829573442458832
 40
0.0829573442458832
 10
33.95645377586757
 20
2.559999999999992
 30
0.0
 10
33.96285712386781
 20
2.600981427201475
 30
0.0
 10
33.96926047186804
 20
2.641962854402959
 30
0.0
  0
POLYLINE
  5
1C2
330
1F
100
AcDbEntity
  8
Default
100
AcDb2dPolyline
 66
     1
 10
0.0
 20
0.0
 30
0.0
  0
VERTEX
  5
1C3
330
1C2
100
AcDbEntity
  8
Default
100
AcDbVertex
100
AcDb2dVertex
 10
33.96926047186804
 20
2.641962854402959
 30
0.0
  0
VERTEX
  5
1C4
330
1C2
100
AcDbEntity
  8
Default
100
AcDbVertex
100
AcDb2dVertex
 10
33.25614707986699
 20
2.641962854402998
 30
0.0
  0
SEQEND
  5
1C5
330
1C2
100
AcDbEntity
  8
Default
  0
SPLINE
  5
1C6
330
1F
100
AcDbEntity
  8
Default
100
AcDbSpline
210
0.0
220
0.0
230
1.0
 70
    24
 71
     2
 72
     6
 73
     3
 74
     0
 42
0.0000000001
 43
0.0000000001
 40
0.0
 40
0.0
 40
0.0
 40
0.0829573442459229
 40
0.0829573442459229
 40
0.0829573442459229
 10
33.25614707986699
 20
2.641962854402998
 30
0.0
 10
33.26255042786723
 20
2.600981427201495
 30
0.0
 10
33.26895377586746
 20
2.559999999999992
 30
0.0
  0
LINE
  5
1C7
330
1F
100
AcDbEntity
  8
Default
100
AcDbLine
 10
32.80709245637658
 20
2.56
 30
0.0
 11
33.97207877586752
 21
2.56
 31
0.0
  0
SPLINE
  5
1C8
330
1F
100
AcDbEntity
  8
Default
100
AcDbSpline
210
0.0
220
0.0
230
1.0
 70
    24
 71
     2
 72
     6
 73
     3
 74
     0
 42
0.0000000001
 43
0.0000000001
 40
-1.16498631949094
 40
-1.16498631949094
 40
-1.16498631949094
 40
0.0
 40
0.0
 40
0.0
 10
33.97207877586752
 20
2.56
 30
0.0
 10
33.97207877586752
 20
1.977506840254531
 30
0.0
 10
33.97207877586752
 20
1.395013680509061
 30
0.0
  0
SPLINE
  5
1C9
330
1F
100
AcDbEntity
  8
Default
100
AcDbSpline
210
0.0
220
0.0
230
1.0
 70
    24
 71
     2
 72
     6
 73
     3
 74
     0
 42
0.0000000001
 43
0.0000000001
 40
0.0
 40
0.0
 40
0.0
 40
0.0829542912717206
 40
0.0829542912717206
 40
0.0829542912717206
 10
19.2117013635762
 20
2.560003016375203
 30
0.0
 10
19.21810447592212
 20
2.600982935389081
 30
0.0
 10
19.22450758826804
 20
2.641962854402959
 30
0.0
  0
POLYLINE
  5
1CA
330
1F
100
AcDbEntity
  8
Default
100
AcDb2dPolyline
 66
     1
 10
0.0
 20
0.0
 30
0.0
  0
VERTEX
  5
1CB
330
1CA
100
AcDbEntity
  8
Default
100
AcDbVertex
100
AcDb2dVertex
 10
19.22450758826804
 20
2.641962854402959
 30
0.0
  0
VERTEX
  5
1CC
330
1CA
100
AcDbEntity
  8
Default
100
AcDbVertex
100
AcDb2dVertex
 10
18.51139466757562
 20
2.641959838027782
 30
0.0
  0
SEQEND
  5
1CD
330
1CA
100
AcDbEntity
  8
Default
  0
SPLINE
  5
1CE
330
1F
100
AcDbEntity
  8
Default
100
AcDbSpline
210
0.0
220
0.0
230
1.0
 70
    24
 71
     2
 72
     6
 73
     3
 74
     0
 42
0.0000000001
 43
0.0000000001
 40
0.0
 40
0.0
 40
0.0
 40
0.0829542912717557
 40
0.0829542912717557
 40
0.0829542912717557
 10
18.51139466757562
 20
2.641959838027782
 30
0.0
 10
18.51779777992154
 20
2.600979919013887
 30
0.0
 10
18.52420089226746
 20
2.559999999999992
 30
0.0
  0
LINE
  5
1CF
330
1F
100
AcDbEntity
  8
Default
100
AcDbLine
 10
18.06233957277658
 20
2.56
 30
0.0
 11
19.22732589226752
 21
2.56
 31
0.0
  0
SPLINE
  5
1D0
330
1F
100
AcDbEntity
  8
Default
100
AcDbSpline
210
0.0
220
0.0
230
1.0
 70
    24
 71
     2
 72
     6
 73
     3
 74
     0
 42
0.0000000001
 43
0.0000000001
 40
-1.16498631949094
 40
-1.16498631949094
 40
-1.16498631949094
 40
0.0
 40
0.0
 40
0.0
 10
19.22732589226752
 20
2.56
 30
0.0
 10
19.22732589226752
 20
1.977506840254531
 30
0.0
 10
19.22732589226752
 20
1.395013680509061
 30
0.0
  0
SPLINE
  5
1D1
330
1F
100
AcDbEntity
  8
Default
100
AcDbSpline
210
0.0
220
0.0
230
1.0
 70
    12
 71
     2
 72
     6
 73
     3
 74
     0
 42
0.0000000001
 43
0.0000000001
 40
0.0
 40
0.0
 40
0.0
 40
4.277042200853588
 40
4.277042200853588
 40
4.277042200853588
 10
33.13604529372168
 20
4.297503139183391
 30
0.0
 41
1.0
 10
31.52352780704037
 20
5.70215962881618
 30
0.0
 41
0.9999999997181311
 10
29.91107702416704
 20
7.10689268939271
 30
0.0
 41
1.0
  0
SPLINE
  5
1D2
330
1F
100
AcDbEntity
  8
Default
100
AcDbSpline
210
0.0
220
0.0
230
1.0
 70
     8
 71
     2
 72
     9
 73
     6
 74
     0
 42
0.0000000001
 43
0.0000000001
 40
0.0
 40
0.0
 40
0.0
 40
1.0
 40
2.0
 40
3.0
 40
4.0
 40
4.0
 40
4.0
 10
29.91107702416704
 20
7.10689268939271
 30
0.0
 10
29.6839149035886
 20
7.30479153026062
 30
0.0
 10
29.03811687053155
 20
7.370163209068004
 30
0.0
 10
28.44261630261991
 20
7.331303246823572
 30
0.0
 10
27.80635632080481
 20
7.204827559217165
 30
0.0
 10
27.52362855207974
 20
7.106896327692084
 30
0.0
  0
SPLINE
  5
1D3
330
1F
100
AcDbEntity
  8
Default
100
AcDbSpline
210
0.0
220
0.0
230
1.0
 70
    12
 71
     2
 72
     6
 73
     3
 74
     0
 42
0.0000000001
 43
0.0000000001
 40
0.0
 40
0.0
 40
0.0
 40
8.583727431647358
 40
8.583727431647358
 40
8.583727431647358
 10
27.52362855207974
 20
7.106896327692084
 30
0.0
 41
1.0
 10
23.46816064421072
 20
5.702163540322066
 30
0.0
 41
0.99999999997041
 10
19.41267112405157
 20
4.297493149142145
 30
0.0
 41
1.0
  0
SPLINE
  5
1D4
330
1F
100
AcDbEntity
  8
Default
100
AcDbSpline
210
0.0
220
0.0
230
1.0
 70
     8
 71
     3
 72
     8
 73
     4
 74
     0
 42
0.0000000001
 43
0.0000000001
 40
0.0
 40
0.0
 40
0.0
 40
0.0
 40
1.0
 40
1.0
 40
1.0
 40
1.0
 10
19.41267112405157
 20
4.297493149142145
 30
0.0
 10
19.25955835146647
 20
4.244460592383539
 30
0.0
 10
19.1209339951032
 20
4.154606121166153
 30
0.0
 10
18.98497615455639
 20
4.066450356755091
 30
0.0
  0
SPLINE
  5
1D5
330
1F
100
AcDbEntity
  8
Default
100
AcDbSpline
210
0.0
220
0.0
230
1.0
 70
     8
 71
     2
 72
     6
 73
     3
 74
     0
 42
0.0000000001
 43
0.0000000001
 40
0.0
 40
0.0
 40
0.0
 40
1.0
 40
1.0
 40
1.0
 10
18.98497615455639
 20
4.066450356755091
 30
0.0
 10
18.75779531918297
 20
3.919145132419843
 30
0.0
 10
18.48794794947617
 20
3.89695580395986
 30
0.0
  0
SPLINE
  5
1D6
330
1F
100
AcDbEntity
  8
Default
100
AcDbSpline
210
0.0
220
0.0
230
1.0
 70
     8
 71
     2
 72
    12
 73
     9
 74
     0
 42
0.0000000001
 43
0.0000000001
 40
0.0
 40
0.0
 40
0.0
 40
1.0
 40
2.0
 40
3.0
 40
4.0
 40
5.0
 40
6.0
 40
7.0
 40
7.0
 40
7.0
 10
18.48794794947617
 20
3.89695580395986
 30
0.0
 10
18.4682237813289
 20
3.896507285348974
 30
0.0
 10
18.4244384099535
 20
3.904647033547472
 30
0.0
 10
18.41811467504942
 20
3.94608889502837
 30
0.0
 10
18.4458863412377
 20
3.97822525325443
 30
0.0
 10
18.47499170514712
 20
4.006056813959598
 30
0.0
 10
18.50668684110309
 20
4.031494342297836
 30
0.0
 10
18.53966226265965
 20
4.055113701821941
 30
0.0
 10
18.55648158613835
 20
4.066455028217183
 30
0.0
  0
ARC
  5
1D7
330
1F
100
AcDbEntity
  8
Default
100
AcDbCircle
 10
37.67215799253123
 20
-5.86655450315541
 30
0.0
 40
11.20079460922019
100
AcDbArc
 50
60.81255328373446
 51
64.26031593060341
  0
ARC
  5
1D8
330
1F
100
AcDbEntity
  8
Default
100
AcDbCircle
 10
41.78295489278651
 20
2.394356287640333
 30
0.0
 40
1.977677157831372
100
AcDbArc
 50
67.60361831146133
 51
74.21926851449439
  0
SPLINE
  5
1D9
330
1F
100
AcDbEntity
  8
Default
100
AcDbSpline
210
0.0
220
0.0
230
1.0
 70
    12
 71
     2
 72
     6
 73
     3
 74
     0
 42
0.0000000001
 43
0.0000000001
 40
-10.28975635970554
 40
-10.28975635970554
 40
-10.28975635970554
 40
0.0
 40
0.0
 40
0.0
 10
42.32079732502746
 20
4.297493817796553
 30
0.0
 41
1.0
 10
37.29916849855381
 20
5.674667899963371
 30
0.0
 41
0.9999999999913883
 10
32.36254315685539
 20
7.12363364191873
 30
0.0
 41
1.0
  0
SPLINE
  5
1DA
330
1F
100
AcDbEntity
  8
Default
100
AcDbSpline
210
0.0
220
0.0
230
1.0
 70
     8
 71
     3
 72
    18
 73
    14
 74
     0
 42
0.0000000001
 43
0.0000000001
 40
0.0
 40
0.0
 40
0.0
 40
0.0
 40
1.0
 40
2.0
 40
3.0
 40
4.0
 40
5.0
 40
6.0
 40
7.0
 40
8.0
 40
9.0
 40
10.0
 40
11.0
 40
11.0
 40
11.0
 40
11.0
 10
32.36254315685539
 20
7.12363364191873
 30
0.0
 10
32.31341945412868
 20
7.13805210745789
 30
0.0
 10
32.21496256480785
 20
7.166177327604867
 30
0.0
 10
32.06656656514923
 20
7.205803069916706
 30
0.0
 10
31.91742837441899
 20
7.242527833278234
 30
0.0
 10
31.76749817152216
 20
7.275951031045022
 30
0.0
 10
31.61700948293444
 20
7.306420096925582
 30
0.0
 10
31.46594104505371
 20
7.335188390531428
 30
0.0
 10
31.31464329789722
 20
7.357604048846451
 30
0.0
 10
31.1578626967754
 20
7.362403818396249
 30
0.0
 10
31.01599527653937
 20
7.335613019860904
 30
0.0
 10
30.83433794855557
 20
7.276913261765134
 30
0.0
 10
30.89215978555416
 20
7.154219603389409
 30
0.0
 10
30.92949578186159
 20
7.123636369765254
 30
0.0
  0
SPLINE
  5
1DB
330
1F
100
AcDbEntity
  8
Default
100
AcDbSpline
210
0.0
220
0.0
230
1.0
 70
    12
 71
     2
 72
     6
 73
     3
 74
     0
 42
0.0000000001
 43
0.0000000001
 40
0.0
 40
0.0
 40
0.0
 40
4.032539305065463
 40
4.032539305065463
 40
4.032539305065463
 10
30.92949578186159
 20
7.123636369765254
 30
0.0
 41
1.0
 10
32.39286163637924
 20
5.702207178856789
 30
0.0
 41
0.9999999999674203
 10
33.83928005784202
 20
4.297494730727383
 30
0.0
 41
1.0
  0
SPLINE
  5
1DC
330
1F
100
AcDbEntity
  8
Default
100
AcDbSpline
210
0.0
220
0.0
230
1.0
 70
    24
 71
     2
 72
     6
 73
     3
 74
     0
 42
0.0000000001
 43
0.0000000001
 40
-1.086278562123957
 40
-1.086278562123957
 40
-1.086278562123957
 40
0.0
 40
0.0
 40
0.0
 10
30.43103338630902
 20
4.643977194417977
 30
0.0
 10
30.38592254739648
 20
4.102647019628606
 30
0.0
 10
30.34081170848393
 20
3.561316844839234
 30
0.0
  0
SPLINE
  5
1DD
330
1F
100
AcDbEntity
  8
Default
100
AcDbSpline
210
0.0
220
0.0
230
1.0
 70
    12
 71
     2
 72
     6
 73
     3
 74
     0
 42
0.0000000001
 43
0.0000000001
 40
-0.0828723162712908
 40
-0.0828723162712908
 40
-0.0828723162712908
 40
0.0
 40
0.0
 40
0.0
 10
30.34081170848393
 20
3.561316844839234
 30
0.0
 41
1.0
 10
30.33736416502284
 20
3.51986543332846
 30
0.0
 41
0.9991371909500295
 10
30.33736862010753
 20
3.478405421208
 30
0.0
 41
1.0
  0
SPLINE
  5
1DE
330
1F
100
AcDbEntity
  8
Default
100
AcDbSpline
210
0.0
220
0.0
230
1.0
 70
    24
 71
     2
 72
     6
 73
     3
 74
     0
 42
0.0000000001
 43
0.0000000001
 40
-2.318405421208
 40
-2.318405421208
 40
-2.318405421208
 40
0.0
 40
0.0
 40
0.0
 10
30.33736862010753
 20
3.478405421208
 30
0.0
 10
30.3365596018301
 20
2.319202710604
 30
0.0
 10
30.33575058355268
 20
1.16
 30
0.0
  0
LINE
  5
1DF
330
1F
100
AcDbEntity
  8
Default
100
AcDbLine
 10
30.33575058355268
 20
1.16
 30
0.0
 11
28.73736862010753
 21
1.16
 31
0.0
  0
SPLINE
  5
1E0
330
1F
100
AcDbEntity
  8
Default
100
AcDbSpline
210
0.0
220
0.0
230
1.0
 70
    24
 71
     2
 72
     6
 73
     3
 74
     0
 42
0.0000000001
 43
0.0000000001
 40
-2.318405421208
 40
-2.318405421208
 40
-2.318405421208
 40
0.0
 40
0.0
 40
0.0
 10
28.73736862010753
 20
1.16
 30
0.0
 10
28.73736862010753
 20
2.319202710604
 30
0.0
 10
28.73736862010753
 20
3.478405421208
 30
0.0
  0
SPLINE
  5
1E1
330
1F
100
AcDbEntity
  8
Default
100
AcDbSpline
210
0.0
220
0.0
230
1.0
 70
    12
 71
     2
 72
     6
 73
     3
 74
     0
 42
0.0000000001
 43
0.0000000001
 40
-0.0828723162712908
 40
-0.0828723162712908
 40
-0.0828723162712908
 40
0.0
 40
0.0
 40
0.0
 10
28.73736862010753
 20
3.478405421208
 30
0.0
 41
1.0
 10
28.73737307519218
 20
3.51986543332846
 30
0.0
 41
0.9991371909500295
 10
28.73392553173113
 20
3.561316844839234
 30
0.0
 41
1.0
  0
SPLINE
  5
1E2
330
1F
100
AcDbEntity
  8
Default
100
AcDbSpline
210
0.0
220
0.0
230
1.0
 70
    24
 71
     2
 72
     6
 73
     3
 74
     0
 42
0.0000000001
 43
0.0000000001
 40
-1.672807390656564
 40
-1.672807390656564
 40
-1.672807390656564
 40
0.0
 40
0.0
 40
0.0
 10
28.73392553173113
 20
3.561316844839234
 30
0.0
 10
28.66446040881181
 20
4.394898427709859
 30
0.0
 10
28.59499528589248
 20
5.228480010580484
 30
0.0
  0
SPLINE
  5
1E3
330
1F
100
AcDbEntity
  8
Default
100
AcDbSpline
210
0.0
220
0.0
230
1.0
 70
    12
 71
     2
 72
     8
 73
     5
 74
     0
 42
0.0000000001
 43
0.0000000001
 40
0.0
 40
0.0
 40
0.0
 40
1.570796326794905
 40
1.570796326794905
 40
3.141592653589806
 40
3.141592653589806
 40
3.141592653589806
 10
41.80485698975752
 20
2.280000000000001
 30
0.0
 41
1.0
 10
40.8048569897575
 20
2.280000000000015
 30
0.0
 41
0.7071067811865387
 10
40.80485698975752
 20
1.280000000000001
 30
0.0
 41
1.0
 10
40.8048569897575
 20
0.2799999999999876
 30
0.0
 41
0.7071067811865377
 10
41.80485698975752
 20
0.2800000000000018
 30
0.0
 41
1.0
  0
SPLINE
  5
1E4
330
1F
100
AcDbEntity
  8
Default
100
AcDbSpline
210
0.0
220
0.0
230
1.0
 70
    12
 71
     2
 72
     8
 73
     5
 74
     0
 42
0.0000000001
 43
0.0000000001
 40
0.0
 40
0.0
 40
0.0
 40
1.668971097219569
 40
1.668971097219569
 40
3.337942194439146
 40
3.337942194439146
 40
3.337942194439146
 10
32.69207877586751
 20
2.342500000000001
 30
0.0
 41
1.0
 10
33.75457877586747
 20
2.342499999999987
 30
0.0
 41
0.7071067811865555
 10
33.75457877586751
 20
1.280000000000001
 30
0.0
 41
1.0
 10
33.75457877586752
 20
0.217500000000014
 30
0.0
 41
0.7071067811865589
 10
32.69207877586751
 20
0.2174999999999925
 30
0.0
 41
1.0
  0
SPLINE
  5
1E5
330
1F
100
AcDbEntity
  8
Default
100
AcDbSpline
210
0.0
220
0.0
230
1.0
 70
    12
 71
     2
 72
     8
 73
     5
 74
     0
 42
0.0000000001
 43
0.0000000001
 40
0.0
 40
0.0
 40
0.0
 40
1.570796326794891
 40
1.570796326794891
 40
3.141592653589781
 40
3.141592653589781
 40
3.141592653589781
 10
17.94732589226751
 20
0.2800000000000011
 30
0.0
 41
1.0
 10
18.94732589226752
 20
0.2800000000000154
 30
0.0
 41
0.7071067811865578
 10
18.94732589226751
 20
1.280000000000001
 30
0.0
 41
1.0
 10
18.9473258922675
 20
2.279999999999986
 30
0.0
 41
0.7071067811865578
 10
17.94732589226751
 20
2.280000000000001
 30
0.0
 41
1.0
  0
SPLINE
  5
1E6
330
1F
100
AcDbEntity
  8
Default
100
AcDbSpline
210
0.0
220
0.0
230
1.0
 70
    12
 71
     2
 72
     8
 73
     5
 74
     0
 42
0.0000000001
 43
0.0000000001
 40
0.0
 40
0.0
 40
0.0
 40
1.57079632679489
 40
1.57079632679489
 40
3.141592653589781
 40
3.141592653589781
 40
3.141592653589781
 10
41.80485698975752
 20
0.2800000000000011
 30
0.0
 41
1.0
 10
42.8048569897575
 20
0.2800000000000155
 30
0.0
 41
0.7071067811865576
 10
42.80485698975752
 20
1.280000000000001
 30
0.0
 41
1.0
 10
42.80485698975748
 20
2.279999999999982
 30
0.0
 41
0.7071067811865617
 10
41.80485698975752
 20
2.280000000000004
 30
0.0
 41
1.0
  0
SPLINE
  5
1E7
330
1F
100
AcDbEntity
  8
Default
100
AcDbSpline
210
0.0
220
0.0
230
1.0
 70
    12
 71
     2
 72
     8
 73
     5
 74
     0
 42
0.0000000001
 43
0.0000000001
 40
0.0
 40
0.0
 40
0.0
 40
1.570796326794905
 40
1.570796326794905
 40
3.141592653589806
 40
3.141592653589806
 40
3.141592653589806
 10
17.94732589226751
 20
2.280000000000001
 30
0.0
 41
1.0
 10
16.9473258922675
 20
2.280000000000015
 30
0.0
 41
0.7071067811865388
 10
16.94732589226751
 20
1.280000000000001
 30
0.0
 41
1.0
 10
16.94732589226752
 20
0.279999999999989
 30
0.0
 41
0.7071067811865381
 10
17.94732589226751
 20
0.2800000000000029
 30
0.0
 41
1.0
  0
SPLINE
  5
1E8
330
1F
100
AcDbEntity
  8
Default
100
AcDbSpline
210
0.0
220
0.0
230
1.0
 70
    12
 71
     2
 72
     8
 73
     5
 74
     0
 42
0.0000000001
 43
0.0000000001
 40
0.0
 40
0.0
 40
0.0
 40
1.668971097219588
 40
1.668971097219588
 40
3.337942194439166
 40
3.337942194439166
 40
3.337942194439166
 10
17.94732589226751
 20
0.2175000000000011
 30
0.0
 41
1.0
 10
16.88482589226752
 20
0.2174999999999868
 30
0.0
 41
0.7071067811865404
 10
16.88482589226751
 20
1.280000000000001
 30
0.0
 41
1.0
 10
16.88482589226754
 20
2.342500000000001
 30
0.0
 41
0.7071067811865475
 10
17.94732589226751
 20
2.342500000000001
 30
0.0
 41
1.0
  0
SPLINE
  5
1E9
330
1F
100
AcDbEntity
  8
Default
100
AcDbSpline
210
0.0
220
0.0
230
1.0
 70
    12
 71
     2
 72
     8
 73
     5
 74
     0
 42
0.0000000001
 43
0.0000000001
 40
0.0
 40
0.0
 40
0.0
 40
1.668971097219579
 40
1.668971097219579
 40
3.337942194439159
 40
3.337942194439159
 40
3.337942194439159
 10
32.69207877586751
 20
0.2175000000000011
 30
0.0
 41
1.0
 10
31.62957877586752
 20
0.2175000000000011
 30
0.0
 41
0.707106781186548
 10
31.62957877586751
 20
1.280000000000001
 30
0.0
 41
1.0
 10
31.62957877586753
 20
2.342500000000011
 30
0.0
 41
0.7071067811865392
 10
32.69207877586751
 20
2.342499999999998
 30
0.0
 41
1.0
  0
SPLINE
  5
1EA
330
1F
100
AcDbEntity
  8
Default
100
AcDbSpline
210
0.0
220
0.0
230
1.0
 70
    12
 71
     3
 72
    12
 73
     8
 74
     0
 42
0.0000000001
 43
0.0000000001
 40
-0.7506706675552426
 40
-0.7506706675552426
 40
-0.7506706675552426
 40
-0.7506706675552426
 40
-0.5013413351104851
 40
-0.5013413351104851
 40
-0.2509175625619049
 40
-0.2509175625619049
 40
0.0
 40
0.0
 40
0.0
 40
0.0
 10
34.19973167829039
 20
3.817382695361858
 30
0.0
 41
1.0
 10
34.20168718282866
 20
3.800134472448533
 30
0.0
 41
1.0
 10
34.19367671481746
 20
3.782344806175977
 30
0.0
 41
1.0
 10
34.14764493697385
 20
3.747185174082857
 30
0.0
 41
1.0
 10
34.10796410287986
 20
3.729973746534604
 30
0.0
 41
1.0
 10
33.9845861595112
 20
3.704084882030646
 30
0.0
 41
1.0
 10
33.90068838393969
 20
3.695674074752883
 30
0.0
 41
1.0
 10
33.79747158754546
 20
3.695694345738939
 30
0.0
 41
1.0
  0
SPLINE
  5
1EB
330
1F
100
AcDbEntity
  8
Default
100
AcDbSpline
210
0.0
220
0.0
230
1.0
 70
    12
 71
     2
 72
     8
 73
     5
 74
     0
 42
0.0000000001
 43
0.0000000001
 40
0.0
 40
0.0
 40
0.0
 40
1.668971097219578
 40
1.668971097219578
 40
3.337942194439155
 40
3.337942194439155
 40
3.337942194439155
 10
41.80485698975752
 20
0.2175000000000011
 30
0.0
 41
1.0
 10
40.74235698975755
 20
0.2175000000000012
 30
0.0
 41
0.7071067811865476
 10
40.74235698975752
 20
1.280000000000001
 30
0.0
 41
1.0
 10
40.74235698975751
 20
2.342500000000001
 30
0.0
 41
0.7071067811865475
 10
41.80485698975752
 20
2.342500000000001
 30
0.0
 41
1.0
  0
SPLINE
  5
1EC
330
1F
100
AcDbEntity
  8
Default
100
AcDbSpline
210
0.0
220
0.0
230
1.0
 70
    12
 71
     2
 72
     6
 73
     3
 74
     0
 42
0.0000000001
 43
0.0000000001
 40
0.0
 40
0.0
 40
0.0
 40
0.1200599219472092
 40
0.1200599219472092
 40
0.1200599219472092
 10
33.27528154100258
 20
4.124804394423492
 30
0.0
 41
1.0
 10
33.24451355891075
 20
4.176487352524973
 30
0.0
 41
0.9970557903464687
 10
33.20620467862841
 20
4.222857888122846
 30
0.0
 41
1.0
  0
SPLINE
  5
1ED
330
1F
100
AcDbEntity
  8
Default
100
AcDbSpline
210
0.0
220
0.0
230
1.0
 70
    12
 71
     2
 72
     8
 73
     5
 74
     0
 42
0.0000000001
 43
0.0000000001
 40
0.0
 40
0.0
 40
0.0
 40
2.010619298297466
 40
2.010619298297466
 40
4.021218817798436
 40
4.021218817798436
 40
4.021218817798436
 10
17.94732589226751
 20
0.0
 30
0.0
 41
1.0
 10
19.22732589226754
 20
0.0
 30
0.0
 41
0.7071067811865458
 10
19.22732589226752
 20
1.280000000000001
 30
0.0
 41
1.0
 10
19.22732589226752
 20
2.559980221356322
 30
0.0
 41
0.7071122443377527
 10
17.947345671064
 20
2.559999999847184
 30
0.0
 41
1.0
  0
SPLINE
  5
1EE
330
1F
100
AcDbEntity
  8
Default
100
AcDbSpline
210
0.0
220
0.0
230
1.0
 70
     8
 71
     3
 72
    12
 73
     8
 74
     0
 42
0.0000000001
 43
0.0000000001
 40
0.0
 40
0.0
 40
0.0
 40
0.0
 40
0.0390599208682526
 40
0.0683789205482023
 40
0.1390273096120435
 40
0.2351558596793048
 40
0.3634001376436689
 40
0.3634001376436689
 40
0.3634001376436689
 40
0.3634001376436689
 10
33.99652007745243
 20
4.06645036891404
 30
0.0
 10
34.00327988687334
 20
4.054919564402835
 30
0.0
 10
34.01369327239044
 20
4.035452266000479
 30
0.0
 10
34.01636914582409
 20
3.985968219913318
 30
0.0
 10
33.97041029735783
 20
3.933636697624267
 30
0.0
 10
33.87503930739584
 20
3.90407947279546
 30
0.0
 10
33.80086802851994
 20
3.896279698684061
 30
0.0
 10
33.75787159625423
 20
3.896955803960124
 30
0.0
  0
SPLINE
  5
1EF
330
1F
100
AcDbEntity
  8
Default
100
AcDbSpline
210
0.0
220
0.0
230
1.0
 70
     8
 71
     3
 72
    12
 73
     8
 74
     0
 42
0.0000000001
 43
0.0000000001
 40
0.0
 40
0.0
 40
0.0
 40
0.0
 40
0.0756631192125829
 40
0.1533030128895928
 40
0.2957591290460643
 40
0.4162413172123314
 40
0.5037352283214283
 40
0.5037352283214283
 40
0.5037352283214283
 40
0.5037352283214283
 10
33.75787159625423
 20
3.896955803960124
 30
0.0
 10
33.7325826335086
 20
3.89679128461335
 30
0.0
 10
33.68166692526211
 20
3.899704146148524
 30
0.0
 10
33.58366185511028
 20
3.912653737481822
 30
0.0
 10
33.47370004544246
 20
3.941370914699001
 30
0.0
 10
33.3667855852955
 20
3.990853220791773
 30
0.0
 10
33.31552594730942
 20
4.039357301730401
 30
0.0
 10
33.30320176823531
 20
4.066455084881323
 30
0.0
  0
SPLINE
  5
1F0
330
1F
100
AcDbEntity
  8
Default
100
AcDbSpline
210
0.0
220
0.0
230
1.0
 70
    12
 71
     2
 72
     6
 73
     3
 74
     0
 42
0.0000000001
 43
0.0000000001
 40
0.0
 40
0.0
 40
0.0
 40
0.0608528141656966
 40
0.0608528141656966
 40
0.0608528141656966
 10
33.05642982946443
 20
3.866722555164484
 30
0.0
 41
1.0
 10
33.04088441909776
 20
3.89295168371463
 30
0.0
 41
0.9968849407324015
 10
33.02965688054093
 20
3.921298982455824
 30
0.0
 41
1.0
  0
SPLINE
  5
1F1
330
1F
100
AcDbEntity
  8
Default
100
AcDbSpline
210
0.0
220
0.0
230
1.0
 70
    12
 71
     2
 72
     8
 73
     5
 74
     0
 42
0.0000000001
 43
0.0000000001
 40
0.0
 40
0.0
 40
0.0
 40
2.010619298297478
 40
2.010619298297478
 40
4.021238596594946
 40
4.021238596594946
 40
4.021238596594946
 10
32.69207877586751
 20
0.0
 30
0.0
 41
1.0
 10
33.97207877586755
 20
-0.0000000000000142
 30
0.0
 41
0.7071067811865407
 10
33.97207877586754
 20
1.280000000000001
 30
0.0
 41
1.0
 10
33.97207877586752
 20
2.560000000000006
 30
0.0
 41
0.7071067811865446
 10
32.69207877586751
 20
2.559999999999999
 30
0.0
 41
1.0
  0
SPLINE
  5
1F2
330
1F
100
AcDbEntity
  8
Default
100
AcDbSpline
210
0.0
220
0.0
230
1.0
 70
    12
 71
     2
 72
     8
 73
     5
 74
     0
 42
0.0000000001
 43
0.0000000001
 40
0.0
 40
0.0
 40
0.0
 40
1.570796326794885
 40
1.570796326794885
 40
3.141592653589778
 40
3.141592653589778
 40
3.141592653589778
 10
32.69207877586751
 20
0.2800000000000011
 30
0.0
 41
1.0
 10
33.69207877586749
 20
0.2800000000000226
 30
0.0
 41
0.7071067811865612
 10
33.69207877586751
 20
1.280000000000001
 30
0.0
 41
1.0
 10
33.69207877586751
 20
2.279999999999989
 30
0.0
 41
0.7071067811865569
 10
32.69207877586751
 20
2.280000000000003
 30
0.0
 41
1.0
  0
SPLINE
  5
1F3
330
1F
100
AcDbEntity
  8
Default
100
AcDbSpline
210
0.0
220
0.0
230
1.0
 70
    12
 71
     2
 72
     8
 73
     5
 74
     0
 42
0.0000000001
 43
0.0000000001
 40
0.0
 40
0.0
 40
0.0
 40
2.010619298297474
 40
2.010619298297474
 40
4.021238596594946
 40
4.021238596594946
 40
4.021238596594946
 10
17.94732589226751
 20
2.56
 30
0.0
 41
1.0
 10
16.66732589226751
 20
2.560000000000015
 30
0.0
 41
0.7071067811865404
 10
16.66732589226751
 20
1.280000000000001
 30
0.0
 41
1.0
 10
16.66732589226751
 20
-0.00000000000001
 30
0.0
 41
0.7071067811865408
 10
17.94732589226751
 20
0.000000000000004
 30
0.0
 41
1.0
  0
SPLINE
  5
1F4
330
1F
100
AcDbEntity
  8
Default
100
AcDbSpline
210
0.0
220
0.0
230
1.0
 70
    12
 71
     2
 72
     8
 73
     5
 74
     0
 42
0.0000000001
 43
0.0000000001
 40
0.0
 40
0.0
 40
0.0
 40
2.01061929829747
 40
2.01061929829747
 40
4.021238596594942
 40
4.021238596594942
 40
4.021238596594942
 10
32.69207877586751
 20
2.56
 30
0.0
 41
1.0
 10
31.41207877586751
 20
2.560000000000008
 30
0.0
 41
0.7071067811865439
 10
31.41207877586751
 20
1.280000000000001
 30
0.0
 41
1.0
 10
31.41207877586752
 20
-0.0000000000000025
 30
0.0
 41
0.7071067811865468
 10
32.69207877586751
 20
-0.0000000000000024
 30
0.0
 41
1.0
  0
SPLINE
  5
1F5
330
1F
100
AcDbEntity
  8
Default
100
AcDbSpline
210
0.0
220
0.0
230
1.0
 70
    12
 71
     2
 72
     6
 73
     3
 74
     0
 42
0.0000000001
 43
0.0000000001
 40
0.0
 40
0.0
 40
0.0
 40
0.0646915628535234
 40
0.0646915628535234
 40
0.0646915628535234
 10
33.30320176823531
 20
4.066455084881323
 30
0.0
 41
1.0
 10
33.28994798687293
 20
4.095967720636024
 30
0.0
 41
0.9997070552220858
 10
33.27528154100258
 20
4.124804394423492
 30
0.0
 41
1.0
  0
SPLINE
  5
1F6
330
1F
100
AcDbEntity
  8
Default
100
AcDbSpline
210
0.0
220
0.0
230
1.0
 70
    12
 71
     2
 72
     8
 73
     5
 74
     0
 42
0.0000000001
 43
0.0000000001
 40
0.0
 40
0.0
 40
0.0
 40
1.570796326794899
 40
1.570796326794899
 40
3.1415926535898
 40
3.1415926535898
 40
3.1415926535898
 10
32.69207877586751
 20
2.280000000000001
 30
0.0
 41
1.0
 10
31.69207877586753
 20
2.280000000000008
 30
0.0
 41
0.7071067811865418
 10
31.69207877586751
 20
1.280000000000001
 30
0.0
 41
1.0
 10
31.69207877586753
 20
0.2799999999999923
 30
0.0
 41
0.7071067811865419
 10
32.69207877586751
 20
0.2799999999999994
 30
0.0
 41
1.0
  0
SPLINE
  5
1F7
330
1F
100
AcDbEntity
  8
Default
100
AcDbSpline
210
0.0
220
0.0
230
1.0
 70
    12
 71
     2
 72
     8
 73
     5
 74
     0
 42
0.0000000001
 43
0.0000000001
 40
0.0
 40
0.0
 40
0.0
 40
1.668971097219553
 40
1.668971097219553
 40
3.337942194439139
 40
3.337942194439139
 40
3.337942194439139
 10
17.94732589226751
 20
2.342500000000001
 30
0.0
 41
1.0
 10
19.00982589226751
 20
2.342499999999973
 30
0.0
 41
0.7071067811865591
 10
19.00982589226749
 20
1.280000000000001
 30
0.0
 41
1.0
 10
19.00982589226754
 20
0.2175000000000017
 30
0.0
 41
0.7071067811865525
 10
17.94732589226751
 20
0.2174999999999874
 30
0.0
 41
1.0
  0
SPLINE
  5
1F8
330
1F
100
AcDbEntity
  8
Default
100
AcDbSpline
210
0.0
220
0.0
230
1.0
 70
    12
 71
     2
 72
     6
 73
     3
 74
     0
 42
0.0000000001
 43
0.0000000001
 40
0.0
 40
0.0
 40
0.0
 40
0.10260707896274
 40
0.10260707896274
 40
0.10260707896274
 10
33.20620467862841
 20
4.222857888122846
 30
0.0
 41
1.0
 10
33.17481072687888
 20
4.263644756823613
 30
0.0
 41
0.9951592485373295
 10
33.13604529371111
 20
4.2975031391857
 30
0.0
 41
1.0
  0
SPLINE
  5
1F9
330
1F
100
AcDbEntity
  8
Default
100
AcDbSpline
210
0.0
220
0.0
230
1.0
 70
    12
 71
     2
 72
     6
 73
     3
 74
     0
 42
0.0000000001
 43
0.0000000001
 40
0.0
 40
0.0
 40
0.0
 40
0.1137680292301657
 40
0.1137680292301657
 40
0.1137680292301657
 10
33.90244259579589
 20
4.222861706829246
 30
0.0
 41
1.0
 10
33.93403309655275
 20
4.175482275336866
 30
0.0
 41
0.9983857494307745
 10
33.96004645402581
 20
4.124825829551666
 30
0.0
 41
1.0
  0
SPLINE
  5
1FA
330
1F
100
AcDbEntity
  8
Default
100
AcDbSpline
210
0.0
220
0.0
230
1.0
 70
    12
 71
     2
 72
     6
 73
     3
 74
     0
 42
0.0000000001
 43
0.0000000001
 40
0.0
 40
0.0
 40
0.0
 40
0.0978958200670163
 40
0.0978958200670163
 40
0.0978958200670163
 10
33.90244259579589
 20
4.222861706829246
 30
0.0
 41
1.0
 10
33.87410536070117
 20
4.262923671147002
 30
0.0
 41
0.9962426159533742
 10
33.83928005783793
 20
4.297494730695343
 30
0.0
 41
1.0
  0
SPLINE
  5
1FB
330
1F
100
AcDbEntity
  8
Default
100
AcDbSpline
210
0.0
220
0.0
230
1.0
 70
    12
 71
     2
 72
     8
 73
     5
 74
     0
 42
0.0000000001
 43
0.0000000001
 40
0.0
 40
0.0
 40
0.0
 40
2.010619298297471
 40
2.010619298297471
 40
4.021238596594943
 40
4.021238596594943
 40
4.021238596594943
 10
41.80485698975752
 20
2.56
 30
0.0
 41
1.0
 10
40.52485698975751
 20
2.560000000000008
 30
0.0
 41
0.707106781186544
 10
40.52485698975752
 20
1.280000000000001
 30
0.0
 41
1.0
 10
40.5248569897575
 20
-0.00000000000001
 30
0.0
 41
0.7071067811865408
 10
41.80485698975752
 20
0.000000000000004
 30
0.0
 41
1.0
  0
SPLINE
  5
1FC
330
1F
100
AcDbEntity
  8
Default
100
AcDbSpline
210
0.0
220
0.0
230
1.0
 70
    12
 71
     3
 72
    12
 73
     8
 74
     0
 42
0.0000000001
 43
0.0000000001
 40
-1.0
 40
-1.0
 40
-1.0
 40
-1.0
 40
-0.4994646976824853
 40
-0.4994646976824853
 40
-0.2491693735934267
 40
-0.2491693735934267
 40
-0.000960095683646
 40
-0.000960095683646
 40
-0.000960095683646
 40
-0.000960095683646
 10
33.79747158754546
 20
3.695694345738939
 30
0.0
 41
1.0
 10
33.59098363164767
 20
3.695662698911317
 30
0.0
 41
1.0
 10
33.39315355124415
 20
3.729312675448694
 30
0.0
 41
1.0
 10
33.20866190731647
 20
3.78241355633619
 30
0.0
 41
1.0
 10
33.1629266051568
 20
3.800433369117865
 30
0.0
 41
1.0
 10
33.09408206099496
 20
3.835004338480922
 30
0.0
 41
1.0
 10
33.07154110985067
 20
3.851070290350116
 30
0.0
 41
1.0
 10
33.05660283618261
 20
3.866543031915286
 30
0.0
 41
1.0
  0
SPLINE
  5
1FD
330
1F
100
AcDbEntity
  8
Default
100
AcDbSpline
210
0.0
220
0.0
230
1.0
 70
    12
 71
     2
 72
     8
 73
     5
 74
     0
 42
0.0000000001
 43
0.0000000001
 40
0.0
 40
0.0
 40
0.0
 40
1.668971097219574
 40
1.668971097219574
 40
3.337942194439149
 40
3.337942194439149
 40
3.337942194439149
 10
41.80485698975752
 20
2.342500000000001
 30
0.0
 41
1.0
 10
42.86735698975752
 20
2.342499999999994
 30
0.0
 41
0.7071067811865517
 10
42.86735698975752
 20
1.280000000000001
 30
0.0
 41
1.0
 10
42.86735698975752
 20
0.2175000000000034
 30
0.0
 41
0.7071067811865482
 10
41.80485698975752
 20
0.2175000000000034
 30
0.0
 41
1.0
  0
SPLINE
  5
1FE
330
1F
100
AcDbEntity
  8
Default
100
AcDbSpline
210
0.0
220
0.0
230
1.0
 70
    12
 71
     2
 72
     8
 73
     5
 74
     0
 42
0.0000000001
 43
0.0000000001
 40
0.0
 40
0.0
 40
0.0
 40
2.010619298297466
 40
2.010619298297466
 40
4.021238596594925
 40
4.021238596594925
 40
4.021238596594925
 10
41.80485698975752
 20
0.0
 30
0.0
 41
1.0
 10
43.08485698975748
 20
0.0000000000000142
 30
0.0
 41
0.7071067811865562
 10
43.08485698975753
 20
1.280000000000001
 30
0.0
 41
1.0
 10
43.0848569897575
 20
2.559999999999984
 30
0.0
 41
0.7071067811865566
 10
41.80485698975752
 20
2.559999999999998
 30
0.0
 41
1.0
  0
SPLINE
  5
1FF
330
1F
100
AcDbEntity
  8
Default
100
AcDbSpline
210
0.0
220
0.0
230
1.0
 70
    12
 71
     2
 72
     6
 73
     3
 74
     0
 42
0.0000000001
 43
0.0000000001
 40
0.0
 40
0.0
 40
0.0
 40
0.0688371162936112
 40
0.0688371162936112
 40
0.0688371162936112
 10
33.96004645402581
 20
4.124825829551666
 30
0.0
 41
1.0
 10
33.97774905622618
 20
4.095304319312432
 30
0.0
 41
0.9998325506387339
 10
33.99652007745243
 20
4.06645036891404
 30
0.0
 41
1.0
  0
SPLINE
  5
200
330
1F
100
AcDbEntity
  8
Default
100
AcDbSpline
210
0.0
220
0.0
230
1.0
 70
    24
 71
     2
 72
     6
 73
     3
 74
     0
 42
0.0000000001
 43
0.0000000001
 40
0.0
 40
0.0
 40
0.0
 40
2.133458434542447
 40
2.133458434542447
 40
2.133458434542447
 10
-0.9800168225590369
 20
7.561488459355839
 30
0.0
 10
-0.9800168225590511
 20
8.628217676627063
 30
0.0
 10
-0.9800168225590653
 20
9.694946893898287
 30
0.0
  0
SPLINE
  5
201
330
1F
100
AcDbEntity
  8
Default
100
AcDbSpline
210
0.0
220
0.0
230
1.0
 70
    24
 71
     2
 72
     6
 73
     3
 74
     0
 42
0.0000000001
 43
0.0000000001
 40
0.0
 40
0.0
 40
0.0
 40
2.133457786270659
 40
2.133457786270659
 40
2.133457786270659
 10
0.9799831774409711
 20
9.694946893898287
 30
0.0
 10
0.9799831774409711
 20
8.628218000762956
 30
0.0
 10
0.9799831774409711
 20
7.561489107627628
 30
0.0
  0
SPLINE
  5
202
330
1F
100
AcDbEntity
  8
Default
100
AcDbSpline
210
0.0
220
0.0
230
1.0
 70
    24
 71
     2
 72
     6
 73
     3
 74
     0
 42
0.0000000001
 43
0.0000000001
 40
0.0
 40
0.0
 40
0.0
 40
0.1739735899772906
 40
0.1739735899772906
 40
0.1739735899772906
 10
0.9780010826612795
 20
9.696928988677977
 30
0.0
 10
0.9164921300511253
 20
9.758437941288136
 30
0.0
 10
0.8549831774409711
 20
9.819946893898294
 30
0.0
  0
SPLINE
  5
203
330
1F
100
AcDbEntity
  8
Default
100
AcDbSpline
210
0.0
220
0.0
230
1.0
 70
    24
 71
     2
 72
     6
 73
     3
 74
     0
 42
0.0000000001
 43
0.0000000001
 40
0.0
 40
0.0
 40
0.0
 40
1.706541446864048
 40
1.706541446864048
 40
1.706541446864048
 10
0.8549831774409711
 20
9.819946893898294
 30
0.0
 10
0.0017124540089526
 20
9.819946893898294
 30
0.0
 10
-0.8515582694230659
 20
9.819946893898294
 30
0.0
  0
SPLINE
  5
204
330
1F
100
AcDbEntity
  8
Default
100
AcDbSpline
210
0.0
220
0.0
230
1.0
 70
    24
 71
     2
 72
     6
 73
     3
 74
     0
 42
0.0000000001
 43
0.0000000001
 40
0.0
 40
0.0
 40
0.0
 40
0.1767766952966369
 40
0.1767766952966369
 40
0.1767766952966369
 10
-0.8550168225590653
 20
9.819946893898294
 30
0.0
 10
-0.9175168225590653
 20
9.75744689389829
 30
0.0
 10
-0.9800168225590653
 20
9.694946893898287
 30
0.0
  0
POLYLINE
  5
205
330
1F
100
AcDbEntity
  8
Default
100
AcDb2dPolyline
 66
     1
 10
0.0
 20
0.0
 30
0.0
  0
VERTEX
  5
206
330
205
100
AcDbEntity
  8
Default
100
AcDbVertex
100
AcDb2dVertex
 10
-0.359375
 20
0.842446893898277
 30
0.0
  0
VERTEX
  5
207
330
205
100
AcDbEntity
  8
Default
100
AcDbVertex
100
AcDb2dVertex
 10
0.359375
 20
0.842446893898277
 30
0.0
  0
VERTEX
  5
208
330
205
100
AcDbEntity
  8
Default
100
AcDbVertex
100
AcDb2dVertex
 10
0.359375
 20
2.559946893898262
 30
0.0
  0
VERTEX
  5
209
330
205
100
AcDbEntity
  8
Default
100
AcDbVertex
100
AcDb2dVertex
 10
-0.359375
 20
2.559946893898262
 30
0.0
  0
VERTEX
  5
20A
330
205
100
AcDbEntity
  8
Default
100
AcDbVertex
100
AcDb2dVertex
 10
-0.359375
 20
0.842446893898277
 30
0.0
  0
SEQEND
  5
20B
330
205
100
AcDbEntity
  8
Default
  0
SPLINE
  5
20C
330
1F
100
AcDbEntity
  8
Default
100
AcDbSpline
210
0.0
220
0.0
230
1.0
 70
    24
 71
     2
 72
     6
 73
     3
 74
     0
 42
0.0000000001
 43
0.0000000001
 40
-0.34375
 40
-0.34375
 40
-0.34375
 40
0.0
 40
0.0
 40
0.0
 10
0.75
 20
2.559946893898276
 30
0.0
 10
0.578125
 20
2.559946893898276
 30
0.0
 10
0.40625
 20
2.559946893898276
 30
0.0
  0
SPLINE
  5
20D
330
1F
100
AcDbEntity
  8
Default
100
AcDbSpline
210
0.0
220
0.0
230
1.0
 70
    12
 71
     2
 72
     8
 73
     5
 74
     0
 42
0.0000000001
 43
0.0000000001
 40
0.0
 40
0.0
 40
0.0
 40
0.0245437074331711
 40
0.0245437074331711
 40
0.0490874148663426
 40
0.0490874148663426
 40
0.0490874148663426
 10
0.40625
 20
2.559946893898276
 30
0.0
 41
1.0
 10
0.3933058174903734
 20
2.559946893898274
 30
0.0
 41
0.9238794417265827
 10
0.3841529026036312
 20
2.550793970326082
 30
0.0
 41
1.0
 10
0.3749999877169063
 20
2.541641046753887
 30
0.0
 41
0.9238794417264897
 10
0.375
 20
2.528696864244276
 30
0.0
 41
1.0
  0
SPLINE
  5
20E
330
1F
100
AcDbEntity
  8
Default
100
AcDbSpline
210
0.0
220
0.0
230
1.0
 70
    24
 71
     2
 72
     6
 73
     3
 74
     0
 42
0.0000000001
 43
0.0000000001
 40
0.0
 40
0.0
 40
0.0
 40
2.492448632942286
 40
2.492448632942286
 40
2.492448632942286
 10
0.375
 20
2.528696864244276
 30
0.0
 10
0.375
 20
1.281209720835705
 30
0.0
 10
0.375
 20
0.0337225774271333
 30
0.0
  0
SPLINE
  5
20F
330
1F
100
AcDbEntity
  8
Default
100
AcDbSpline
210
0.0
220
0.0
230
1.0
 70
    12
 71
     2
 72
     8
 73
     5
 74
     0
 42
0.0000000001
 43
0.0000000001
 40
0.0
 40
0.0
 40
0.0
 40
0.0245437074331714
 40
0.0245437074331714
 40
0.0490874148663431
 40
0.0490874148663431
 40
0.0490874148663431
 10
0.375
 20
0.0337225774271333
 30
0.0
 41
1.0
 10
0.374999987716915
 20
0.0182527410426657
 30
0.0
 41
0.9238794417265142
 10
0.3841529026036312
 20
0.0090998174704703
 30
0.0
 41
1.0
 10
0.3933058174903801
 20
-0.0000531061017242
 30
0.0
 41
0.9238794417265332
 10
0.40625
 20
-0.0000531061017243
 30
0.0
 41
1.0
  0
SPLINE
  5
210
330
1F
100
AcDbEntity
  8
Default
100
AcDbSpline
210
0.0
220
0.0
230
1.0
 70
    24
 71
     2
 72
     6
 73
     3
 74
     0
 42
0.0000000001
 43
0.0000000001
 40
-0.34375
 40
-0.34375
 40
-0.34375
 40
0.0
 40
0.0
 40
0.0
 10
0.40625
 20
-0.0000531061017243
 30
0.0
 10
0.578125
 20
-0.0000531061017242
 30
0.0
 10
0.75
 20
-0.0000531061017242
 30
0.0
  0
SPLINE
  5
211
330
1F
100
AcDbEntity
  8
Default
100
AcDbSpline
210
0.0
220
0.0
230
1.0
 70
    12
 71
     2
 72
     6
 73
     3
 74
     0
 42
0.0000000001
 43
0.0000000001
 40
0.0
 40
0.0
 40
0.0
 40
0.1963495408493663
 40
0.1963495408493663
 40
0.1963495408493663
 10
0.75
 20
-0.0000531061017242
 30
0.0
 41
1.0
 10
0.8750000000000003
 20
-0.000053106101733
 30
0.0
 41
0.7071067811864994
 10
0.875
 20
0.1249468938982758
 30
0.0
 41
1.0
  0
SPLINE
  5
212
330
1F
100
AcDbEntity
  8
Default
100
AcDbSpline
210
0.0
220
0.0
230
1.0
 70
    24
 71
     2
 72
     6
 73
     3
 74
     0
 42
0.0000000001
 43
0.0000000001
 40
0.0
 40
0.0
 40
0.0
 40
2.31
 40
2.31
 40
2.31
 10
0.875
 20
0.1249468938982758
 30
0.0
 10
0.875
 20
1.279946893898276
 30
0.0
 10
0.875
 20
2.434946893898276
 30
0.0
  0
SPLINE
  5
213
330
1F
100
AcDbEntity
  8
Default
100
AcDbSpline
210
0.0
220
0.0
230
1.0
 70
    12
 71
     2
 72
     6
 73
     3
 74
     0
 42
0.0000000001
 43
0.0000000001
 40
0.0
 40
0.0
 40
0.0
 40
0.1963495408493654
 40
0.1963495408493654
 40
0.1963495408493654
 10
0.875
 20
2.434946893898276
 30
0.0
 41
1.0
 10
0.8749999999999984
 20
2.559946893898285
 30
0.0
 41
0.7071067811864986
 10
0.75
 20
2.559946893898276
 30
0.0
 41
1.0
  0
SPLINE
  5
214
330
1F
100
AcDbEntity
  8
Default
100
AcDbSpline
210
0.0
220
0.0
230
1.0
 70
    24
 71
     2
 72
     6
 73
     3
 74
     0
 42
0.0000000001
 43
0.0000000001
 40
-0.34375
 40
-0.34375
 40
-0.34375
 40
0.0
 40
0.0
 40
0.0
 10
-0.75
 20
2.559946893898276
 30
0.0
 10
-0.578125
 20
2.559946893898276
 30
0.0
 10
-0.40625
 20
2.559946893898276
 30
0.0
  0
SPLINE
  5
215
330
1F
100
AcDbEntity
  8
Default
100
AcDbSpline
210
0.0
220
0.0
230
1.0
 70
    12
 71
     2
 72
     8
 73
     5
 74
     0
 42
0.0000000001
 43
0.0000000001
 40
0.0
 40
0.0
 40
0.0
 40
0.0245437074331711
 40
0.0245437074331711
 40
0.0490874148663426
 40
0.0490874148663426
 40
0.0490874148663426
 10
-0.40625
 20
2.559946893898276
 30
0.0
 41
1.0
 10
-0.3933058174903831
 20
2.559946893898274
 30
0.0
 41
0.9238794417265827
 10
-0.3841529026036312
 20
2.550793970326082
 30
0.0
 41
1.0
 10
-0.3749999877169059
 20
2.541641046753887
 30
0.0
 41
0.9238794417264897
 10
-0.375
 20
2.528696864244276
 30
0.0
 41
1.0
  0
SPLINE
  5
216
330
1F
100
AcDbEntity
  8
Default
100
AcDbSpline
210
0.0
220
0.0
230
1.0
 70
    24
 71
     2
 72
     6
 73
     3
 74
     0
 42
0.0000000001
 43
0.0000000001
 40
0.0
 40
0.0
 40
0.0
 40
2.492448632942286
 40
2.492448632942286
 40
2.492448632942286
 10
-0.375
 20
2.528696864244276
 30
0.0
 10
-0.375
 20
1.281209720835705
 30
0.0
 10
-0.375
 20
0.0337225774271333
 30
0.0
  0
SPLINE
  5
217
330
1F
100
AcDbEntity
  8
Default
100
AcDbSpline
210
0.0
220
0.0
230
1.0
 70
    12
 71
     2
 72
     8
 73
     5
 74
     0
 42
0.0000000001
 43
0.0000000001
 40
0.0
 40
0.0
 40
0.0
 40
0.0245437074331714
 40
0.0245437074331714
 40
0.0490874148663431
 40
0.0490874148663431
 40
0.0490874148663431
 10
-0.375
 20
0.0337225774271333
 30
0.0
 41
1.0
 10
-0.3749999877169083
 20
0.0182527410426657
 30
0.0
 41
0.9238794417265142
 10
-0.3841529026036312
 20
0.0090998174704703
 30
0.0
 41
1.0
 10
-0.3933058174903877
 20
-0.0000531061017242
 30
0.0
 41
0.9238794417265332
 10
-0.40625
 20
-0.0000531061017243
 30
0.0
 41
1.0
  0
SPLINE
  5
218
330
1F
100
AcDbEntity
  8
Default
100
AcDbSpline
210
0.0
220
0.0
230
1.0
 70
    24
 71
     2
 72
     6
 73
     3
 74
     0
 42
0.0000000001
 43
0.0000000001
 40
-0.34375
 40
-0.34375
 40
-0.34375
 40
0.0
 40
0.0
 40
0.0
 10
-0.40625
 20
-0.0000531061017243
 30
0.0
 10
-0.578125
 20
-0.0000531061017242
 30
0.0
 10
-0.75
 20
-0.0000531061017242
 30
0.0
  0
SPLINE
  5
219
330
1F
100
AcDbEntity
  8
Default
100
AcDbSpline
210
0.0
220
0.0
230
1.0
 70
    12
 71
     2
 72
     6
 73
     3
 74
     0
 42
0.0000000001
 43
0.0000000001
 40
0.0
 40
0.0
 40
0.0
 40
0.1963495408493663
 40
0.1963495408493663
 40
0.1963495408493663
 10
-0.75
 20
-0.0000531061017242
 30
0.0
 41
1.0
 10
-0.8750000000000123
 20
-0.000053106101733
 30
0.0
 41
0.7071067811864994
 10
-0.875
 20
0.1249468938982758
 30
0.0
 41
1.0
  0
SPLINE
  5
21A
330
1F
100
AcDbEntity
  8
Default
100
AcDbSpline
210
0.0
220
0.0
230
1.0
 70
    24
 71
     2
 72
     6
 73
     3
 74
     0
 42
0.0000000001
 43
0.0000000001
 40
0.0
 40
0.0
 40
0.0
 40
2.31
 40
2.31
 40
2.31
 10
-0.875
 20
0.1249468938982758
 30
0.0
 10
-0.875
 20
1.279946893898276
 30
0.0
 10
-0.875
 20
2.434946893898276
 30
0.0
  0
SPLINE
  5
21B
330
1F
100
AcDbEntity
  8
Default
100
AcDbSpline
210
0.0
220
0.0
230
1.0
 70
    12
 71
     2
 72
     6
 73
     3
 74
     0
 42
0.0000000001
 43
0.0000000001
 40
0.0
 40
0.0
 40
0.0
 40
0.1963495408493654
 40
0.1963495408493654
 40
0.1963495408493654
 10
-0.875
 20
2.434946893898276
 30
0.0
 41
1.0
 10
-0.874999999999996
 20
2.559946893898285
 30
0.0
 41
0.7071067811864986
 10
-0.75
 20
2.559946893898276
 30
0.0
 41
1.0
  0
SPLINE
  5
21C
330
1F
100
AcDbEntity
  8
Default
100
AcDbSpline
210
0.0
220
0.0
230
1.0
 70
    24
 71
     2
 72
     6
 73
     3
 74
     0
 42
0.0000000001
 43
0.0000000001
 40
-0.0829573442459228
 40
-0.0829573442459228
 40
-0.0829573442459228
 40
0.0
 40
0.0
 40
0.0
 10
0.3437500000000853
 20
2.559946893898262
 30
0.0
 10
0.3501533480021095
 20
2.60153135753627
 30
0.0
 10
0.3565566960041338
 20
2.643115821174277
 30
0.0
  0
LINE
  5
21D
330
1F
100
AcDbEntity
  8
Default
100
AcDbLine
 10
0.3565566960041338
 20
2.643115821174277
 30
0.0
 11
-0.3567451448753332
 21
2.643115821099778
 31
0.0
  0
SPLINE
  5
21E
330
1F
100
AcDbEntity
  8
Default
100
AcDbSpline
210
0.0
220
0.0
230
1.0
 70
    24
 71
     2
 72
     6
 73
     3
 74
     0
 42
0.0000000001
 43
0.0000000001
 40
-0.0829573442459228
 40
-0.0829573442459228
 40
-0.0829573442459228
 40
0.0
 40
0.0
 40
0.0
 10
-0.3567451448753332
 20
2.643115821099778
 30
0.0
 10
-0.3502475724377092
 20
2.60153135749902
 30
0.0
 10
-0.3437500000000853
 20
2.559946893898262
 30
0.0
  0
SPLINE
  5
21F
330
1F
100
AcDbEntity
  8
Default
100
AcDbSpline
210
0.0
220
0.0
230
1.0
 70
    24
 71
     2
 72
     6
 73
     3
 74
     0
 42
0.0000000001
 43
0.0000000001
 40
-0.34375
 40
-0.34375
 40
-0.34375
 40
0.0
 40
0.0
 40
0.0
 10
-7.001808976534051
 20
2.559946893898276
 30
0.0
 10
-7.173683976534051
 20
2.559946893898276
 30
0.0
 10
-7.345558976534051
 20
2.559946893898276
 30
0.0
  0
SPLINE
  5
220
330
1F
100
AcDbEntity
  8
Default
100
AcDbSpline
210
0.0
220
0.0
230
1.0
 70
    12
 71
     2
 72
     8
 73
     5
 74
     0
 42
0.0000000001
 43
0.0000000001
 40
0.0
 40
0.0
 40
0.0
 40
0.0245437074331711
 40
0.0245437074331711
 40
0.0490874148663426
 40
0.0490874148663426
 40
0.0490874148663426
 10
-7.345558976534051
 20
2.559946893898276
 30
0.0
 41
1.0
 10
-7.358503159043682
 20
2.559946893898274
 30
0.0
 41
0.9238794417265827
 10
-7.367656073930419
 20
2.550793970326082
 30
0.0
 41
1.0
 10
-7.376808988817128
 20
2.541641046753887
 30
0.0
 41
0.9238794417264897
 10
-7.376808976534051
 20
2.528696864244276
 30
0.0
 41
1.0
  0
SPLINE
  5
221
330
1F
100
AcDbEntity
  8
Default
100
AcDbSpline
210
0.0
220
0.0
230
1.0
 70
    24
 71
     2
 72
     6
 73
     3
 74
     0
 42
0.0000000001
 43
0.0000000001
 40
0.0
 40
0.0
 40
0.0
 40
2.492448632942286
 40
2.492448632942286
 40
2.492448632942286
 10
-7.376808976534051
 20
2.528696864244276
 30
0.0
 10
-7.376808976534051
 20
1.281209720835705
 30
0.0
 10
-7.376808976534051
 20
0.0337225774271333
 30
0.0
  0
SPLINE
  5
222
330
1F
100
AcDbEntity
  8
Default
100
AcDbSpline
210
0.0
220
0.0
230
1.0
 70
    12
 71
     2
 72
     8
 73
     5
 74
     0
 42
0.0000000001
 43
0.0000000001
 40
0.0
 40
0.0
 40
0.0
 40
0.0245437074331714
 40
0.0245437074331714
 40
0.0490874148663431
 40
0.0490874148663431
 40
0.0490874148663431
 10
-7.376808976534051
 20
0.0337225774271333
 30
0.0
 41
1.0
 10
-7.376808988817132
 20
0.0182527410426657
 30
0.0
 41
0.9238794417265142
 10
-7.367656073930419
 20
0.0090998174704703
 30
0.0
 41
1.0
 10
-7.35850315904366
 20
-0.0000531061017242
 30
0.0
 41
0.9238794417265332
 10
-7.345558976534051
 20
-0.0000531061017243
 30
0.0
 41
1.0
  0
SPLINE
  5
223
330
1F
100
AcDbEntity
  8
Default
100
AcDbSpline
210
0.0
220
0.0
230
1.0
 70
    24
 71
     2
 72
     6
 73
     3
 74
     0
 42
0.0000000001
 43
0.0000000001
 40
-0.34375
 40
-0.34375
 40
-0.34375
 40
0.0
 40
0.0
 40
0.0
 10
-7.345558976534051
 20
-0.0000531061017243
 30
0.0
 10
-7.173683976534051
 20
-0.0000531061017242
 30
0.0
 10
-7.001808976534051
 20
-0.0000531061017242
 30
0.0
  0
SPLINE
  5
224
330
1F
100
AcDbEntity
  8
Default
100
AcDbSpline
210
0.0
220
0.0
230
1.0
 70
    12
 71
     2
 72
     6
 73
     3
 74
     0
 42
0.0000000001
 43
0.0000000001
 40
0.0
 40
0.0
 40
0.0
 40
0.1963495408493663
 40
0.1963495408493663
 40
0.1963495408493663
 10
-7.001808976534051
 20
-0.0000531061017242
 30
0.0
 41
1.0
 10
-6.876808976534041
 20
-0.000053106101733
 30
0.0
 41
0.7071067811864994
 10
-6.876808976534051
 20
0.1249468938982758
 30
0.0
 41
1.0
  0
SPLINE
  5
225
330
1F
100
AcDbEntity
  8
Default
100
AcDbSpline
210
0.0
220
0.0
230
1.0
 70
    24
 71
     2
 72
     6
 73
     3
 74
     0
 42
0.0000000001
 43
0.0000000001
 40
0.0
 40
0.0
 40
0.0
 40
2.31
 40
2.31
 40
2.31
 10
-6.876808976534051
 20
0.1249468938982758
 30
0.0
 10
-6.876808976534051
 20
1.279946893898276
 30
0.0
 10
-6.876808976534051
 20
2.434946893898276
 30
0.0
  0
SPLINE
  5
226
330
1F
100
AcDbEntity
  8
Default
100
AcDbSpline
210
0.0
220
0.0
230
1.0
 70
    12
 71
     2
 72
     6
 73
     3
 74
     0
 42
0.0000000001
 43
0.0000000001
 40
0.0
 40
0.0
 40
0.0
 40
0.1963495408493654
 40
0.1963495408493654
 40
0.1963495408493654
 10
-6.876808976534051
 20
2.434946893898276
 30
0.0
 41
1.0
 10
-6.876808976534051
 20
2.559946893898285
 30
0.0
 41
0.7071067811864986
 10
-7.001808976534051
 20
2.559946893898276
 30
0.0
 41
1.0
  0
POLYLINE
  5
227
330
1F
100
AcDbEntity
  8
Default
100
AcDb2dPolyline
 66
     1
 10
0.0
 20
0.0
 30
0.0
  0
VERTEX
  5
228
330
227
100
AcDbEntity
  8
Default
100
AcDbVertex
100
AcDb2dVertex
 10
-8.11118397653405
 20
0.842446893898277
 30
0.0
  0
VERTEX
  5
229
330
227
100
AcDbEntity
  8
Default
100
AcDbVertex
100
AcDb2dVertex
 10
-7.392433976534051
 20
0.842446893898277
 30
0.0
  0
VERTEX
  5
22A
330
227
100
AcDbEntity
  8
Default
100
AcDbVertex
100
AcDb2dVertex
 10
-7.392433976534051
 20
2.559946893898262
 30
0.0
  0
VERTEX
  5
22B
330
227
100
AcDbEntity
  8
Default
100
AcDbVertex
100
AcDb2dVertex
 10
-8.11118397653405
 20
2.559946893898262
 30
0.0
  0
VERTEX
  5
22C
330
227
100
AcDbEntity
  8
Default
100
AcDbVertex
100
AcDb2dVertex
 10
-8.11118397653405
 20
0.842446893898277
 30
0.0
  0
SEQEND
  5
22D
330
227
100
AcDbEntity
  8
Default
  0
SPLINE
  5
22E
330
1F
100
AcDbEntity
  8
Default
100
AcDbSpline
210
0.0
220
0.0
230
1.0
 70
    24
 71
     2
 72
     6
 73
     3
 74
     0
 42
0.0000000001
 43
0.0000000001
 40
-0.34375
 40
-0.34375
 40
-0.34375
 40
0.0
 40
0.0
 40
0.0
 10
-8.50180897653405
 20
2.559946893898276
 30
0.0
 10
-8.32993397653405
 20
2.559946893898276
 30
0.0
 10
-8.15805897653405
 20
2.559946893898276
 30
0.0
  0
SPLINE
  5
22F
330
1F
100
AcDbEntity
  8
Default
100
AcDbSpline
210
0.0
220
0.0
230
1.0
 70
    12
 71
     2
 72
     8
 73
     5
 74
     0
 42
0.0000000001
 43
0.0000000001
 40
0.0
 40
0.0
 40
0.0
 40
0.0245437074331711
 40
0.0245437074331711
 40
0.0490874148663426
 40
0.0490874148663426
 40
0.0490874148663426
 10
-8.15805897653405
 20
2.559946893898276
 30
0.0
 41
1.0
 10
-8.145114794024439
 20
2.559946893898274
 30
0.0
 41
0.9238794417265827
 10
-8.135961879137682
 20
2.550793970326082
 30
0.0
 41
1.0
 10
-8.126808964250971
 20
2.541641046753887
 30
0.0
 41
0.9238794417264897
 10
-8.12680897653405
 20
2.528696864244276
 30
0.0
 41
1.0
  0
SPLINE
  5
230
330
1F
100
AcDbEntity
  8
Default
100
AcDbSpline
210
0.0
220
0.0
230
1.0
 70
    24
 71
     2
 72
     6
 73
     3
 74
     0
 42
0.0000000001
 43
0.0000000001
 40
0.0
 40
0.0
 40
0.0
 40
2.492448632942286
 40
2.492448632942286
 40
2.492448632942286
 10
-8.12680897653405
 20
2.528696864244276
 30
0.0
 10
-8.12680897653405
 20
1.281209720835705
 30
0.0
 10
-8.12680897653405
 20
0.0337225774271333
 30
0.0
  0
SPLINE
  5
231
330
1F
100
AcDbEntity
  8
Default
100
AcDbSpline
210
0.0
220
0.0
230
1.0
 70
    12
 71
     2
 72
     8
 73
     5
 74
     0
 42
0.0000000001
 43
0.0000000001
 40
0.0
 40
0.0
 40
0.0
 40
0.0245437074331714
 40
0.0245437074331714
 40
0.0490874148663431
 40
0.0490874148663431
 40
0.0490874148663431
 10
-8.12680897653405
 20
0.0337225774271333
 30
0.0
 41
1.0
 10
-8.126808964250985
 20
0.0182527410426657
 30
0.0
 41
0.9238794417265142
 10
-8.135961879137682
 20
0.0090998174704703
 30
0.0
 41
1.0
 10
-8.145114794024428
 20
-0.0000531061017242
 30
0.0
 41
0.9238794417265332
 10
-8.15805897653405
 20
-0.0000531061017243
 30
0.0
 41
1.0
  0
SPLINE
  5
232
330
1F
100
AcDbEntity
  8
Default
100
AcDbSpline
210
0.0
220
0.0
230
1.0
 70
    24
 71
     2
 72
     6
 73
     3
 74
     0
 42
0.0000000001
 43
0.0000000001
 40
-0.34375
 40
-0.34375
 40
-0.34375
 40
0.0
 40
0.0
 40
0.0
 10
-8.15805897653405
 20
-0.0000531061017243
 30
0.0
 10
-8.32993397653405
 20
-0.0000531061017242
 30
0.0
 10
-8.50180897653405
 20
-0.0000531061017242
 30
0.0
  0
SPLINE
  5
233
330
1F
100
AcDbEntity
  8
Default
100
AcDbSpline
210
0.0
220
0.0
230
1.0
 70
    12
 71
     2
 72
     6
 73
     3
 74
     0
 42
0.0000000001
 43
0.0000000001
 40
0.0
 40
0.0
 40
0.0
 40
0.1963495408493663
 40
0.1963495408493663
 40
0.1963495408493663
 10
-8.50180897653405
 20
-0.0000531061017242
 30
0.0
 41
1.0
 10
-8.626808976534054
 20
-0.000053106101733
 30
0.0
 41
0.7071067811864994
 10
-8.62680897653405
 20
0.1249468938982758
 30
0.0
 41
1.0
  0
SPLINE
  5
234
330
1F
100
AcDbEntity
  8
Default
100
AcDbSpline
210
0.0
220
0.0
230
1.0
 70
    24
 71
     2
 72
     6
 73
     3
 74
     0
 42
0.0000000001
 43
0.0000000001
 40
0.0
 40
0.0
 40
0.0
 40
2.31
 40
2.31
 40
2.31
 10
-8.62680897653405
 20
0.1249468938982758
 30
0.0
 10
-8.62680897653405
 20
1.279946893898276
 30
0.0
 10
-8.62680897653405
 20
2.434946893898276
 30
0.0
  0
SPLINE
  5
235
330
1F
100
AcDbEntity
  8
Default
100
AcDbSpline
210
0.0
220
0.0
230
1.0
 70
    12
 71
     2
 72
     6
 73
     3
 74
     0
 42
0.0000000001
 43
0.0000000001
 40
0.0
 40
0.0
 40
0.0
 40
0.1963495408493654
 40
0.1963495408493654
 40
0.1963495408493654
 10
-8.62680897653405
 20
2.434946893898276
 30
0.0
 41
1.0
 10
-8.626808976534045
 20
2.559946893898285
 30
0.0
 41
0.7071067811864986
 10
-8.50180897653405
 20
2.559946893898276
 30
0.0
 41
1.0
  0
SPLINE
  5
236
330
1F
100
AcDbEntity
  8
Default
100
AcDbSpline
210
0.0
220
0.0
230
1.0
 70
    24
 71
     2
 72
     6
 73
     3
 74
     0
 42
0.0000000001
 43
0.0000000001
 40
-0.0829573442459228
 40
-0.0829573442459228
 40
-0.0829573442459228
 40
0.0
 40
0.0
 40
0.0
 10
-7.408058976533965
 20
2.559946893898262
 30
0.0
 10
-7.401655628531941
 20
2.60153135753627
 30
0.0
 10
-7.395252280529917
 20
2.643115821174277
 30
0.0
  0
LINE
  5
237
330
1F
100
AcDbEntity
  8
Default
100
AcDbLine
 10
-7.395252280529917
 20
2.643115821174277
 30
0.0
 11
-8.108554121409384
 21
2.643115821099778
 31
0.0
  0
SPLINE
  5
238
330
1F
100
AcDbEntity
  8
Default
100
AcDbSpline
210
0.0
220
0.0
230
1.0
 70
    24
 71
     2
 72
     6
 73
     3
 74
     0
 42
0.0000000001
 43
0.0000000001
 40
-0.0829573442459228
 40
-0.0829573442459228
 40
-0.0829573442459228
 40
0.0
 40
0.0
 40
0.0
 10
-8.108554121409384
 20
2.643115821099778
 30
0.0
 10
-8.10205654897176
 20
2.60153135749902
 30
0.0
 10
-8.095558976534136
 20
2.559946893898262
 30
0.0
  0
SPLINE
  5
239
330
1F
100
AcDbEntity
  8
Default
100
AcDbSpline
210
0.0
220
0.0
230
1.0
 70
    24
 71
     2
 72
     6
 73
     3
 74
     0
 42
0.0000000001
 43
0.0000000001
 40
-0.34375
 40
-0.34375
 40
-0.34375
 40
0.0
 40
0.0
 40
0.0
 10
-11.79265278193904
 20
2.559946893898276
 30
0.0
 10
-11.96452778193904
 20
2.559946893898276
 30
0.0
 10
-12.13640278193904
 20
2.559946893898276
 30
0.0
  0
SPLINE
  5
23A
330
1F
100
AcDbEntity
  8
Default
100
AcDbSpline
210
0.0
220
0.0
230
1.0
 70
    12
 71
     2
 72
     8
 73
     5
 74
     0
 42
0.0000000001
 43
0.0000000001
 40
0.0
 40
0.0
 40
0.0
 40
0.0245437074331711
 40
0.0245437074331711
 40
0.0490874148663426
 40
0.0490874148663426
 40
0.0490874148663426
 10
-12.13640278193904
 20
2.559946893898276
 30
0.0
 41
1.0
 10
-12.14934696444865
 20
2.559946893898274
 30
0.0
 41
0.9238794417265827
 10
-12.15849987933541
 20
2.550793970326082
 30
0.0
 41
1.0
 10
-12.16765279422214
 20
2.541641046753887
 30
0.0
 41
0.9238794417264897
 10
-12.16765278193904
 20
2.528696864244276
 30
0.0
 41
1.0
  0
SPLINE
  5
23B
330
1F
100
AcDbEntity
  8
Default
100
AcDbSpline
210
0.0
220
0.0
230
1.0
 70
    24
 71
     2
 72
     6
 73
     3
 74
     0
 42
0.0000000001
 43
0.0000000001
 40
0.0
 40
0.0
 40
0.0
 40
2.492448632942286
 40
2.492448632942286
 40
2.492448632942286
 10
-12.16765278193904
 20
2.528696864244276
 30
0.0
 10
-12.16765278193904
 20
1.281209720835705
 30
0.0
 10
-12.16765278193904
 20
0.0337225774271333
 30
0.0
  0
SPLINE
  5
23C
330
1F
100
AcDbEntity
  8
Default
100
AcDbSpline
210
0.0
220
0.0
230
1.0
 70
    12
 71
     2
 72
     8
 73
     5
 74
     0
 42
0.0000000001
 43
0.0000000001
 40
0.0
 40
0.0
 40
0.0
 40
0.0245437074331714
 40
0.0245437074331714
 40
0.0490874148663431
 40
0.0490874148663431
 40
0.0490874148663431
 10
-12.16765278193904
 20
0.0337225774271333
 30
0.0
 41
1.0
 10
-12.16765279422211
 20
0.0182527410426657
 30
0.0
 41
0.9238794417265142
 10
-12.15849987933541
 20
0.0090998174704703
 30
0.0
 41
1.0
 10
-12.14934696444867
 20
-0.0000531061017242
 30
0.0
 41
0.9238794417265332
 10
-12.13640278193904
 20
-0.0000531061017243
 30
0.0
 41
1.0
  0
SPLINE
  5
23D
330
1F
100
AcDbEntity
  8
Default
100
AcDbSpline
210
0.0
220
0.0
230
1.0
 70
    24
 71
     2
 72
     6
 73
     3
 74
     0
 42
0.0000000001
 43
0.0000000001
 40
-0.34375
 40
-0.34375
 40
-0.34375
 40
0.0
 40
0.0
 40
0.0
 10
-12.13640278193904
 20
-0.0000531061017243
 30
0.0
 10
-11.96452778193904
 20
-0.0000531061017242
 30
0.0
 10
-11.79265278193904
 20
-0.0000531061017242
 30
0.0
  0
SPLINE
  5
23E
330
1F
100
AcDbEntity
  8
Default
100
AcDbSpline
210
0.0
220
0.0
230
1.0
 70
    12
 71
     2
 72
     6
 73
     3
 74
     0
 42
0.0000000001
 43
0.0000000001
 40
0.0
 40
0.0
 40
0.0
 40
0.1963495408493663
 40
0.1963495408493663
 40
0.1963495408493663
 10
-11.79265278193904
 20
-0.0000531061017242
 30
0.0
 41
1.0
 10
-11.66765278193902
 20
-0.000053106101733
 30
0.0
 41
0.7071067811864994
 10
-11.66765278193904
 20
0.1249468938982758
 30
0.0
 41
1.0
  0
SPLINE
  5
23F
330
1F
100
AcDbEntity
  8
Default
100
AcDbSpline
210
0.0
220
0.0
230
1.0
 70
    24
 71
     2
 72
     6
 73
     3
 74
     0
 42
0.0000000001
 43
0.0000000001
 40
0.0
 40
0.0
 40
0.0
 40
2.31
 40
2.31
 40
2.31
 10
-11.66765278193904
 20
0.1249468938982758
 30
0.0
 10
-11.66765278193904
 20
1.279946893898276
 30
0.0
 10
-11.66765278193904
 20
2.434946893898276
 30
0.0
  0
SPLINE
  5
240
330
1F
100
AcDbEntity
  8
Default
100
AcDbSpline
210
0.0
220
0.0
230
1.0
 70
    12
 71
     2
 72
     6
 73
     3
 74
     0
 42
0.0000000001
 43
0.0000000001
 40
0.0
 40
0.0
 40
0.0
 40
0.1963495408493654
 40
0.1963495408493654
 40
0.1963495408493654
 10
-11.66765278193904
 20
2.434946893898276
 30
0.0
 41
1.0
 10
-11.66765278193904
 20
2.559946893898285
 30
0.0
 41
0.7071067811864986
 10
-11.79265278193904
 20
2.559946893898276
 30
0.0
 41
1.0
  0
POLYLINE
  5
241
330
1F
100
AcDbEntity
  8
Default
100
AcDb2dPolyline
 66
     1
 10
0.0
 20
0.0
 30
0.0
  0
VERTEX
  5
242
330
241
100
AcDbEntity
  8
Default
100
AcDbVertex
100
AcDb2dVertex
 10
-12.90202778193904
 20
0.842446893898277
 30
0.0
  0
VERTEX
  5
243
330
241
100
AcDbEntity
  8
Default
100
AcDbVertex
100
AcDb2dVertex
 10
-12.18327778193904
 20
0.842446893898277
 30
0.0
  0
VERTEX
  5
244
330
241
100
AcDbEntity
  8
Default
100
AcDbVertex
100
AcDb2dVertex
 10
-12.18327778193904
 20
2.559946893898262
 30
0.0
  0
VERTEX
  5
245
330
241
100
AcDbEntity
  8
Default
100
AcDbVertex
100
AcDb2dVertex
 10
-12.90202778193904
 20
2.559946893898262
 30
0.0
  0
VERTEX
  5
246
330
241
100
AcDbEntity
  8
Default
100
AcDbVertex
100
AcDb2dVertex
 10
-12.90202778193904
 20
0.842446893898277
 30
0.0
  0
SEQEND
  5
247
330
241
100
AcDbEntity
  8
Default
  0
SPLINE
  5
248
330
1F
100
AcDbEntity
  8
Default
100
AcDbSpline
210
0.0
220
0.0
230
1.0
 70
    24
 71
     2
 72
     6
 73
     3
 74
     0
 42
0.0000000001
 43
0.0000000001
 40
-0.34375
 40
-0.34375
 40
-0.34375
 40
0.0
 40
0.0
 40
0.0
 10
-13.29265278193904
 20
2.559946893898276
 30
0.0
 10
-13.12077778193904
 20
2.559946893898276
 30
0.0
 10
-12.94890278193904
 20
2.559946893898276
 30
0.0
  0
SPLINE
  5
249
330
1F
100
AcDbEntity
  8
Default
100
AcDbSpline
210
0.0
220
0.0
230
1.0
 70
    12
 71
     2
 72
     8
 73
     5
 74
     0
 42
0.0000000001
 43
0.0000000001
 40
0.0
 40
0.0
 40
0.0
 40
0.0245437074331711
 40
0.0245437074331711
 40
0.0490874148663426
 40
0.0490874148663426
 40
0.0490874148663426
 10
-12.94890278193904
 20
2.559946893898276
 30
0.0
 41
1.0
 10
-12.93595859942944
 20
2.559946893898274
 30
0.0
 41
0.9238794417265827
 10
-12.92680568454267
 20
2.550793970326082
 30
0.0
 41
1.0
 10
-12.91765276965596
 20
2.541641046753887
 30
0.0
 41
0.9238794417264897
 10
-12.91765278193904
 20
2.528696864244276
 30
0.0
 41
1.0
  0
SPLINE
  5
24A
330
1F
100
AcDbEntity
  8
Default
100
AcDbSpline
210
0.0
220
0.0
230
1.0
 70
    24
 71
     2
 72
     6
 73
     3
 74
     0
 42
0.0000000001
 43
0.0000000001
 40
0.0
 40
0.0
 40
0.0
 40
2.492448632942286
 40
2.492448632942286
 40
2.492448632942286
 10
-12.91765278193904
 20
2.528696864244276
 30
0.0
 10
-12.91765278193904
 20
1.281209720835705
 30
0.0
 10
-12.91765278193904
 20
0.0337225774271333
 30
0.0
  0
SPLINE
  5
24B
330
1F
100
AcDbEntity
  8
Default
100
AcDbSpline
210
0.0
220
0.0
230
1.0
 70
    12
 71
     2
 72
     8
 73
     5
 74
     0
 42
0.0000000001
 43
0.0000000001
 40
0.0
 40
0.0
 40
0.0
 40
0.0245437074331714
 40
0.0245437074331714
 40
0.0490874148663431
 40
0.0490874148663431
 40
0.0490874148663431
 10
-12.91765278193904
 20
0.0337225774271333
 30
0.0
 41
1.0
 10
-12.91765276965597
 20
0.0182527410426657
 30
0.0
 41
0.9238794417265142
 10
-12.92680568454267
 20
0.0090998174704703
 30
0.0
 41
1.0
 10
-12.93595859942943
 20
-0.0000531061017242
 30
0.0
 41
0.9238794417265332
 10
-12.94890278193904
 20
-0.0000531061017243
 30
0.0
 41
1.0
  0
SPLINE
  5
24C
330
1F
100
AcDbEntity
  8
Default
100
AcDbSpline
210
0.0
220
0.0
230
1.0
 70
    24
 71
     2
 72
     6
 73
     3
 74
     0
 42
0.0000000001
 43
0.0000000001
 40
-0.34375
 40
-0.34375
 40
-0.34375
 40
0.0
 40
0.0
 40
0.0
 10
-12.94890278193904
 20
-0.0000531061017243
 30
0.0
 10
-13.12077778193904
 20
-0.0000531061017242
 30
0.0
 10
-13.29265278193904
 20
-0.0000531061017242
 30
0.0
  0
SPLINE
  5
24D
330
1F
100
AcDbEntity
  8
Default
100
AcDbSpline
210
0.0
220
0.0
230
1.0
 70
    12
 71
     2
 72
     6
 73
     3
 74
     0
 42
0.0000000001
 43
0.0000000001
 40
0.0
 40
0.0
 40
0.0
 40
0.1963495408493663
 40
0.1963495408493663
 40
0.1963495408493663
 10
-13.29265278193904
 20
-0.0000531061017242
 30
0.0
 41
1.0
 10
-13.41765278193904
 20
-0.000053106101733
 30
0.0
 41
0.7071067811864994
 10
-13.41765278193904
 20
0.1249468938982758
 30
0.0
 41
1.0
  0
SPLINE
  5
24E
330
1F
100
AcDbEntity
  8
Default
100
AcDbSpline
210
0.0
220
0.0
230
1.0
 70
    24
 71
     2
 72
     6
 73
     3
 74
     0
 42
0.0000000001
 43
0.0000000001
 40
0.0
 40
0.0
 40
0.0
 40
2.31
 40
2.31
 40
2.31
 10
-13.41765278193904
 20
0.1249468938982758
 30
0.0
 10
-13.41765278193904
 20
1.279946893898276
 30
0.0
 10
-13.41765278193904
 20
2.434946893898276
 30
0.0
  0
SPLINE
  5
24F
330
1F
100
AcDbEntity
  8
Default
100
AcDbSpline
210
0.0
220
0.0
230
1.0
 70
    12
 71
     2
 72
     6
 73
     3
 74
     0
 42
0.0000000001
 43
0.0000000001
 40
0.0
 40
0.0
 40
0.0
 40
0.1963495408493654
 40
0.1963495408493654
 40
0.1963495408493654
 10
-13.41765278193904
 20
2.434946893898276
 30
0.0
 41
1.0
 10
-13.41765278193903
 20
2.559946893898285
 30
0.0
 41
0.7071067811864986
 10
-13.29265278193904
 20
2.559946893898276
 30
0.0
 41
1.0
  0
SPLINE
  5
250
330
1F
100
AcDbEntity
  8
Default
100
AcDbSpline
210
0.0
220
0.0
230
1.0
 70
    24
 71
     2
 72
     6
 73
     3
 74
     0
 42
0.0000000001
 43
0.0000000001
 40
-0.0829573442459228
 40
-0.0829573442459228
 40
-0.0829573442459228
 40
0.0
 40
0.0
 40
0.0
 10
-12.19890278193895
 20
2.559946893898262
 30
0.0
 10
-12.19249943393694
 20
2.60153135753627
 30
0.0
 10
-12.18609608593493
 20
2.643115821174277
 30
0.0
  0
LINE
  5
251
330
1F
100
AcDbEntity
  8
Default
100
AcDbLine
 10
-12.18609608593493
 20
2.643115821174277
 30
0.0
 11
-12.89939792681434
 21
2.643115821099778
 31
0.0
  0
SPLINE
  5
252
330
1F
100
AcDbEntity
  8
Default
100
AcDbSpline
210
0.0
220
0.0
230
1.0
 70
    24
 71
     2
 72
     6
 73
     3
 74
     0
 42
0.0000000001
 43
0.0000000001
 40
-0.0829573442459228
 40
-0.0829573442459228
 40
-0.0829573442459228
 40
0.0
 40
0.0
 40
0.0
 10
-12.89939792681434
 20
2.643115821099778
 30
0.0
 10
-12.89290035437674
 20
2.60153135749902
 30
0.0
 10
-12.88640278193913
 20
2.559946893898262
 30
0.0
  0
SPLINE
  5
253
330
1F
100
AcDbEntity
  8
Default
100
AcDbSpline
210
0.0
220
0.0
230
1.0
 70
    24
 71
     2
 72
     6
 73
     3
 74
     0
 42
0.0000000001
 43
0.0000000001
 40
-0.34375
 40
-0.34375
 40
-0.34375
 40
0.0
 40
0.0
 40
0.0
 10
7.001808976534051
 20
2.559946893898276
 30
0.0
 10
7.173683976534051
 20
2.559946893898276
 30
0.0
 10
7.345558976534051
 20
2.559946893898276
 30
0.0
  0
SPLINE
  5
254
330
1F
100
AcDbEntity
  8
Default
100
AcDbSpline
210
0.0
220
0.0
230
1.0
 70
    12
 71
     2
 72
     8
 73
     5
 74
     0
 42
0.0000000001
 43
0.0000000001
 40
0.0
 40
0.0
 40
0.0
 40
0.0245437074331711
 40
0.0245437074331711
 40
0.0490874148663426
 40
0.0490874148663426
 40
0.0490874148663426
 10
7.345558976534051
 20
2.559946893898276
 30
0.0
 41
1.0
 10
7.358503159043672
 20
2.559946893898274
 30
0.0
 41
0.9238794417265827
 10
7.367656073930419
 20
2.550793970326082
 30
0.0
 41
1.0
 10
7.376808988817128
 20
2.541641046753887
 30
0.0
 41
0.9238794417264897
 10
7.376808976534051
 20
2.528696864244276
 30
0.0
 41
1.0
  0
SPLINE
  5
255
330
1F
100
AcDbEntity
  8
Default
100
AcDbSpline
210
0.0
220
0.0
230
1.0
 70
    24
 71
     2
 72
     6
 73
     3
 74
     0
 42
0.0000000001
 43
0.0000000001
 40
0.0
 40
0.0
 40
0.0
 40
2.492448632942286
 40
2.492448632942286
 40
2.492448632942286
 10
7.376808976534051
 20
2.528696864244276
 30
0.0
 10
7.376808976534051
 20
1.281209720835705
 30
0.0
 10
7.376808976534051
 20
0.0337225774271333
 30
0.0
  0
SPLINE
  5
256
330
1F
100
AcDbEntity
  8
Default
100
AcDbSpline
210
0.0
220
0.0
230
1.0
 70
    12
 71
     2
 72
     8
 73
     5
 74
     0
 42
0.0000000001
 43
0.0000000001
 40
0.0
 40
0.0
 40
0.0
 40
0.0245437074331714
 40
0.0245437074331714
 40
0.0490874148663431
 40
0.0490874148663431
 40
0.0490874148663431
 10
7.376808976534051
 20
0.0337225774271333
 30
0.0
 41
1.0
 10
7.376808988817138
 20
0.0182527410426657
 30
0.0
 41
0.9238794417265142
 10
7.367656073930419
 20
0.0090998174704703
 30
0.0
 41
1.0
 10
7.358503159043652
 20
-0.0000531061017242
 30
0.0
 41
0.9238794417265332
 10
7.345558976534051
 20
-0.0000531061017243
 30
0.0
 41
1.0
  0
SPLINE
  5
257
330
1F
100
AcDbEntity
  8
Default
100
AcDbSpline
210
0.0
220
0.0
230
1.0
 70
    24
 71
     2
 72
     6
 73
     3
 74
     0
 42
0.0000000001
 43
0.0000000001
 40
-0.34375
 40
-0.34375
 40
-0.34375
 40
0.0
 40
0.0
 40
0.0
 10
7.345558976534051
 20
-0.0000531061017243
 30
0.0
 10
7.173683976534051
 20
-0.0000531061017242
 30
0.0
 10
7.001808976534051
 20
-0.0000531061017242
 30
0.0
  0
SPLINE
  5
258
330
1F
100
AcDbEntity
  8
Default
100
AcDbSpline
210
0.0
220
0.0
230
1.0
 70
    12
 71
     2
 72
     6
 73
     3
 74
     0
 42
0.0000000001
 43
0.0000000001
 40
0.0
 40
0.0
 40
0.0
 40
0.1963495408493663
 40
0.1963495408493663
 40
0.1963495408493663
 10
7.001808976534051
 20
-0.0000531061017242
 30
0.0
 41
1.0
 10
6.876808976534049
 20
-0.000053106101733
 30
0.0
 41
0.7071067811864994
 10
6.876808976534051
 20
0.1249468938982758
 30
0.0
 41
1.0
  0
SPLINE
  5
259
330
1F
100
AcDbEntity
  8
Default
100
AcDbSpline
210
0.0
220
0.0
230
1.0
 70
    24
 71
     2
 72
     6
 73
     3
 74
     0
 42
0.0000000001
 43
0.0000000001
 40
0.0
 40
0.0
 40
0.0
 40
2.31
 40
2.31
 40
2.31
 10
6.876808976534051
 20
0.1249468938982758
 30
0.0
 10
6.876808976534051
 20
1.279946893898276
 30
0.0
 10
6.876808976534051
 20
2.434946893898276
 30
0.0
  0
SPLINE
  5
25A
330
1F
100
AcDbEntity
  8
Default
100
AcDbSpline
210
0.0
220
0.0
230
1.0
 70
    12
 71
     2
 72
     6
 73
     3
 74
     0
 42
0.0000000001
 43
0.0000000001
 40
0.0
 40
0.0
 40
0.0
 40
0.1963495408493654
 40
0.1963495408493654
 40
0.1963495408493654
 10
6.876808976534051
 20
2.434946893898276
 30
0.0
 41
1.0
 10
6.876808976534054
 20
2.559946893898285
 30
0.0
 41
0.7071067811864986
 10
7.001808976534051
 20
2.559946893898276
 30
0.0
 41
1.0
  0
POLYLINE
  5
25B
330
1F
100
AcDbEntity
  8
Default
100
AcDb2dPolyline
 66
     1
 10
0.0
 20
0.0
 30
0.0
  0
VERTEX
  5
25C
330
25B
100
AcDbEntity
  8
Default
100
AcDbVertex
100
AcDb2dVertex
 10
8.11118397653405
 20
0.842446893898277
 30
0.0
  0
VERTEX
  5
25D
330
25B
100
AcDbEntity
  8
Default
100
AcDbVertex
100
AcDb2dVertex
 10
7.392433976534051
 20
0.842446893898277
 30
0.0
  0
VERTEX
  5
25E
330
25B
100
AcDbEntity
  8
Default
100
AcDbVertex
100
AcDb2dVertex
 10
7.392433976534051
 20
2.559946893898262
 30
0.0
  0
VERTEX
  5
25F
330
25B
100
AcDbEntity
  8
Default
100
AcDbVertex
100
AcDb2dVertex
 10
8.11118397653405
 20
2.559946893898262
 30
0.0
  0
VERTEX
  5
260
330
25B
100
AcDbEntity
  8
Default
100
AcDbVertex
100
AcDb2dVertex
 10
8.11118397653405
 20
0.842446893898277
 30
0.0
  0
SEQEND
  5
261
330
25B
100
AcDbEntity
  8
Default
  0
SPLINE
  5
262
330
1F
100
AcDbEntity
  8
Default
100
AcDbSpline
210
0.0
220
0.0
230
1.0
 70
    24
 71
     2
 72
     6
 73
     3
 74
     0
 42
0.0000000001
 43
0.0000000001
 40
-0.34375
 40
-0.34375
 40
-0.34375
 40
0.0
 40
0.0
 40
0.0
 10
8.50180897653405
 20
2.559946893898276
 30
0.0
 10
8.32993397653405
 20
2.559946893898276
 30
0.0
 10
8.15805897653405
 20
2.559946893898276
 30
0.0
  0
SPLINE
  5
263
330
1F
100
AcDbEntity
  8
Default
100
AcDbSpline
210
0.0
220
0.0
230
1.0
 70
    12
 71
     2
 72
     8
 73
     5
 74
     0
 42
0.0000000001
 43
0.0000000001
 40
0.0
 40
0.0
 40
0.0
 40
0.0245437074331711
 40
0.0245437074331711
 40
0.0490874148663426
 40
0.0490874148663426
 40
0.0490874148663426
 10
8.15805897653405
 20
2.559946893898276
 30
0.0
 41
1.0
 10
8.145114794024428
 20
2.559946893898274
 30
0.0
 41
0.9238794417265827
 10
8.135961879137682
 20
2.550793970326082
 30
0.0
 41
1.0
 10
8.126808964250971
 20
2.541641046753887
 30
0.0
 41
0.9238794417264897
 10
8.12680897653405
 20
2.528696864244276
 30
0.0
 41
1.0
  0
SPLINE
  5
264
330
1F
100
AcDbEntity
  8
Default
100
AcDbSpline
210
0.0
220
0.0
230
1.0
 70
    24
 71
     2
 72
     6
 73
     3
 74
     0
 42
0.0000000001
 43
0.0000000001
 40
0.0
 40
0.0
 40
0.0
 40
2.492448632942286
 40
2.492448632942286
 40
2.492448632942286
 10
8.12680897653405
 20
2.528696864244276
 30
0.0
 10
8.12680897653405
 20
1.281209720835705
 30
0.0
 10
8.12680897653405
 20
0.0337225774271333
 30
0.0
  0
SPLINE
  5
265
330
1F
100
AcDbEntity
  8
Default
100
AcDbSpline
210
0.0
220
0.0
230
1.0
 70
    12
 71
     2
 72
     8
 73
     5
 74
     0
 42
0.0000000001
 43
0.0000000001
 40
0.0
 40
0.0
 40
0.0
 40
0.0245437074331714
 40
0.0245437074331714
 40
0.0490874148663431
 40
0.0490874148663431
 40
0.0490874148663431
 10
8.12680897653405
 20
0.0337225774271333
 30
0.0
 41
1.0
 10
8.12680896425096
 20
0.0182527410426657
 30
0.0
 41
0.9238794417265142
 10
8.135961879137682
 20
0.0090998174704703
 30
0.0
 41
1.0
 10
8.145114794024419
 20
-0.0000531061017242
 30
0.0
 41
0.9238794417265332
 10
8.15805897653405
 20
-0.0000531061017243
 30
0.0
 41
1.0
  0
SPLINE
  5
266
330
1F
100
AcDbEntity
  8
Default
100
AcDbSpline
210
0.0
220
0.0
230
1.0
 70
    24
 71
     2
 72
     6
 73
     3
 74
     0
 42
0.0000000001
 43
0.0000000001
 40
-0.34375
 40
-0.34375
 40
-0.34375
 40
0.0
 40
0.0
 40
0.0
 10
8.15805897653405
 20
-0.0000531061017243
 30
0.0
 10
8.32993397653405
 20
-0.0000531061017242
 30
0.0
 10
8.50180897653405
 20
-0.0000531061017242
 30
0.0
  0
SPLINE
  5
267
330
1F
100
AcDbEntity
  8
Default
100
AcDbSpline
210
0.0
220
0.0
230
1.0
 70
    12
 71
     2
 72
     6
 73
     3
 74
     0
 42
0.0000000001
 43
0.0000000001
 40
0.0
 40
0.0
 40
0.0
 40
0.1963495408493663
 40
0.1963495408493663
 40
0.1963495408493663
 10
8.50180897653405
 20
-0.0000531061017242
 30
0.0
 41
1.0
 10
8.626808976534061
 20
-0.000053106101733
 30
0.0
 41
0.7071067811864994
 10
8.62680897653405
 20
0.1249468938982758
 30
0.0
 41
1.0
  0
SPLINE
  5
268
330
1F
100
AcDbEntity
  8
Default
100
AcDbSpline
210
0.0
220
0.0
230
1.0
 70
    24
 71
     2
 72
     6
 73
     3
 74
     0
 42
0.0000000001
 43
0.0000000001
 40
0.0
 40
0.0
 40
0.0
 40
2.31
 40
2.31
 40
2.31
 10
8.62680897653405
 20
0.1249468938982758
 30
0.0
 10
8.62680897653405
 20
1.279946893898276
 30
0.0
 10
8.62680897653405
 20
2.434946893898276
 30
0.0
  0
SPLINE
  5
269
330
1F
100
AcDbEntity
  8
Default
100
AcDbSpline
210
0.0
220
0.0
230
1.0
 70
    12
 71
     2
 72
     6
 73
     3
 74
     0
 42
0.0000000001
 43
0.0000000001
 40
0.0
 40
0.0
 40
0.0
 40
0.1963495408493654
 40
0.1963495408493654
 40
0.1963495408493654
 10
8.62680897653405
 20
2.434946893898276
 30
0.0
 41
1.0
 10
8.626808976534049
 20
2.559946893898285
 30
0.0
 41
0.7071067811864986
 10
8.50180897653405
 20
2.559946893898276
 30
0.0
 41
1.0
  0
SPLINE
  5
26A
330
1F
100
AcDbEntity
  8
Default
100
AcDbSpline
210
0.0
220
0.0
230
1.0
 70
    24
 71
     2
 72
     6
 73
     3
 74
     0
 42
0.0000000001
 43
0.0000000001
 40
-0.0829573442459228
 40
-0.0829573442459228
 40
-0.0829573442459228
 40
0.0
 40
0.0
 40
0.0
 10
7.408058976533965
 20
2.559946893898262
 30
0.0
 10
7.401655628531941
 20
2.60153135753627
 30
0.0
 10
7.395252280529917
 20
2.643115821174277
 30
0.0
  0
LINE
  5
26B
330
1F
100
AcDbEntity
  8
Default
100
AcDbLine
 10
7.395252280529917
 20
2.643115821174277
 30
0.0
 11
8.108554121409384
 21
2.643115821099778
 31
0.0
  0
SPLINE
  5
26C
330
1F
100
AcDbEntity
  8
Default
100
AcDbSpline
210
0.0
220
0.0
230
1.0
 70
    24
 71
     2
 72
     6
 73
     3
 74
     0
 42
0.0000000001
 43
0.0000000001
 40
-0.0829573442459228
 40
-0.0829573442459228
 40
-0.0829573442459228
 40
0.0
 40
0.0
 40
0.0
 10
8.108554121409384
 20
2.643115821099778
 30
0.0
 10
8.10205654897176
 20
2.60153135749902
 30
0.0
 10
8.095558976534136
 20
2.559946893898262
 30
0.0
  0
SPLINE
  5
26D
330
1F
100
AcDbEntity
  8
Default
100
AcDbSpline
210
0.0
220
0.0
230
1.0
 70
    24
 71
     2
 72
     6
 73
     3
 74
     0
 42
0.0000000001
 43
0.0000000001
 40
-0.34375
 40
-0.34375
 40
-0.34375
 40
0.0
 40
0.0
 40
0.0
 10
11.79265278193904
 20
2.559946893898276
 30
0.0
 10
11.96452778193904
 20
2.559946893898276
 30
0.0
 10
12.13640278193904
 20
2.559946893898276
 30
0.0
  0
SPLINE
  5
26E
330
1F
100
AcDbEntity
  8
Default
100
AcDbSpline
210
0.0
220
0.0
230
1.0
 70
    12
 71
     2
 72
     8
 73
     5
 74
     0
 42
0.0000000001
 43
0.0000000001
 40
0.0
 40
0.0
 40
0.0
 40
0.0245437074331711
 40
0.0245437074331711
 40
0.0490874148663426
 40
0.0490874148663426
 40
0.0490874148663426
 10
12.13640278193904
 20
2.559946893898276
 30
0.0
 41
1.0
 10
12.14934696444864
 20
2.559946893898274
 30
0.0
 41
0.9238794417265827
 10
12.15849987933541
 20
2.550793970326082
 30
0.0
 41
1.0
 10
12.16765279422211
 20
2.541641046753887
 30
0.0
 41
0.9238794417264897
 10
12.16765278193904
 20
2.528696864244276
 30
0.0
 41
1.0
  0
SPLINE
  5
26F
330
1F
100
AcDbEntity
  8
Default
100
AcDbSpline
210
0.0
220
0.0
230
1.0
 70
    24
 71
     2
 72
     6
 73
     3
 74
     0
 42
0.0000000001
 43
0.0000000001
 40
0.0
 40
0.0
 40
0.0
 40
2.492448632942286
 40
2.492448632942286
 40
2.492448632942286
 10
12.16765278193904
 20
2.528696864244276
 30
0.0
 10
12.16765278193904
 20
1.281209720835705
 30
0.0
 10
12.16765278193904
 20
0.0337225774271333
 30
0.0
  0
SPLINE
  5
270
330
1F
100
AcDbEntity
  8
Default
100
AcDbSpline
210
0.0
220
0.0
230
1.0
 70
    12
 71
     2
 72
     8
 73
     5
 74
     0
 42
0.0000000001
 43
0.0000000001
 40
0.0
 40
0.0
 40
0.0
 40
0.0245437074331714
 40
0.0245437074331714
 40
0.0490874148663431
 40
0.0490874148663431
 40
0.0490874148663431
 10
12.16765278193904
 20
0.0337225774271333
 30
0.0
 41
1.0
 10
12.16765279422212
 20
0.0182527410426657
 30
0.0
 41
0.9238794417265142
 10
12.15849987933541
 20
0.0090998174704703
 30
0.0
 41
1.0
 10
12.14934696444866
 20
-0.0000531061017242
 30
0.0
 41
0.9238794417265332
 10
12.13640278193904
 20
-0.0000531061017243
 30
0.0
 41
1.0
  0
SPLINE
  5
271
330
1F
100
AcDbEntity
  8
Default
100
AcDbSpline
210
0.0
220
0.0
230
1.0
 70
    24
 71
     2
 72
     6
 73
     3
 74
     0
 42
0.0000000001
 43
0.0000000001
 40
-0.34375
 40
-0.34375
 40
-0.34375
 40
0.0
 40
0.0
 40
0.0
 10
12.13640278193904
 20
-0.0000531061017243
 30
0.0
 10
11.96452778193904
 20
-0.0000531061017242
 30
0.0
 10
11.79265278193904
 20
-0.0000531061017242
 30
0.0
  0
SPLINE
  5
272
330
1F
100
AcDbEntity
  8
Default
100
AcDbSpline
210
0.0
220
0.0
230
1.0
 70
    12
 71
     2
 72
     6
 73
     3
 74
     0
 42
0.0000000001
 43
0.0000000001
 40
0.0
 40
0.0
 40
0.0
 40
0.1963495408493663
 40
0.1963495408493663
 40
0.1963495408493663
 10
11.79265278193904
 20
-0.0000531061017242
 30
0.0
 41
1.0
 10
11.66765278193903
 20
-0.000053106101733
 30
0.0
 41
0.7071067811864994
 10
11.66765278193904
 20
0.1249468938982758
 30
0.0
 41
1.0
  0
SPLINE
  5
273
330
1F
100
AcDbEntity
  8
Default
100
AcDbSpline
210
0.0
220
0.0
230
1.0
 70
    24
 71
     2
 72
     6
 73
     3
 74
     0
 42
0.0000000001
 43
0.0000000001
 40
0.0
 40
0.0
 40
0.0
 40
2.31
 40
2.31
 40
2.31
 10
11.66765278193904
 20
0.1249468938982758
 30
0.0
 10
11.66765278193904
 20
1.279946893898276
 30
0.0
 10
11.66765278193904
 20
2.434946893898276
 30
0.0
  0
SPLINE
  5
274
330
1F
100
AcDbEntity
  8
Default
100
AcDbSpline
210
0.0
220
0.0
230
1.0
 70
    12
 71
     2
 72
     6
 73
     3
 74
     0
 42
0.0000000001
 43
0.0000000001
 40
0.0
 40
0.0
 40
0.0
 40
0.1963495408493654
 40
0.1963495408493654
 40
0.1963495408493654
 10
11.66765278193904
 20
2.434946893898276
 30
0.0
 41
1.0
 10
11.66765278193904
 20
2.559946893898285
 30
0.0
 41
0.7071067811864986
 10
11.79265278193904
 20
2.559946893898276
 30
0.0
 41
1.0
  0
POLYLINE
  5
275
330
1F
100
AcDbEntity
  8
Default
100
AcDb2dPolyline
 66
     1
 10
0.0
 20
0.0
 30
0.0
  0
VERTEX
  5
276
330
275
100
AcDbEntity
  8
Default
100
AcDbVertex
100
AcDb2dVertex
 10
12.90202778193904
 20
0.842446893898277
 30
0.0
  0
VERTEX
  5
277
330
275
100
AcDbEntity
  8
Default
100
AcDbVertex
100
AcDb2dVertex
 10
12.18327778193904
 20
0.842446893898277
 30
0.0
  0
VERTEX
  5
278
330
275
100
AcDbEntity
  8
Default
100
AcDbVertex
100
AcDb2dVertex
 10
12.18327778193904
 20
2.559946893898262
 30
0.0
  0
VERTEX
  5
279
330
275
100
AcDbEntity
  8
Default
100
AcDbVertex
100
AcDb2dVertex
 10
12.90202778193904
 20
2.559946893898262
 30
0.0
  0
VERTEX
  5
27A
330
275
100
AcDbEntity
  8
Default
100
AcDbVertex
100
AcDb2dVertex
 10
12.90202778193904
 20
0.842446893898277
 30
0.0
  0
SEQEND
  5
27B
330
275
100
AcDbEntity
  8
Default
  0
SPLINE
  5
27C
330
1F
100
AcDbEntity
  8
Default
100
AcDbSpline
210
0.0
220
0.0
230
1.0
 70
    24
 71
     2
 72
     6
 73
     3
 74
     0
 42
0.0000000001
 43
0.0000000001
 40
-0.34375
 40
-0.34375
 40
-0.34375
 40
0.0
 40
0.0
 40
0.0
 10
13.29265278193904
 20
2.559946893898276
 30
0.0
 10
13.12077778193904
 20
2.559946893898276
 30
0.0
 10
12.94890278193904
 20
2.559946893898276
 30
0.0
  0
SPLINE
  5
27D
330
1F
100
AcDbEntity
  8
Default
100
AcDbSpline
210
0.0
220
0.0
230
1.0
 70
    12
 71
     2
 72
     8
 73
     5
 74
     0
 42
0.0000000001
 43
0.0000000001
 40
0.0
 40
0.0
 40
0.0
 40
0.0245437074331711
 40
0.0245437074331711
 40
0.0490874148663426
 40
0.0490874148663426
 40
0.0490874148663426
 10
12.94890278193904
 20
2.559946893898276
 30
0.0
 41
1.0
 10
12.93595859942942
 20
2.559946893898274
 30
0.0
 41
0.9238794417265827
 10
12.92680568454267
 20
2.550793970326082
 30
0.0
 41
1.0
 10
12.91765276965596
 20
2.541641046753887
 30
0.0
 41
0.9238794417264897
 10
12.91765278193904
 20
2.528696864244276
 30
0.0
 41
1.0
  0
SPLINE
  5
27E
330
1F
100
AcDbEntity
  8
Default
100
AcDbSpline
210
0.0
220
0.0
230
1.0
 70
    24
 71
     2
 72
     6
 73
     3
 74
     0
 42
0.0000000001
 43
0.0000000001
 40
0.0
 40
0.0
 40
0.0
 40
2.492448632942286
 40
2.492448632942286
 40
2.492448632942286
 10
12.91765278193904
 20
2.528696864244276
 30
0.0
 10
12.91765278193904
 20
1.281209720835705
 30
0.0
 10
12.91765278193904
 20
0.0337225774271333
 30
0.0
  0
SPLINE
  5
27F
330
1F
100
AcDbEntity
  8
Default
100
AcDbSpline
210
0.0
220
0.0
230
1.0
 70
    12
 71
     2
 72
     8
 73
     5
 74
     0
 42
0.0000000001
 43
0.0000000001
 40
0.0
 40
0.0
 40
0.0
 40
0.0245437074331714
 40
0.0245437074331714
 40
0.0490874148663431
 40
0.0490874148663431
 40
0.0490874148663431
 10
12.91765278193904
 20
0.0337225774271333
 30
0.0
 41
1.0
 10
12.91765276965594
 20
0.0182527410426657
 30
0.0
 41
0.9238794417265142
 10
12.92680568454267
 20
0.0090998174704703
 30
0.0
 41
1.0
 10
12.93595859942943
 20
-0.0000531061017242
 30
0.0
 41
0.9238794417265332
 10
12.94890278193904
 20
-0.0000531061017243
 30
0.0
 41
1.0
  0
SPLINE
  5
280
330
1F
100
AcDbEntity
  8
Default
100
AcDbSpline
210
0.0
220
0.0
230
1.0
 70
    24
 71
     2
 72
     6
 73
     3
 74
     0
 42
0.0000000001
 43
0.0000000001
 40
-0.34375
 40
-0.34375
 40
-0.34375
 40
0.0
 40
0.0
 40
0.0
 10
12.94890278193904
 20
-0.0000531061017243
 30
0.0
 10
13.12077778193904
 20
-0.0000531061017242
 30
0.0
 10
13.29265278193904
 20
-0.0000531061017242
 30
0.0
  0
SPLINE
  5
281
330
1F
100
AcDbEntity
  8
Default
100
AcDbSpline
210
0.0
220
0.0
230
1.0
 70
    12
 71
     2
 72
     6
 73
     3
 74
     0
 42
0.0000000001
 43
0.0000000001
 40
0.0
 40
0.0
 40
0.0
 40
0.1963495408493663
 40
0.1963495408493663
 40
0.1963495408493663
 10
13.29265278193904
 20
-0.0000531061017242
 30
0.0
 41
1.0
 10
13.41765278193905
 20
-0.000053106101733
 30
0.0
 41
0.7071067811864994
 10
13.41765278193904
 20
0.1249468938982758
 30
0.0
 41
1.0
  0
SPLINE
  5
282
330
1F
100
AcDbEntity
  8
Default
100
AcDbSpline
210
0.0
220
0.0
230
1.0
 70
    24
 71
     2
 72
     6
 73
     3
 74
     0
 42
0.0000000001
 43
0.0000000001
 40
0.0
 40
0.0
 40
0.0
 40
2.31
 40
2.31
 40
2.31
 10
13.41765278193904
 20
0.1249468938982758
 30
0.0
 10
13.41765278193904
 20
1.279946893898276
 30
0.0
 10
13.41765278193904
 20
2.434946893898276
 30
0.0
  0
SPLINE
  5
283
330
1F
100
AcDbEntity
  8
Default
100
AcDbSpline
210
0.0
220
0.0
230
1.0
 70
    12
 71
     2
 72
     6
 73
     3
 74
     0
 42
0.0000000001
 43
0.0000000001
 40
0.0
 40
0.0
 40
0.0
 40
0.1963495408493654
 40
0.1963495408493654
 40
0.1963495408493654
 10
13.41765278193904
 20
2.434946893898276
 30
0.0
 41
1.0
 10
13.41765278193904
 20
2.559946893898285
 30
0.0
 41
0.7071067811864986
 10
13.29265278193904
 20
2.559946893898276
 30
0.0
 41
1.0
  0
SPLINE
  5
284
330
1F
100
AcDbEntity
  8
Default
100
AcDbSpline
210
0.0
220
0.0
230
1.0
 70
    24
 71
     2
 72
     6
 73
     3
 74
     0
 42
0.0000000001
 43
0.0000000001
 40
-0.0829573442459228
 40
-0.0829573442459228
 40
-0.0829573442459228
 40
0.0
 40
0.0
 40
0.0
 10
12.19890278193895
 20
2.559946893898262
 30
0.0
 10
12.19249943393694
 20
2.60153135753627
 30
0.0
 10
12.18609608593493
 20
2.643115821174277
 30
0.0
  0
LINE
  5
285
330
1F
100
AcDbEntity
  8
Default
100
AcDbLine
 10
12.18609608593493
 20
2.643115821174277
 30
0.0
 11
12.89939792681434
 21
2.643115821099778
 31
0.0
  0
SPLINE
  5
286
330
1F
100
AcDbEntity
  8
Default
100
AcDbSpline
210
0.0
220
0.0
230
1.0
 70
    24
 71
     2
 72
     6
 73
     3
 74
     0
 42
0.0000000001
 43
0.0000000001
 40
-0.0829573442459228
 40
-0.0829573442459228
 40
-0.0829573442459228
 40
0.0
 40
0.0
 40
0.0
 10
12.89939792681434
 20
2.643115821099778
 30
0.0
 10
12.89290035437674
 20
2.60153135749902
 30
0.0
 10
12.88640278193913
 20
2.559946893898262
 30
0.0
  0
SPLINE
  5
287
330
1F
100
AcDbEntity
  8
Default
100
AcDbSpline
210
0.0
220
0.0
230
1.0
 70
     8
 71
     3
 72
    11
 73
     7
 74
     0
 42
0.0000000001
 43
0.0000000001
 40
-4.0
 40
-4.0
 40
-4.0
 40
-4.0
 40
-3.0
 40
-2.0
 40
-1.0
 40
0.0
 40
0.0
 40
0.0
 40
0.0
 10
-0.9348604348886056
 20
5.138070241853397
 30
0.0
 10
-1.428496823963314
 20
4.977984846096359
 30
0.0
 10
-2.418505990125738
 20
4.666257898913494
 30
0.0
 10
-3.90115938487213
 20
4.190529425705536
 30
0.0
 10
-5.388555979861053
 20
3.732477998696673
 30
0.0
 10
-6.369078750582702
 20
3.385396957513028
 30
0.0
 10
-6.819406690389712
 20
3.123099426040508
 30
0.0
  0
SPLINE
  5
288
330
1F
100
AcDbEntity
  8
Default
100
AcDbSpline
210
0.0
220
0.0
230
1.0
 70
     8
 71
     3
 72
     8
 73
     4
 74
     0
 42
0.0000000001
 43
0.0000000001
 40
-1.0
 40
-1.0
 40
-1.0
 40
-1.0
 40
0.0
 40
0.0
 40
0.0
 40
0.0
 10
-6.819406690389712
 20
3.123099426040508
 30
0.0
 10
-6.900882832868831
 20
3.075642918999592
 30
0.0
 10
-6.953786706553615
 20
2.983516398749099
 30
0.0
 10
-6.987126924758655
 20
2.895318259858084
 30
0.0
  0
SPLINE
  5
289
330
1F
100
AcDbEntity
  8
Default
100
AcDbSpline
210
0.0
220
0.0
230
1.0
 70
    12
 71
     2
 72
     6
 73
     3
 74
     0
 42
0.0000000001
 43
0.0000000001
 40
0.0
 40
0.0
 40
0.0
 40
0.2250138153874603
 40
0.2250138153874603
 40
0.2250138153874603
 10
-6.987126924758655
 20
2.895318259858084
 30
0.0
 41
1.0
 10
-7.026909148349971
 20
2.790078454283954
 30
0.0
 41
0.9999859153302073
 10
-7.067905079519335
 20
2.685177665105012
 30
0.0
 41
1.0
  0
SPLINE
  5
28A
330
1F
100
AcDbEntity
  8
Default
100
AcDbSpline
210
0.0
220
0.0
230
1.0
 70
    12
 71
     2
 72
     6
 73
     3
 74
     0
 42
0.0000000001
 43
0.0000000001
 40
0.0
 40
0.0
 40
0.0
 40
0.0522878825032401
 40
0.0522878825032401
 40
0.0522878825032401
 10
-7.067905079519335
 20
2.685177665105012
 30
0.0
 41
1.0
 10
-7.082442601138738
 20
2.660213562733609
 30
0.0
 41
0.8689042862693989
 10
-7.111203084564949
 20
2.659947191610236
 30
0.0
 41
1.0
  0
POLYLINE
  5
28B
330
1F
100
AcDbEntity
  8
Default
100
AcDb2dPolyline
 66
     1
 10
0.0
 20
0.0
 30
0.0
  0
VERTEX
  5
28C
330
28B
100
AcDbEntity
  8
Default
100
AcDbVertex
100
AcDb2dVertex
 10
-7.111203084564949
 20
2.659947191610236
 30
0.0
  0
VERTEX
  5
28D
330
28B
100
AcDbEntity
  8
Default
100
AcDbVertex
100
AcDb2dVertex
 10
-8.335704636138786
 20
2.659946893905348
 30
0.0
  0
SEQEND
  5
28E
330
28B
100
AcDbEntity
  8
Default
  0
SPLINE
  5
28F
330
1F
100
AcDbEntity
  8
Default
100
AcDbSpline
210
0.0
220
0.0
230
1.0
 70
    12
 71
     2
 72
     8
 73
     5
 74
     0
 42
0.0000000001
 43
0.0000000001
 40
0.0
 40
0.0
 40
0.0
 40
0.0656121709207247
 40
0.0656121709207247
 40
0.1312243418414493
 40
0.1312243418414493
 40
0.1312243418414493
 10
-8.335704636138786
 20
2.659946893905348
 30
0.0
 41
1.0
 10
-8.370480109776883
 20
2.659967327545385
 30
0.0
 41
0.9171775841282426
 10
-8.394196980835716
 20
2.685400455773484
 30
0.0
 41
1.0
 10
-8.417913851894523
 20
2.710833584001583
 30
0.0
 41
0.9171775841282426
 10
-8.415504843517226
 20
2.745585784204976
 30
0.0
 41
1.0
  0
SPLINE
  5
290
330
1F
100
AcDbEntity
  8
Default
100
AcDbSpline
210
0.0
220
0.0
230
1.0
 70
    12
 71
     2
 72
     6
 73
     3
 74
     0
 42
0.0000000001
 43
0.0000000001
 40
0.0
 40
0.0
 40
0.0
 40
1.023755484296237
 40
1.023755484296237
 40
1.023755484296237
 10
-8.415504843517226
 20
2.745585784204976
 30
0.0
 41
1.0
 10
-8.377821297449351
 20
3.256134912681551
 30
0.0
 41
0.9999997309287173
 10
-8.339216990190039
 20
3.768740992289269
 30
0.0
 41
1.0
  0
ARC
  5
291
330
1F
100
AcDbEntity
  8
Default
100
AcDbCircle
 10
-7.988399059061294
 20
3.735448234009251
 30
0.0
 40
0.3523941380831402
100
AcDbArc
 50
144.1430963100957
 51
174.5788437728514
  0
ARC
  5
292
330
1F
100
AcDbEntity
  8
Default
100
AcDbCircle
 10
-7.994828724617321
 20
3.740095169268932
 30
0.0
 40
0.3444610046246585
100
AcDbArc
 50
140.3986852727055
 51
144.1430963100957
  0
SPLINE
  5
293
330
1F
100
AcDbEntity
  8
Default
100
AcDbSpline
210
0.0
220
0.0
230
1.0
 70
     8
 71
     3
 72
     9
 73
     5
 74
     0
 42
0.0000000001
 43
0.0000000001
 40
-2.0
 40
-2.0
 40
-2.0
 40
-2.0
 40
-1.0
 40
0.0
 40
0.0
 40
0.0
 40
0.0
 10
-2.653460336707809
 20
5.071380029004565
 30
0.0
 10
-3.531543541593891
 20
4.781223854784843
 30
0.0
 10
-5.267487036774526
 20
4.154702967093174
 30
0.0
 10
-7.053987324645504
 20
3.643703594429492
 30
0.0
 10
-7.8562195853535
 20
3.173997639544542
 30
0.0
  0
SPLINE
  5
294
330
1F
100
AcDbEntity
  8
Default
100
AcDbSpline
210
0.0
220
0.0
230
1.0
 70
     8
 71
     3
 72
    11
 73
     7
 74
     0
 42
0.0000000001
 43
0.0000000001
 40
-0.4854906778123655
 40
-0.4854906778123655
 40
-0.4854906778123655
 40
-0.4854906778123655
 40
-0.3387307467635205
 40
-0.2651640397401903
 40
-0.0791861104613142
 40
0.0
 40
0.0
 40
0.0
 40
0.0
 10
-7.8562195853535
 20
3.173997639544542
 30
0.0
 10
-7.925088573872756
 20
3.129487990998562
 30
0.0
 10
-7.972996411310049
 20
3.072038200887596
 30
0.0
 10
-8.033645602602832
 20
2.950824729636135
 30
0.0
 10
-8.07217876352749
 20
2.844396824067695
 30
0.0
 10
-8.11399464082723
 20
2.76629314164386
 30
0.0
 10
-8.129300323095464
 20
2.744731602445196
 30
0.0
  0
SPLINE
  5
295
330
1F
100
AcDbEntity
  8
Default
100
AcDbSpline
210
0.0
220
0.0
230
1.0
 70
    24
 71
     2
 72
     6
 73
     3
 74
     0
 42
0.0000000001
 43
0.0000000001
 40
0.0
 40
0.0
 40
0.0
 40
0.9288483722712422
 40
0.9288483722712422
 40
0.9288483722712422
 10
-0.8000168225590301
 20
2.549503942835036
 30
0.0
 10
-0.8000168225590301
 20
3.013928128970657
 30
0.0
 10
-0.8000168225590301
 20
3.478352315106278
 30
0.0
  0
SPLINE
  5
296
330
1F
100
AcDbEntity
  8
Default
100
AcDbSpline
210
0.0
220
0.0
230
1.0
 70
    12
 71
     2
 72
     6
 73
     3
 74
     0
 42
0.0000000001
 43
0.0000000001
 40
-0.0828722016194424
 40
-0.0828722016194424
 40
-0.0828722016194424
 40
0.0
 40
0.0
 40
0.0
 10
-0.8000168225590301
 20
3.478352315106278
 30
0.0
 41
1.0
 10
-0.8000168225590496
 20
3.519812146791343
 30
0.0
 41
0.9991416475977534
 10
-0.8034599114722027
 20
3.561263742971908
 30
0.0
 41
1.0
  0
SPLINE
  5
297
330
1F
100
AcDbEntity
  8
Default
100
AcDbSpline
210
0.0
220
0.0
230
1.0
 70
    24
 71
     2
 72
     6
 73
     3
 74
     0
 42
0.0000000001
 43
0.0000000001
 40
0.0
 40
0.0
 40
0.0
 40
1.652633987892294
 40
1.652633987892294
 40
1.652633987892294
 10
-0.8034599114722027
 20
3.561263742971908
 30
0.0
 10
-0.8720873791667003
 20
4.384793464248286
 30
0.0
 10
-0.9407148468611979
 20
5.208323185524665
 30
0.0
  0
SPLINE
  5
298
330
1F
100
AcDbEntity
  8
Default
100
AcDbSpline
210
0.0
220
0.0
230
1.0
 70
     8
 71
     3
 72
     9
 73
     5
 74
     0
 42
0.0000000001
 43
0.0000000001
 40
-2.0
 40
-2.0
 40
-2.0
 40
-2.0
 40
-1.0
 40
0.0
 40
0.0
 40
0.0
 40
0.0
 10
-0.6494938790219749
 20
2.943335346656817
 30
0.0
 10
-0.6548666052106569
 20
3.316243861862414
 30
0.0
 10
-0.7335419764343669
 20
4.057426804234192
 30
0.0
 10
-0.8233028506814435
 20
4.797017806995812
 30
0.0
 10
-0.8691516759483591
 20
5.171350010452219
 30
0.0
  0
SPLINE
  5
299
330
1F
100
AcDbEntity
  8
Default
100
AcDbSpline
210
0.0
220
0.0
230
1.0
 70
     8
 71
     3
 72
    12
 73
     8
 74
     0
 42
0.0000000001
 43
0.0000000001
 40
0.0
 40
0.0
 40
0.0
 40
0.0
 40
0.0762472758146101
 40
0.2174213754726994
 40
0.7112675176328244
 40
1.129739836349191
 40
1.563184277084196
 40
1.563184277084196
 40
1.563184277084196
 40
1.563184277084196
 10
-0.8691516759483591
 20
5.171350010452219
 30
0.0
 10
-0.8915949476885032
 20
5.192958294355519
 30
0.0
 10
-0.96180508653012
 20
5.214854859692292
 30
0.0
 10
-1.1980765484806
 20
5.236294615632063
 30
0.0
 10
-1.549661328639019
 20
5.232724479051253
 30
0.0
 10
-1.997544621518045
 20
5.204825938149194
 30
0.0
 10
-2.277237377806557
 20
5.150597406281805
 30
0.0
 10
-2.435513184737147
 20
5.115178962592115
 30
0.0
  0
SPLINE
  5
29A
330
1F
100
AcDbEntity
  8
Default
100
AcDbSpline
210
0.0
220
0.0
230
1.0
 70
     8
 71
     3
 72
     9
 73
     5
 74
     0
 42
0.0000000001
 43
0.0000000001
 40
-2.0
 40
-2.0
 40
-2.0
 40
-2.0
 40
-1.0
 40
0.0
 40
0.0
 40
0.0
 40
0.0
 10
-2.435513184737147
 20
5.115178962592115
 30
0.0
 10
-3.976769923485847
 20
4.813385925337393
 30
0.0
 10
-7.043757985679974
 20
4.149319877077017
 30
0.0
 10
-10.14955877529229
 20
3.636453926146709
 30
0.0
 10
-11.63785049034345
 20
3.124603974482453
 30
0.0
  0
SPLINE
  5
29B
330
1F
100
AcDbEntity
  8
Default
100
AcDbSpline
210
0.0
220
0.0
230
1.0
 70
     8
 71
     3
 72
    11
 73
     7
 74
     0
 42
0.0000000001
 43
0.0000000001
 40
0.0
 40
0.0
 40
0.0
 40
0.0
 40
0.0849541098213625
 40
0.1817376514505172
 40
0.265117739275689
 40
0.4157802434908372
 40
0.4157802434908372
 40
0.4157802434908372
 40
0.4157802434908372
 10
-11.63785049034345
 20
3.124603974482453
 30
0.0
 10
-11.74267737667915
 20
3.065946837826843
 30
0.0
 10
-11.77840396604125
 20
3.01691194628994
 30
0.0
 10
-11.81798554779823
 20
2.937226709581903
 30
0.0
 10
-11.84744754236536
 20
2.830813680804683
 30
0.0
 10
-11.86008914625242
 20
2.753705845799135
 30
0.0
 10
-11.86858869549366
 20
2.703291059662596
 30
0.0
  0
SPLINE
  5
29C
330
1F
100
AcDbEntity
  8
Default
100
AcDbSpline
210
0.0
220
0.0
230
1.0
 70
    12
 71
     2
 72
     6
 73
     3
 74
     0
 42
0.0000000001
 43
0.0000000001
 40
0.0
 40
0.0
 40
0.0
 40
0.0708374901125698
 40
0.0708374901125698
 40
0.0708374901125698
 10
-11.86858869549366
 20
2.703291059662596
 30
0.0
 41
1.0
 10
-11.87539622894319
 20
2.660143277794125
 30
0.0
 41
0.7616422102729029
 10
-11.91814180152215
 20
2.659946894564402
 30
0.0
 41
1.0
  0
POLYLINE
  5
29D
330
1F
100
AcDbEntity
  8
Default
100
AcDb2dPolyline
 66
     1
 10
0.0
 20
0.0
 30
0.0
  0
VERTEX
  5
29E
330
29D
100
AcDbEntity
  8
Default
100
AcDbVertex
100
AcDb2dVertex
 10
-11.91814180152215
 20
2.659946894564402
 30
0.0
  0
VERTEX
  5
29F
330
29D
100
AcDbEntity
  8
Default
100
AcDbVertex
100
AcDb2dVertex
 10
-13.12933329540235
 20
2.659984368378235
 30
0.0
  0
SEQEND
  5
2A0
330
29D
100
AcDbEntity
  8
Default
  0
SPLINE
  5
2A1
330
1F
100
AcDbEntity
  8
Default
100
AcDbSpline
210
0.0
220
0.0
230
1.0
 70
    12
 71
     2
 72
     8
 73
     5
 74
     0
 42
0.0000000001
 43
0.0000000001
 40
0.0
 40
0.0
 40
0.0
 40
0.0644169010726275
 40
0.0644169010726275
 40
0.1288338021452549
 40
0.1288338021452549
 40
0.1288338021452549
 10
-13.12933329540235
 20
2.659984368378235
 30
0.0
 41
1.0
 10
-13.16338511716486
 20
2.661018963292989
 30
0.0
 41
0.920118721993147
 10
-13.18624545472034
 20
2.686277663157282
 30
0.0
 41
1.0
 10
-13.20910579227577
 20
2.711536363021576
 30
0.0
 41
0.920118721993147
 10
-13.20674437162475
 20
2.745592991523251
 30
0.0
 41
1.0
  0
SPLINE
  5
2A2
330
1F
100
AcDbEntity
  8
Default
100
AcDbSpline
210
0.0
220
0.0
230
1.0
 70
    12
 71
     2
 72
     6
 73
     3
 74
     0
 42
0.0000000001
 43
0.0000000001
 40
0.0
 40
0.0
 40
0.0
 40
0.9581386465001401
 40
0.9581386465001401
 40
0.9581386465001401
 10
-13.20674437162475
 20
2.745592991523251
 30
0.0
 41
1.0
 10
-13.17262557987482
 20
3.22351686677312
 30
0.0
 41
0.9999999859440947
 10
-13.13828050650324
 20
3.702266226926972
 30
0.0
 41
1.0
  0
SPLINE
  5
2A3
330
1F
100
AcDbEntity
  8
Default
100
AcDbSpline
210
0.0
220
0.0
230
1.0
 70
    12
 71
     2
 72
     6
 73
     3
 74
     0
 42
0.0000000001
 43
0.0000000001
 40
0.0
 40
0.0
 40
0.0
 40
0.2655856029909658
 40
0.2655856029909658
 40
0.2655856029909658
 10
-13.13828050650324
 20
3.702266226926972
 30
0.0
 41
1.0
 10
-13.12313447385114
 20
3.844869685737529
 30
0.0
 41
0.9009240396863017
 10
-13.00293722273733
 20
3.921404535321774
 30
0.0
 41
1.0
  0
ARC
  5
2A4
330
1F
100
AcDbEntity
  8
Default
100
AcDbCircle
 10
-11.31815004286636
 20
1.547497346091061
 30
0.0
 40
2.911003810464506
100
AcDbArc
 50
107.9406916531825
 51
125.3637275571264
  0
LINE
  5
2A5
330
1F
100
AcDbEntity
  8
Default
100
AcDbLine
 10
-12.21483343328234
 20
4.316956152769897
 30
0.0
 11
-2.769787294947577
 21
7.16502470533583
 31
0.0
  0
SPLINE
  5
2A6
330
1F
100
AcDbEntity
  8
Default
100
AcDbSpline
210
0.0
220
0.0
230
1.0
 70
     8
 71
     3
 72
     8
 73
     4
 74
     0
 42
0.0000000001
 43
0.0000000001
 40
0.0
 40
0.0
 40
0.0
 40
0.0
 40
1.0
 40
1.0
 40
1.0
 40
1.0
 10
-2.769787294947577
 20
7.16502470533583
 30
0.0
 10
-2.404232906566392
 20
7.275254337097533
 30
0.0
 10
-2.048667985654276
 20
7.433075841274553
 30
0.0
 10
-1.670826034641578
 20
7.487994350340211
 30
0.0
  0
SPLINE
  5
2A7
330
1F
100
AcDbEntity
  8
Default
100
AcDbSpline
210
0.0
220
0.0
230
1.0
 70
    12
 71
     2
 72
     6
 73
     3
 74
     0
 42
0.0000000001
 43
0.0000000001
 40
0.0
 40
0.0
 40
0.0
 40
0.6278042356401607
 40
0.6278042356401607
 40
0.6278042356401607
 10
-1.670826034641578
 20
7.487994350340211
 30
0.0
 41
1.0
 10
-1.360112358375939
 20
7.533155910090481
 30
0.0
 41
0.999634701259968
 10
-1.047412332379736
 20
7.561462249302182
 30
0.0
 41
1.0
  0
POLYLINE
  5
2A8
330
1F
100
AcDbEntity
  8
Default
100
AcDb2dPolyline
 66
     1
 10
0.0
 20
0.0
 30
0.0
  0
VERTEX
  5
2A9
330
2A8
100
AcDbEntity
  8
Default
100
AcDbVertex
100
AcDb2dVertex
 10
-1.047412332379736
 20
7.561462249302182
 30
0.0
  0
VERTEX
  5
2AA
330
2A8
100
AcDbEntity
  8
Default
100
AcDbVertex
100
AcDb2dVertex
 10
1.047412332379736
 20
7.561462249302182
 30
0.0
  0
SEQEND
  5
2AB
330
2A8
100
AcDbEntity
  8
Default
  0
SPLINE
  5
2AC
330
1F
100
AcDbEntity
  8
Default
100
AcDbSpline
210
0.0
220
0.0
230
1.0
 70
    12
 71
     2
 72
     6
 73
     3
 74
     0
 42
0.0000000001
 43
0.0000000001
 40
-0.6278042356401607
 40
-0.6278042356401607
 40
-0.6278042356401607
 40
0.0
 40
0.0
 40
0.0
 10
1.047412332379736
 20
7.561462249302182
 30
0.0
 41
1.0
 10
1.360112358375935
 20
7.533155910090481
 30
0.0
 41
0.999634701259968
 10
1.670826034641578
 20
7.487994350340211
 30
0.0
 41
1.0
  0
SPLINE
  5
2AD
330
1F
100
AcDbEntity
  8
Default
100
AcDbSpline
210
0.0
220
0.0
230
1.0
 70
     8
 71
     3
 72
     8
 73
     4
 74
     0
 42
0.0000000001
 43
0.0000000001
 40
-1.0
 40
-1.0
 40
-1.0
 40
-1.0
 40
0.0
 40
0.0
 40
0.0
 40
0.0
 10
1.670826034641578
 20
7.487994350340211
 30
0.0
 10
2.048667985654276
 20
7.433075841274553
 30
0.0
 10
2.404232906566392
 20
7.275254337097533
 30
0.0
 10
2.769787294947577
 20
7.16502470533583
 30
0.0
  0
LINE
  5
2AE
330
1F
100
AcDbEntity
  8
Default
100
AcDbLine
 10
2.769787294947577
 20
7.16502470533583
 30
0.0
 11
12.21483343328234
 21
4.316956152769897
 31
0.0
  0
ARC
  5
2AF
330
1F
100
AcDbEntity
  8
Default
100
AcDbCircle
 10
11.31815004286636
 20
1.547497346091061
 30
0.0
 40
2.911003810464506
100
AcDbArc
 50
54.63627244287359
 51
72.05930834681746
  0
SPLINE
  5
2B0
330
1F
100
AcDbEntity
  8
Default
100
AcDbSpline
210
0.0
220
0.0
230
1.0
 70
    12
 71
     2
 72
     6
 73
     3
 74
     0
 42
0.0000000001
 43
0.0000000001
 40
-0.2655856029909658
 40
-0.2655856029909658
 40
-0.2655856029909658
 40
0.0
 40
0.0
 40
0.0
 10
13.00293722273733
 20
3.921404535321774
 30
0.0
 41
1.0
 10
13.12313447385114
 20
3.844869685737529
 30
0.0
 41
0.9009240396863017
 10
13.13828050650324
 20
3.702266226926972
 30
0.0
 41
1.0
  0
SPLINE
  5
2B1
330
1F
100
AcDbEntity
  8
Default
100
AcDbSpline
210
0.0
220
0.0
230
1.0
 70
    12
 71
     2
 72
     6
 73
     3
 74
     0
 42
0.0000000001
 43
0.0000000001
 40
-0.9581386465001401
 40
-0.9581386465001401
 40
-0.9581386465001401
 40
0.0
 40
0.0
 40
0.0
 10
13.13828050650324
 20
3.702266226926972
 30
0.0
 41
1.0
 10
13.17262557987483
 20
3.22351686677312
 30
0.0
 41
0.9999999859440947
 10
13.20674437162475
 20
2.745592991523251
 30
0.0
 41
1.0
  0
SPLINE
  5
2B2
330
1F
100
AcDbEntity
  8
Default
100
AcDbSpline
210
0.0
220
0.0
230
1.0
 70
    12
 71
     2
 72
     8
 73
     5
 74
     0
 42
0.0000000001
 43
0.0000000001
 40
-0.1288338021452549
 40
-0.1288338021452549
 40
-0.1288338021452549
 40
-0.0644169010726275
 40
-0.0644169010726275
 40
0.0
 40
0.0
 40
0.0
 10
13.20674437162475
 20
2.745592991523251
 30
0.0
 41
1.0
 10
13.20910579227581
 20
2.711536363021576
 30
0.0
 41
0.920118721993147
 10
13.18624545472034
 20
2.686277663157282
 30
0.0
 41
1.0
 10
13.1633851171649
 20
2.661018963292989
 30
0.0
 41
0.920118721993147
 10
13.12933329540235
 20
2.659984368378235
 30
0.0
 41
1.0
  0
POLYLINE
  5
2B3
330
1F
100
AcDbEntity
  8
Default
100
AcDb2dPolyline
 66
     1
 10
0.0
 20
0.0
 30
0.0
  0
VERTEX
  5
2B4
330
2B3
100
AcDbEntity
  8
Default
100
AcDbVertex
100
AcDb2dVertex
 10
13.12933329540235
 20
2.659984368378235
 30
0.0
  0
VERTEX
  5
2B5
330
2B3
100
AcDbEntity
  8
Default
100
AcDbVertex
100
AcDb2dVertex
 10
11.91814180152215
 20
2.659946894564402
 30
0.0
  0
SEQEND
  5
2B6
330
2B3
100
AcDbEntity
  8
Default
  0
SPLINE
  5
2B7
330
1F
100
AcDbEntity
  8
Default
100
AcDbSpline
210
0.0
220
0.0
230
1.0
 70
    12
 71
     2
 72
     6
 73
     3
 74
     0
 42
0.0000000001
 43
0.0000000001
 40
-0.0708374901125698
 40
-0.0708374901125698
 40
-0.0708374901125698
 40
0.0
 40
0.0
 40
0.0
 10
11.91814180152215
 20
2.659946894564402
 30
0.0
 41
1.0
 10
11.87539622894318
 20
2.660143277794125
 30
0.0
 41
0.7616422102729029
 10
11.86858869549366
 20
2.703291059662596
 30
0.0
 41
1.0
  0
SPLINE
  5
2B8
330
1F
100
AcDbEntity
  8
Default
100
AcDbSpline
210
0.0
220
0.0
230
1.0
 70
     8
 71
     3
 72
    11
 73
     7
 74
     0
 42
0.0000000001
 43
0.0000000001
 40
-0.4157802434908372
 40
-0.4157802434908372
 40
-0.4157802434908372
 40
-0.4157802434908372
 40
-0.265117739275689
 40
-0.1817376514505172
 40
-0.0849541098213625
 40
0.0
 40
0.0
 40
0.0
 40
0.0
 10
11.86858869549366
 20
2.703291059662596
 30
0.0
 10
11.86008914625242
 20
2.753705845799135
 30
0.0
 10
11.84744754236536
 20
2.830813680804683
 30
0.0
 10
11.81798554779823
 20
2.937226709581903
 30
0.0
 10
11.77840396604125
 20
3.01691194628994
 30
0.0
 10
11.74267737667915
 20
3.065946837826843
 30
0.0
 10
11.63785049034345
 20
3.124603974482453
 30
0.0
  0
SPLINE
  5
2B9
330
1F
100
AcDbEntity
  8
Default
100
AcDbSpline
210
0.0
220
0.0
230
1.0
 70
     8
 71
     3
 72
     9
 73
     5
 74
     0
 42
0.0000000001
 43
0.0000000001
 40
0.0
 40
0.0
 40
0.0
 40
0.0
 40
1.0
 40
2.0
 40
2.0
 40
2.0
 40
2.0
 10
11.63785049034345
 20
3.124603974482453
 30
0.0
 10
10.14955877529229
 20
3.636453926146709
 30
0.0
 10
7.043757985679974
 20
4.149319877077017
 30
0.0
 10
3.976769923485847
 20
4.813385925337393
 30
0.0
 10
2.435513184737147
 20
5.115178962592115
 30
0.0
  0
SPLINE
  5
2BA
330
1F
100
AcDbEntity
  8
Default
100
AcDbSpline
210
0.0
220
0.0
230
1.0
 70
     8
 71
     3
 72
    12
 73
     8
 74
     0
 42
0.0000000001
 43
0.0000000001
 40
-1.563184277084196
 40
-1.563184277084196
 40
-1.563184277084196
 40
-1.563184277084196
 40
-1.129739836349191
 40
-0.7112675176328244
 40
-0.2174213754726994
 40
-0.0762472758146101
 40
0.0
 40
0.0
 40
0.0
 40
0.0
 10
2.435513184737147
 20
5.115178962592115
 30
0.0
 10
2.277237377806557
 20
5.150597406281805
 30
0.0
 10
1.997544621518045
 20
5.204825938149194
 30
0.0
 10
1.549661328639019
 20
5.232724479051253
 30
0.0
 10
1.1980765484806
 20
5.236294615632063
 30
0.0
 10
0.96180508653012
 20
5.214854859692292
 30
0.0
 10
0.8915949476885032
 20
5.192958294355519
 30
0.0
 10
0.8691516759483591
 20
5.171350010452219
 30
0.0
  0
SPLINE
  5
2BB
330
1F
100
AcDbEntity
  8
Default
100
AcDbSpline
210
0.0
220
0.0
230
1.0
 70
     8
 71
     3
 72
     9
 73
     5
 74
     0
 42
0.0000000001
 43
0.0000000001
 40
0.0
 40
0.0
 40
0.0
 40
0.0
 40
1.0
 40
2.0
 40
2.0
 40
2.0
 40
2.0
 10
0.8691516759483591
 20
5.171350010452219
 30
0.0
 10
0.8233028506814435
 20
4.797017806995812
 30
0.0
 10
0.7335419764343669
 20
4.057426804234192
 30
0.0
 10
0.6548666052106569
 20
3.316243861862414
 30
0.0
 10
0.6494938790219749
 20
2.943335346656817
 30
0.0
  0
SPLINE
  5
2BC
330
1F
100
AcDbEntity
  8
Default
100
AcDbSpline
210
0.0
220
0.0
230
1.0
 70
    24
 71
     2
 72
     6
 73
     3
 74
     0
 42
0.0000000001
 43
0.0000000001
 40
0.0
 40
0.0
 40
0.0
 40
0.9288483722712422
 40
0.9288483722712422
 40
0.9288483722712422
 10
0.8000168225590301
 20
2.549503942835036
 30
0.0
 10
0.8000168225590301
 20
3.013928128970657
 30
0.0
 10
0.8000168225590301
 20
3.478352315106278
 30
0.0
  0
SPLINE
  5
2BD
330
1F
100
AcDbEntity
  8
Default
100
AcDbSpline
210
0.0
220
0.0
230
1.0
 70
    12
 71
     2
 72
     6
 73
     3
 74
     0
 42
0.0000000001
 43
0.0000000001
 40
-0.0828722016194424
 40
-0.0828722016194424
 40
-0.0828722016194424
 40
0.0
 40
0.0
 40
0.0
 10
0.8000168225590301
 20
3.478352315106278
 30
0.0
 41
1.0
 10
0.8000168225590336
 20
3.519812146791343
 30
0.0
 41
0.9991416475977534
 10
0.8034599114722027
 20
3.561263742971908
 30
0.0
 41
1.0
  0
SPLINE
  5
2BE
330
1F
100
AcDbEntity
  8
Default
100
AcDbSpline
210
0.0
220
0.0
230
1.0
 70
    24
 71
     2
 72
     6
 73
     3
 74
     0
 42
0.0000000001
 43
0.0000000001
 40
0.0
 40
0.0
 40
0.0
 40
1.652633987892294
 40
1.652633987892294
 40
1.652633987892294
 10
0.8034599114722027
 20
3.561263742971908
 30
0.0
 10
0.8720873791667003
 20
4.384793464248286
 30
0.0
 10
0.9407148468611979
 20
5.208323185524665
 30
0.0
  0
SPLINE
  5
2BF
330
1F
100
AcDbEntity
  8
Default
100
AcDbSpline
210
0.0
220
0.0
230
1.0
 70
    24
 71
     2
 72
     6
 73
     3
 74
     0
 42
0.0000000001
 43
0.0000000001
 40
-1.10621948028922
 40
-1.10621948028922
 40
-1.10621948028922
 40
0.0
 40
0.0
 40
0.0
 10
-0.5861385881102876
 20
3.849052241434503
 30
0.0
 10
-0.6247345445592885
 20
3.297290756018364
 30
0.0
 10
-0.6633305010082893
 20
2.745529270602225
 30
0.0
  0
SPLINE
  5
2C0
330
1F
100
AcDbEntity
  8
Default
100
AcDbSpline
210
0.0
220
0.0
230
1.0
 70
    12
 71
     2
 72
     8
 73
     5
 74
     0
 42
0.0000000001
 43
0.0000000001
 40
0.0
 40
0.0
 40
0.0
 40
0.0656253115149627
 40
0.0656253115149627
 40
0.1312506230299254
 40
0.1312506230299254
 40
0.1312506230299254
 10
-0.6633305010082893
 20
2.745529270602225
 30
0.0
 41
1.0
 10
-0.6657578261506023
 20
2.710828519078336
 30
0.0
 41
0.9170577524687132
 10
-0.64203443855763
 20
2.685387706497314
 30
0.0
 41
1.0
 10
-0.6183110509646491
 20
2.659946893916291
 30
0.0
 41
0.9170577524687132
 10
-0.5835255070754215
 20
2.659946893898278
 30
0.0
 41
1.0
  0
POLYLINE
  5
2C1
330
1F
100
AcDbEntity
  8
Default
100
AcDb2dPolyline
 66
     1
 10
0.0
 20
0.0
 30
0.0
  0
VERTEX
  5
2C2
330
2C1
100
AcDbEntity
  8
Default
100
AcDbVertex
100
AcDb2dVertex
 10
-0.5835255070754215
 20
2.659946893898278
 30
0.0
  0
VERTEX
  5
2C3
330
2C1
100
AcDbEntity
  8
Default
100
AcDbVertex
100
AcDb2dVertex
 10
0.5835255070754215
 20
2.659946893898278
 30
0.0
  0
SEQEND
  5
2C4
330
2C1
100
AcDbEntity
  8
Default
  0
SPLINE
  5
2C5
330
1F
100
AcDbEntity
  8
Default
100
AcDbSpline
210
0.0
220
0.0
230
1.0
 70
    12
 71
     2
 72
     8
 73
     5
 74
     0
 42
0.0000000001
 43
0.0000000001
 40
-0.1312506230299254
 40
-0.1312506230299254
 40
-0.1312506230299254
 40
-0.0656253115149627
 40
-0.0656253115149627
 40
0.0
 40
0.0
 40
0.0
 10
0.5835255070754215
 20
2.659946893898278
 30
0.0
 41
1.0
 10
0.6183110509646551
 20
2.659946893916291
 30
0.0
 41
0.9170577524687132
 10
0.64203443855763
 20
2.685387706497314
 30
0.0
 41
1.0
 10
0.6657578261505774
 20
2.710828519078336
 30
0.0
 41
0.9170577524687132
 10
0.6633305010082893
 20
2.745529270602225
 30
0.0
 41
1.0
  0
SPLINE
  5
2C6
330
1F
100
AcDbEntity
  8
Default
100
AcDbSpline
210
0.0
220
0.0
230
1.0
 70
    24
 71
     2
 72
     6
 73
     3
 74
     0
 42
0.0000000001
 43
0.0000000001
 40
0.0
 40
0.0
 40
0.0
 40
1.10621948028922
 40
1.10621948028922
 40
1.10621948028922
 10
0.6633305010082893
 20
2.745529270602225
 30
0.0
 10
0.6247345445592885
 20
3.297290756018364
 30
0.0
 10
0.5861385881102876
 20
3.849052241434503
 30
0.0
  0
SPLINE
  5
2C7
330
1F
100
AcDbEntity
  8
Default
100
AcDbSpline
210
0.0
220
0.0
230
1.0
 70
     8
 71
     3
 72
    11
 73
     7
 74
     0
 42
0.0000000001
 43
0.0000000001
 40
-4.0
 40
-4.0
 40
-4.0
 40
-4.0
 40
-3.0
 40
-2.0
 40
-1.0
 40
0.0
 40
0.0
 40
0.0
 40
0.0
 10
0.9348604348886056
 20
5.138070241853397
 30
0.0
 10
1.428496823963314
 20
4.977984846096359
 30
0.0
 10
2.418505990125738
 20
4.666257898913494
 30
0.0
 10
3.90115938487213
 20
4.190529425705536
 30
0.0
 10
5.388555979861053
 20
3.732477998696673
 30
0.0
 10
6.369078750582702
 20
3.385396957513028
 30
0.0
 10
6.819406690389712
 20
3.123099426040508
 30
0.0
  0
SPLINE
  5
2C8
330
1F
100
AcDbEntity
  8
Default
100
AcDbSpline
210
0.0
220
0.0
230
1.0
 70
     8
 71
     3
 72
     8
 73
     4
 74
     0
 42
0.0000000001
 43
0.0000000001
 40
-1.0
 40
-1.0
 40
-1.0
 40
-1.0
 40
0.0
 40
0.0
 40
0.0
 40
0.0
 10
6.819406690389712
 20
3.123099426040508
 30
0.0
 10
6.900882832868831
 20
3.075642918999592
 30
0.0
 10
6.953786706553615
 20
2.983516398749099
 30
0.0
 10
6.987126924758655
 20
2.895318259858084
 30
0.0
  0
SPLINE
  5
2C9
330
1F
100
AcDbEntity
  8
Default
100
AcDbSpline
210
0.0
220
0.0
230
1.0
 70
    12
 71
     2
 72
     6
 73
     3
 74
     0
 42
0.0000000001
 43
0.0000000001
 40
0.0
 40
0.0
 40
0.0
 40
0.2250138153874603
 40
0.2250138153874603
 40
0.2250138153874603
 10
6.987126924758655
 20
2.895318259858084
 30
0.0
 41
1.0
 10
7.026909148349959
 20
2.790078454283954
 30
0.0
 41
0.9999859153302073
 10
7.067905079519335
 20
2.685177665105012
 30
0.0
 41
1.0
  0
SPLINE
  5
2CA
330
1F
100
AcDbEntity
  8
Default
100
AcDbSpline
210
0.0
220
0.0
230
1.0
 70
    12
 71
     2
 72
     6
 73
     3
 74
     0
 42
0.0000000001
 43
0.0000000001
 40
0.0
 40
0.0
 40
0.0
 40
0.0522878825032401
 40
0.0522878825032401
 40
0.0522878825032401
 10
7.067905079519335
 20
2.685177665105012
 30
0.0
 41
1.0
 10
7.08244260113875
 20
2.660213562733609
 30
0.0
 41
0.8689042862693989
 10
7.111203084564949
 20
2.659947191610236
 30
0.0
 41
1.0
  0
POLYLINE
  5
2CB
330
1F
100
AcDbEntity
  8
Default
100
AcDb2dPolyline
 66
     1
 10
0.0
 20
0.0
 30
0.0
  0
VERTEX
  5
2CC
330
2CB
100
AcDbEntity
  8
Default
100
AcDbVertex
100
AcDb2dVertex
 10
7.111203084564949
 20
2.659947191610236
 30
0.0
  0
VERTEX
  5
2CD
330
2CB
100
AcDbEntity
  8
Default
100
AcDbVertex
100
AcDb2dVertex
 10
8.335704636138786
 20
2.659946893905348
 30
0.0
  0
SEQEND
  5
2CE
330
2CB
100
AcDbEntity
  8
Default
  0
SPLINE
  5
2CF
330
1F
100
AcDbEntity
  8
Default
100
AcDbSpline
210
0.0
220
0.0
230
1.0
 70
    12
 71
     2
 72
     8
 73
     5
 74
     0
 42
0.0000000001
 43
0.0000000001
 40
0.0
 40
0.0
 40
0.0
 40
0.0656121709207247
 40
0.0656121709207247
 40
0.1312243418414493
 40
0.1312243418414493
 40
0.1312243418414493
 10
8.335704636138786
 20
2.659946893905348
 30
0.0
 41
1.0
 10
8.370480109776876
 20
2.659967327545385
 30
0.0
 41
0.9171775841282426
 10
8.394196980835716
 20
2.685400455773484
 30
0.0
 41
1.0
 10
8.417913851894516
 20
2.710833584001583
 30
0.0
 41
0.9171775841282426
 10
8.415504843517226
 20
2.745585784204976
 30
0.0
 41
1.0
  0
SPLINE
  5
2D0
330
1F
100
AcDbEntity
  8
Default
100
AcDbSpline
210
0.0
220
0.0
230
1.0
 70
    12
 71
     2
 72
     6
 73
     3
 74
     0
 42
0.0000000001
 43
0.0000000001
 40
0.0
 40
0.0
 40
0.0
 40
1.023755484296237
 40
1.023755484296237
 40
1.023755484296237
 10
8.415504843517226
 20
2.745585784204976
 30
0.0
 41
1.0
 10
8.377821297449344
 20
3.256134912681551
 30
0.0
 41
0.9999997309287173
 10
8.339216990190039
 20
3.768740992289269
 30
0.0
 41
1.0
  0
ARC
  5
2D1
330
1F
100
AcDbEntity
  8
Default
100
AcDbCircle
 10
7.988399059061294
 20
3.735448234009251
 30
0.0
 40
0.3523941380831402
100
AcDbArc
 50
5.421156227148632
 51
35.85690368990431
  0
ARC
  5
2D2
330
1F
100
AcDbEntity
  8
Default
100
AcDbCircle
 10
7.994828724617321
 20
3.740095169268932
 30
0.0
 40
0.3444610046246585
100
AcDbArc
 50
35.8569036899043
 51
39.60131472729449
  0
SPLINE
  5
2D3
330
1F
100
AcDbEntity
  8
Default
100
AcDbSpline
210
0.0
220
0.0
230
1.0
 70
     8
 71
     3
 72
     9
 73
     5
 74
     0
 42
0.0000000001
 43
0.0000000001
 40
-2.0
 40
-2.0
 40
-2.0
 40
-2.0
 40
-1.0
 40
0.0
 40
0.0
 40
0.0
 40
0.0
 10
2.653460336707809
 20
5.071380029004565
 30
0.0
 10
3.531543541593891
 20
4.781223854784843
 30
0.0
 10
5.267487036774526
 20
4.154702967093174
 30
0.0
 10
7.053987324645504
 20
3.643703594429492
 30
0.0
 10
7.8562195853535
 20
3.173997639544542
 30
0.0
  0
SPLINE
  5
2D4
330
1F
100
AcDbEntity
  8
Default
100
AcDbSpline
210
0.0
220
0.0
230
1.0
 70
     8
 71
     3
 72
    11
 73
     7
 74
     0
 42
0.0000000001
 43
0.0000000001
 40
-0.4854906778123655
 40
-0.4854906778123655
 40
-0.4854906778123655
 40
-0.4854906778123655
 40
-0.3387307467635205
 40
-0.2651640397401903
 40
-0.0791861104613142
 40
0.0
 40
0.0
 40
0.0
 40
0.0
 10
7.8562195853535
 20
3.173997639544542
 30
0.0
 10
7.925088573872756
 20
3.129487990998562
 30
0.0
 10
7.972996411310049
 20
3.072038200887596
 30
0.0
 10
8.033645602602832
 20
2.950824729636135
 30
0.0
 10
8.07217876352749
 20
2.844396824067695
 30
0.0
 10
8.11399464082723
 20
2.76629314164386
 30
0.0
 10
8.129300323095464
 20
2.744731602445196
 30
0.0
  0
ARC
  5
2D5
330
1F
100
AcDbEntity
  8
Default
100
AcDbCircle
 10
-0.0000024599721655
 20
3.169701009898791
 30
0.0
 40
0.9098637576825879
100
AcDbArc
 50
49.99539631686787
 51
130.0046036831318
  0
LINE
  5
2D6
330
1F
100
AcDbEntity
  8
Default
100
AcDbLine
 10
-0.5754663379735234
 20
3.87446578105477
 30
0.0
 11
-0.7459905706734844
 21
6.887409106657356
 31
0.0
  0
ARC
  5
2D7
330
1F
100
AcDbEntity
  8
Default
100
AcDbCircle
 10
-1.245191502467691
 20
6.859152608364398
 30
0.0
 40
0.5
100
AcDbArc
 50
3.239682193978395
 51
91.248787440504
  0
SPLINE
  5
2D8
330
1F
100
AcDbEntity
  8
Default
100
AcDbSpline
210
0.0
220
0.0
230
1.0
 70
    12
 71
     3
 72
    10
 73
     6
 74
     0
 42
0.0000000001
 43
0.0000000001
 40
0.0314139243557747
 40
0.0314139243557747
 40
0.0314139243557747
 40
0.0314139243557747
 40
0.4896359139069521
 40
0.4896359139069521
 40
1.0
 40
1.0
 40
1.0
 40
1.0
 10
-1.256088365922892
 20
7.359033852628312
 30
0.0
 41
1.0
 10
-1.430065917666582
 20
7.355241332610134
 30
0.0
 41
1.0
 10
-1.629352709067859
 20
7.3247059255205
 30
0.0
 41
1.0
 10
-2.088679978777805
 20
7.242732720686611
 30
0.0
 41
1.0
 10
-2.300283015828427
 20
7.190221857765362
 30
0.0
 41
1.0
 10
-2.57520333669413
 20
7.106839681732663
 30
0.0
 41
1.0
  0
SPLINE
  5
2D9
330
1F
100
AcDbEntity
  8
Default
100
AcDbSpline
210
0.0
220
0.0
230
1.0
 70
    12
 71
     2
 72
     6
 73
     3
 74
     0
 42
0.0000000001
 43
0.0000000001
 40
-9.876318496713573
 40
-9.876318496713573
 40
-9.876318496713573
 40
0.0
 40
0.0
 40
0.0
 10
-2.57520333669413
 20
7.106839681732663
 30
0.0
 41
1.0
 10
-7.30935308673825
 20
5.702118034339986
 30
0.0
 41
0.9999999999851298
 10
-12.04351815777619
 20
4.297448022235398
 30
0.0
 41
1.0
  0
SPLINE
  5
2DA
330
1F
100
AcDbEntity
  8
Default
100
AcDbSpline
210
0.0
220
0.0
230
1.0
 70
     8
 71
     3
 72
     9
 73
     5
 74
     0
 42
0.0000000001
 43
0.0000000001
 40
-2.0
 40
-2.0
 40
-2.0
 40
-2.0
 40
-1.000000000003721
 40
0.0
 40
0.0
 40
0.0
 40
0.0
 10
-12.04351815777619
 20
4.297448022235398
 30
0.0
 10
-12.2112886895174
 20
4.252758693548716
 30
0.0
 10
-12.51080014166547
 20
4.083746718321462
 30
0.0
 10
-12.81722150219832
 20
3.921795340302582
 30
0.0
 10
-12.98938971618597
 20
3.896902697860122
 30
0.0
  0
LINE
  5
2DB
330
1F
100
AcDbEntity
  8
Default
100
AcDbLine
 10
0.5754663379735234
 20
3.87446578105477
 30
0.0
 11
0.7459905706734844
 21
6.887409106657356
 31
0.0
  0
ARC
  5
2DC
330
1F
100
AcDbEntity
  8
Default
100
AcDbCircle
 10
1.245191502467691
 20
6.859152608364398
 30
0.0
 40
0.5
100
AcDbArc
 50
88.751212559496
 51
176.7603178060216
  0
SPLINE
  5
2DD
330
1F
100
AcDbEntity
  8
Default
100
AcDbSpline
210
0.0
220
0.0
230
1.0
 70
    12
 71
     3
 72
    10
 73
     6
 74
     0
 42
0.0000000001
 43
0.0000000001
 40
0.0314139243557747
 40
0.0314139243557747
 40
0.0314139243557747
 40
0.0314139243557747
 40
0.4896359139069521
 40
0.4896359139069521
 40
1.0
 40
1.0
 40
1.0
 40
1.0
 10
1.256088365922892
 20
7.359033852628312
 30
0.0
 41
1.0
 10
1.430065917666582
 20
7.355241332610134
 30
0.0
 41
1.0
 10
1.629352709067859
 20
7.3247059255205
 30
0.0
 41
1.0
 10
2.088679978777805
 20
7.242732720686611
 30
0.0
 41
1.0
 10
2.300283015828427
 20
7.190221857765362
 30
0.0
 41
1.0
 10
2.57520333669413
 20
7.106839681732663
 30
0.0
 41
1.0
  0
SPLINE
  5
2DE
330
1F
100
AcDbEntity
  8
Default
100
AcDbSpline
210
0.0
220
0.0
230
1.0
 70
    12
 71
     2
 72
     6
 73
     3
 74
     0
 42
0.0000000001
 43
0.0000000001
 40
-9.876318496713573
 40
-9.876318496713573
 40
-9.876318496713573
 40
0.0
 40
0.0
 40
0.0
 10
2.57520333669413
 20
7.106839681732663
 30
0.0
 41
1.0
 10
7.309353086738248
 20
5.702118034339986
 30
0.0
 41
0.9999999999851298
 10
12.04351815777619
 20
4.297448022235398
 30
0.0
 41
1.0
  0
SPLINE
  5
2DF
330
1F
100
AcDbEntity
  8
Default
100
AcDbSpline
210
0.0
220
0.0
230
1.0
 70
     8
 71
     3
 72
     9
 73
     5
 74
     0
 42
0.0000000001
 43
0.0000000001
 40
-2.0
 40
-2.0
 40
-2.0
 40
-2.0
 40
-1.000000000003721
 40
0.0
 40
0.0
 40
0.0
 40
0.0
 10
12.04351815777619
 20
4.297448022235398
 30
0.0
 10
12.2112886895174
 20
4.252758693548716
 30
0.0
 10
12.51080014166547
 20
4.083746718321462
 30
0.0
 10
12.81722150219832
 20
3.921795340302582
 30
0.0
 10
12.98938971618597
 20
3.896902697860122
 30
0.0
  0
ENDSEC
  0
SECTION
  2
OBJECTS
  0
DICTIONARY
  5
C
330
0
100
AcDbDictionary
281
     1
  3
ACAD_GROUP
350
D
  3
ACAD_LAYOUT
350
1A
  3
ACAD_MLEADERSTYLE
350
2E1
  3
ACAD_MLINESTYLE
350
17
  3
ACAD_PLOTSETTINGS
350
19
  3
ACAD_PLOTSTYLENAME
350
E
  3
ACAD_TABLESTYLE
350
2E0
  3
ACAD_VISUALSTYLE
350
2A
  0
DICTIONARY
  5
D
102
{ACAD_REACTORS
330
C
102
}
330
C
100
AcDbDictionary
281
     1
  0
DICTIONARY
  5
1A
102
{ACAD_REACTORS
330
C
102
}
330
C
100
AcDbDictionary
281
     1
  3
Layout1
350
1E
  3
Layout2
350
26
  3
Model
350
22
  0
DICTIONARY
  5
2E1
102
{ACAD_REACTORS
330
C
102
}
330
C
100
AcDbDictionary
281
     1
  0
DICTIONARY
  5
17
102
{ACAD_REACTORS
330
C
102
}
330
C
100
AcDbDictionary
281
     1
  3
Standard
350
18
  0
DICTIONARY
  5
19
102
{ACAD_REACTORS
330
C
102
}
330
C
100
AcDbDictionary
281
     1
  0
ACDBDICTIONARYWDFLT
  5
E
102
{ACAD_REACTORS
330
C
102
}
330
C
100
AcDbDictionary
281
     1
  3
Normal
350
F
100
AcDbDictionaryWithDefault
340
F
  0
DICTIONARY
  5
2E0
102
{ACAD_REACTORS
330
C
102
}
330
C
100
AcDbDictionary
281
     1
  0
DICTIONARY
  5
2A
102
{ACAD_REACTORS
330
C
102
}
330
C
100
AcDbDictionary
281
     1
  3
2dWireframe
350
2F
  3
3D Hidden
350
31
  3
3dWireframe
350
30
  3
Basic
350
32
  3
Brighten
350
36
  3
ColorChange
350
3A
  3
Conceptual
350
34
  3
Dim
350
35
  3
Facepattern
350
39
  3
Flat
350
2B
  3
FlatWithEdges
350
2C
  3
Gouraud
350
2D
  3
GouraudWithEdges
350
2E
  3
Linepattern
350
38
  3
Realistic
350
33
  3
Thicken
350
37
  0
LAYOUT
  5
1E
102
{ACAD_REACTORS
330
1A
102
}
330
1A
100
AcDbPlotSettings
  1

  2
none_device
  4

  6

 40
0.0
 41
0.0
 42
0.0
 43
0.0
 44
0.0
 45
0.0
 46
0.0
 47
0.0
 48
0.0
 49
0.0
140
0.0
141
0.0
142
1.0
143
1.0
 70
   688
 72
     0
 73
     0
 74
     5
  7

 75
    16
 76
     0
 77
     2
 78
   300
147
1.0
148
0.0
149
0.0
100
AcDbLayout
  1
Layout1
 70
     1
 71
     1
 10
0.0
 20
0.0
 11
12.0
 21
9.0
 12
0.0
 22
0.0
 32
0.0
 14
1.000000000000000E+20
 24
1.000000000000000E+20
 34
1.000000000000000E+20
 15
-1.000000000000000E+20
 25
-1.000000000000000E+20
 35
-1.000000000000000E+20
146
0.0
 13
0.0
 23
0.0
 33
0.0
 16
1.0
 26
0.0
 36
0.0
 17
0.0
 27
1.0
 37
0.0
 76
     0
330
1B
  0
LAYOUT
  5
26
102
{ACAD_REACTORS
330
1A
102
}
330
1A
100
AcDbPlotSettings
  1

  2
none_device
  4

  6

 40
0.0
 41
0.0
 42
0.0
 43
0.0
 44
0.0
 45
0.0
 46
0.0
 47
0.0
 48
0.0
 49
0.0
140
0.0
141
0.0
142
1.0
143
1.0
 70
   688
 72
     0
 73
     0
 74
     5
  7

 75
    16
 76
     0
 77
     2
 78
   300
147
1.0
148
0.0
149
0.0
100
AcDbLayout
  1
Layout2
 70
     1
 71
     2
 10
0.0
 20
0.0
 11
0.0
 21
0.0
 12
0.0
 22
0.0
 32
0.0
 14
0.0
 24
0.0
 34
0.0
 15
0.0
 25
0.0
 35
0.0
146
0.0
 13
0.0
 23
0.0
 33
0.0
 16
1.0
 26
0.0
 36
0.0
 17
0.0
 27
1.0
 37
0.0
 76
     0
330
23
  0
LAYOUT
  5
22
102
{ACAD_REACTORS
330
1A
102
}
330
1A
100
AcDbPlotSettings
  1

  2
none_device
  4

  6

 40
0.0
 41
0.0
 42
0.0
 43
0.0
 44
0.0
 45
0.0
 46
0.0
 47
0.0
 48
0.0
 49
0.0
140
0.0
141
0.0
142
1.0
143
1.0
 70
  1712
 72
     0
 73
     0
 74
     0
  7

 75
     0
 76
     0
 77
     2
 78
   300
147
1.0
148
0.0
149
0.0
100
AcDbLayout
  1
Model
 70
     1
 71
     0
 10
0.0
 20
0.0
 11
12.0
 21
9.0
 12
0.0
 22
0.0
 32
0.0
 14
-13.41765292011576
 24
-0.0000531061017243
 34
0.0
 15
43.3896534424236
 25
70.29053572520442
 35
0.0
146
0.0
 13
0.0
 23
0.0
 33
0.0
 16
1.0
 26
0.0
 36
0.0
 17
0.0
 27
1.0
 37
0.0
 76
     0
330
1F
331
29
  0
MLINESTYLE
  5
18
102
{ACAD_REACTORS
330
17
102
}
330
17
100
AcDbMlineStyle
  2
Standard
 70
     0
  3

 62
   256
 51
90.0
 52
90.0
 71
     2
 49
0.5
 62
   256
  6
BYLAYER
 49
-0.5
 62
   256
  6
BYLAYER
  0
ACDBPLACEHOLDER
  5
F
102
{ACAD_REACTORS
330
E
102
}
330
E
  0
VISUALSTYLE
  5
2F
102
{ACAD_REACTORS
330
2A
102
}
330
2A
100
AcDbVisualStyle
  2
2dWireframe
 70
     4
 71
     0
 72
     2
 73
     0
 90
        0
 40
-0.6
 41
-30.0
 62
     5
 63
     7
421
 16777215
 74
     1
 91
        4
 64
     7
 65
   257
 75
     1
175
     1
 42
1.0
 92
        0
 66
   257
 43
1.0
 76
     1
 77
     6
 78
     2
 67
     7
 79
     5
170
     0
171
     0
290
     0
174
     0
 93
        1
 44
0.0
173
     0
291
     0
 45
0.0
1001
ACAD
1000
AcDbSavedByObjectVersion
1070
     0
  0
VISUALSTYLE
  5
31
102
{ACAD_REACTORS
330
2A
102
}
330
2A
100
AcDbVisualStyle
  2
3D Hidden
 70
     6
 71
     1
 72
     2
 73
     2
 90
        0
 40
-0.6
 41
-30.0
 62
     5
 63
     7
421
 16777215
 74
     2
 91
        2
 64
     7
 65
   257
 75
     2
175
     1
 42
40.0
 92
        0
 66
   257
 43
1.0
 76
     1
 77
     6
 78
     2
 67
     7
 79
     3
170
     0
171
     0
290
     0
174
     0
 93
        1
 44
0.0
173
     0
291
     0
 45
0.0
1001
ACAD
1000
AcDbSavedByObjectVersion
1070
     0
  0
VISUALSTYLE
  5
30
102
{ACAD_REACTORS
330
2A
102
}
330
2A
100
AcDbVisualStyle
  2
3dWireframe
 70
     5
 71
     0
 72
     2
 73
     0
 90
        0
 40
-0.6
 41
-30.0
 62
     5
 63
     7
421
 16777215
 74
     1
 91
        4
 64
     7
 65
   257
 75
     1
175
     1
 42
1.0
 92
        0
 66
   257
 43
1.0
 76
     1
 77
     6
 78
     2
 67
     7
 79
     5
170
     0
171
     0
290
     0
174
     0
 93
        1
 44
0.0
173
     0
291
     0
 45
0.0
1001
ACAD
1000
AcDbSavedByObjectVersion
1070
     0
  0
VISUALSTYLE
  5
32
102
{ACAD_REACTORS
330
2A
102
}
330
2A
100
AcDbVisualStyle
  2
Basic
 70
     7
 71
     1
 72
     0
 73
     1
 90
        0
 40
-0.6
 41
-30.0
 62
     5
 63
     7
421
 16777215
 74
     0
 91
        4
 64
     7
 65
   257
 75
     1
175
     1
 42
1.0
 92
        8
 66
     7
 43
1.0
 76
     1
 77
     6
 78
     2
 67
     7
 79
     5
170
     0
171
     0
290
     0
174
     0
 93
        1
 44
0.0
173
     0
291
     1
 45
0.0
1001
ACAD
1000
AcDbSavedByObjectVersion
1070
     0
  0
VISUALSTYLE
  5
36
102
{ACAD_REACTORS
330
2A
102
}
330
2A
100
AcDbVisualStyle
  2
Brighten
 70
    12
 71
     2
 72
     2
 73
     0
 90
        0
 40
-0.6
 41
-30.0
 62
     5
 63
     7
421
 16777215
 74
     1
 91
        4
 64
     7
 65
   257
 75
     1
175
     1
 42
1.0
 92
        8
 66
     7
 43
1.0
 76
     1
 77
     6
 78
     2
 67
     7
 79
     5
170
     0
171
     0
290
     0
174
     0
 93
        1
 44
50.0
173
     0
291
     1
 45
0.0
1001
ACAD
1000
AcDbSavedByObjectVersion
1070
     0
  0
VISUALSTYLE
  5
3A
102
{ACAD_REACTORS
330
2A
102
}
330
2A
100
AcDbVisualStyle
  2
ColorChange
 70
    16
 71
     2
 72
     2
 73
     3
 90
        0
 40
-0.6
 41
-30.0
 62
     5
 63
     8
421
  8421504
 74
     1
 91
        4
 64
     7
 65
   257
 75
     1
175
     1
 42
1.0
 92
        8
 66
     8
424
  8421504
 43
1.0
 76
     1
 77
     6
 78
     2
 67
     7
 79
     5
170
     0
171
     0
290
     0
174
     0
 93
        1
 44
0.0
173
     0
291
     1
 45
0.0
1001
ACAD
1000
AcDbSavedByObjectVersion
1070
     0
  0
VISUALSTYLE
  5
34
102
{ACAD_REACTORS
330
2A
102
}
330
2A
100
AcDbVisualStyle
  2
Conceptual
 70
     9
 71
     3
 72
     2
 73
     0
 90
        0
 40
-0.6
 41
-30.0
 62
     5
 63
     7
421
 16777215
 74
     2
 91
        2
 64
     7
 65
   257
 75
     1
175
     1
 42
40.0
 92
        8
 66
     7
 43
1.0
 76
     1
 77
     6
 78
     2
 67
     7
 79
     3
170
     0
171
     0
290
     0
174
     0
 93
        1
 44
0.0
173
     0
291
     0
 45
0.0
1001
ACAD
1000
AcDbSavedByObjectVersion
1070
     0
  0
VISUALSTYLE
  5
35
102
{ACAD_REACTORS
330
2A
102
}
330
2A
100
AcDbVisualStyle
  2
Dim
 70
    11
 71
     2
 72
     2
 73
     0
 90
        0
 40
-0.6
 41
-30.0
 62
     5
 63
     7
421
 16777215
 74
     1
 91
        4
 64
     7
 65
   257
 75
     1
175
     1
 42
1.0
 92
        8
 66
     7
 43
1.0
 76
     1
 77
     6
 78
     2
 67
     7
 79
     5
170
     0
171
     0
290
     0
174
     0
 93
        1
 44
-50.0
173
     0
291
     1
 45
0.0
1001
ACAD
1000
AcDbSavedByObjectVersion
1070
     0
  0
VISUALSTYLE
  5
39
102
{ACAD_REACTORS
330
2A
102
}
330
2A
100
AcDbVisualStyle
  2
Facepattern
 70
    15
 71
     2
 72
     2
 73
     0
 90
        0
 40
-0.6
 41
-30.0
 62
     5
 63
     7
421
 16777215
 74
     1
 91
        4
 64
     7
 65
   257
 75
     1
175
     1
 42
1.0
 92
        8
 66
     7
 43
1.0
 76
     1
 77
     6
 78
     2
 67
     7
 79
     5
170
     0
171
     0
290
     0
174
     0
 93
        1
 44
0.0
173
     0
291
     1
 45
0.0
1001
ACAD
1000
AcDbSavedByObjectVersion
1070
     0
  0
VISUALSTYLE
  5
2B
102
{ACAD_REACTORS
330
2A
102
}
330
2A
100
AcDbVisualStyle
  2
Flat
 70
     0
 71
     2
 72
     1
 73
     1
 90
        2
 40
-0.6
 41
30.0
 62
     5
 63
     7
421
 16777215
 74
     0
 91
        4
 64
     7
 65
   257
 75
     1
175
     1
 42
1.0
 92
        8
 66
     7
 43
1.0
 76
     1
 77
     6
 78
     2
 67
     7
 79
     5
170
     0
171
     0
290
     0
174
     0
 93
       13
 44
0.0
173
     0
291
     1
 45
0.0
1001
ACAD
1000
AcDbSavedByObjectVersion
1070
     0
  0
VISUALSTYLE
  5
2C
102
{ACAD_REACTORS
330
2A
102
}
330
2A
100
AcDbVisualStyle
  2
FlatWithEdges
 70
     1
 71
     2
 72
     1
 73
     1
 90
        2
 40
-0.6
 41
30.0
 62
     5
 63
     7
421
 16777215
 74
     1
 91
        4
 64
     7
 65
   257
 75
     1
175
     1
 42
1.0
 92
        0
 66
   257
 43
1.0
 76
     1
 77
     6
 78
     2
 67
     7
 79
     5
170
     0
171
     0
290
     0
174
     0
 93
       13
 44
0.0
173
     0
291
     1
 45
0.0
1001
ACAD
1000
AcDbSavedByObjectVersion
1070
     0
  0
VISUALSTYLE
  5
2D
102
{ACAD_REACTORS
330
2A
102
}
330
2A
100
AcDbVisualStyle
  2
Gouraud
 70
     2
 71
     2
 72
     2
 73
     1
 90
        2
 40
-0.6
 41
30.0
 62
     5
 63
     7
421
 16777215
 74
     0
 91
        4
 64
     7
 65
   257
 75
     1
175
     1
 42
1.0
 92
        0
 66
     7
 43
1.0
 76
     1
 77
     6
 78
     2
 67
     7
 79
     5
170
     0
171
     0
290
     0
174
     0
 93
       13
 44
0.0
173
     0
291
     1
 45
0.0
1001
ACAD
1000
AcDbSavedByObjectVersion
1070
     0
  0
VISUALSTYLE
  5
2E
102
{ACAD_REACTORS
330
2A
102
}
330
2A
100
AcDbVisualStyle
  2
GouraudWithEdges
 70
     3
 71
     2
 72
     2
 73
     1
 90
        2
 40
-0.6
 41
30.0
 62
     5
 63
     7
421
 16777215
 74
     1
 91
        4
 64
     7
 65
   257
 75
     1
175
     1
 42
1.0
 92
        0
 66
   257
 43
1.0
 76
     1
 77
     6
 78
     2
 67
     7
 79
     5
170
     0
171
     0
290
     0
174
     0
 93
       13
 44
0.0
173
     0
291
     1
 45
0.0
1001
ACAD
1000
AcDbSavedByObjectVersion
1070
     0
  0
VISUALSTYLE
  5
38
102
{ACAD_REACTORS
330
2A
102
}
330
2A
100
AcDbVisualStyle
  2
Linepattern
 70
    14
 71
     2
 72
     2
 73
     0
 90
        0
 40
-0.6
 41
-30.0
 62
     5
 63
     7
421
 16777215
 74
     1
 91
        4
 64
     7
 65
   257
 75
     7
175
     7
 42
1.0
 92
        8
 66
     7
 43
1.0
 76
     1
 77
     6
 78
     2
 67
     7
 79
     5
170
     0
171
     0
290
     0
174
     0
 93
        1
 44
0.0
173
     0
291
     1
 45
0.0
1001
ACAD
1000
AcDbSavedByObjectVersion
1070
     0
  0
VISUALSTYLE
  5
33
102
{ACAD_REACTORS
330
2A
102
}
330
2A
100
AcDbVisualStyle
  2
Realistic
 70
     8
 71
     2
 72
     2
 73
     0
 90
        0
 40
-0.6
 41
-30.0
 62
     5
 63
     7
421
 16777215
 74
     1
 91
        0
 64
     7
 65
   257
 75
     1
175
     1
 42
1.0
 92
        8
 66
     8
424
  7895160
 43
1.0
 76
     1
 77
     6
 78
     2
 67
     7
 79
     5
170
     0
171
     0
290
     0
174
     0
 93
       13
 44
0.0
173
     0
291
     0
 45
0.0
1001
ACAD
1000
AcDbSavedByObjectVersion
1070
     0
  0
VISUALSTYLE
  5
37
102
{ACAD_REACTORS
330
2A
102
}
330
2A
100
AcDbVisualStyle
  2
Thicken
 70
    13
 71
     2
 72
     2
 73
     0
 90
        0
 40
-0.6
 41
-30.0
 62
     5
 63
     7
421
 16777215
 74
     1
 91
        4
 64
     7
 65
   257
 75
     1
175
     1
 42
1.0
 92
       12
 66
     7
 43
1.0
 76
     1
 77
     6
 78
     2
 67
     7
 79
     5
170
     0
171
     0
290
     0
174
     0
 93
        1
 44
0.0
173
     0
291
     1
 45
0.0
1001
ACAD
1000
AcDbSavedByObjectVersion
1070
     0
  0
ENDSEC
  0
EOF
