  0
SECTION
  2
HEADER
  9
$ACADVER
  1
AC1021
  9
$ACADMAINTVER
 70
    25
  9
$DWGCODEPAGE
  3
ANSI_1252
  9
$INSBASE
 10
0.0
 20
0.0
 30
0.0
  9
$EXTMIN
 10
1.000000000000000E+20
 20
1.000000000000000E+20
 30
1.000000000000000E+20
  9
$EXTMAX
 10
-1.000000000000000E+20
 20
-1.000000000000000E+20
 30
-1.000000000000000E+20
  9
$LIMMIN
 10
0.0
 20
0.0
  9
$LIMMAX
 10
12.0
 20
9.0
  9
$ORTHOMODE
 70
     0
  9
$REGENMODE
 70
     1
  9
$FILLMODE
 70
     1
  9
$QTEXTMODE
 70
     0
  9
$MIRRTEXT
 70
     1
  9
$LTSCALE
 40
1.0
  9
$ATTMODE
 70
     1
  9
$TEXTSIZE
 40
0.2
  9
$TRACEWID
 40
0.05
  9
$TEXTSTYLE
  7
Standard
  9
$CLAYER
  8
Layer 01
  9
$CELTYPE
  6
ByLayer
  9
$CECOLOR
 62
   256
  9
$CELTSCALE
 40
1.0
  9
$DISPSILH
 70
     0
  9
$DIMSCALE
 40
1.0
  9
$DIMASZ
 40
0.18
  9
$DIMEXO
 40
0.0625
  9
$DIMDLI
 40
0.38
  9
$DIMRND
 40
0.0
  9
$DIMDLE
 40
0.0
  9
$DIMEXE
 40
0.18
  9
$DIMTP
 40
0.0
  9
$DIMTM
 40
0.0
  9
$DIMTXT
 40
0.18
  9
$DIMCEN
 40
0.09
  9
$DIMTSZ
 40
0.0
  9
$DIMTOL
 70
     0
  9
$DIMLIM
 70
     0
  9
$DIMTIH
 70
     1
  9
$DIMTOH
 70
     1
  9
$DIMSE1
 70
     0
  9
$DIMSE2
 70
     0
  9
$DIMTAD
 70
     0
  9
$DIMZIN
 70
     0
  9
$DIMBLK
  1

  9
$DIMASO
 70
     1
  9
$DIMSHO
 70
     1
  9
$DIMPOST
  1

  9
$DIMAPOST
  1

  9
$DIMALT
 70
     0
  9
$DIMALTD
 70
     2
  9
$DIMALTF
 40
25.4
  9
$DIMLFAC
 40
1.0
  9
$DIMTOFL
 70
     0
  9
$DIMTVP
 40
0.0
  9
$DIMTIX
 70
     0
  9
$DIMSOXD
 70
     0
  9
$DIMSAH
 70
     0
  9
$DIMBLK1
  1

  9
$DIMBLK2
  1

  9
$DIMSTYLE
  2
STANDARD_ACAD
  9
$DIMCLRD
 70
     0
  9
$DIMCLRE
 70
     0
  9
$DIMCLRT
 70
     0
  9
$DIMTFAC
 40
1.0
  9
$DIMGAP
 40
0.09
  9
$DIMJUST
 70
     0
  9
$DIMSD1
 70
     0
  9
$DIMSD2
 70
     0
  9
$DIMTOLJ
 70
     1
  9
$DIMTZIN
 70
     0
  9
$DIMALTZ
 70
     0
  9
$DIMALTTZ
 70
     0
  9
$DIMUPT
 70
     0
  9
$DIMDEC
 70
     4
  9
$DIMTDEC
 70
     4
  9
$DIMALTU
 70
     2
  9
$DIMALTTD
 70
     2
  9
$DIMTXSTY
  7
Standard
  9
$DIMAUNIT
 70
     0
  9
$DIMADEC
 70
     0
  9
$DIMALTRND
 40
0.0
  9
$DIMAZIN
 70
     0
  9
$DIMDSEP
 70
    46
  9
$DIMATFIT
 70
     3
  9
$DIMFRAC
 70
     0
  9
$DIMLDRBLK
  1

  9
$DIMLUNIT
 70
     2
  9
$DIMLWD
 70
    -2
  9
$DIMLWE
 70
    -2
  9
$DIMTMOVE
 70
     2
  9
$DIMFXL
 40
1.0
  9
$DIMFXLON
 70
     0
  9
$DIMJOGANG
 40
0.7853981633974483
  9
$DIMTFILL
 70
     0
  9
$DIMTFILLCLR
 70
     0
  9
$DIMARCSYM
 70
     0
  9
$DIMLTYPE
  6

  9
$DIMLTEX1
  6

  9
$DIMLTEX2
  6

  9
$LUNITS
 70
     2
  9
$LUPREC
 70
     3
  9
$SKETCHINC
 40
0.1
  9
$FILLETRAD
 40
0.5
  9
$AUNITS
 70
     0
  9
$AUPREC
 70
     0
  9
$MENU
  1
.
  9
$ELEVATION
 40
0.0
  9
$PELEVATION
 40
0.0
  9
$THICKNESS
 40
0.0
  9
$LIMCHECK
 70
     0
  9
$CHAMFERA
 40
0.0
  9
$CHAMFERB
 40
0.0
  9
$CHAMFERC
 40
0.0
  9
$CHAMFERD
 40
0.0
  9
$SKPOLY
 70
     0
  9
$TDCREATE
 40
2460217.683924016
  9
$TDUCREATE
 40
2460217.850590683
  9
$TDUPDATE
 40
2460217.683939549
  9
$TDUUPDATE
 40
2460217.850606215
  9
$TDINDWG
 40
0.0000000116
  9
$TDUSRTIMER
 40
0.0000000116
  9
$USRTIMER
 70
     1
  9
$ANGBASE
 50
0.0
  9
$ANGDIR
 70
     0
  9
$PDMODE
 70
     0
  9
$PDSIZE
 40
0.0
  9
$PLINEWID
 40
0.0
  9
$SPLFRAME
 70
     0
  9
$SPLINETYPE
 70
     6
  9
$SPLINESEGS
 70
     8
  9
$HANDSEED
  5
10A
  9
$SURFTAB1
 70
     6
  9
$SURFTAB2
 70
     6
  9
$SURFTYPE
 70
     6
  9
$SURFU
 70
     6
  9
$SURFV
 70
     6
  9
$UCSBASE
  2

  9
$UCSNAME
  2

  9
$UCSORG
 10
0.0
 20
0.0
 30
0.0
  9
$UCSXDIR
 10
1.0
 20
0.0
 30
0.0
  9
$UCSYDIR
 10
0.0
 20
1.0
 30
0.0
  9
$UCSORTHOREF
  2

  9
$UCSORTHOVIEW
 70
     0
  9
$UCSORGTOP
 10
0.0
 20
0.0
 30
0.0
  9
$UCSORGBOTTOM
 10
0.0
 20
0.0
 30
0.0
  9
$UCSORGLEFT
 10
0.0
 20
0.0
 30
0.0
  9
$UCSORGRIGHT
 10
0.0
 20
0.0
 30
0.0
  9
$UCSORGFRONT
 10
0.0
 20
0.0
 30
0.0
  9
$UCSORGBACK
 10
0.0
 20
0.0
 30
0.0
  9
$PUCSBASE
  2

  9
$PUCSNAME
  2

  9
$PUCSORG
 10
0.0
 20
0.0
 30
0.0
  9
$PUCSXDIR
 10
1.0
 20
0.0
 30
0.0
  9
$PUCSYDIR
 10
0.0
 20
1.0
 30
0.0
  9
$PUCSORTHOREF
  2

  9
$PUCSORTHOVIEW
 70
     0
  9
$PUCSORGTOP
 10
0.0
 20
0.0
 30
0.0
  9
$PUCSORGBOTTOM
 10
0.0
 20
0.0
 30
0.0
  9
$PUCSORGLEFT
 10
0.0
 20
0.0
 30
0.0
  9
$PUCSORGRIGHT
 10
0.0
 20
0.0
 30
0.0
  9
$PUCSORGFRONT
 10
0.0
 20
0.0
 30
0.0
  9
$PUCSORGBACK
 10
0.0
 20
0.0
 30
0.0
  9
$USERI1
 70
     0
  9
$USERI2
 70
     0
  9
$USERI3
 70
     0
  9
$USERI4
 70
     0
  9
$USERI5
 70
     0
  9
$USERR1
 40
0.0
  9
$USERR2
 40
0.0
  9
$USERR3
 40
0.0
  9
$USERR4
 40
0.0
  9
$USERR5
 40
0.0
  9
$WORLDVIEW
 70
     1
  9
$SHADEDGE
 70
     3
  9
$SHADEDIF
 70
    70
  9
$TILEMODE
 70
     1
  9
$MAXACTVP
 70
    64
  9
$PINSBASE
 10
0.0
 20
0.0
 30
0.0
  9
$PLIMCHECK
 70
     0
  9
$PEXTMIN
 10
1.000000000000000E+20
 20
1.000000000000000E+20
 30
1.000000000000000E+20
  9
$PEXTMAX
 10
-1.000000000000000E+20
 20
-1.000000000000000E+20
 30
-1.000000000000000E+20
  9
$PLIMMIN
 10
0.0
 20
0.0
  9
$PLIMMAX
 10
12.0
 20
9.0
  9
$UNITMODE
 70
     0
  9
$VISRETAIN
 70
     1
  9
$PLINEGEN
 70
     0
  9
$PSLTSCALE
 70
     1
  9
$TREEDEPTH
 70
  3020
  9
$CMLSTYLE
  2
Standard
  9
$CMLJUST
 70
     0
  9
$CMLSCALE
 40
1.0
  9
$PROXYGRAPHICS
 70
     1
  9
$MEASUREMENT
 70
     0
  9
$CELWEIGHT
370
    -1
  9
$ENDCAPS
280
     0
  9
$JOINSTYLE
280
     0
  9
$LWDISPLAY
290
     0
  9
$INSUNITS
 70
     1
  9
$HYPERLINKBASE
  1

  9
$STYLESHEET
  1

  9
$XEDIT
290
     1
  9
$CEPSNTYPE
380
     0
  9
$PSTYLEMODE
290
     1
  9
$FINGERPRINTGUID
  2
{0c98e317-36aa-4adc-b156-9ed3a5b8bab2}
  9
$VERSIONGUID
  2
{FAEB1C32-E019-11D5-929B-00C0DF256EC4}
  9
$EXTNAMES
290
     1
  9
$PSVPSCALE
 40
0.0
  9
$OLESTARTUP
290
     0
  9
$SORTENTS
280
   127
  9
$INDEXCTL
280
     0
  9
$HIDETEXT
280
     1
  9
$XCLIPFRAME
290
     0
  9
$HALOGAP
280
     0
  9
$OBSCOLOR
 70
   257
  9
$OBSLTYPE
280
     0
  9
$INTERSECTIONDISPLAY
280
     0
  9
$INTERSECTIONCOLOR
 70
   257
  9
$DIMASSOC
280
     2
  9
$PROJECTNAME
  1

  9
$CAMERADISPLAY
290
     0
  9
$LENSLENGTH
 40
50.0
  9
$CAMERAHEIGHT
 40
0.0
  9
$STEPSPERSEC
 40
2.0
  9
$STEPSIZE
 40
6.0
  9
$3DDWFPREC
 40
2.0
  9
$PSOLWIDTH
 40
0.25
  9
$PSOLHEIGHT
 40
4.0
  9
$LOFTANG1
 40
1.570796326794897
  9
$LOFTANG2
 40
1.570796326794897
  9
$LOFTMAG1
 40
0.0
  9
$LOFTMAG2
 40
0.0
  9
$LOFTPARAM
 70
     7
  9
$LOFTNORMALS
280
     1
  9
$LATITUDE
 40
37.795
  9
$LONGITUDE
 40
-122.394
  9
$NORTHDIRECTION
 40
0.0
  9
$TIMEZONE
 70
 -8000
  9
$LIGHTGLYPHDISPLAY
280
     1
  9
$TILEMODELIGHTSYNCH
280
     1
  9
$CMATERIAL
347
44
  9
$SOLIDHIST
280
     0
  9
$SHOWHIST
280
     1
  9
$DWFFRAME
280
     2
  9
$DGNFRAME
280
     2
  9
$REALWORLDSCALE
290
     1
  9
$INTERFERECOLOR
 62
   256
  9
$CSHADOW
280
     0
  9
$SHADOWPLANELOCATION
 40
0.0
  0
ENDSEC
  0
SECTION
  2
CLASSES
  0
CLASS
  1
ACDBDICTIONARYWDFLT
  2
AcDbDictionaryWithDefault
  3
ObjectDBX Classes
 90
        0
 91
        3
280
     0
281
     0
  0
CLASS
  1
VISUALSTYLE
  2
AcDbVisualStyle
  3
ObjectDBX Classes
 90
     4095
 91
        3
280
     0
281
     0
  0
CLASS
  1
MATERIAL
  2
AcDbMaterial
  3
ObjectDBX Classes
 90
     1153
 91
        3
280
     0
281
     0
  0
CLASS
  1
SCALE
  2
AcDbScale
  3
ObjectDBX Classes
 90
     1153
 91
        3
280
     0
281
     0
  0
CLASS
  1
TABLESTYLE
  2
AcDbTableStyle
  3
ObjectDBX Classes
 90
     4095
 91
        3
280
     0
281
     0
  0
CLASS
  1
MLEADERSTYLE
  2
AcDbMLeaderStyle
  3
ACDB_MLEADERSTYLE_CLASS
 90
     4095
 91
        3
280
     0
281
     0
  0
CLASS
  1
SUN
  2
AcDbSun
  3
SCENEOE
 90
     1153
 91
        3
280
     0
281
     0
  0
CLASS
  1
DICTIONARYVAR
  2
AcDbDictionaryVar
  3
ObjectDBX Classes
 90
        0
 91
        3
280
     0
281
     0
  0
CLASS
  1
CELLSTYLEMAP
  2
AcDbCellStyleMap
  3
ObjectDBX Classes
 90
     1152
 91
        3
280
     0
281
     0
  0
ENDSEC
  0
SECTION
  2
TABLES
  0
TABLE
  2
VPORT
  5
8
330
0
100
AcDbSymbolTable
 70
     1
  0
VPORT
  5
29
330
8
100
AcDbSymbolTableRecord
100
AcDbViewportTableRecord
  2
*Active
 70
     0
 10
0.0
 20
0.0
 11
1.0
 21
1.0
 12
10.42990654205607
 22
4.5
 13
0.0
 23
0.0
 14
0.5
 24
0.5
 15
0.5
 25
0.5
 16
0.0
 26
0.0
 36
1.0
 17
0.0
 27
0.0
 37
0.0
 40
9.0
 41
1.972972972850329
 42
50.0
 43
0.0
 44
0.0
 50
0.0
 51
0.0
 71
     0
 72
   100
 73
     1
 74
     3
 75
     0
 76
     0
 77
     0
 78
     0
281
     0
 65
     1
110
0.0
120
0.0
130
0.0
111
1.0
121
0.0
131
0.0
112
0.0
122
1.0
132
0.0
 79
     0
146
0.0
348
2F
 60
     3
 61
     5
292
     1
282
     1
141
0.0
142
0.0
 63
   250
361
6D
  0
ENDTAB
  0
TABLE
  2
LTYPE
  5
5
330
0
100
AcDbSymbolTable
 70
     1
  0
LTYPE
  5
14
330
5
100
AcDbSymbolTableRecord
100
AcDbLinetypeTableRecord
  2
ByBlock
 70
     0
  3

 72
    65
 73
     0
 40
0.0
  0
LTYPE
  5
15
330
5
100
AcDbSymbolTableRecord
100
AcDbLinetypeTableRecord
  2
ByLayer
 70
     0
  3

 72
    65
 73
     0
 40
0.0
  0
LTYPE
  5
16
330
5
100
AcDbSymbolTableRecord
100
AcDbLinetypeTableRecord
  2
Continuous
 70
     0
  3
Solid line
 72
    65
 73
     0
 40
0.0
  0
ENDTAB
  0
TABLE
  2
LAYER
  5
2
330
0
100
AcDbSymbolTable
 70
     2
  0
LAYER
  5
10
330
2
100
AcDbSymbolTableRecord
100
AcDbLayerTableRecord
  2
0
 70
     0
 62
     7
  6
Continuous
370
    -3
390
F
347
46
  0
LAYER
  5
6E
330
2
100
AcDbSymbolTableRecord
100
AcDbLayerTableRecord
  2
Layer 01
 70
     0
 62
    18
420
        0
  6
Continuous
370
    -3
390
F
347
46
  0
ENDTAB
  0
TABLE
  2
STYLE
  5
3
330
0
100
AcDbSymbolTable
 70
     1
  0
STYLE
  5
11
330
3
100
AcDbSymbolTableRecord
100
AcDbTextStyleTableRecord
  2
Standard
 70
     0
 40
0.0
 41
1.0
 50
0.0
 71
     0
 42
0.2
  3
txt
  4

  0
ENDTAB
  0
TABLE
  2
VIEW
  5
6
330
0
100
AcDbSymbolTable
 70
     0
  0
ENDTAB
  0
TABLE
  2
UCS
  5
7
330
0
100
AcDbSymbolTable
 70
     0
  0
ENDTAB
  0
TABLE
  2
APPID
  5
9
330
0
100
AcDbSymbolTable
 70
     2
  0
APPID
  5
12
330
9
100
AcDbSymbolTableRecord
100
AcDbRegAppTableRecord
  2
ACAD
 70
     0
  0
APPID
  5
102
330
9
100
AcDbSymbolTableRecord
100
AcDbRegAppTableRecord
  2
ACAD_MLEADERVER
 70
     0
  0
ENDTAB
  0
TABLE
  2
DIMSTYLE
  5
A
330
0
100
AcDbSymbolTable
 70
     1
100
AcDbDimStyleTable
  0
DIMSTYLE
105
27
330
A
100
AcDbSymbolTableRecord
100
AcDbDimStyleTableRecord
  2
STANDARD_ACAD
 70
     0
178
     0
340
11
  0
ENDTAB
  0
TABLE
  2
BLOCK_RECORD
  5
1
330
0
100
AcDbSymbolTable
 70
     1
  0
BLOCK_RECORD
  5
1F
330
1
100
AcDbSymbolTableRecord
100
AcDbBlockTableRecord
  2
*Model_Space
340
22
 70
     0
280
     1
281
     0
  0
BLOCK_RECORD
  5
1B
330
1
100
AcDbSymbolTableRecord
100
AcDbBlockTableRecord
  2
*Paper_Space
340
1E
 70
     0
280
     1
281
     0
  0
BLOCK_RECORD
  5
23
330
1
100
AcDbSymbolTableRecord
100
AcDbBlockTableRecord
  2
*Paper_Space0
340
26
 70
     0
280
     1
281
     0
  0
ENDTAB
  0
ENDSEC
  0
SECTION
  2
BLOCKS
  0
BLOCK
  5
20
330
1F
100
AcDbEntity
  8
0
100
AcDbBlockBegin
  2
*Model_Space
 70
     0
 10
0.0
 20
0.0
 30
0.0
  3
*Model_Space
  1

  0
ENDBLK
  5
21
330
1F
100
AcDbEntity
  8
0
100
AcDbBlockEnd
  0
BLOCK
  5
1C
330
1B
100
AcDbEntity
 67
     1
  8
0
100
AcDbBlockBegin
  2
*Paper_Space
 70
     0
 10
0.0
 20
0.0
 30
0.0
  3
*Paper_Space
  1

  0
ENDBLK
  5
1D
330
1B
100
AcDbEntity
 67
     1
  8
0
100
AcDbBlockEnd
  0
BLOCK
  5
24
330
23
100
AcDbEntity
  8
0
100
AcDbBlockBegin
  2
*Paper_Space0
 70
     0
 10
0.0
 20
0.0
 30
0.0
  3
*Paper_Space0
  1

  0
ENDBLK
  5
25
330
23
100
AcDbEntity
  8
0
100
AcDbBlockEnd
  0
ENDSEC
  0
SECTION
  2
ENTITIES
  0
SPLINE
  5
6F
330
1F
100
AcDbEntity
  8
Layer 01
100
AcDbSpline
210
0.0
220
0.0
230
1.0
 70
     8
 71
     3
 72
    24
 73
    20
 74
     0
 42
0.000000001
 43
0.0000000001
 40
-13.05504546055861
 40
-13.05504546055861
 40
-13.05504546055861
 40
-13.05504546055861
 40
-7.196458456029291
 40
-7.196458456029291
 40
-7.196458456029291
 40
-6.196458456029291
 40
-5.196458456029291
 40
-4.196458456029291
 40
-3.196458456029291
 40
-2.196458456029291
 40
-1.196458456029291
 40
-0.1964584560292906
 40
0.8035415439707094
 40
1.803541543970709
 40
2.803541543970709
 40
3.803541543970709
 40
3.803541543970709
 40
3.803541543970709
 40
10.5310743280115
 40
10.5310743280115
 40
10.5310743280115
 40
10.5310743280115
 10
56.33980272160878
 20
10.4462096621039
 30
0.0
 10
54.8628352320304
 20
10.29226974218552
 30
0.0
 10
53.38586774245201
 20
10.13832982226714
 30
0.0
 10
51.90890025287364
 20
9.984389902348752
 30
0.0
 10
51.63315634110912
 20
9.948255892296668
 30
0.0
 10
51.10506683820959
 20
9.769659258827094
 30
0.0
 10
50.34703983279383
 20
9.428673069045571
 30
0.0
 10
49.59485035087843
 20
9.070240468614402
 30
0.0
 10
48.80291660703786
 20
8.814066235916417
 30
0.0
 10
47.99480984065661
 20
8.603291130690161
 30
0.0
 10
47.16874652309718
 20
8.52971665060404
 30
0.0
 10
46.33523754116598
 20
8.570976501421388
 30
0.0
 10
45.50746662239495
 20
8.651952785074714
 30
0.0
 10
44.69036465768476
 20
8.813961165529534
 30
0.0
 10
43.88015034029366
 20
8.99840647478229
 30
0.0
 10
43.32874112442842
 20
9.08116016830694
 30
0.0
 10
43.05107599833518
 20
9.06122472193546
 30
0.0
 10
41.35504346139668
 20
8.88446384916204
 30
0.0
 10
39.65901092445819
 20
8.70770297638862
 30
0.0
 10
37.9629783875197
 20
8.5309421036152
 30
0.0
  0
SPLINE
  5
70
330
1F
100
AcDbEntity
  8
Layer 01
100
AcDbSpline
210
0.0
220
0.0
230
1.0
 70
    24
 71
     2
 72
     6
 73
     3
 74
     0
 42
0.000000001
 43
0.0000000001
 40
-1.575516716419236
 40
-1.575516716419236
 40
-1.575516716419236
 40
0.0
 40
0.0
 40
0.0
 10
47.5806312869186
 20
8.571697458349792
 30
0.0
 10
47.60085406195354
 20
7.797842446785264
 30
0.0
 10
47.62107683698848
 20
7.023987435220735
 30
0.0
  0
SPLINE
  5
71
330
1F
100
AcDbEntity
  8
Layer 01
100
AcDbSpline
210
0.0
220
0.0
230
1.0
 70
    12
 71
     3
 72
    37
 73
    33
 74
     0
 42
0.000000001
 43
0.0000000001
 40
2.231583764020888
 40
2.231583764020888
 40
2.231583764020888
 40
2.231583764020888
 40
9.145294396042686
 40
9.145294396042686
 40
9.145294396042686
 40
10.12328911430619
 40
11.12328911430619
 40
12.12328911430619
 40
13.12328911430619
 40
14.12328911430619
 40
15.12328911430619
 40
16.12328911430619
 40
17.12328911430619
 40
18.12328911430619
 40
19.12328911430619
 40
20.12328911430619
 40
20.12328911430619
 40
20.12328911430619
 40
21.12328911430619
 40
22.12328911430619
 40
23.12328911430619
 40
24.12328911430619
 40
25.12328911430619
 40
26.12328911430619
 40
27.12328911430619
 40
28.12328911430619
 40
29.12328911430619
 40
30.12328911430619
 40
31.10128383256969
 40
31.10128383256969
 40
31.10128383256969
 40
38.01499446459149
 40
38.01499446459149
 40
38.01499446459149
 40
38.01499446459149
 10
-14.71151211992516
 20
10.4685804569964
 30
0.0
 41
0.9283012072796815
 10
-13.00901205156474
 20
10.30757133205459
 30
0.0
 41
0.9283012072796814
 10
-11.30651198320431
 20
10.14656220711277
 30
0.0
 41
0.9283012072796814
 10
-9.604011914843888
 20
9.985553082170952
 30
0.0
 41
0.9283012072796815
 10
-9.36645017790951
 20
9.867051250991372
 30
0.0
 41
0.9283012072796815
 10
-8.815030835978773
 20
9.61554632064528
 30
0.0
 41
0.9283012072796815
 10
-8.247279516896416
 20
9.338195591329125
 30
0.0
 41
0.9283012072796815
 10
-7.282033523249929
 20
9.127113371013046
 30
0.0
 41
0.9283012072796815
 10
-6.396970981043401
 20
8.99480684135412
 30
0.0
 41
0.9283012072796815
 10
-5.481896716964352
 20
8.90294962767556
 30
0.0
 41
0.9283012072796815
 10
-4.571016076822777
 20
8.841470743779432
 30
0.0
 41
0.9283012072796815
 10
-3.656916572339972
 20
8.807434854711602
 30
0.0
 41
0.9283012072796815
 10
-2.742853363271814
 20
8.791543177536589
 30
0.0
 41
0.9283012072796815
 10
-1.828554688640999
 20
8.7861065785007
 30
0.0
 41
0.9283012072796815
 10
-0.9142832767326721
 20
8.784257675364806
 30
0.0
 41
0.9283012072796815
 10
-0.3047599344983735
 20
8.784284146737292
 30
0.0
 41
0.9283012072796815
 10
0.0
 20
8.784275555549732
 30
0.0
 41
0.9283012072796815
 10
0.3047599344983735
 20
8.784284146737292
 30
0.0
 41
0.9283012072796815
 10
0.9142832767326721
 20
8.784257675364806
 30
0.0
 41
0.9283012072796815
 10
1.828554688640999
 20
8.7861065785007
 30
0.0
 41
0.9283012072796815
 10
2.742853363271814
 20
8.791543177536589
 30
0.0
 41
0.9283012072796815
 10
3.656916572339972
 20
8.807434854711602
 30
0.0
 41
0.9283012072796815
 10
4.571016076822777
 20
8.841470743779432
 30
0.0
 41
0.9283012072796815
 10
5.481896716964352
 20
8.90294962767556
 30
0.0
 41
0.9283012072796815
 10
6.396970981043401
 20
8.99480684135412
 30
0.0
 41
0.9283012072796815
 10
7.282033523249929
 20
9.127113371013046
 30
0.0
 41
0.9283012072796815
 10
8.247279516896416
 20
9.338195591329125
 30
0.0
 41
0.9283012072796815
 10
8.815030835978773
 20
9.61554632064528
 30
0.0
 41
0.9283012072796815
 10
9.36645017790951
 20
9.867051250991372
 30
0.0
 41
0.9283012072796815
 10
9.604011914843888
 20
9.985553082170952
 30
0.0
 41
0.9283012072796815
 10
11.30651198320431
 20
10.14656220711277
 30
0.0
 41
0.9283012072796814
 10
13.00901205156474
 20
10.30757133205459
 30
0.0
 41
0.9283012072796814
 10
14.71151211992516
 20
10.4685804569964
 30
0.0
 41
0.9283012072796815
  0
SPLINE
  5
72
330
1F
100
AcDbEntity
  8
Layer 01
100
AcDbSpline
210
0.0
220
0.0
230
1.0
 70
     8
 71
     3
 72
     9
 73
     5
 74
     0
 42
0.000000001
 43
0.0000000001
 40
0.0
 40
0.0
 40
0.0
 40
0.0
 40
1.0
 40
2.0
 40
2.0
 40
2.0
 40
2.0
 10
10.01301972582106
 20
10.02388010049205
 30
0.0
 10
10.46758559223929
 20
10.42228119765289
 30
0.0
 10
11.32757975376864
 20
11.27805984146724
 30
0.0
 10
12.02525251193431
 20
12.27171771457688
 30
0.0
 10
12.33302081021106
 20
12.79191712015075
 30
0.0
  0
SPLINE
  5
73
330
1F
100
AcDbEntity
  8
Layer 01
100
AcDbSpline
210
0.0
220
0.0
230
1.0
 70
    12
 71
     3
 72
    12
 73
     8
 74
     0
 42
0.000000001
 43
0.0000000001
 40
0.0
 40
0.0
 40
0.0
 40
0.0
 40
1.0
 40
2.0
 40
2.0
 40
2.0
 40
5.393930643320536
 40
5.393930643320536
 40
5.393930643320536
 40
5.393930643320536
 10
13.69847539996617
 20
17.98315539224445
 30
0.0
 41
1.0
 10
13.74648607586607
 20
18.00435618723318
 30
0.0
 41
1.0
 10
13.8381852667978
 20
18.05637699349036
 30
0.0
 41
1.0
 10
13.91818337453339
 20
18.12516293526409
 30
0.0
 41
1.0
 10
13.95350866564977
 20
18.16400821616977
 30
0.0
 41
1.0
 10
14.08150330604352
 20
18.30392305879718
 30
0.0
 41
0.9999999999999999
 10
14.20949794643726
 20
18.44383790142458
 30
0.0
 41
0.9999999999999999
 10
14.337492586831
 20
18.58375274405197
 30
0.0
 41
1.0
  0
SPLINE
  5
74
330
1F
100
AcDbEntity
  8
Layer 01
100
AcDbSpline
210
0.0
220
0.0
230
1.0
 70
    15
 71
     3
 72
    39
 73
    35
 74
     0
 42
0.000000001
 43
0.0000000001
 40
1.0
 40
1.0
 40
1.0
 40
1.0
 40
15.21720002291658
 40
15.21720002291658
 40
15.21720002291658
 40
16.21720002291658
 40
17.21720002291658
 40
17.21720002291658
 40
17.21720002291658
 40
17.29836830308149
 40
17.29836830308149
 40
17.29836830308149
 40
18.45922496609409
 40
18.45922496609409
 40
18.45922496609409
 40
18.48781273396999
 40
18.48781273396999
 40
18.48781273396999
 40
18.54470247055186
 40
18.54470247055186
 40
18.54470247055186
 40
19.54470247055186
 40
20.54470247055186
 40
20.54470247055186
 40
20.54470247055186
 40
34.81345871877555
 40
34.81345871877555
 40
34.81345871877555
 40
35.81345871877555
 40
36.81345871877555
 40
37.81345871877555
 40
37.81345871877555
 40
37.81345871877555
 40
38.81345871877555
 40
38.81345871877555
 40
38.81345871877555
 40
38.81345871877555
 10
14.2701300889737
 20
20.04532955335944
 30
0.0
 41
1.0
 10
14.48150310797941
 20
15.45930673186715
 30
0.0
 41
1.0
 10
14.69287612698511
 20
10.87328391037486
 30
0.0
 41
1.0
 10
14.90424914599082
 20
6.287261088882572
 30
0.0
 41
1.0
 10
14.95027971065814
 20
5.289129233475906
 30
0.0
 41
1.0
 10
15.06068266655125
 20
3.293710966356239
 30
0.0
 41
1.0
 10
15.20781709676137
 20
1.300664548241511
 30
0.0
 41
1.0
 10
15.2905445358137
 20
0.304902456817576
 30
0.0
 41
1.0
 10
15.31047148256036
 20
0.2866016378784018
 30
0.0
 41
1.0
 10
15.33039842930703
 20
0.2683008189392275
 30
0.0
 41
1.0
 10
15.3503253760537
 20
0.2500000000000533
 30
0.0
 41
1.0
 10
15.73727759704093
 20
0.2500036240235908
 30
0.0
 41
1.0
 10
16.12422981802816
 20
0.2500072480471284
 30
0.0
 41
1.0
 10
16.51118203901539
 20
0.250010872070666
 30
0.0
 41
1.0
 10
16.51772225645369
 20
0.2566153644480362
 30
0.0
 41
1.0
 10
16.52419975630377
 20
0.2631486551174671
 30
0.0
 41
1.0
 10
16.53061398830011
 20
0.2696114810582859
 30
0.0
 41
1.0
 10
16.54441901351687
 20
0.2835210925496234
 30
0.0
 41
1.0
 10
16.55787346397775
 20
0.2970466471796751
 30
0.0
 41
1.0
 10
16.57105987726857
 20
0.3103215819842209
 30
0.0
 41
1.0
 10
16.56139845965501
 20
1.318141618829903
 30
0.0
 41
1.0
 10
16.52363570815179
 20
3.333347502756594
 30
0.0
 41
1.0
 10
16.44929778753035
 20
5.347536258430443
 30
0.0
 41
1.0
 10
16.40273206363293
 20
6.354199404712721
 30
0.0
 41
1.0
 10
16.19058424382096
 20
10.95685245817554
 30
0.0
 41
0.9999999999999999
 10
15.97843642400898
 20
15.55950551163836
 30
0.0
 41
0.9999999999999999
 10
15.76628860419701
 20
20.16215856510117
 30
0.0
 41
0.9999999999999999
 10
15.67156214835462
 20
20.00649902601541
 30
0.0
 41
0.9999999999999999
 10
15.36034528240066
 20
19.78730959564484
 30
0.0
 41
0.9999999999999999
 10
14.79673067736148
 20
19.79188236892829
 30
0.0
 41
0.9999999999999999
 10
14.47152774548973
 20
19.95963041734035
 30
0.0
 41
0.9999999999999999
 10
14.3199800166937
 20
20.05669071111623
 30
0.0
 41
0.9999999999999999
 10
14.29407703167498
 20
20.07328054295049
 30
0.0
 41
0.9999999999999999
 10
14.26874602938182
 20
20.07535859351085
 30
0.0
 41
0.9999999999999999
 10
14.2701300889737
 20
20.04532955335944
 30
0.0
 41
0.9999999999999999
  0
SPLINE
  5
75
330
1F
100
AcDbEntity
  8
Layer 01
100
AcDbSpline
210
0.0
220
0.0
230
1.0
 70
    11
 71
     3
 72
    15
 73
    11
 74
     0
 42
0.000000001
 43
0.0000000001
 40
0.0
 40
0.0
 40
0.0
 40
0.0
 40
1.0
 40
2.0
 40
3.0
 40
4.0
 40
5.0
 40
6.0
 40
7.0
 40
8.0
 40
8.0
 40
8.0
 40
8.0
 10
15.2108621228537
 20
21.71398520383038
 30
0.0
 10
15.43783833177709
 20
21.7137814752581
 30
0.0
 10
15.89024731176696
 20
21.52576248319279
 30
0.0
 10
16.18440358775243
 20
20.85200774329174
 30
0.0
 10
15.91366327714077
 20
20.16442462072832
 30
0.0
 10
15.23041949358522
 20
19.88361850406402
 30
0.0
 10
14.55180602360054
 20
20.16564699216185
 30
0.0
 10
14.25764974761494
 20
20.83940173206305
 30
0.0
 10
14.52839005822663
 20
21.52698485462643
 30
0.0
 10
14.98388591393031
 20
21.71418893240265
 30
0.0
 10
15.2108621228537
 20
21.71398520383038
 30
0.0
  0
SPLINE
  5
76
330
1F
100
AcDbEntity
  8
Layer 01
100
AcDbSpline
210
0.0
220
0.0
230
1.0
 70
    15
 71
     2
 72
    18
 73
    15
 74
     0
 42
0.000000001
 43
0.0000000001
 40
0.0
 40
0.0
 40
0.0
 40
0.0969920590819861
 40
0.0969920590819861
 40
0.67602763382841
 40
0.67602763382841
 40
1.255063208574834
 40
1.255063208574834
 40
1.35205526765682
 40
1.35205526765682
 40
1.541115303969303
 40
1.541115303969303
 40
2.416115303969304
 40
2.416115303969304
 40
2.605175340281787
 40
2.605175340281787
 40
2.605175340281787
 10
16.359366989395
 20
0.0610322106002155
 30
0.0
 41
1.0
 10
16.35745973281374
 20
0.0000000000000062
 30
0.0
 41
0.7180650222569817
 10
16.2963977286015
 20
0.0000000000000053
 30
0.0
 41
1.0
 10
16.2963977286015
 20
0.0000000000000075
 30
0.0
 41
0.7071067811865476
 10
15.9277722328137
 20
0.0000000000000071
 30
0.0
 41
1.0
 10
15.5591467370259
 20
0.0000000000000075
 30
0.0
 41
0.7071067811865476
 10
15.5591467370259
 20
0.0000000000000053
 30
0.0
 41
1.0
 10
15.49808473281366
 20
0.0000000000000049
 30
0.0
 41
0.7180650222569821
 10
15.4961774762324
 20
0.0610322106002155
 30
0.0
 41
1.0
 10
15.49322485452305
 20
0.1555161053001104
 30
0.0
 41
1.0
 10
15.4902722328137
 20
0.2500000000000053
 30
0.0
 41
1.0
 10
15.9277722328137
 20
0.2500000000000053
 30
0.0
 41
1.0
 10
16.3652722328137
 20
0.2500000000000053
 30
0.0
 41
1.0
 10
16.36231961110435
 20
0.1555161053001104
 30
0.0
 41
1.0
 10
16.359366989395
 20
0.0610322106002155
 30
0.0
 41
1.0
  0
POLYLINE
  5
77
330
1F
100
AcDbEntity
  8
Layer 01
100
AcDb2dPolyline
 66
     1
 10
0.0
 20
0.0
 30
0.0
  0
VERTEX
  5
78
330
77
100
AcDbEntity
  8
Layer 01
100
AcDbVertex
100
AcDb2dVertex
 10
14.33286596652701
 20
21.20542900223926
 30
0.0
  0
VERTEX
  5
79
330
77
100
AcDbEntity
  8
Layer 01
100
AcDbVertex
100
AcDb2dVertex
 10
14.61337094660945
 20
21.475223891503
 30
0.0
  0
SEQEND
  5
7A
330
77
100
AcDbEntity
  8
Layer 01
  0
SPLINE
  5
7B
330
1F
100
AcDbEntity
  8
Layer 01
100
AcDbSpline
210
0.0
220
0.0
230
1.0
 70
    12
 71
     3
 72
    28
 73
    24
 74
     0
 42
0.000000001
 43
0.0000000001
 40
-2.286070685659266
 40
-2.286070685659266
 40
-2.286070685659266
 40
-2.286070685659266
 40
0.0
 40
0.0
 40
0.0
 40
1.0
 40
2.0
 40
2.0
 40
2.0
 40
2.085700059888161
 40
2.085700059888161
 40
2.085700059888161
 40
3.284181643074909
 40
3.284181643074909
 40
3.284181643074909
 40
3.365152183514944
 40
3.365152183514944
 40
3.365152183514944
 40
4.365152302724248
 40
5.365152183514946
 40
5.365152183514946
 40
5.365152183514946
 40
5.630742193596632
 40
5.630742193596632
 40
5.630742193596632
 40
5.630742193596632
 10
14.65291250310595
 20
7.911074917862189
 30
0.0
 41
1.0
 10
14.69298793879186
 20
7.173914139336081
 30
0.0
 41
1.0
 10
14.73306337447778
 20
6.436753360809974
 30
0.0
 41
1.0
 10
14.7731388101637
 20
5.699592582283866
 30
0.0
 41
1.0
 10
14.82192631904224
 20
4.802183557371168
 30
0.0
 41
1.0
 10
14.90426739714648
 20
3.006537302453208
 30
0.0
 41
1.0
 10
14.95611521186953
 20
1.209752050063758
 30
0.0
 41
1.0
 10
14.9744167797537
 20
0.3112042096279701
 30
0.0
 41
1.0
 10
14.95442082186037
 20
0.2908028064186414
 30
0.0
 41
1.0
 10
14.93442486396703
 20
0.2704014032093127
 30
0.0
 41
1.0
 10
14.9144289060737
 20
0.249999999999984
 30
0.0
 41
1.0
 10
14.51493504501167
 20
0.2500004174069179
 30
0.0
 41
1.0
 10
14.11544118394963
 20
0.2500008348138518
 30
0.0
 41
1.0
 10
13.7159473228876
 20
0.2500012522207857
 30
0.0
 41
1.0
 10
13.69602865754963
 20
0.2682143407975257
 30
0.0
 41
1.0
 10
13.67610999221167
 20
0.2864274293742657
 30
0.0
 41
1.0
 10
13.6561913268737
 20
0.3046405179510057
 30
0.0
 41
1.0
 10
13.57750296208667
 20
1.189468913829755
 30
0.0
 41
1.0
 10
13.43529345482562
 20
2.960474396480761
 30
0.0
 41
1.0
 10
13.32349316527829
 20
4.733659567791787
 30
0.0
 41
1.0
 10
13.27528251153605
 20
5.620670787810823
 30
0.0
 41
1.0
 10
13.27062666497743
 20
5.706312101423483
 30
0.0
 41
1.0
 10
13.2659708184188
 20
5.791953415036144
 30
0.0
 41
1.0
 10
13.26131497186018
 20
5.877594728648804
 30
0.0
 41
1.0
  0
SPLINE
  5
7C
330
1F
100
AcDbEntity
  8
Layer 01
100
AcDbSpline
210
0.0
220
0.0
230
1.0
 70
    15
 71
     2
 72
    18
 73
    15
 74
     0
 42
0.000000001
 43
0.0000000001
 40
0.0
 40
0.0
 40
0.0
 40
0.0969920590819861
 40
0.0969920590819861
 40
0.67602763382841
 40
0.67602763382841
 40
1.255063208574834
 40
1.255063208574834
 40
1.35205526765682
 40
1.35205526765682
 40
1.541115303969303
 40
1.541115303969303
 40
2.416115303969304
 40
2.416115303969304
 40
2.605175340281787
 40
2.605175340281787
 40
2.605175340281787
 10
14.74234953297963
 20
0.0610322106002155
 30
0.0
 41
1.0
 10
14.74044227639837
 20
0.0000000000000062
 30
0.0
 41
0.7180650222569817
 10
14.67938027218613
 20
0.0000000000000053
 30
0.0
 41
1.0
 10
14.67938027218613
 20
0.0000000000000075
 30
0.0
 41
0.7071067811865476
 10
14.31075477639833
 20
0.0000000000000071
 30
0.0
 41
1.0
 10
13.94212928061053
 20
0.0000000000000075
 30
0.0
 41
0.7071067811865476
 10
13.94212928061053
 20
0.0000000000000053
 30
0.0
 41
1.0
 10
13.88106727639829
 20
0.0000000000000049
 30
0.0
 41
0.7180650222569821
 10
13.87916001981703
 20
0.0610322106002155
 30
0.0
 41
1.0
 10
13.87620739810768
 20
0.1555161053001104
 30
0.0
 41
1.0
 10
13.87325477639833
 20
0.2500000000000053
 30
0.0
 41
1.0
 10
14.31075477639833
 20
0.2500000000000053
 30
0.0
 41
1.0
 10
14.74825477639833
 20
0.2500000000000053
 30
0.0
 41
1.0
 10
14.74530215468898
 20
0.1555161053001104
 30
0.0
 41
1.0
 10
14.74234953297963
 20
0.0610322106002155
 30
0.0
 41
1.0
  0
SPLINE
  5
7D
330
1F
100
AcDbEntity
  8
Layer 01
100
AcDbSpline
210
0.0
220
0.0
230
1.0
 70
    24
 71
     2
 72
     6
 73
     3
 74
     0
 42
0.000000001
 43
0.0000000001
 40
-13.03631227202305
 40
-13.03631227202305
 40
-13.03631227202305
 40
-4.910612597262927
 40
-4.910612597262927
 40
-4.910612597262927
 10
14.08754859987457
 20
18.31056497763126
 30
0.0
 10
14.30121716014374
 20
14.380275024728
 30
0.0
 10
14.51488572041292
 20
10.44998507182475
 30
0.0
  0
SPLINE
  5
7E
330
1F
100
AcDbEntity
  8
Layer 01
100
AcDbSpline
210
0.0
220
0.0
230
1.0
 70
    28
 71
     2
 72
     6
 73
     3
 74
     0
 42
0.000000001
 43
0.0000000001
 40
6.276937607088634
 40
6.276937607088634
 40
6.276937607088634
 40
9.949592522919907
 40
9.949592522919907
 40
9.949592522919907
 10
12.82722234905027
 20
13.86243757081621
 30
0.0
 41
0.9944876740173796
 10
12.9237962958659
 20
12.08602454868483
 30
0.0
 41
0.9944876740173796
 10
13.02037024268154
 20
10.30961152655346
 30
0.0
 41
0.9944876740173796
  0
SPLINE
  5
7F
330
1F
100
AcDbEntity
  8
Layer 01
100
AcDbSpline
210
0.0
220
0.0
230
1.0
 70
     8
 71
     3
 72
    11
 73
     7
 74
     0
 42
0.000000001
 43
0.0000000001
 40
-1.297299422860892
 40
-1.297299422860892
 40
-1.297299422860892
 40
-1.297299422860892
 40
-0.9729745671456692
 40
-0.6486497114304461
 40
-0.3243248557152231
 40
0.0
 40
0.0
 40
0.0
 40
0.0
 10
14.1481882797837
 20
5.94678656254117
 30
0.0
 10
14.0092859947037
 20
5.949887560958073
 30
0.0
 10
13.7942815512537
 20
5.947307344728814
 30
0.0
 10
13.5423206230437
 20
5.933571631165874
 30
0.0
 10
13.3551537707237
 20
5.910774862958345
 30
0.0
 10
13.2765734145337
 20
5.889116573732022
 30
0.0
 10
13.2648074781537
 20
5.874438332501182
 30
0.0
  0
SPLINE
  5
80
330
1F
100
AcDbEntity
  8
Layer 01
100
AcDbSpline
210
0.0
220
0.0
230
1.0
 70
     8
 71
     3
 72
     8
 73
     4
 74
     0
 42
0.000000001
 43
0.0000000001
 40
-1.968749757736357
 40
-1.968749757736357
 40
-1.968749757736357
 40
-1.968749757736357
 40
0.0
 40
0.0
 40
0.0
 40
0.0
 10
14.0346643922637
 20
7.850279844450112
 30
0.0
 10
14.07248065990368
 20
7.21577365112311
 30
0.0
 10
14.11032150526366
 20
6.581275738707817
 30
0.0
 10
14.1481882797837
 20
5.94678656254117
 30
0.0
  0
SPLINE
  5
81
330
1F
100
AcDbEntity
  8
Layer 01
100
AcDbSpline
210
0.0
220
0.0
230
1.0
 70
    24
 71
     2
 72
     6
 73
     3
 74
     0
 42
0.000000001
 43
0.0000000001
 40
0.0670553622736493
 40
0.0670553622736493
 40
0.0670553622736493
 40
1.994293928275161
 40
1.994293928275161
 40
1.994293928275161
 10
8.172124619788603
 20
9.346532175367694
 30
0.0
 10
8.07253934215279
 20
8.391863865210903
 30
0.0
 10
7.972954064516978
 20
7.437195555054113
 30
0.0
  0
SPLINE
  5
82
330
1F
100
AcDbEntity
  8
Layer 01
100
AcDbSpline
210
0.0
220
0.0
230
1.0
 70
    24
 71
     2
 72
     6
 73
     3
 74
     0
 42
0.000000001
 43
0.0000000001
 40
-13.91474365925737
 40
-13.91474365925737
 40
-13.91474365925737
 40
-4.644426422396344
 40
-4.644426422396344
 40
-4.644426422396344
 10
14.82139619762255
 20
8.084867584887308
 30
0.0
 10
11.39717513106977
 20
7.76103156997071
 30
0.0
 10
7.972954064516978
 20
7.437195555054113
 30
0.0
  0
SPLINE
  5
83
330
1F
100
AcDbEntity
  8
Layer 01
100
AcDbSpline
210
0.0
220
0.0
230
1.0
 70
    24
 71
     2
 72
     6
 73
     3
 74
     0
 42
0.000000001
 43
0.0000000001
 40
0.0
 40
0.0
 40
0.0
 40
9.469572678587204
 40
9.469572678587204
 40
9.469572678587204
 10
13.2648074781537
 20
5.874438332501182
 30
0.0
 10
10.18980973083854
 20
6.247653569502375
 30
0.0
 10
7.114811983523387
 20
6.620868806503568
 30
0.0
  0
SPLINE
  5
84
330
1F
100
AcDbEntity
  8
Layer 01
100
AcDbSpline
210
0.0
220
0.0
230
1.0
 70
    24
 71
     2
 72
     6
 73
     3
 74
     0
 42
0.000000001
 43
0.0000000001
 40
-13.94259260257762
 40
-13.94259260257762
 40
-13.94259260257762
 40
-1.008205297406513
 40
-1.008205297406513
 40
-1.008205297406513
 10
5.272906864387698
 20
7.023987435220737
 30
0.0
 10
10.05054287852689
 20
7.475818837887037
 30
0.0
 10
14.82817889266608
 20
7.927650240553338
 30
0.0
  0
SPLINE
  5
85
330
1F
100
AcDbEntity
  8
Layer 01
100
AcDbSpline
210
0.0
220
0.0
230
1.0
 70
    24
 71
     2
 72
     6
 73
     3
 74
     0
 42
0.000000001
 43
0.0000000001
 40
-17.09979405657922
 40
-17.09979405657922
 40
-17.09979405657922
 40
-3.433910483273074
 40
-3.433910483273074
 40
-3.433910483273074
 10
14.1481882797837
 20
5.94678656254117
 30
0.0
 10
9.710547572085698
 20
6.485386998880953
 30
0.0
 10
5.272906864387698
 20
7.023987435220737
 30
0.0
  0
SPLINE
  5
86
330
1F
100
AcDbEntity
  8
Layer 01
100
AcDbSpline
210
0.0
220
0.0
230
1.0
 70
    24
 71
     2
 72
     6
 73
     3
 74
     0
 42
0.000000001
 43
0.0000000001
 40
11.27781730344079
 40
11.27781730344079
 40
11.27781730344079
 40
18.01763817787969
 40
18.01763817787969
 40
18.01763817787969
 10
5.940451041010002
 20
6.763402048314019
 30
0.0
 10
3.75186928450985
 20
7.029032180778827
 30
0.0
 10
1.563287528009699
 20
7.294662313243634
 30
0.0
  0
SPLINE
  5
87
330
1F
100
AcDbEntity
  8
Layer 01
100
AcDbSpline
210
0.0
220
0.0
230
1.0
 70
    24
 71
     2
 72
     6
 73
     3
 74
     0
 42
0.000000001
 43
0.0000000001
 40
0.0670553622736493
 40
0.0670553622736493
 40
0.0670553622736493
 40
1.994293928275161
 40
1.994293928275161
 40
1.994293928275161
 10
-8.172124619788603
 20
9.346532175367694
 30
0.0
 10
-8.07253934215279
 20
8.391863865210903
 30
0.0
 10
-7.972954064516978
 20
7.437195555054113
 30
0.0
  0
SPLINE
  5
88
330
1F
100
AcDbEntity
  8
Layer 01
100
AcDbSpline
210
0.0
220
0.0
230
1.0
 70
     8
 71
     3
 72
     9
 73
     5
 74
     0
 42
0.000000001
 43
0.0000000001
 40
0.0
 40
0.0
 40
0.0
 40
0.0
 40
1.0
 40
2.0
 40
2.0
 40
2.0
 40
2.0
 10
38.05516460238297
 20
8.894057901752726
 30
0.0
 10
38.22210820723214
 20
8.83489400647382
 30
0.0
 10
38.56331147109692
 20
8.73814111818221
 30
0.0
 10
38.91192754584505
 20
8.67385116422901
 30
0.0
 10
39.08712898845663
 20
8.648150926293805
 30
0.0
  0
SPLINE
  5
89
330
1F
100
AcDbEntity
  8
Layer 01
100
AcDbSpline
210
0.0
220
0.0
230
1.0
 70
    24
 71
     2
 72
     6
 73
     3
 74
     0
 42
0.000000001
 43
0.0000000001
 40
-1.2971803415465
 40
-1.2971803415465
 40
-1.2971803415465
 40
-1.290568933655355
 40
-1.290568933655355
 40
-1.290568933655355
 10
56.46673297221913
 20
9.935039445569485
 30
0.0
 10
56.46894905686149
 20
9.935269356650615
 30
0.0
 10
56.47116514150385
 20
9.935499267731746
 30
0.0
  0
SPLINE
  5
8A
330
1F
100
AcDbEntity
  8
Layer 01
100
AcDbSpline
210
0.0
220
0.0
230
1.0
 70
     8
 71
     3
 72
    14
 73
    10
 74
     0
 42
0.000000001
 43
0.0000000001
 40
0.0
 40
0.0
 40
0.0
 40
0.0
 40
1.0
 40
2.0
 40
3.0
 40
4.0
 40
5.0
 40
6.0
 40
6.966948149241183
 40
6.966948149241183
 40
6.966948149241183
 40
6.966948149241183
 10
59.80440327812421
 20
16.7763025986003
 30
0.0
 10
60.15273988886105
 20
16.76945297749423
 30
0.0
 10
60.84634098248806
 20
16.71102676261026
 30
0.0
 10
61.85245434567076
 20
16.33522962547038
 30
0.0
 10
62.50591859459031
 20
15.47936931625518
 30
0.0
 10
62.81837904351561
 20
14.47075523889863
 30
0.0
 10
62.86172674132723
 20
13.43239194336819
 30
0.0
 10
62.58032700363128
 20
12.36561545866176
 30
0.0
 10
61.89453347035706
 20
12.06789317662722
 30
0.0
 10
61.58118767921429
 20
11.96543870453723
 30
0.0
  0
SPLINE
  5
8B
330
1F
100
AcDbEntity
  8
Layer 01
100
AcDbSpline
210
0.0
220
0.0
230
1.0
 70
    12
 71
     3
 72
    40
 73
    36
 74
     0
 42
0.000000001
 43
0.0000000001
 40
-21.98322295074359
 40
-21.98322295074359
 40
-21.98322295074359
 40
-21.98322295074359
 40
-20.98322295074359
 40
-20.98322295074359
 40
-20.98322295074359
 40
-19.98322295074359
 40
-19.98322295074359
 40
-19.98322295074359
 40
-18.98322295074359
 40
-17.98322295074359
 40
-17.98322295074359
 40
-17.98322295074359
 40
-17.91069703260293
 40
-17.91069703260293
 40
-17.91069703260293
 40
-16.72573280624911
 40
-16.72573280624911
 40
-16.72573280624911
 40
-16.63170186861979
 40
-16.63170186861979
 40
-16.63170186861979
 40
-15.63170186861979
 40
-14.63170186861979
 40
-14.63170186861979
 40
-14.63170186861979
 40
-2.374763299073805
 40
-2.374763299073805
 40
-2.374763299073805
 40
-0.7626138652779453
 40
-0.7626138652779453
 40
-0.7626138652779453
 40
0.5119736756176632
 40
0.5119736756176632
 40
0.5119736756176632
 40
1.556657566476083
 40
1.556657566476083
 40
1.556657566476083
 40
1.556657566476083
 10
43.89715330765185
 20
18.34905277448502
 30
0.0
 41
1.0
 10
42.71970514640586
 20
18.20134623808349
 30
0.0
 41
1.0
 10
41.54225698515987
 20
18.05363970168196
 30
0.0
 41
1.0
 10
40.36480882391389
 20
17.90593316528043
 30
0.0
 41
1.0
 10
39.30324514069311
 20
13.76237064570672
 30
0.0
 41
1.0
 10
38.24168145747235
 20
9.618808126132999
 30
0.0
 41
1.0
 10
37.18011777425157
 20
5.475245606559286
 30
0.0
 41
1.0
 10
36.9580826563847
 20
4.606444076865841
 30
0.0
 41
1.0
 10
36.47540614065553
 20
2.879151237612875
 30
0.0
 41
1.0
 10
35.97342614872912
 20
1.157479492263316
 30
0.0
 41
1.0
 10
35.73224533153703
 20
0.293827000570035
 30
0.0
 41
1.0
 10
35.71298336972107
 20
0.2792180221847715
 30
0.0
 41
1.0
 10
35.69372140790511
 20
0.2646090437995081
 30
0.0
 41
1.0
 10
35.67445944608914
 20
0.2500000654142447
 30
0.0
 41
1.0
 10
35.27947137063787
 20
0.2500000508535045
 30
0.0
 41
1.0
 10
34.88448329518661
 20
0.2500000362927643
 30
0.0
 41
1.0
 10
34.48949521973533
 20
0.2500000217320242
 30
0.0
 41
1.0
 10
34.47001890272309
 20
0.2745580593667067
 30
0.0
 41
1.0
 10
34.45054258571086
 20
0.2991160970013891
 30
0.0
 41
1.0
 10
34.43106626869861
 20
0.3236741346360716
 30
0.0
 41
1.0
 10
34.64703878724892
 20
1.244362855066937
 30
0.0
 41
1.0
 10
35.05952914902433
 20
3.090166280348401
 30
0.0
 41
1.0
 10
35.49183092090605
 20
4.931531094108256
 30
0.0
 41
1.0
 10
35.72713632811533
 20
5.847879186595801
 30
0.0
 41
1.0
 10
36.73975046529014
 20
9.800341253547254
 30
0.0
 41
1.0
 10
37.75236460246495
 20
13.75280332049871
 30
0.0
 41
1.0
 10
38.76497873963976
 20
17.70526538745016
 30
0.0
 41
1.0
 10
38.23519831672829
 20
17.63880961089146
 30
0.0
 41
1.0
 10
37.70541789381684
 20
17.57235383433277
 30
0.0
 41
1.0
 10
37.17563747090537
 20
17.50589805777407
 30
0.0
 41
1.0
 10
37.11066420719661
 20
17.55475762061844
 30
0.0
 41
0.8308554772498589
 10
37.02816164203734
 20
17.8981627842468
 30
0.0
 41
0.8308554772498589
 10
36.96999434645615
 20
18.36185824112357
 30
0.0
 41
1.0
 10
36.9240076287834
 20
18.72845310939912
 30
0.0
 41
0.8613649102361025
 10
36.90894858129576
 20
19.07155004650775
 30
0.0
 41
0.8363586143660225
 10
36.93287529677314
 20
19.26280063481799
 30
0.0
 41
0.92498111238976
  0
SPLINE
  5
8C
330
1F
100
AcDbEntity
  8
Layer 01
100
AcDbSpline
210
0.0
220
0.0
230
1.0
 70
     8
 71
     3
 72
     9
 73
     5
 74
     0
 42
0.000000001
 43
0.0000000001
 40
0.0
 40
0.0
 40
0.0
 40
0.0
 40
1.0
 40
2.0
 40
2.0
 40
2.0
 40
2.0
 10
53.98905715612842
 20
19.61504495334952
 30
0.0
 10
53.99157817208943
 20
19.6559584093997
 30
0.0
 10
54.03100087656461
 20
19.72897609558602
 30
0.0
 10
54.07242280996184
 20
19.79816732581172
 30
0.0
 10
54.09604807217539
 20
19.83143302954758
 30
0.0
  0
SPLINE
  5
8D
330
1F
100
AcDbEntity
  8
Layer 01
100
AcDbSpline
210
0.0
220
0.0
230
1.0
 70
    12
 71
     3
 72
    47
 73
    43
 74
     0
 42
0.000000001
 43
0.0000000001
 40
10.18949190313729
 40
10.18949190313729
 40
10.18949190313729
 40
10.18949190313729
 40
13.73103075963237
 40
13.73103075963237
 40
13.73103075963237
 40
27.66258011559692
 40
27.66258011559692
 40
27.66258011559692
 40
28.66258011559692
 40
29.66258011559692
 40
29.66258011559692
 40
29.66258011559692
 40
29.735319994191
 40
29.735319994191
 40
29.735319994191
 40
30.91369113438107
 40
30.91369113438107
 40
30.91369113438107
 40
31.00789079434976
 40
31.00789079434976
 40
31.00789079434976
 40
32.00789079434976
 40
33.00789079434976
 40
33.00789079434976
 40
33.00789079434976
 40
46.74906039563184
 40
46.74906039563184
 40
46.74906039563184
 40
48.15843232462357
 40
48.15843232462357
 40
48.15843232462357
 40
48.25985278714435
 40
48.25985278714435
 40
48.25985278714435
 40
49.25985278714435
 40
50.25985278714435
 40
50.25985278714435
 40
50.25985278714435
 40
50.35999126097956
 40
50.35999126097956
 40
50.35999126097956
 40
50.51138217160712
 40
50.51138217160712
 40
50.51138217160712
 40
50.51138217160712
 10
50.47505986752526
 20
19.17422693221918
 30
0.0
 41
1.0
 10
51.64639229705964
 20
19.32116627259596
 30
0.0
 41
1.0
 10
52.81772472659403
 20
19.46810561297275
 30
0.0
 41
1.0
 10
53.98905715612842
 20
19.61504495334952
 30
0.0
 41
1.0
 10
55.14121764981576
 20
15.12116439442102
 30
0.0
 41
1.0
 10
56.29337814350313
 20
10.62728383549251
 30
0.0
 41
1.0
 10
57.44553863719048
 20
6.133403276563999
 30
0.0
 41
1.0
 10
57.69572961398738
 20
5.154798217399352
 30
0.0
 41
1.0
 10
58.24035610422072
 20
3.209450784118479
 30
0.0
 41
1.0
 10
58.79910754292576
 20
1.268220896523345
 30
0.0
 41
1.0
 10
59.0660746621477
 20
0.2940913038798527
 30
0.0
 41
1.0
 10
59.08535923208937
 20
0.2793942210348923
 30
0.0
 41
1.0
 10
59.10464380203104
 20
0.2646971381899317
 30
0.0
 41
1.0
 10
59.12392837197271
 20
0.2500000553449713
 30
0.0
 41
1.0
 10
59.51671875203607
 20
0.2500000433295859
 30
0.0
 41
1.0
 10
59.90950913209942
 20
0.2500000313142004
 30
0.0
 41
1.0
 10
60.30229951216277
 20
0.250000019298815
 30
0.0
 41
1.0
 10
60.32175369577063
 20
0.2746472832884752
 30
0.0
 41
1.0
 10
60.34120787937848
 20
0.2992945472781354
 30
0.0
 41
1.0
 10
60.36066206298634
 20
0.3239418112677956
 30
0.0
 41
1.0
 10
60.11364695673677
 20
1.35352818516329
 30
0.0
 41
1.0
 10
59.64545359853396
 20
3.418674728380521
 30
0.0
 41
1.0
 10
59.16208710869762
 20
5.480424764817997
 30
0.0
 41
1.0
 10
58.89854350344744
 20
6.505930938134732
 30
0.0
 41
1.0
 10
57.7620104257136
 20
10.93836125125152
 30
0.0
 41
1.0
 10
56.62547734797976
 20
15.37079156436831
 30
0.0
 41
1.0
 10
55.48894427024592
 20
19.80322187748509
 30
0.0
 41
1.0
 10
55.95197001317521
 20
19.86128856474997
 30
0.0
 41
1.0
 10
56.41499575610447
 20
19.91935525201484
 30
0.0
 41
1.0
 10
56.87802149903375
 20
19.97742193927971
 30
0.0
 41
1.0
 10
56.91144463405814
 20
19.98923532970942
 30
0.0
 41
0.9106792401147747
 10
56.93448287025111
 20
20.01617789494403
 30
0.0
 41
0.9106792401147747
 10
56.94096282932313
 20
20.0510300437835
 30
0.0
 41
1.0
 10
56.99086209202073
 20
20.31941083310478
 30
0.0
 41
1.0
 10
56.92006564861107
 20
20.86445273450341
 30
0.0
 41
1.0
 10
56.85404370826052
 20
21.41009354012314
 30
0.0
 41
1.0
 10
56.73940074535933
 20
21.65783368967092
 30
0.0
 41
1.0
 10
56.72473213945305
 20
21.68953212565793
 30
0.0
 41
0.9144083841822305
 10
56.69640837099068
 20
21.70997039817171
 30
0.0
 41
0.9144083841822305
 10
56.66170227129847
 20
21.7139004729053
 30
0.0
 41
1.0
 10
56.61163105493271
 20
21.70761939510034
 30
0.0
 41
1.0
 10
56.56155983856697
 20
21.70133831729538
 30
0.0
 41
1.0
 10
56.51148862220122
 20
21.69505723949041
 30
0.0
 41
1.0
  0
SPLINE
  5
8E
330
1F
100
AcDbEntity
  8
Layer 01
100
AcDbSpline
210
0.0
220
0.0
230
1.0
 70
    24
 71
     2
 72
     6
 73
     3
 74
     0
 42
0.000000001
 43
0.0000000001
 40
0.0
 40
0.0
 40
0.0
 40
0.6830469503700475
 40
0.6830469503700475
 40
0.6830469503700475
 10
55.48894427024592
 20
19.80322187748509
 30
0.0
 10
55.18876900026284
 20
19.96611169114157
 30
0.0
 10
54.88859373027977
 20
20.12900150479805
 30
0.0
  0
POLYLINE
  5
8F
330
1F
100
AcDbEntity
  8
Layer 01
100
AcDb2dPolyline
 66
     1
 10
0.0
 20
0.0
 30
0.0
  0
VERTEX
  5
90
330
8F
100
AcDbEntity
  8
Layer 01
100
AcDbVertex
100
AcDb2dVertex
 10
37.28543985049444
 20
5.946786562541169
 30
0.0
  0
VERTEX
  5
91
330
8F
100
AcDbEntity
  8
Layer 01
100
AcDbVertex
100
AcDb2dVertex
 10
47.62107683698848
 20
7.023987435220735
 30
0.0
  0
VERTEX
  5
92
330
8F
100
AcDbEntity
  8
Layer 01
100
AcDbVertex
100
AcDb2dVertex
 10
56.96748266177258
 20
7.998088646788575
 30
0.0
  0
SEQEND
  5
93
330
8F
100
AcDbEntity
  8
Layer 01
  0
SPLINE
  5
94
330
1F
100
AcDbEntity
  8
Layer 01
100
AcDbSpline
210
0.0
220
0.0
230
1.0
 70
    15
 71
     2
 72
    18
 73
    15
 74
     0
 42
0.000000001
 43
0.0000000001
 40
0.0
 40
0.0
 40
0.0
 40
0.0969920590819861
 40
0.0969920590819861
 40
0.67602763382841
 40
0.67602763382841
 40
1.255063208574834
 40
1.255063208574834
 40
1.35205526765682
 40
1.35205526765682
 40
1.541115303969303
 40
1.541115303969303
 40
2.416115303969304
 40
2.416115303969304
 40
2.605175340281787
 40
2.605175340281787
 40
2.605175340281787
 10
59.28605114921694
 20
0.0610322106002155
 30
0.0
 41
1.0
 10
59.28795840579821
 20
0.0000000000000062
 30
0.0
 41
0.7180650222569817
 10
59.34902041001045
 20
0.0000000000000053
 30
0.0
 41
1.0
 10
59.34902041001044
 20
0.0000000000000075
 30
0.0
 41
0.7071067811865476
 10
59.71764590579824
 20
0.0000000000000071
 30
0.0
 41
1.0
 10
60.08627140158605
 20
0.0000000000000075
 30
0.0
 41
0.7071067811865476
 10
60.08627140158604
 20
0.0000000000000053
 30
0.0
 41
1.0
 10
60.14733340579829
 20
0.0000000000000049
 30
0.0
 41
0.7180650222569821
 10
60.14924066237954
 20
0.0610322106002155
 30
0.0
 41
1.0
 10
60.1521932840889
 20
0.1555161053001104
 30
0.0
 41
1.0
 10
60.15514590579824
 20
0.2500000000000053
 30
0.0
 41
1.0
 10
59.71764590579824
 20
0.2500000000000053
 30
0.0
 41
1.0
 10
59.28014590579824
 20
0.2500000000000053
 30
0.0
 41
1.0
 10
59.28309852750759
 20
0.1555161053001104
 30
0.0
 41
1.0
 10
59.28605114921694
 20
0.0610322106002155
 30
0.0
 41
1.0
  0
SPLINE
  5
95
330
1F
100
AcDbEntity
  8
Layer 01
100
AcDbSpline
210
0.0
220
0.0
230
1.0
 70
    15
 71
     2
 72
    18
 73
    15
 74
     0
 42
0.000000001
 43
0.0000000001
 40
0.0
 40
0.0
 40
0.0
 40
0.0969920590819861
 40
0.0969920590819861
 40
0.67602763382841
 40
0.67602763382841
 40
1.255063208574834
 40
1.255063208574834
 40
1.35205526765682
 40
1.35205526765682
 40
1.541115303969303
 40
1.541115303969303
 40
2.416115303969304
 40
2.416115303969304
 40
2.605175340281787
 40
2.605175340281787
 40
2.605175340281787
 10
34.65800060573638
 20
0.0610322106002155
 30
0.0
 41
1.0
 10
34.65990786231764
 20
0.0000000000000062
 30
0.0
 41
0.7180650222569817
 10
34.72096986652988
 20
0.0000000000000053
 30
0.0
 41
1.0
 10
34.72096986652988
 20
0.0000000000000075
 30
0.0
 41
0.7071067811865476
 10
35.08959536231768
 20
0.0000000000000071
 30
0.0
 41
1.0
 10
35.45822085810548
 20
0.0000000000000075
 30
0.0
 41
0.7071067811865476
 10
35.45822085810548
 20
0.0000000000000053
 30
0.0
 41
1.0
 10
35.51928286231772
 20
0.0000000000000049
 30
0.0
 41
0.7180650222569821
 10
35.52119011889898
 20
0.0610322106002155
 30
0.0
 41
1.0
 10
35.52414274060833
 20
0.1555161053001104
 30
0.0
 41
1.0
 10
35.52709536231768
 20
0.2500000000000053
 30
0.0
 41
1.0
 10
35.08959536231768
 20
0.2500000000000053
 30
0.0
 41
1.0
 10
34.65209536231768
 20
0.2500000000000053
 30
0.0
 41
1.0
 10
34.65504798402703
 20
0.1555161053001104
 30
0.0
 41
1.0
 10
34.65800060573638
 20
0.0610322106002155
 30
0.0
 41
1.0
  0
SPLINE
  5
96
330
1F
100
AcDbEntity
  8
Layer 01
100
AcDbSpline
210
0.0
220
0.0
230
1.0
 70
     8
 71
     3
 72
    22
 73
    18
 74
     0
 42
0.000000001
 43
0.0000000001
 40
0.0
 40
0.0
 40
0.0
 40
0.0
 40
1.0
 40
2.0
 40
3.0
 40
4.0
 40
5.0
 40
5.0
 40
5.0
 40
6.0
 40
6.0
 40
6.0
 40
7.0
 40
8.0
 40
9.0
 40
10.0
 40
11.0
 40
11.0
 40
11.0
 40
11.0
 10
62.00977216953655
 20
11.72388378827472
 30
0.0
 10
62.04853996819618
 20
11.72139758390131
 30
0.0
 10
62.12600595101489
 20
11.71533196315283
 30
0.0
 10
62.24189372969609
 20
11.70286170745772
 30
0.0
 10
62.35728326800955
 20
11.68634740374835
 30
0.0
 10
62.4718404345297
 20
11.66473412363638
 30
0.0
 10
62.54733722305214
 20
11.6462486711427
 30
0.0
 10
62.58476328611683
 20
11.63583293254376
 30
0.0
 10
62.61646555206322
 20
11.62701013666163
 30
0.0
 10
62.62301178678622
 20
11.60576198829619
 30
0.0
 10
62.60467809612
 20
11.57805624394965
 30
0.0
 10
62.41926840373257
 20
11.29786642127964
 30
0.0
 10
61.88696519884156
 20
10.87900123599601
 30
0.0
 10
60.96957253019694
 20
10.47577386690419
 30
0.0
 10
60.01491077111888
 20
10.17778888398088
 30
0.0
 10
59.04016426277397
 20
9.956576076256674
 30
0.0
 10
58.38670493890027
 20
9.827453726388184
 30
0.0
 10
58.05980174774909
 20
9.763700985285436
 30
0.0
  0
SPLINE
  5
97
330
1F
100
AcDbEntity
  8
Layer 01
100
AcDbSpline
210
0.0
220
0.0
230
1.0
 70
     8
 71
     3
 72
    52
 73
    48
 74
     0
 42
0.000000001
 43
0.0000000001
 40
0.0
 40
0.0
 40
0.0
 40
0.0
 40
1.0
 40
2.0
 40
3.0
 40
4.0
 40
5.0
 40
6.0
 40
7.0
 40
8.0
 40
9.0
 40
9.0
 40
9.0
 40
10.0
 40
11.0
 40
11.0
 40
11.0
 40
12.0
 40
13.0
 40
13.0
 40
13.0
 40
14.0
 40
15.0
 40
16.0
 40
16.0
 40
16.0
 40
17.0
 40
17.0
 40
17.0
 40
18.0
 40
19.0
 40
20.0
 40
20.0
 40
20.0
 40
21.0
 40
22.0
 40
23.0
 40
24.0
 40
25.0
 40
26.0
 40
26.0
 40
26.0
 40
27.0
 40
27.0
 40
27.0
 40
28.0
 40
29.0
 40
29.0
 40
29.0
 40
29.0
 10
62.58476328611683
 20
11.63583293254376
 30
0.0
 10
62.47263761344581
 20
11.63484170307695
 30
0.0
 10
62.25171158809002
 20
11.66736624920815
 30
0.0
 10
61.92124283003645
 20
11.73556917338876
 30
0.0
 10
61.62221360677047
 20
11.89451588653968
 30
0.0
 10
61.41438818908648
 20
12.16487030671626
 30
0.0
 10
61.23917145539103
 20
12.4494615164424
 30
0.0
 10
61.09188466440184
 20
12.75134689561338
 30
0.0
 10
60.96232882323318
 20
13.06047670449816
 30
0.0
 10
60.84381706243305
 20
13.37412655398692
 30
0.0
 10
60.76865260006797
 20
13.58460965125052
 30
0.0
 10
60.73356356298127
 20
13.69070065044173
 30
0.0
 10
60.30975266839511
 20
14.97208438188148
 30
0.0
 10
59.58205931745066
 20
17.57157534965325
 30
0.0
 10
58.84447348072282
 20
20.1676006261013
 30
0.0
 10
58.45372926531988
 20
21.4592939134539
 30
0.0
 10
58.37711363650846
 20
21.71256418474877
 30
0.0
 10
58.20921554516684
 20
22.22174547950156
 30
0.0
 10
57.89927675242999
 20
22.69779268006173
 30
0.0
 10
57.63522173425734
 20
22.76437983473431
 30
0.0
 10
57.2896880095942
 20
22.85151359847779
 30
0.0
 10
56.58411536771941
 20
22.96327813538299
 30
0.0
 10
55.51428194431167
 20
22.99348928452103
 30
0.0
 10
54.7939798774286
 20
22.94187525504462
 30
0.0
 10
54.44058775871294
 20
22.89637324250527
 30
0.0
 10
49.11503824959102
 20
22.21066689052522
 30
0.0
 10
43.7894657374363
 20
21.52291847864232
 30
0.0
 10
38.45640834866857
 20
20.89754415547697
 30
0.0
 10
38.13319124209449
 20
20.85964250459938
 30
0.0
 10
37.50446620731525
 20
20.70310652457637
 30
0.0
 10
36.60792693713113
 20
20.32251203237266
 30
0.0
 10
36.0244955803472
 20
20.0379872416653
 30
0.0
 10
35.73852268399659
 20
19.88258089892945
 30
0.0
 10
35.66965613302245
 20
19.84515672705758
 30
0.0
 10
35.5686361616436
 20
19.71920087384995
 30
0.0
 10
35.50861669377347
 20
19.49058400026698
 30
0.0
 10
35.48714401454281
 20
19.25745185169691
 30
0.0
 10
35.48315963038346
 20
19.02333240971214
 30
0.0
 10
35.48784545914236
 20
18.7893390985826
 30
0.0
 10
35.49591755330889
 20
18.63350516427779
 30
0.0
 10
35.5011427026279
 20
18.55567199600299
 30
0.0
 10
35.52007210265567
 20
18.27370202964434
 30
0.0
 10
35.57677163730166
 20
17.78604064821438
 30
0.0
 10
35.62789943908395
 20
17.50830116527476
 30
0.0
 10
35.84134989639352
 20
16.34878290750118
 30
0.0
 10
36.2664240398353
 20
14.02943082350274
 30
0.0
 10
36.69626085064632
 20
11.71090373679993
 30
0.0
 10
36.93263616369917
 20
10.5557908225243
 30
0.0
  0
SPLINE
  5
98
330
1F
100
AcDbEntity
  8
Layer 01
100
AcDbSpline
210
0.0
220
0.0
230
1.0
 70
     8
 71
     3
 72
    50
 73
    46
 74
     0
 42
0.000000001
 43
0.0000000001
 40
-3.997947619108824
 40
-3.997947619108824
 40
-3.997947619108824
 40
-3.997947619108824
 40
-3.0
 40
-2.0
 40
-1.0
 40
0.0
 40
0.0
 40
0.0
 40
1.0
 40
2.0
 40
3.0
 40
4.0
 40
5.0
 40
6.0
 40
6.0
 40
6.0
 40
7.0
 40
7.0
 40
7.0
 40
8.0
 40
9.0
 40
10.0
 40
11.0
 40
12.0
 40
13.0
 40
13.0
 40
13.0
 40
14.0
 40
15.0
 40
16.0
 40
17.0
 40
18.0
 40
19.0
 40
19.0
 40
19.0
 40
20.0
 40
20.0
 40
20.0
 40
21.0
 40
22.0
 40
23.0
 40
24.0
 40
24.0
 40
24.0
 40
43.99564194655468
 40
43.99564194655468
 40
43.99564194655468
 40
43.99564194655468
 10
37.01251537811968
 20
20.49022038511832
 30
0.0
 10
37.19171660142921
 20
20.64591931859303
 30
0.0
 10
37.62645282118218
 20
20.83321963510679
 30
0.0
 10
38.30341710377539
 20
21.03035059159189
 30
0.0
 10
38.97515718190034
 20
21.24725122042417
 30
0.0
 10
39.59098453786505
 20
21.42437153681206
 30
0.0
 10
39.81066523392298
 20
21.50856732798147
 30
0.0
 10
39.97547081107835
 20
21.57173143937918
 30
0.0
 10
40.29497840931029
 20
21.74649927329216
 30
0.0
 10
40.59424096531048
 20
22.2070268410367
 30
0.0
 10
40.64163647467166
 20
22.74670017611257
 30
0.0
 10
40.59564959495199
 20
23.27614799668137
 30
0.0
 10
40.50051419193062
 20
23.8004434309175
 30
0.0
 10
40.4215474209923
 20
24.14618169669006
 30
0.0
 10
40.38139492437847
 20
24.31897009804432
 30
0.0
 10
39.83362169136208
 20
26.67620487096164
 30
0.0
 10
38.76987561855338
 20
30.74018997208672
 30
0.0
 10
37.96164155060909
 20
33.01554327613275
 30
0.0
 10
37.9053320517422
 20
33.17406993070201
 30
0.0
 10
37.76958316496104
 20
33.48308190441662
 30
0.0
 10
37.49374989020549
 20
33.9077038486569
 30
0.0
 10
37.1313905438513
 20
34.26669652733558
 30
0.0
 10
36.67249781967721
 20
34.49043556933592
 30
0.0
 10
36.17554923020302
 20
34.5920880835765
 30
0.0
 10
35.83881258657907
 20
34.60686675399418
 30
0.0
 10
35.67061635837103
 20
34.60681358265479
 30
0.0
 10
35.38102611797503
 20
34.60672203541193
 30
0.0
 10
34.77490045237621
 20
34.59915473141795
 30
0.0
 10
33.90621646176364
 20
34.58502437113648
 30
0.0
 10
33.03762939070169
 20
34.57591371191862
 30
0.0
 10
32.16832234103921
 20
34.58010437445012
 30
0.0
 10
31.30159820040165
 20
34.58157928962088
 30
0.0
 10
30.71736048722645
 20
34.57539411430264
 30
0.0
 10
30.44015216494207
 20
34.66935024212698
 30
0.0
 10
30.41825147390783
 20
34.67677319432877
 30
0.0
 10
30.39321163500934
 20
34.67285282047509
 30
0.0
 10
30.37556976493768
 20
34.65828092271903
 30
0.0
 10
30.24354856975528
 20
34.54923356265934
 30
0.0
 10
30.06864555379238
 20
34.24441111752047
 30
0.0
 10
30.03386445162283
 20
33.72911513140984
 30
0.0
 10
30.11072512178342
 20
33.22536023361711
 30
0.0
 10
30.19926959776196
 20
32.89726038740272
 30
0.0
 10
30.25086337441934
 20
32.73567664938369
 30
0.0
 10
32.27753042799706
 20
26.38605476440065
 30
0.0
 10
34.30419748157479
 20
20.03643287941761
 30
0.0
 10
36.33086453515252
 20
13.68681099443456
 30
0.0
  0
SPLINE
  5
99
330
1F
100
AcDbEntity
  8
Layer 01
100
AcDbSpline
210
0.0
220
0.0
230
1.0
 70
     8
 71
     3
 72
     8
 73
     4
 74
     0
 42
0.000000001
 43
0.0000000001
 40
5.260365637598078
 40
5.260365637598078
 40
5.260365637598078
 40
5.260365637598078
 40
6.0
 40
6.0
 40
6.0
 40
6.0
 10
40.19264741452533
 20
18.08021170567038
 30
0.0
 10
40.25391413673397
 20
18.02600441724895
 30
0.0
 10
40.31075415026083
 20
17.96699778063141
 30
0.0
 10
40.36480882391389
 20
17.90593316528043
 30
0.0
  0
SPLINE
  5
9A
330
1F
100
AcDbEntity
  8
Layer 01
100
AcDbSpline
210
0.0
220
0.0
230
1.0
 70
     8
 71
     3
 72
     9
 73
     5
 74
     0
 42
0.000000001
 43
0.0000000001
 40
0.0
 40
0.0
 40
0.0
 40
0.0
 40
1.0
 40
1.802771934338513
 40
1.802771934338513
 40
1.802771934338513
 40
1.802771934338513
 10
38.76497873963975
 20
17.70526538745016
 30
0.0
 10
38.79563160103282
 20
17.81382348267609
 30
0.0
 10
38.9426795965222
 20
17.95540667956805
 30
0.0
 10
39.08555425976378
 20
18.09422569611713
 30
0.0
 10
39.15518047194753
 20
18.14863706063279
 30
0.0
  0
SPLINE
  5
9B
330
1F
100
AcDbEntity
  8
Layer 01
100
AcDbSpline
210
0.0
220
0.0
230
1.0
 70
     8
 71
     3
 72
    32
 73
    28
 74
     0
 42
0.000000001
 43
0.0000000001
 40
0.0
 40
0.0
 40
0.0
 40
0.0
 40
1.0
 40
2.0
 40
3.0
 40
4.0
 40
5.0
 40
6.0
 40
7.0
 40
8.0
 40
9.0
 40
9.0
 40
9.0
 40
10.0
 40
11.0
 40
12.0
 40
12.0
 40
12.0
 40
13.0
 40
14.0
 40
15.0
 40
16.0
 40
17.0
 40
18.0
 40
19.0
 40
20.0
 40
21.0
 40
21.0
 40
21.0
 40
21.0
 10
35.73854771894676
 20
19.88249967251137
 30
0.0
 10
35.96967860676744
 20
19.97803603371283
 30
0.0
 10
36.39330888633505
 20
19.71263690993905
 30
0.0
 10
36.91576612445675
 20
19.27913887817142
 30
0.0
 10
37.44694228126838
 20
18.82662966151051
 30
0.0
 10
38.04191262204424
 20
18.46704130052164
 30
0.0
 10
38.69697162292854
 20
18.2306049563428
 30
0.0
 10
39.37943158142746
 20
18.09976064957392
 30
0.0
 10
40.0732925897123
 20
18.07071328216981
 30
0.0
 10
40.76608002394495
 20
18.0959505941962
 30
0.0
 10
41.24220143331148
 20
18.12763147741907
 30
0.0
 10
41.47262196309795
 20
18.14454567779682
 30
0.0
 10
42.71380697541175
 20
18.23565584069593
 30
0.0
 10
45.1931420647509
 20
18.45926859995567
 30
0.0
 10
48.89883167021258
 20
18.91899596997372
 30
0.0
 10
51.35760093949766
 20
19.30834082990944
 30
0.0
 10
52.58334655446269
 20
19.52372447938471
 30
0.0
 10
52.81294489337223
 20
19.56406868094174
 30
0.0
 10
53.27955899204183
 20
19.6491048310973
 30
0.0
 10
53.96518324772195
 20
19.78676178870244
 30
0.0
 10
54.63787625943079
 20
19.98622137448258
 30
0.0
 10
55.25721454520874
 20
20.32023934068121
 30
0.0
 10
55.78995037387713
 20
20.77860780098525
 30
0.0
 10
56.24444362962374
 20
21.31061217640845
 30
0.0
 10
56.64765119334146
 20
21.88671197274798
 30
0.0
 10
57.02027423527178
 20
22.46301921890875
 30
0.0
 10
57.3857725528684
 20
22.81539531161317
 30
0.0
 10
57.63531582822951
 20
22.7642652542089
 30
0.0
  0
POLYLINE
  5
9C
330
1F
100
AcDbEntity
  8
Layer 01
100
AcDb2dPolyline
 66
     1
 10
0.0
 20
0.0
 30
0.0
  0
VERTEX
  5
9D
330
9C
100
AcDbEntity
  8
Layer 01
100
AcDbVertex
100
AcDb2dVertex
 10
39.86328459726049
 20
21.52965257189446
 30
0.0
  0
VERTEX
  5
9E
330
9C
100
AcDbEntity
  8
Layer 01
100
AcDbVertex
100
AcDb2dVertex
 10
40.01909328137189
 20
21.08254033710794
 30
0.0
  0
SEQEND
  5
9F
330
9C
100
AcDbEntity
  8
Layer 01
  0
SPLINE
  5
A0
330
1F
100
AcDbEntity
  8
Layer 01
100
AcDbSpline
210
0.0
220
0.0
230
1.0
 70
    12
 71
     3
 72
    12
 73
     8
 74
     0
 42
0.000000001
 43
0.0000000001
 40
0.0
 40
0.0
 40
0.0
 40
0.0
 40
1.0
 40
2.0
 40
2.0
 40
2.0
 40
5.393930643320536
 40
5.393930643320536
 40
5.393930643320536
 40
5.393930643320536
 10
-13.69847539996617
 20
17.98315539224445
 30
0.0
 41
1.0
 10
-13.74648607586607
 20
18.00435618723318
 30
0.0
 41
1.0
 10
-13.8381852667978
 20
18.05637699349036
 30
0.0
 41
1.0
 10
-13.91818337453339
 20
18.12516293526409
 30
0.0
 41
1.0
 10
-13.95350866564977
 20
18.16400821616977
 30
0.0
 41
1.0
 10
-14.08150330604352
 20
18.30392305879718
 30
0.0
 41
0.9999999999999999
 10
-14.20949794643726
 20
18.44383790142458
 30
0.0
 41
0.9999999999999999
 10
-14.337492586831
 20
18.58375274405197
 30
0.0
 41
1.0
  0
SPLINE
  5
A1
330
1F
100
AcDbEntity
  8
Layer 01
100
AcDbSpline
210
0.0
220
0.0
230
1.0
 70
    15
 71
     3
 72
    39
 73
    35
 74
     0
 42
0.000000001
 43
0.0000000001
 40
1.0
 40
1.0
 40
1.0
 40
1.0
 40
15.21720002291658
 40
15.21720002291658
 40
15.21720002291658
 40
16.21720002291658
 40
17.21720002291658
 40
17.21720002291658
 40
17.21720002291658
 40
17.29836830308149
 40
17.29836830308149
 40
17.29836830308149
 40
18.45922496609409
 40
18.45922496609409
 40
18.45922496609409
 40
18.48781273396999
 40
18.48781273396999
 40
18.48781273396999
 40
18.54470247055186
 40
18.54470247055186
 40
18.54470247055186
 40
19.54470247055186
 40
20.54470247055186
 40
20.54470247055186
 40
20.54470247055186
 40
34.81345871877555
 40
34.81345871877555
 40
34.81345871877555
 40
35.81345871877555
 40
36.81345871877555
 40
37.81345871877555
 40
37.81345871877555
 40
37.81345871877555
 40
38.81345871877555
 40
38.81345871877555
 40
38.81345871877555
 40
38.81345871877555
 10
-14.2701300889737
 20
20.04532955335944
 30
0.0
 41
1.0
 10
-14.48150310797941
 20
15.45930673186715
 30
0.0
 41
1.0
 10
-14.69287612698511
 20
10.87328391037486
 30
0.0
 41
1.0
 10
-14.90424914599082
 20
6.287261088882572
 30
0.0
 41
1.0
 10
-14.95027971065814
 20
5.289129233475906
 30
0.0
 41
1.0
 10
-15.06068266655125
 20
3.293710966356239
 30
0.0
 41
1.0
 10
-15.20781709676137
 20
1.300664548241511
 30
0.0
 41
1.0
 10
-15.2905445358137
 20
0.304902456817576
 30
0.0
 41
1.0
 10
-15.31047148256036
 20
0.2866016378784018
 30
0.0
 41
1.0
 10
-15.33039842930703
 20
0.2683008189392275
 30
0.0
 41
1.0
 10
-15.3503253760537
 20
0.2500000000000533
 30
0.0
 41
1.0
 10
-15.73727759704093
 20
0.2500036240235908
 30
0.0
 41
1.0
 10
-16.12422981802816
 20
0.2500072480471284
 30
0.0
 41
1.0
 10
-16.51118203901539
 20
0.250010872070666
 30
0.0
 41
1.0
 10
-16.51772225645369
 20
0.2566153644480362
 30
0.0
 41
1.0
 10
-16.52419975630377
 20
0.2631486551174671
 30
0.0
 41
1.0
 10
-16.53061398830011
 20
0.2696114810582859
 30
0.0
 41
1.0
 10
-16.54441901351687
 20
0.2835210925496234
 30
0.0
 41
1.0
 10
-16.55787346397775
 20
0.2970466471796751
 30
0.0
 41
1.0
 10
-16.57105987726857
 20
0.3103215819842209
 30
0.0
 41
1.0
 10
-16.56139845965501
 20
1.318141618829903
 30
0.0
 41
1.0
 10
-16.52363570815179
 20
3.333347502756594
 30
0.0
 41
1.0
 10
-16.44929778753035
 20
5.347536258430443
 30
0.0
 41
1.0
 10
-16.40273206363293
 20
6.354199404712721
 30
0.0
 41
1.0
 10
-16.19058424382096
 20
10.95685245817554
 30
0.0
 41
0.9999999999999999
 10
-15.97843642400898
 20
15.55950551163836
 30
0.0
 41
0.9999999999999999
 10
-15.76628860419701
 20
20.16215856510117
 30
0.0
 41
0.9999999999999999
 10
-15.67156214835462
 20
20.00649902601541
 30
0.0
 41
0.9999999999999999
 10
-15.36034528240066
 20
19.78730959564484
 30
0.0
 41
0.9999999999999999
 10
-14.79673067736148
 20
19.79188236892829
 30
0.0
 41
0.9999999999999999
 10
-14.47152774548973
 20
19.95963041734035
 30
0.0
 41
0.9999999999999999
 10
-14.3199800166937
 20
20.05669071111623
 30
0.0
 41
0.9999999999999999
 10
-14.29407703167498
 20
20.07328054295049
 30
0.0
 41
0.9999999999999999
 10
-14.26874602938182
 20
20.07535859351085
 30
0.0
 41
0.9999999999999999
 10
-14.2701300889737
 20
20.04532955335944
 30
0.0
 41
0.9999999999999999
  0
SPLINE
  5
A2
330
1F
100
AcDbEntity
  8
Layer 01
100
AcDbSpline
210
0.0
220
0.0
230
1.0
 70
    11
 71
     3
 72
    15
 73
    11
 74
     0
 42
0.000000001
 43
0.0000000001
 40
0.0
 40
0.0
 40
0.0
 40
0.0
 40
1.0
 40
2.0
 40
3.0
 40
4.0
 40
5.0
 40
6.0
 40
7.0
 40
8.0
 40
8.0
 40
8.0
 40
8.0
 10
-15.2108621228537
 20
21.71398520383038
 30
0.0
 10
-15.43783833177709
 20
21.7137814752581
 30
0.0
 10
-15.89024731176696
 20
21.52576248319279
 30
0.0
 10
-16.18440358775243
 20
20.85200774329174
 30
0.0
 10
-15.91366327714077
 20
20.16442462072832
 30
0.0
 10
-15.23041949358522
 20
19.88361850406402
 30
0.0
 10
-14.55180602360054
 20
20.16564699216185
 30
0.0
 10
-14.25764974761494
 20
20.83940173206305
 30
0.0
 10
-14.52839005822663
 20
21.52698485462643
 30
0.0
 10
-14.98388591393031
 20
21.71418893240265
 30
0.0
 10
-15.2108621228537
 20
21.71398520383038
 30
0.0
  0
SPLINE
  5
A3
330
1F
100
AcDbEntity
  8
Layer 01
100
AcDbSpline
210
0.0
220
0.0
230
1.0
 70
     8
 71
     3
 72
     9
 73
     5
 74
     0
 42
0.000000001
 43
0.0000000001
 40
0.0
 40
0.0
 40
0.0
 40
0.0
 40
1.0
 40
2.0
 40
2.0
 40
2.0
 40
2.0
 10
-10.01301972582106
 20
10.02388010049205
 30
0.0
 10
-10.46758559223929
 20
10.42228119765289
 30
0.0
 10
-11.32757975376864
 20
11.27805984146724
 30
0.0
 10
-12.02525251193431
 20
12.27171771457688
 30
0.0
 10
-12.33302081021106
 20
12.79191712015075
 30
0.0
  0
SPLINE
  5
A4
330
1F
100
AcDbEntity
  8
Layer 01
100
AcDbSpline
210
0.0
220
0.0
230
1.0
 70
    24
 71
     2
 72
     6
 73
     3
 74
     0
 42
0.000000001
 43
0.0000000001
 40
-13.91474365925737
 40
-13.91474365925737
 40
-13.91474365925737
 40
-4.644426422396344
 40
-4.644426422396344
 40
-4.644426422396344
 10
-14.82139619762255
 20
8.084867584887308
 30
0.0
 10
-11.39717513106977
 20
7.76103156997071
 30
0.0
 10
-7.972954064516978
 20
7.437195555054113
 30
0.0
  0
SPLINE
  5
A5
330
1F
100
AcDbEntity
  8
Layer 01
100
AcDbSpline
210
0.0
220
0.0
230
1.0
 70
    12
 71
     3
 72
    28
 73
    24
 74
     0
 42
0.000000001
 43
0.0000000001
 40
-2.286070685659266
 40
-2.286070685659266
 40
-2.286070685659266
 40
-2.286070685659266
 40
0.0
 40
0.0
 40
0.0
 40
1.0
 40
2.0
 40
2.0
 40
2.0
 40
2.085700059888161
 40
2.085700059888161
 40
2.085700059888161
 40
3.284181643074909
 40
3.284181643074909
 40
3.284181643074909
 40
3.365152183514944
 40
3.365152183514944
 40
3.365152183514944
 40
4.365152302724248
 40
5.365152183514946
 40
5.365152183514946
 40
5.365152183514946
 40
5.630742193596632
 40
5.630742193596632
 40
5.630742193596632
 40
5.630742193596632
 10
-14.65291250310595
 20
7.911074917862189
 30
0.0
 41
1.0
 10
-14.69298793879186
 20
7.173914139336081
 30
0.0
 41
1.0
 10
-14.73306337447778
 20
6.436753360809974
 30
0.0
 41
1.0
 10
-14.7731388101637
 20
5.699592582283866
 30
0.0
 41
1.0
 10
-14.82192631904224
 20
4.802183557371168
 30
0.0
 41
1.0
 10
-14.90426739714648
 20
3.006537302453208
 30
0.0
 41
1.0
 10
-14.95611521186953
 20
1.209752050063758
 30
0.0
 41
1.0
 10
-14.9744167797537
 20
0.3112042096279701
 30
0.0
 41
1.0
 10
-14.95442082186037
 20
0.2908028064186414
 30
0.0
 41
1.0
 10
-14.93442486396703
 20
0.2704014032093127
 30
0.0
 41
1.0
 10
-14.9144289060737
 20
0.249999999999984
 30
0.0
 41
1.0
 10
-14.51493504501167
 20
0.2500004174069179
 30
0.0
 41
1.0
 10
-14.11544118394963
 20
0.2500008348138518
 30
0.0
 41
1.0
 10
-13.7159473228876
 20
0.2500012522207857
 30
0.0
 41
1.0
 10
-13.69602865754963
 20
0.2682143407975257
 30
0.0
 41
1.0
 10
-13.67610999221167
 20
0.2864274293742657
 30
0.0
 41
1.0
 10
-13.6561913268737
 20
0.3046405179510057
 30
0.0
 41
1.0
 10
-13.57750296208667
 20
1.189468913829755
 30
0.0
 41
1.0
 10
-13.43529345482562
 20
2.960474396480761
 30
0.0
 41
1.0
 10
-13.32349316527829
 20
4.733659567791787
 30
0.0
 41
1.0
 10
-13.27528251153605
 20
5.620670787810823
 30
0.0
 41
1.0
 10
-13.27062666497743
 20
5.706312101423483
 30
0.0
 41
1.0
 10
-13.2659708184188
 20
5.791953415036144
 30
0.0
 41
1.0
 10
-13.26131497186018
 20
5.877594728648804
 30
0.0
 41
1.0
  0
SPLINE
  5
A6
330
1F
100
AcDbEntity
  8
Layer 01
100
AcDbSpline
210
0.0
220
0.0
230
1.0
 70
    15
 71
     2
 72
    18
 73
    15
 74
     0
 42
0.000000001
 43
0.0000000001
 40
0.0
 40
0.0
 40
0.0
 40
0.0969920590819861
 40
0.0969920590819861
 40
0.67602763382841
 40
0.67602763382841
 40
1.255063208574834
 40
1.255063208574834
 40
1.35205526765682
 40
1.35205526765682
 40
1.541115303969303
 40
1.541115303969303
 40
2.416115303969304
 40
2.416115303969304
 40
2.605175340281787
 40
2.605175340281787
 40
2.605175340281787
 10
-14.74234953297963
 20
0.0610322106002155
 30
0.0
 41
1.0
 10
-14.74044227639837
 20
0.0000000000000062
 30
0.0
 41
0.7180650222569817
 10
-14.67938027218613
 20
0.0000000000000053
 30
0.0
 41
1.0
 10
-14.67938027218613
 20
0.0000000000000075
 30
0.0
 41
0.7071067811865476
 10
-14.31075477639833
 20
0.0000000000000071
 30
0.0
 41
1.0
 10
-13.94212928061053
 20
0.0000000000000075
 30
0.0
 41
0.7071067811865476
 10
-13.94212928061053
 20
0.0000000000000053
 30
0.0
 41
1.0
 10
-13.88106727639829
 20
0.0000000000000049
 30
0.0
 41
0.7180650222569821
 10
-13.87916001981703
 20
0.0610322106002155
 30
0.0
 41
1.0
 10
-13.87620739810768
 20
0.1555161053001104
 30
0.0
 41
1.0
 10
-13.87325477639833
 20
0.2500000000000053
 30
0.0
 41
1.0
 10
-14.31075477639833
 20
0.2500000000000053
 30
0.0
 41
1.0
 10
-14.74825477639833
 20
0.2500000000000053
 30
0.0
 41
1.0
 10
-14.74530215468898
 20
0.1555161053001104
 30
0.0
 41
1.0
 10
-14.74234953297963
 20
0.0610322106002155
 30
0.0
 41
1.0
  0
SPLINE
  5
A7
330
1F
100
AcDbEntity
  8
Layer 01
100
AcDbSpline
210
0.0
220
0.0
230
1.0
 70
    15
 71
     2
 72
    18
 73
    15
 74
     0
 42
0.000000001
 43
0.0000000001
 40
0.0
 40
0.0
 40
0.0
 40
0.0969920590819861
 40
0.0969920590819861
 40
0.67602763382841
 40
0.67602763382841
 40
1.255063208574834
 40
1.255063208574834
 40
1.35205526765682
 40
1.35205526765682
 40
1.541115303969303
 40
1.541115303969303
 40
2.416115303969304
 40
2.416115303969304
 40
2.605175340281787
 40
2.605175340281787
 40
2.605175340281787
 10
-16.359366989395
 20
0.0610322106002155
 30
0.0
 41
1.0
 10
-16.35745973281374
 20
0.0000000000000062
 30
0.0
 41
0.7180650222569817
 10
-16.2963977286015
 20
0.0000000000000053
 30
0.0
 41
1.0
 10
-16.2963977286015
 20
0.0000000000000075
 30
0.0
 41
0.7071067811865476
 10
-15.9277722328137
 20
0.0000000000000071
 30
0.0
 41
1.0
 10
-15.5591467370259
 20
0.0000000000000075
 30
0.0
 41
0.7071067811865476
 10
-15.5591467370259
 20
0.0000000000000053
 30
0.0
 41
1.0
 10
-15.49808473281366
 20
0.0000000000000049
 30
0.0
 41
0.7180650222569821
 10
-15.4961774762324
 20
0.0610322106002155
 30
0.0
 41
1.0
 10
-15.49322485452305
 20
0.1555161053001104
 30
0.0
 41
1.0
 10
-15.4902722328137
 20
0.2500000000000053
 30
0.0
 41
1.0
 10
-15.9277722328137
 20
0.2500000000000053
 30
0.0
 41
1.0
 10
-16.3652722328137
 20
0.2500000000000053
 30
0.0
 41
1.0
 10
-16.36231961110435
 20
0.1555161053001104
 30
0.0
 41
1.0
 10
-16.359366989395
 20
0.0610322106002155
 30
0.0
 41
1.0
  0
SPLINE
  5
A8
330
1F
100
AcDbEntity
  8
Layer 01
100
AcDbSpline
210
0.0
220
0.0
230
1.0
 70
    24
 71
     2
 72
     6
 73
     3
 74
     0
 42
0.000000001
 43
0.0000000001
 40
-13.03631227202305
 40
-13.03631227202305
 40
-13.03631227202305
 40
-4.910612597262927
 40
-4.910612597262927
 40
-4.910612597262927
 10
-14.08754859987457
 20
18.31056497763126
 30
0.0
 10
-14.30121716014374
 20
14.380275024728
 30
0.0
 10
-14.51488572041292
 20
10.44998507182475
 30
0.0
  0
SPLINE
  5
A9
330
1F
100
AcDbEntity
  8
Layer 01
100
AcDbSpline
210
0.0
220
0.0
230
1.0
 70
     8
 71
     3
 72
    47
 73
    43
 74
     0
 42
0.000000001
 43
0.0000000001
 40
-15.0
 40
-15.0
 40
-15.0
 40
-15.0
 40
-14.0
 40
-13.0
 40
-12.0
 40
-11.0
 40
-10.0
 40
-10.0
 40
-10.0
 40
-9.0
 40
-8.0
 40
-7.0
 40
-6.0
 40
-5.0
 40
-4.0
 40
-4.0
 40
-4.0
 40
-3.0
 40
-2.0
 40
-1.0
 40
0.0
 40
0.0
 40
0.0
 40
1.0
 40
2.0
 40
3.0
 40
4.0
 40
4.0
 40
4.0
 40
5.0
 40
6.0
 40
7.0
 40
8.0
 40
9.0
 40
10.0
 40
10.0
 40
10.0
 40
11.0
 40
12.0
 40
13.0
 40
14.0
 40
15.0
 40
15.0
 40
15.0
 40
15.0
 10
14.33286596652701
 20
21.20542900223926
 30
0.0
 10
14.17066588897238
 20
20.84834643652606
 30
0.0
 10
14.04412630135794
 20
20.07174303102256
 30
0.0
 10
13.85002966932166
 20
18.91722732776032
 30
0.0
 10
13.6636078876043
 20
17.75878818090289
 30
0.0
 10
13.46672649354051
 20
16.6028083890029
 30
0.0
 10
13.33359857272949
 20
15.82324970392316
 30
0.0
 10
13.25761617694816
 20
15.43977706187083
 30
0.0
 10
13.16824371421148
 20
14.98872660393329
 30
0.0
 10
12.95035152375876
 20
14.09342293375023
 30
0.0
 10
12.41364405946086
 20
12.81460721039755
 30
0.0
 10
11.56978507521885
 20
11.70362814215933
 30
0.0
 10
10.42100952430698
 20
10.91137130337525
 30
0.0
 10
9.115328988187843
 20
10.44201535000791
 30
0.0
 10
8.206838832753133
 20
10.28408601928114
 30
0.0
 10
7.750000002043706
 20
10.23181762415058
 30
0.0
 10
7.107670162903732
 20
10.1583266081085
 30
0.0
 10
5.817528531654304
 20
10.06568375236146
 30
0.0
 10
3.878595816412548
 20
10.01646313791429
 30
0.0
 10
1.939359358297272
 20
9.996576376269637
 30
0.0
 10
0.6464445959938918
 20
9.99599761392376
 30
0.0
 10
0.0
 20
9.995948435711435
 30
0.0
 10
-0.6464445959938918
 20
9.99599761392376
 30
0.0
 10
-1.939359358297272
 20
9.996576376269637
 30
0.0
 10
-3.878595816412548
 20
10.01646313791429
 30
0.0
 10
-5.817528531654304
 20
10.06568375236146
 30
0.0
 10
-7.107670162903732
 20
10.1583266081085
 30
0.0
 10
-7.750000002043706
 20
10.23181762415058
 30
0.0
 10
-8.206838832753133
 20
10.28408601928114
 30
0.0
 10
-9.115328988187843
 20
10.44201535000791
 30
0.0
 10
-10.42100952430698
 20
10.91137130337525
 30
0.0
 10
-11.56978507521885
 20
11.70362814215933
 30
0.0
 10
-12.41364405946086
 20
12.81460721039755
 30
0.0
 10
-12.95035152375876
 20
14.09342293375023
 30
0.0
 10
-13.16824371421148
 20
14.98872660393329
 30
0.0
 10
-13.25761617694816
 20
15.43977706187083
 30
0.0
 10
-13.33359857272949
 20
15.82324970392316
 30
0.0
 10
-13.46672649354051
 20
16.6028083890029
 30
0.0
 10
-13.6636078876043
 20
17.75878818090289
 30
0.0
 10
-13.85002966932166
 20
18.91722732776032
 30
0.0
 10
-14.04412630135794
 20
20.07174303102256
 30
0.0
 10
-14.17066588897238
 20
20.84834643652606
 30
0.0
 10
-14.33286596652701
 20
21.20542900223926
 30
0.0
  0
SPLINE
  5
AA
330
1F
100
AcDbEntity
  8
Layer 01
100
AcDbSpline
210
0.0
220
0.0
230
1.0
 70
    12
 71
     3
 72
    36
 73
    32
 74
     0
 42
0.000000001
 43
0.0000000001
 40
-0.4429341688611516
 40
-0.4429341688611516
 40
-0.4429341688611516
 40
-0.4429341688611516
 40
0.0000000000000001
 40
0.0000000000000001
 40
0.0000000000000001
 40
1.0
 40
2.0
 40
2.0
 40
2.0
 40
3.0
 40
4.0
 40
4.0
 40
4.0
 40
5.0
 40
6.0
 40
7.0
 40
8.0
 40
9.0
 40
10.0
 40
11.0
 40
11.0
 40
11.0
 40
12.0
 40
13.0
 40
13.0
 40
13.0
 40
14.0
 40
15.0
 40
16.0
 40
17.0
 40
18.0
 40
18.0
 40
18.0
 40
18.0
 10
15.82411965193142
 20
18.03978710308303
 30
0.0
 41
1.0
 10
15.97245219859916
 20
18.01786200627994
 30
0.0
 41
0.9697025283930051
 10
16.12057812057911
 20
18.04114215895013
 30
0.0
 41
0.9697025283930051
 10
16.25503389512495
 20
18.10751157180002
 30
0.0
 41
1.0
 10
16.54596911279959
 20
18.25112161487657
 30
0.0
 41
1.0
 10
17.06722007636592
 20
18.65525124669739
 30
0.0
 41
1.0
 10
17.41615240185579
 20
19.21179354312308
 30
0.0
 41
1.0
 10
17.55458435295311
 20
19.50435367286626
 30
0.0
 41
1.0
 10
17.59330425177998
 20
19.5861837600292
 30
0.0
 41
1.0
 10
17.66821668764678
 20
19.75735290432745
 30
0.0
 41
1.0
 10
17.66205592541669
 20
19.97328715393661
 30
0.0
 41
1.0
 10
17.64806660179403
 20
20.0629564168751
 30
0.0
 41
1.0
 10
17.60230851256417
 20
20.35625824085104
 30
0.0
 41
1.0
 10
17.46728114296304
 20
20.93667558972633
 30
0.0
 41
1.0
 10
17.0979035268341
 20
21.75381121562536
 30
0.0
 41
1.0
 10
16.51675144632845
 20
22.44324693567653
 30
0.0
 41
1.0
 10
15.73651218919507
 20
22.90105034213864
 30
0.0
 41
1.0
 10
14.83650187702251
 20
23.04123992561015
 30
0.0
 41
1.0
 10
13.96433449558896
 20
22.77473487700184
 30
0.0
 41
1.0
 10
13.49948057186464
 20
22.38857797313911
 30
0.0
 41
1.0
 10
13.3095194487497
 20
22.160462869711
 30
0.0
 41
1.0
 10
13.01601534890561
 20
21.80800802529531
 30
0.0
 41
1.0
 10
12.40252612311138
 20
21.12483654494247
 30
0.0
 41
1.0
 10
11.78043195086633
 20
20.45071049902553
 30
0.0
 41
1.0
 10
11.45753606734558
 20
20.12500377092751
 30
0.0
 41
1.0
 10
11.34831140476216
 20
20.01482829550876
 30
0.0
 41
1.0
 10
11.15343485782824
 20
19.77206584614652
 30
0.0
 41
1.0
 10
10.92461912939214
 20
19.36538439174423
 30
0.0
 41
1.0
 10
10.76003547912142
 20
18.92918334472527
 30
0.0
 41
1.0
 10
10.64148416086874
 20
18.47902041778248
 30
0.0
 41
1.0
 10
10.57374042112387
 20
18.17640276025649
 30
0.0
 41
1.0
 10
10.54171286056491
 20
18.02467288774242
 30
0.0
 41
1.0
  0
SPLINE
  5
AB
330
1F
100
AcDbEntity
  8
Layer 01
100
AcDbSpline
210
0.0
220
0.0
230
1.0
 70
     8
 71
     3
 72
    57
 73
    53
 74
     0
 42
0.000000001
 43
0.0000000001
 40
-18.0
 40
-18.0
 40
-18.0
 40
-18.0
 40
-17.0
 40
-16.0
 40
-15.0
 40
-14.0
 40
-13.0
 40
-12.0
 40
-11.0
 40
-11.0
 40
-11.0
 40
-10.0
 40
-9.0
 40
-9.0
 40
-9.0
 40
-8.0
 40
-7.0
 40
-6.0
 40
-5.0
 40
-4.0
 40
-3.0
 40
-3.0
 40
-3.0
 40
-2.0
 40
-1.0
 40
0.0
 40
0.0
 40
0.0
 40
1.0
 40
2.0
 40
3.0
 40
3.0
 40
3.0
 40
4.0
 40
5.0
 40
6.0
 40
7.0
 40
8.0
 40
9.0
 40
9.0
 40
9.0
 40
10.0
 40
11.0
 40
11.0
 40
11.0
 40
12.0
 40
13.0
 40
14.0
 40
15.0
 40
16.0
 40
17.0
 40
18.0
 40
18.0
 40
18.0
 40
18.0
 10
17.65157301366511
 20
20.04112536034413
 30
0.0
 10
17.60089431722622
 20
20.32389438815177
 30
0.0
 10
17.38467177990485
 20
20.85867167313258
 30
0.0
 10
16.93804818305401
 20
21.59519697772058
 30
0.0
 10
16.37633685986606
 20
22.24911264199497
 30
0.0
 10
15.65984611115729
 20
22.75126060833814
 30
0.0
 10
14.75932485308643
 20
22.83261156380415
 30
0.0
 10
14.01405474363697
 20
22.30743162097962
 30
0.0
 10
13.80897911459422
 20
21.73962399428718
 30
0.0
 10
13.7345995954137
 20
21.4658847058898
 30
0.0
 10
13.48058171951221
 20
20.53102154254072
 30
0.0
 10
13.13707035400047
 20
18.6242164582189
 30
0.0
 10
12.75523923570198
 20
16.72637304189102
 30
0.0
 10
12.5688743497537
 20
15.77627107191686
 30
0.0
 10
12.49492833568288
 20
15.39928882398461
 30
0.0
 10
12.2914640468924
 20
14.64453265991607
 30
0.0
 10
11.80626691077395
 20
13.59279650631765
 30
0.0
 10
11.0538667611213
 20
12.69595291887397
 30
0.0
 10
10.0196454091027
 20
12.15059793026176
 30
0.0
 10
8.900008377598331
 20
11.86183564903975
 30
0.0
 10
8.133537107281258
 20
11.7851065561379
 30
0.0
 10
7.750000374823697
 20
11.76471855915805
 30
0.0
 10
6.890527688571503
 20
11.71903081910954
 30
0.0
 10
5.164023262873201
 20
11.65992294778993
 30
0.0
 10
2.582026631436534
 20
11.63391289248319
 30
0.0
 10
0.8606751972086453
 20
11.63591656329096
 30
0.0
 10
0.0
 20
11.63583293254376
 30
0.0
 10
-0.8606751972086453
 20
11.63591656329096
 30
0.0
 10
-2.582026631436534
 20
11.63391289248319
 30
0.0
 10
-5.164023262873201
 20
11.65992294778993
 30
0.0
 10
-6.890527688571503
 20
11.71903081910954
 30
0.0
 10
-7.750000374823697
 20
11.76471855915805
 30
0.0
 10
-8.133537107281258
 20
11.7851065561379
 30
0.0
 10
-8.900008377598331
 20
11.86183564903975
 30
0.0
 10
-10.0196454091027
 20
12.15059793026176
 30
0.0
 10
-11.0538667611213
 20
12.69595291887397
 30
0.0
 10
-11.80626691077395
 20
13.59279650631765
 30
0.0
 10
-12.2914640468924
 20
14.64453265991607
 30
0.0
 10
-12.49492833568288
 20
15.39928882398461
 30
0.0
 10
-12.5688743497537
 20
15.77627107191686
 30
0.0
 10
-12.75523923570198
 20
16.72637304189102
 30
0.0
 10
-13.13707035400047
 20
18.6242164582189
 30
0.0
 10
-13.48058171951221
 20
20.53102154254072
 30
0.0
 10
-13.7345995954137
 20
21.4658847058898
 30
0.0
 10
-13.80897911459422
 20
21.73962399428718
 30
0.0
 10
-14.01405474363697
 20
22.30743162097962
 30
0.0
 10
-14.75932485308643
 20
22.83261156380415
 30
0.0
 10
-15.65984611115729
 20
22.75126060833814
 30
0.0
 10
-16.37633685986606
 20
22.24911264199497
 30
0.0
 10
-16.93804818305401
 20
21.59519697772058
 30
0.0
 10
-17.38467177990485
 20
20.85867167313258
 30
0.0
 10
-17.60089431722622
 20
20.32389438815177
 30
0.0
 10
-17.65157301366511
 20
20.04112536034413
 30
0.0
  0
SPLINE
  5
AC
330
1F
100
AcDbEntity
  8
Layer 01
100
AcDbSpline
210
0.0
220
0.0
230
1.0
 70
    12
 71
     3
 72
    36
 73
    32
 74
     0
 42
0.000000001
 43
0.0000000001
 40
-0.4429341688611516
 40
-0.4429341688611516
 40
-0.4429341688611516
 40
-0.4429341688611516
 40
0.0000000000000001
 40
0.0000000000000001
 40
0.0000000000000001
 40
1.0
 40
2.0
 40
2.0
 40
2.0
 40
3.0
 40
4.0
 40
4.0
 40
4.0
 40
5.0
 40
6.0
 40
7.0
 40
8.0
 40
9.0
 40
10.0
 40
11.0
 40
11.0
 40
11.0
 40
12.0
 40
13.0
 40
13.0
 40
13.0
 40
14.0
 40
15.0
 40
16.0
 40
17.0
 40
18.0
 40
18.0
 40
18.0
 40
18.0
 10
-15.82411965193142
 20
18.03978710308303
 30
0.0
 41
1.0
 10
-15.97245219859916
 20
18.01786200627994
 30
0.0
 41
0.9697025283930051
 10
-16.12057812057911
 20
18.04114215895013
 30
0.0
 41
0.9697025283930051
 10
-16.25503389512495
 20
18.10751157180002
 30
0.0
 41
1.0
 10
-16.54596911279959
 20
18.25112161487657
 30
0.0
 41
1.0
 10
-17.06722007636592
 20
18.65525124669739
 30
0.0
 41
1.0
 10
-17.41615240185579
 20
19.21179354312308
 30
0.0
 41
1.0
 10
-17.55458435295311
 20
19.50435367286626
 30
0.0
 41
1.0
 10
-17.59330425177998
 20
19.5861837600292
 30
0.0
 41
1.0
 10
-17.66821668764678
 20
19.75735290432745
 30
0.0
 41
1.0
 10
-17.66205592541669
 20
19.97328715393661
 30
0.0
 41
1.0
 10
-17.64806660179403
 20
20.0629564168751
 30
0.0
 41
1.0
 10
-17.60230851256417
 20
20.35625824085104
 30
0.0
 41
1.0
 10
-17.46728114296304
 20
20.93667558972633
 30
0.0
 41
1.0
 10
-17.0979035268341
 20
21.75381121562536
 30
0.0
 41
1.0
 10
-16.51675144632845
 20
22.44324693567653
 30
0.0
 41
1.0
 10
-15.73651218919507
 20
22.90105034213864
 30
0.0
 41
1.0
 10
-14.83650187702251
 20
23.04123992561015
 30
0.0
 41
1.0
 10
-13.96433449558896
 20
22.77473487700184
 30
0.0
 41
1.0
 10
-13.49948057186464
 20
22.38857797313911
 30
0.0
 41
1.0
 10
-13.3095194487497
 20
22.160462869711
 30
0.0
 41
1.0
 10
-13.01601534890561
 20
21.80800802529531
 30
0.0
 41
1.0
 10
-12.40252612311138
 20
21.12483654494247
 30
0.0
 41
1.0
 10
-11.78043195086633
 20
20.45071049902553
 30
0.0
 41
1.0
 10
-11.45753606734558
 20
20.12500377092751
 30
0.0
 41
1.0
 10
-11.34831140476216
 20
20.01482829550876
 30
0.0
 41
1.0
 10
-11.15343485782824
 20
19.77206584614652
 30
0.0
 41
1.0
 10
-10.92461912939214
 20
19.36538439174423
 30
0.0
 41
1.0
 10
-10.76003547912142
 20
18.92918334472527
 30
0.0
 41
1.0
 10
-10.64148416086874
 20
18.47902041778248
 30
0.0
 41
1.0
 10
-10.57374042112387
 20
18.17640276025649
 30
0.0
 41
1.0
 10
-10.54171286056491
 20
18.02467288774242
 30
0.0
 41
1.0
  0
SPLINE
  5
AD
330
1F
100
AcDbEntity
  8
Layer 01
100
AcDbSpline
210
0.0
220
0.0
230
1.0
 70
     8
 71
     3
 72
    35
 73
    31
 74
     0
 42
0.000000001
 43
0.0000000001
 40
-4.0
 40
-4.0
 40
-4.0
 40
-4.0
 40
-3.0
 40
-2.0
 40
-1.0
 40
0.0
 40
0.0
 40
0.0
 40
1.016297109862482
 40
1.016297109862482
 40
1.016297109862482
 40
2.016297109862482
 40
3.016297109862482
 40
4.016297109862482
 40
6.016297109862482
 40
6.016297109862482
 40
6.016297109862482
 40
8.016297109862483
 40
9.016297109862483
 40
10.01629710986248
 40
11.01629710986248
 40
11.01629710986248
 40
11.01629710986248
 40
12.03259421972496
 40
12.03259421972496
 40
12.03259421972496
 40
13.03259421972496
 40
14.03259421972496
 40
15.03259421972496
 40
16.03259421972496
 40
16.03259421972496
 40
16.03259421972496
 40
16.03259421972496
 10
-15.72340006516654
 20
22.84565099824318
 30
0.0
 10
-15.87062836612124
 20
23.6767167036549
 30
0.0
 10
-16.01444222540541
 20
25.35903422209187
 30
0.0
 10
-16.24016837249227
 20
27.8792107304563
 30
0.0
 10
-16.4260234553
 20
30.40339230632247
 30
0.0
 10
-16.51876235438753
 20
32.08808646974759
 30
0.0
 10
-16.5494474411237
 20
32.93114657972406
 30
0.0
 10
-16.58798585679127
 20
33.98997366502357
 30
0.0
 10
-16.33004026344794
 20
34.62274106229654
 30
0.0
 10
-15.1372633167037
 20
34.60323811635012
 30
0.0
 10
-14.12818702811526
 20
34.58673883677746
 30
0.0
 10
-12.10986973161525
 20
34.56777730023991
 30
0.0
 10
-9.082220115753346
 20
34.57732875890255
 30
0.0
 10
-6.054565125855603
 20
34.58575119398283
 30
0.0
 10
-3.027608247158764
 20
34.67414994394728
 30
0.0
 10
0.0
 20
34.67414994394728
 30
0.0
 10
3.027608247158764
 20
34.67414994394728
 30
0.0
 10
6.054565125855603
 20
34.58575119398283
 30
0.0
 10
9.082220115753346
 20
34.57732875890255
 30
0.0
 10
12.10986973161525
 20
34.56777730023991
 30
0.0
 10
14.12818702811526
 20
34.58673883677746
 30
0.0
 10
15.1372633167037
 20
34.60323811635012
 30
0.0
 10
16.33004026344794
 20
34.62274106229654
 30
0.0
 10
16.58798585679127
 20
33.98997366502357
 30
0.0
 10
16.5494474411237
 20
32.93114657972406
 30
0.0
 10
16.51876235438753
 20
32.08808646974759
 30
0.0
 10
16.4260234553
 20
30.40339230632247
 30
0.0
 10
16.24016837249227
 20
27.8792107304563
 30
0.0
 10
16.01444222540541
 20
25.35903422209187
 30
0.0
 10
15.87062836612124
 20
23.6767167036549
 30
0.0
 10
15.72340006516654
 20
22.84565099824318
 30
0.0
  0
SPLINE
  5
AE
330
1F
100
AcDbEntity
  8
Layer 01
100
AcDbSpline
210
0.0
220
0.0
230
1.0
 70
     8
 71
     3
 72
    35
 73
    31
 74
     0
 42
0.000000001
 43
0.0000000001
 40
0.0
 40
0.0
 40
0.0
 40
0.0
 40
1.0
 40
2.0
 40
3.0
 40
4.0
 40
5.0
 40
6.0
 40
7.0
 40
8.0
 40
9.0
 40
10.0
 40
10.0
 40
10.0
 40
16.7500000020437
 40
16.7500000020437
 40
16.7500000020437
 40
23.5000000040874
 40
23.5000000040874
 40
23.5000000040874
 40
24.5000000040874
 40
25.5000000040874
 40
26.5000000040874
 40
27.5000000040874
 40
28.5000000040874
 40
29.5000000040874
 40
30.5000000040874
 40
31.5000000040874
 40
32.5000000040874
 40
33.5000000040874
 40
33.5000000040874
 40
33.5000000040874
 40
33.5000000040874
 10
-11.73461733856041
 20
15.38064280622366
 30
0.0
 10
-11.63191429791502
 20
15.49923350026119
 30
0.0
 10
-11.32238308494352
 20
15.5690942829854
 30
0.0
 10
-10.8735876323553
 20
15.63847750202841
 30
0.0
 10
-10.41555748882266
 20
15.68024162134708
 30
0.0
 10
-9.958510370054483
 20
15.71277672397465
 30
0.0
 10
-9.500473018214695
 20
15.73669160381995
 30
0.0
 10
-9.042292070138908
 20
15.75451173324147
 30
0.0
 10
-8.583933134229948
 20
15.76801898843745
 30
0.0
 10
-8.12550823411073
 20
15.77859862855833
 30
0.0
 10
-7.667034415748056
 20
15.78690123090063
 30
0.0
 10
-7.208547732898736
 20
15.7972805960342
 30
0.0
 10
-6.750000002043699
 20
15.7972805960342
 30
0.0
 10
-4.500000001362466
 20
15.79728059603419
 30
0.0
 10
-2.250000000681233
 20
15.79728059603419
 30
0.0
 10
0.0
 20
15.79728059603419
 30
0.0
 10
2.250000000681233
 20
15.79728059603419
 30
0.0
 10
4.500000001362466
 20
15.79728059603419
 30
0.0
 10
6.750000002043699
 20
15.7972805960342
 30
0.0
 10
7.208547732898736
 20
15.7972805960342
 30
0.0
 10
7.667034415748056
 20
15.78690123090063
 30
0.0
 10
8.12550823411073
 20
15.77859862855833
 30
0.0
 10
8.583933134229948
 20
15.76801898843745
 30
0.0
 10
9.042292070138908
 20
15.75451173324147
 30
0.0
 10
9.500473018214695
 20
15.73669160381995
 30
0.0
 10
9.958510370054483
 20
15.71277672397465
 30
0.0
 10
10.41555748882266
 20
15.68024162134708
 30
0.0
 10
10.8735876323553
 20
15.63847750202841
 30
0.0
 10
11.32238308494352
 20
15.5690942829854
 30
0.0
 10
11.63191429791502
 20
15.49923350026119
 30
0.0
 10
11.73461733856041
 20
15.38064280622366
 30
0.0
  0
SPLINE
  5
AF
330
1F
100
AcDbEntity
  8
Layer 01
100
AcDbSpline
210
0.0
220
0.0
230
1.0
 70
    11
 71
     3
 72
    55
 73
    51
 74
     0
 42
0.000000001
 43
0.0000000001
 40
-7.920681379659094
 40
-7.920681379659094
 40
-7.920681379659094
 40
-7.920681379659094
 40
-6.920681379659094
 40
-6.920681379659094
 40
-6.920681379659094
 40
-5.920681379659094
 40
-4.920681379659094
 40
-3.920681379659094
 40
-2.920681379659094
 40
-1.920681379659094
 40
-0.9206813796590938
 40
0.0793186203409061
 40
0.0793186203409061
 40
0.0793186203409061
 40
4.053471080048035
 40
4.053471080048035
 40
4.053471080048035
 40
7.945076342356515
 40
7.945076342356515
 40
7.945076342356515
 40
11.836681604665
 40
11.836681604665
 40
11.836681604665
 40
15.81083406437212
 40
15.81083406437212
 40
15.81083406437212
 40
16.81083406437212
 40
17.81083406437212
 40
18.81083406437212
 40
19.81083406437212
 40
20.81083406437212
 40
21.81083406437212
 40
22.81083406437212
 40
22.81083406437212
 40
22.81083406437212
 40
23.81083406437212
 40
23.81083406437212
 40
23.81083406437212
 40
24.81083406437212
 40
25.81083406437212
 40
26.81083406437212
 40
27.81083406437212
 40
28.81083406437212
 40
28.81083406437212
 40
28.81083406437212
 40
29.81083406437212
 40
30.81083406437212
 40
31.81083406437212
 40
32.81083406437212
 40
33.81083406437212
 40
33.81083406437212
 40
33.81083406437212
 40
33.81083406437212
 10
11.00309325667474
 20
16.13151654779449
 30
0.0
 10
11.46845756054833
 20
15.95137210806553
 30
0.0
 10
11.82819867278754
 20
15.7551164775946
 30
0.0
 10
11.73033627264045
 20
15.34802372750071
 30
0.0
 10
11.6667965809608
 20
15.08370824180742
 30
0.0
 10
11.53019002847386
 20
14.55566219864577
 30
0.0
 10
11.17711636084512
 20
13.81401553705718
 30
0.0
 10
10.67722899969096
 20
13.16665915399087
 30
0.0
 10
10.08392305997131
 20
12.59665820372577
 30
0.0
 10
9.352700544317074
 20
12.21896577159029
 30
0.0
 10
8.56084765586039
 20
12.00996604379384
 30
0.0
 10
8.021433512454243
 20
11.93492347291904
 30
0.0
 10
7.74999962029977
 20
11.91558632686582
 30
0.0
 10
6.47197278685046
 20
11.82453877439478
 30
0.0
 10
5.199789966641891
 20
11.77316034059135
 30
0.0
 10
3.875000004500352
 20
11.75201920835514
 30
0.0
 10
2.592882109125034
 20
11.73155904127723
 30
0.0
 10
1.295174455385553
 20
11.7365703081176
 30
0.0
 10
0.0
 20
11.73660754290864
 30
0.0
 10
-1.295174455385553
 20
11.7365703081176
 30
0.0
 10
-2.592882109125034
 20
11.73155904127723
 30
0.0
 10
-3.875000004500352
 20
11.75201920835514
 30
0.0
 10
-5.199789966641891
 20
11.77316034059135
 30
0.0
 10
-6.47197278685046
 20
11.82453877439478
 30
0.0
 10
-7.74999962029977
 20
11.91558632686582
 30
0.0
 10
-8.021433512454243
 20
11.93492347291904
 30
0.0
 10
-8.56084765586039
 20
12.00996604379384
 30
0.0
 10
-9.352700544317074
 20
12.21896577159029
 30
0.0
 10
-10.08392305997131
 20
12.59665820372577
 30
0.0
 10
-10.67722899969096
 20
13.16665915399087
 30
0.0
 10
-11.17711636084512
 20
13.81401553705718
 30
0.0
 10
-11.53019002847386
 20
14.55566219864577
 30
0.0
 10
-11.6667965809608
 20
15.08370824180742
 30
0.0
 10
-11.73033627264045
 20
15.34802372750071
 30
0.0
 10
-11.82819867278754
 20
15.7551164775946
 30
0.0
 10
-11.46845756054833
 20
15.95137210806553
 30
0.0
 10
-11.00309325667474
 20
16.13151654779449
 30
0.0
 10
-10.31147085252627
 20
16.39924643051701
 30
0.0
 10
-8.835307336226686
 20
16.54770065962841
 30
0.0
 10
-6.631082613640586
 20
16.66164272909484
 30
0.0
 10
-4.420909320644218
 20
16.7424898213999
 30
0.0
 10
-2.210680438166911
 20
16.77431505103617
 30
0.0
 10
-0.7368583022114674
 20
16.77685215951509
 30
0.0
 10
0.0
 20
16.77731252889129
 30
0.0
 10
0.7368583022114674
 20
16.77685215951509
 30
0.0
 10
2.210680438166911
 20
16.77431505103617
 30
0.0
 10
4.420909320644218
 20
16.7424898213999
 30
0.0
 10
6.631082613640586
 20
16.66164272909484
 30
0.0
 10
8.835307336226686
 20
16.54770065962841
 30
0.0
 10
10.31147085252627
 20
16.39924643051701
 30
0.0
 10
11.00309325667474
 20
16.13151654779449
 30
0.0
  0
SPLINE
  5
B0
330
1F
100
AcDbEntity
  8
Layer 01
100
AcDbSpline
210
0.0
220
0.0
230
1.0
 70
     8
 71
     3
 72
    25
 73
    21
 74
     0
 42
0.000000001
 43
0.0000000001
 40
-5.0
 40
-5.0
 40
-5.0
 40
-5.0
 40
-4.0
 40
-3.0
 40
-2.0
 40
-1.0
 40
0.0
 40
0.0
 40
0.0
 40
2.938
 40
2.938
 40
2.938
 40
5.875999999999999
 40
5.875999999999999
 40
5.875999999999999
 40
6.875999999999999
 40
7.876000000000001
 40
8.876000000000001
 40
9.876000000000001
 40
10.876
 40
10.876
 40
10.876
 40
10.876
 10
-6.000146063077004
 20
20.36258467392108
 30
0.0
 10
-5.795569117200891
 20
20.36445360416825
 30
0.0
 10
-5.386324282242367
 20
20.36521952935179
 30
0.0
 10
-4.772746853331636
 20
20.35601586139008
 30
0.0
 10
-4.158621884954753
 20
20.34128872209179
 30
0.0
 10
-3.548947419526998
 20
20.26949740626687
 30
0.0
 10
-3.143075783326878
 20
20.21603561769537
 30
0.0
 10
-2.938000002086188
 20
20.21603561749676
 30
0.0
 10
-1.958666668057458
 20
20.21603561654832
 30
0.0
 10
-0.9793333340287292
 20
20.21603561559987
 30
0.0
 10
0.0
 20
20.21603561465143
 30
0.0
 10
0.9793333340287292
 20
20.21603561559987
 30
0.0
 10
1.958666668057458
 20
20.21603561654832
 30
0.0
 10
2.938000002086188
 20
20.21603561749676
 30
0.0
 10
3.143075783326878
 20
20.21603561769537
 30
0.0
 10
3.548947419526998
 20
20.26949740626687
 30
0.0
 10
4.158621884954753
 20
20.34128872209179
 30
0.0
 10
4.772746853331636
 20
20.35601586139008
 30
0.0
 10
5.386324282242367
 20
20.36521952935179
 30
0.0
 10
5.795569117200891
 20
20.36445360416825
 30
0.0
 10
6.000146063077004
 20
20.36258467392108
 30
0.0
  0
SPLINE
  5
B1
330
1F
100
AcDbEntity
  8
Layer 01
100
AcDbSpline
210
0.0
220
0.0
230
1.0
 70
     8
 71
     3
 72
    55
 73
    51
 74
     0
 42
0.000000001
 43
0.0000000001
 40
0.0
 40
0.0
 40
0.0
 40
0.0
 40
1.0
 40
2.0
 40
2.0
 40
2.0
 40
3.0
 40
4.0
 40
5.0
 40
6.0
 40
7.0
 40
7.0
 40
7.0
 40
8.0
 40
9.0
 40
10.0
 40
11.0
 40
12.0
 40
13.0
 40
14.0
 40
15.0
 40
16.0
 40
16.0
 40
16.0
 40
17.0
 40
17.0
 40
17.0
 40
18.0
 40
18.0
 40
18.0
 40
19.0
 40
20.0
 40
21.0
 40
22.0
 40
23.0
 40
24.0
 40
25.0
 40
26.0
 40
27.0
 40
27.0
 40
27.0
 40
28.0
 40
29.0
 40
30.0
 40
31.0
 40
32.0
 40
32.0
 40
32.0
 40
33.0
 40
34.0
 40
34.0
 40
34.0
 40
34.0
 10
-10.28177868995791
 20
16.34456263781492
 30
0.0
 10
-10.34572211575193
 20
16.75141240137823
 30
0.0
 10
-10.43562346638153
 20
17.57172849555023
 30
0.0
 10
-10.6164839912929
 20
18.37608390705838
 30
0.0
 10
-10.70583907622086
 20
18.77815836576436
 30
0.0
 10
-10.84265768043273
 20
19.44950180580399
 30
0.0
 10
-11.08696078918517
 20
20.80341644303571
 30
0.0
 10
-11.12998245420235
 20
22.8638315181248
 30
0.0
 10
-10.95762130470035
 20
24.91522271988648
 30
0.0
 10
-10.84326407327706
 20
26.9690366755451
 30
0.0
 10
-10.75530752975458
 20
28.33776374926279
 30
0.0
 10
-10.7128492865476
 20
29.02217285985938
 30
0.0
 10
-10.69539306168759
 20
29.30355989871008
 30
0.0
 10
-10.6590695445456
 20
29.8666343831301
 30
0.0
 10
-10.54707329782167
 20
30.70542751347791
 30
0.0
 10
-10.3260685858361
 20
31.5269234244476
 30
0.0
 10
-9.883606295859863
 20
32.26109740917147
 30
0.0
 10
-9.210329182065434
 20
32.79691147863505
 30
0.0
 10
-8.400490606765688
 20
33.07002472671282
 30
0.0
 10
-7.560191027164532
 20
33.17720581545898
 30
0.0
 10
-6.715845264808103
 20
33.2303747408062
 30
0.0
 10
-6.151966283689923
 20
33.24458776139909
 30
0.0
 10
-5.870000595856734
 20
33.24631784315135
 30
0.0
 10
-3.913340833059929
 20
33.25727107989887
 30
0.0
 10
-1.956704760705479
 20
33.27561714434296
 30
0.0
 10
0.0
 20
33.27561714434296
 30
0.0
 10
1.956704760705479
 20
33.27561714434296
 30
0.0
 10
3.913340833059929
 20
33.25727107989887
 30
0.0
 10
5.870000595856734
 20
33.24631784315135
 30
0.0
 10
6.151966283689923
 20
33.24458776139909
 30
0.0
 10
6.715845264808103
 20
33.2303747408062
 30
0.0
 10
7.560191027164532
 20
33.17720581545898
 30
0.0
 10
8.400490606765688
 20
33.07002472671282
 30
0.0
 10
9.210329182065434
 20
32.79691147863505
 30
0.0
 10
9.883606295859863
 20
32.26109740917147
 30
0.0
 10
10.3260685858361
 20
31.5269234244476
 30
0.0
 10
10.54707329782167
 20
30.70542751347791
 30
0.0
 10
10.6590695445456
 20
29.8666343831301
 30
0.0
 10
10.69539306168759
 20
29.30355989871008
 30
0.0
 10
10.7128492865476
 20
29.02217285985938
 30
0.0
 10
10.75530752975458
 20
28.33776374926279
 30
0.0
 10
10.84326407327706
 20
26.9690366755451
 30
0.0
 10
10.95762130470035
 20
24.91522271988648
 30
0.0
 10
11.12998245420235
 20
22.8638315181248
 30
0.0
 10
11.08696078918517
 20
20.80341644303571
 30
0.0
 10
10.84265768043273
 20
19.44950180580399
 30
0.0
 10
10.70583907622086
 20
18.77815836576436
 30
0.0
 10
10.6164839912929
 20
18.37608390705838
 30
0.0
 10
10.43562346638153
 20
17.57172849555023
 30
0.0
 10
10.34572211575193
 20
16.75141240137823
 30
0.0
 10
10.28177868995791
 20
16.34456263781492
 30
0.0
  0
SPLINE
  5
B2
330
1F
100
AcDbEntity
  8
Layer 01
100
AcDbSpline
210
0.0
220
0.0
230
1.0
 70
     8
 71
     3
 72
    16
 73
    12
 74
     0
 42
0.000000001
 43
0.0000000001
 40
0.0285988617268771
 40
0.0285988617268771
 40
0.0285988617268771
 40
0.0285988617268771
 40
1.0
 40
2.0
 40
2.0
 40
2.0
 40
3.0
 40
3.0
 40
3.0
 40
4.0
 40
4.984535797473884
 40
4.984535797473884
 40
4.984535797473884
 40
4.984535797473884
 10
14.8135393072983
 20
51.60492036385865
 30
0.0
 10
14.87883403429977
 20
51.24436790068398
 30
0.0
 10
15.00317132006072
 20
50.51027887454638
 30
0.0
 10
15.20825899650189
 20
49.794132162804
 30
0.0
 10
15.31885736359058
 20
49.43357074820386
 30
0.0
 10
15.53997580154602
 20
48.71270317228885
 30
0.0
 10
16.59685302412118
 20
48.89526712822286
 30
0.0
 10
16.57073236204742
 20
49.64883274356254
 30
0.0
 10
16.55482474088403
 20
50.10775818338203
 30
0.0
 10
16.46353012428493
 20
51.01587702865526
 30
0.0
 10
16.27933174595432
 20
51.90902610991474
 30
0.0
 10
16.20261365835292
 20
52.35445207742315
 30
0.0
  0
SPLINE
  5
B3
330
1F
100
AcDbEntity
  8
Layer 01
100
AcDbSpline
210
0.0
220
0.0
230
1.0
 70
     8
 71
     3
 72
    16
 73
    12
 74
     0
 42
0.000000001
 43
0.0000000001
 40
0.0285988617268771
 40
0.0285988617268771
 40
0.0285988617268771
 40
0.0285988617268771
 40
1.0
 40
2.0
 40
2.0
 40
2.0
 40
3.0
 40
3.0
 40
3.0
 40
4.0
 40
4.984535797473884
 40
4.984535797473884
 40
4.984535797473884
 40
4.984535797473884
 10
-14.8135393072983
 20
51.60492036385865
 30
0.0
 10
-14.87883403429977
 20
51.24436790068398
 30
0.0
 10
-15.00317132006072
 20
50.51027887454638
 30
0.0
 10
-15.20825899650189
 20
49.794132162804
 30
0.0
 10
-15.31885736359058
 20
49.43357074820386
 30
0.0
 10
-15.53997580154602
 20
48.71270317228885
 30
0.0
 10
-16.59685302412118
 20
48.89526712822286
 30
0.0
 10
-16.57073236204742
 20
49.64883274356254
 30
0.0
 10
-16.55482474088403
 20
50.10775818338203
 30
0.0
 10
-16.46353012428493
 20
51.01587702865526
 30
0.0
 10
-16.27933174595432
 20
51.90902610991474
 30
0.0
 10
-16.20261365835292
 20
52.35445207742315
 30
0.0
  0
SPLINE
  5
B4
330
1F
100
AcDbEntity
  8
Layer 01
100
AcDbSpline
210
0.0
220
0.0
230
1.0
 70
     8
 71
     3
 72
    30
 73
    26
 74
     0
 42
0.000000001
 43
0.0000000001
 40
0.0
 40
0.0
 40
0.0
 40
0.0
 40
1.0
 40
2.0
 40
2.0
 40
2.0
 40
3.0
 40
4.0
 40
5.0
 40
6.0
 40
7.0
 40
8.0
 40
9.0
 40
9.0
 40
9.0
 40
10.0
 40
11.0
 40
12.0
 40
13.0
 40
14.0
 40
15.0
 40
16.0
 40
17.0
 40
18.0
 40
19.0
 40
19.0
 40
19.0
 40
19.0
 10
16.03593562449015
 20
69.31967077413
 30
0.0
 10
16.39307552280023
 20
67.240923566618
 30
0.0
 10
16.95067700846283
 20
63.05819524348043
 30
0.0
 10
17.38437157228178
 20
58.86185905360084
 30
0.0
 10
17.55793940208
 20
56.75965018434779
 30
0.0
 10
17.58839523226037
 20
56.39077701009609
 30
0.0
 10
17.64742067659123
 20
55.64164964514418
 30
0.0
 10
17.69509779300744
 20
54.53146635186783
 30
0.0
 10
17.43162332857441
 20
53.42314438681279
 30
0.0
 10
16.65122434619078
 20
52.5938912433354
 30
0.0
 10
15.6789706481253
 20
52.05015633607631
 30
0.0
 10
14.68831256384256
 20
51.55294104849807
 30
0.0
 10
14.0504944158258
 20
51.16833902234275
 30
0.0
 10
13.7897944159144
 20
50.90239127433714
 30
0.0
 10
13.68433973176787
 20
50.79481384520426
 30
0.0
 10
13.50269668473972
 20
50.5494049920592
 30
0.0
 10
13.25230395050118
 20
50.17450772123674
 30
0.0
 10
12.99685304960247
 20
49.80259180409298
 30
0.0
 10
12.74284472441124
 20
49.43069697377681
 30
0.0
 10
12.48727982539791
 20
49.05631329385246
 30
0.0
 10
12.13041954807491
 20
48.77368618581215
 30
0.0
 10
11.74320608862273
 20
48.54261159295714
 30
0.0
 10
11.33342140916367
 20
48.35268164507598
 30
0.0
 10
10.91132919874513
 20
48.19347176475562
 30
0.0
 10
10.62500218113571
 20
48.10146690967734
 30
0.0
 10
10.48110739654792
 20
48.0579736941806
 30
0.0
  0
SPLINE
  5
B5
330
1F
100
AcDbEntity
  8
Layer 01
100
AcDbSpline
210
0.0
220
0.0
230
1.0
 70
     8
 71
     3
 72
    30
 73
    26
 74
     0
 42
0.000000001
 43
0.0000000001
 40
0.0
 40
0.0
 40
0.0
 40
0.0
 40
1.0
 40
2.0
 40
2.0
 40
2.0
 40
3.0
 40
4.0
 40
5.0
 40
6.0
 40
7.0
 40
8.0
 40
9.0
 40
9.0
 40
9.0
 40
10.0
 40
11.0
 40
12.0
 40
13.0
 40
14.0
 40
15.0
 40
16.0
 40
17.0
 40
18.0
 40
19.0
 40
19.0
 40
19.0
 40
19.0
 10
-16.03593562449015
 20
69.31967077413
 30
0.0
 10
-16.39307552280023
 20
67.240923566618
 30
0.0
 10
-16.95067700846283
 20
63.05819524348043
 30
0.0
 10
-17.38437157228178
 20
58.86185905360084
 30
0.0
 10
-17.55793940208
 20
56.75965018434779
 30
0.0
 10
-17.58839523226037
 20
56.39077701009609
 30
0.0
 10
-17.64742067659123
 20
55.64164964514418
 30
0.0
 10
-17.69509779300744
 20
54.53146635186783
 30
0.0
 10
-17.43162332857441
 20
53.42314438681279
 30
0.0
 10
-16.65122434619078
 20
52.5938912433354
 30
0.0
 10
-15.6789706481253
 20
52.05015633607631
 30
0.0
 10
-14.68831256384256
 20
51.55294104849807
 30
0.0
 10
-14.0504944158258
 20
51.16833902234275
 30
0.0
 10
-13.7897944159144
 20
50.90239127433714
 30
0.0
 10
-13.68433973176787
 20
50.79481384520426
 30
0.0
 10
-13.50269668473972
 20
50.5494049920592
 30
0.0
 10
-13.25230395050118
 20
50.17450772123674
 30
0.0
 10
-12.99685304960247
 20
49.80259180409298
 30
0.0
 10
-12.74284472441124
 20
49.43069697377681
 30
0.0
 10
-12.48727982539791
 20
49.05631329385246
 30
0.0
 10
-12.13041954807491
 20
48.77368618581215
 30
0.0
 10
-11.74320608862273
 20
48.54261159295714
 30
0.0
 10
-11.33342140916367
 20
48.35268164507598
 30
0.0
 10
-10.91132919874513
 20
48.19347176475562
 30
0.0
 10
-10.62500218113571
 20
48.10146690967734
 30
0.0
 10
-10.48110739654792
 20
48.0579736941806
 30
0.0
  0
SPLINE
  5
B6
330
1F
100
AcDbEntity
  8
Layer 01
100
AcDbSpline
210
0.0
220
0.0
230
1.0
 70
    12
 71
     3
 72
    35
 73
    31
 74
     0
 42
0.000000001
 43
0.0000000001
 40
-7.998741151726074
 40
-7.998741151726074
 40
-7.998741151726074
 40
-7.998741151726074
 40
-7.103486580188483
 40
-7.103486580188483
 40
-7.103486580188483
 40
-7.0
 40
-7.0
 40
-7.0
 40
-6.0
 40
-5.0
 40
-4.0
 40
-3.0
 40
-2.0
 40
-1.0
 40
0.0
 40
0.0
 40
0.0
 40
1.0
 40
2.0
 40
3.0
 40
4.0
 40
5.0
 40
6.0
 40
7.0
 40
7.0
 40
7.0
 40
7.103486580188483
 40
7.103486580188483
 40
7.103486580188483
 40
7.998741151726074
 40
7.998741151726074
 40
7.998741151726074
 40
7.998741151726074
 10
-16.54687394485701
 20
71.52763101415547
 30
0.0
 41
1.0
 10
-16.53700747625371
 20
71.831002590061
 30
0.0
 41
0.9667549288420432
 10
-16.43302756548542
 20
72.11616892472676
 30
0.0
 41
0.9667549288420432
 10
-16.24530467114962
 20
72.35468889288937
 30
0.0
 41
1.0
 10
-16.1896357448352
 20
72.42542161080927
 30
0.0
 41
0.9999978437742006
 10
-16.13414689715551
 20
72.49629568593208
 30
0.0
 41
0.9999978437742006
 10
-16.07883848704999
 20
72.5673106597963
 30
0.0
 41
1.0
 10
-15.54438899247766
 20
73.25353390896203
 30
0.0
 41
1.0
 10
-14.51037158960569
 20
74.65077210756876
 30
0.0
 41
1.0
 10
-12.67410351421112
 20
76.53243287193007
 30
0.0
 41
1.0
 10
-10.34478982085145
 20
77.77263121936991
 30
0.0
 41
1.0
 10
-7.803359285861607
 20
78.4089497260495
 30
0.0
 41
1.0
 10
-5.210169110533205
 20
78.71063009656227
 30
0.0
 41
1.0
 10
-2.609190780046107
 20
78.91999385411859
 30
0.0
 41
1.0
 10
-0.8697019012539676
 20
78.92561122442567
 30
0.0
 41
1.0
 10
0.0
 20
78.92561122442567
 30
0.0
 41
1.0
 10
0.8697019012539676
 20
78.92561122442567
 30
0.0
 41
1.0
 10
2.609190780046107
 20
78.91999385411859
 30
0.0
 41
1.0
 10
5.210169110533205
 20
78.71063009656227
 30
0.0
 41
1.0
 10
7.803359285861607
 20
78.4089497260495
 30
0.0
 41
1.0
 10
10.34478982085145
 20
77.77263121936991
 30
0.0
 41
1.0
 10
12.67410351421112
 20
76.53243287193007
 30
0.0
 41
1.0
 10
14.51037158960569
 20
74.65077210756876
 30
0.0
 41
1.0
 10
15.54438899247766
 20
73.25353390896203
 30
0.0
 41
1.0
 10
16.07883848704999
 20
72.5673106597963
 30
0.0
 41
1.0
 10
16.13414689715551
 20
72.49629568593208
 30
0.0
 41
0.9999978437742006
 10
16.1896357448352
 20
72.42542161080927
 30
0.0
 41
0.9999978437742006
 10
16.24530467114962
 20
72.35468889288937
 30
0.0
 41
1.0
 10
16.43302756548542
 20
72.11616892472676
 30
0.0
 41
0.9667549288420432
 10
16.53700747625371
 20
71.831002590061
 30
0.0
 41
0.9667549288420432
 10
16.54687394485701
 20
71.52763101415547
 30
0.0
 41
1.0
  0
SPLINE
  5
B7
330
1F
100
AcDbEntity
  8
Layer 01
100
AcDbSpline
210
0.0
220
0.0
230
1.0
 70
     8
 71
     3
 72
    14
 73
    10
 74
     0
 42
0.000000001
 43
0.0000000001
 40
0.0
 40
0.0
 40
0.0
 40
0.0
 40
1.0
 40
2.0
 40
3.0
 40
4.0
 40
5.0
 40
6.0
 40
7.0
 40
7.0
 40
7.0
 40
7.0
 10
10.96300281469249
 20
71.12398521587505
 30
0.0
 10
11.07406330287483
 20
71.1624737849896
 30
0.0
 10
11.30393025348941
 20
71.21513824054892
 30
0.0
 10
11.65613893050988
 20
71.24143929374242
 30
0.0
 10
12.00876033658762
 20
71.226692834504
 30
0.0
 10
12.35796120098805
 20
71.17603677042851
 30
0.0
 10
12.70080382956693
 20
71.09281645103822
 30
0.0
 10
13.0348163951056
 20
70.9792866753888
 30
0.0
 10
13.2499544978709
 20
70.88427392772454
 30
0.0
 10
13.35517589192346
 20
70.83202670622322
 30
0.0
  0
SPLINE
  5
B8
330
1F
100
AcDbEntity
  8
Layer 01
100
AcDbSpline
210
0.0
220
0.0
230
1.0
 70
     8
 71
     3
 72
    14
 73
    10
 74
     0
 42
0.000000001
 43
0.0000000001
 40
0.0
 40
0.0
 40
0.0
 40
0.0
 40
1.0
 40
2.0
 40
3.0
 40
4.0
 40
5.0
 40
6.0
 40
7.0
 40
7.0
 40
7.0
 40
7.0
 10
-10.96300281469249
 20
71.12398521587505
 30
0.0
 10
-11.07406330287483
 20
71.1624737849896
 30
0.0
 10
-11.30393025348941
 20
71.21513824054892
 30
0.0
 10
-11.65613893050988
 20
71.24143929374242
 30
0.0
 10
-12.00876033658762
 20
71.226692834504
 30
0.0
 10
-12.35796120098805
 20
71.17603677042851
 30
0.0
 10
-12.70080382956693
 20
71.09281645103822
 30
0.0
 10
-13.0348163951056
 20
70.9792866753888
 30
0.0
 10
-13.2499544978709
 20
70.88427392772454
 30
0.0
 10
-13.35517589192346
 20
70.83202670622322
 30
0.0
  0
SPLINE
  5
B9
330
1F
100
AcDbEntity
  8
Layer 01
100
AcDbSpline
210
0.0
220
0.0
230
1.0
 70
     8
 71
     3
 72
    79
 73
    75
 74
     0
 42
0.000000001
 43
0.0000000001
 40
0.0
 40
0.0
 40
0.0
 40
0.0
 40
1.0
 40
2.0
 40
3.0
 40
4.0
 40
5.0
 40
6.0
 40
7.0
 40
7.0
 40
7.0
 40
8.0
 40
9.0
 40
10.0
 40
10.0
 40
10.0
 40
11.0
 40
12.0
 40
13.0
 40
13.0
 40
13.0
 40
14.0
 40
14.0
 40
14.0
 40
15.00000033715825
 40
16.0000006743165
 40
17.00000101147474
 40
18.00000134863299
 40
19.00000168579124
 40
20.00000202294949
 40
21.00000236010774
 40
22.00000269726599
 40
23.00000303442424
 40
24.00000337158248
 40
25.00000370874073
 40
26.00000404589898
 40
27.0
 40
27.0
 40
27.0
 40
27.99999595410102
 40
28.99999629125927
 40
29.99999662841752
 40
30.99999696557576
 40
31.99999730273401
 40
32.99999763989226
 40
33.99999797705051
 40
34.99999831420876
 40
35.99999865136701
 40
36.99999898852526
 40
37.9999993256835
 40
38.99999966284175
 40
40.0
 40
40.0
 40
40.0
 40
41.0
 40
41.0
 40
41.0
 40
42.0
 40
43.0
 40
44.0
 40
44.0
 40
44.0
 40
45.0
 40
46.0
 40
47.0
 40
47.0
 40
47.0
 40
48.0
 40
49.0
 40
50.0
 40
51.0
 40
52.0
 40
53.0
 40
54.0
 40
54.0
 40
54.0
 40
54.0
 10
-11.10501465643562
 20
72.4942102330494
 30
0.0
 10
-11.37324710764325
 20
72.40300392084455
 30
0.0
 10
-11.88838339516831
 20
72.15919593832159
 30
0.0
 10
-12.57418021779374
 20
71.65245327671722
 30
0.0
 10
-13.16766973879797
 20
71.0416952983734
 30
0.0
 10
-13.7385066517762
 20
70.41244510658491
 30
0.0
 10
-14.28705023284055
 20
69.76298493082832
 30
0.0
 10
-14.84813231132621
 20
69.12477360731705
 30
0.0
 10
-15.32012757999012
 20
68.7909639504285
 30
0.0
 10
-15.59835744307195
 20
68.72221417443667
 30
0.0
 10
-15.64783021464754
 20
68.70998959895134
 30
0.0
 10
-15.75535638811702
 20
68.7308600899066
 30
0.0
 10
-15.84942286802736
 20
68.85763864375427
 30
0.0
 10
-15.88988999692624
 20
68.95207549442337
 30
0.0
 10
-15.90977198121985
 20
68.99882146413599
 30
0.0
 10
-16.01769417044267
 20
69.25256512041429
 30
0.0
 10
-16.19745614244656
 20
69.77424646901869
 30
0.0
 10
-16.41713451156329
 20
70.5719638021463
 30
0.0
 10
-16.51574798362891
 20
71.1151580254885
 30
0.0
 10
-16.546873944857
 20
71.38910204527711
 30
0.0
 10
-16.55108562999959
 20
71.42616968632403
 30
0.0
 10
-16.55292565716139
 20
71.49040162182096
 30
0.0
 10
-16.550685595692
 20
71.52763101415547
 30
0.0
 10
-16.5200322429053
 20
72.03708386304363
 30
0.0
 10
-16.28944143002725
 20
73.0566473911956
 30
0.0
 10
-15.37569263584822
 20
74.311178484702
 30
0.0
 10
-14.38573865056185
 20
75.47777600557207
 30
0.0
 10
-13.30417649776254
 20
76.57548244646533
 30
0.0
 10
-12.00949047428665
 20
77.41269527838134
 30
0.0
 10
-10.61872418803151
 20
78.06638805478471
 30
0.0
 10
-9.154777575681763
 20
78.53580936624813
 30
0.0
 10
-7.652313989815494
 20
78.8539439733055
 30
0.0
 10
-6.130787261640521
 20
79.05796328014475
 30
0.0
 10
-4.601519328171914
 20
79.18716357047825
 30
0.0
 10
-3.068584682268704
 20
79.25878592042872
 30
0.0
 10
-1.534425825172556
 20
79.29056182546819
 30
0.0
 10
-0.5114619629004877
 20
79.29231039467724
 30
0.0
 10
0.0
 20
79.29233852341973
 30
0.0
 10
0.5114619629004877
 20
79.29231039467724
 30
0.0
 10
1.534425825172556
 20
79.29056182546819
 30
0.0
 10
3.068584682268704
 20
79.25878592042872
 30
0.0
 10
4.601519328171914
 20
79.18716357047825
 30
0.0
 10
6.130787261640521
 20
79.05796328014475
 30
0.0
 10
7.652313989815494
 20
78.8539439733055
 30
0.0
 10
9.154777575681763
 20
78.53580936624813
 30
0.0
 10
10.61872418803151
 20
78.06638805478471
 30
0.0
 10
12.00949047428665
 20
77.41269527838134
 30
0.0
 10
13.30417649776254
 20
76.57548244646533
 30
0.0
 10
14.38573865056185
 20
75.47777600557207
 30
0.0
 10
15.37569263584822
 20
74.311178484702
 30
0.0
 10
16.28944143002725
 20
73.0566473911956
 30
0.0
 10
16.5200322429053
 20
72.03708386304363
 30
0.0
 10
16.550685595692
 20
71.52763101415547
 30
0.0
 10
16.55292565716139
 20
71.49040162182096
 30
0.0
 10
16.55108562999959
 20
71.42616968632403
 30
0.0
 10
16.546873944857
 20
71.38910204527711
 30
0.0
 10
16.51574798362891
 20
71.1151580254885
 30
0.0
 10
16.41713451156329
 20
70.5719638021463
 30
0.0
 10
16.19745614244656
 20
69.77424646901869
 30
0.0
 10
16.01769417044267
 20
69.25256512041429
 30
0.0
 10
15.90977198121985
 20
68.99882146413599
 30
0.0
 10
15.88988999692624
 20
68.95207549442337
 30
0.0
 10
15.84942286802736
 20
68.85763864375427
 30
0.0
 10
15.75535638811702
 20
68.7308600899066
 30
0.0
 10
15.64783021464754
 20
68.70998959895134
 30
0.0
 10
15.59835744307195
 20
68.72221417443667
 30
0.0
 10
15.32012757999012
 20
68.7909639504285
 30
0.0
 10
14.84813231132621
 20
69.12477360731705
 30
0.0
 10
14.28705023284055
 20
69.76298493082832
 30
0.0
 10
13.7385066517762
 20
70.41244510658491
 30
0.0
 10
13.16766973879797
 20
71.0416952983734
 30
0.0
 10
12.57418021779374
 20
71.65245327671722
 30
0.0
 10
11.88838339516831
 20
72.15919593832159
 30
0.0
 10
11.37324710764325
 20
72.40300392084455
 30
0.0
 10
11.10501465643562
 20
72.4942102330494
 30
0.0
  0
SPLINE
  5
BA
330
1F
100
AcDbEntity
  8
Layer 01
100
AcDbSpline
210
0.0
220
0.0
230
1.0
 70
     8
 71
     3
 72
    44
 73
    40
 74
     0
 42
0.000000001
 43
0.0000000001
 40
-0.7957591648020592
 40
-0.7957591648020592
 40
-0.7957591648020592
 40
-0.7957591648020592
 40
0.0
 40
0.0
 40
0.0
 40
1.0
 40
2.0
 40
2.0
 40
2.0
 40
3.0
 40
4.0
 40
5.0
 40
6.0
 40
7.0
 40
8.0
 40
9.0
 40
9.0
 40
9.0
 40
10.0
 40
11.0
 40
12.0
 40
13.0
 40
14.0
 40
14.0
 40
14.0
 40
15.0
 40
16.0
 40
17.0
 40
18.0
 40
19.0
 40
20.0
 40
21.0
 40
21.0
 40
21.0
 40
22.0
 40
23.0
 40
23.0
 40
23.0
 40
23.79575916480201
 40
23.79575916480201
 40
23.79575916480201
 40
23.79575916480201
 10
9.767045477786308
 20
67.89110383298612
 30
0.0
 10
9.87362234196886
 20
67.73030985031943
 30
0.0
 10
9.931182361266746
 20
67.63301699509032
 30
0.0
 10
9.938918415964839
 20
67.5190547400891
 30
0.0
 10
10.24100529165915
 20
64.98469777427988
 30
0.0
 10
10.81593805214004
 20
59.91263972006817
 30
0.0
 10
11.37604171505483
 20
54.83877352248344
 30
0.0
 10
11.69160135457158
 20
52.30607681847938
 30
0.0
 10
11.74210035109742
 20
51.9007694659537
 30
0.0
 10
11.77060610071531
 20
51.08001426032964
 30
0.0
 10
11.57469625207673
 20
49.86658037195952
 30
0.0
 10
11.16139621272104
 20
48.69525414149194
 30
0.0
 10
10.27398102167665
 20
47.80643795345517
 30
0.0
 10
9.159045481461225
 20
47.27635344491578
 30
0.0
 10
7.967547815207377
 20
46.97439254665512
 30
0.0
 10
7.15732024160865
 20
46.86294623451981
 30
0.0
 10
6.750008749487339
 20
46.83012591815649
 30
0.0
 10
5.851677355538753
 20
46.75774023516253
 30
0.0
 10
4.053041439283538
 20
46.64275022555199
 30
0.0
 10
1.352179536724855
 20
46.51136656172801
 30
0.0
 10
-1.352179656196124
 20
46.51136656890417
 30
0.0
 10
-4.053041314904093
 20
46.64275021683648
 30
0.0
 10
-5.851677597512364
 20
46.75774025466026
 30
0.0
 10
-6.750008749487339
 20
46.83012591815649
 30
0.0
 10
-7.15732024160865
 20
46.86294623451981
 30
0.0
 10
-7.967547815207377
 20
46.97439254665512
 30
0.0
 10
-9.159045481461225
 20
47.27635344491578
 30
0.0
 10
-10.27398102167665
 20
47.80643795345517
 30
0.0
 10
-11.16139621272104
 20
48.69525414149194
 30
0.0
 10
-11.57469625207673
 20
49.86658037195952
 30
0.0
 10
-11.77060610071531
 20
51.08001426032964
 30
0.0
 10
-11.74210035109742
 20
51.9007694659537
 30
0.0
 10
-11.69160135457158
 20
52.30607681847938
 30
0.0
 10
-11.37604171505483
 20
54.83877352248344
 30
0.0
 10
-10.81593805214004
 20
59.91263972006817
 30
0.0
 10
-10.24100529165915
 20
64.98469777427988
 30
0.0
 10
-9.938918415964839
 20
67.5190547400891
 30
0.0
 10
-9.931182361266746
 20
67.63301699509032
 30
0.0
 10
-9.873622341968867
 20
67.73030985031943
 30
0.0
 10
-9.767045477786326
 20
67.89110383298609
 30
0.0
  0
SPLINE
  5
BB
330
1F
100
AcDbEntity
  8
Layer 01
100
AcDbSpline
210
0.0
220
0.0
230
1.0
 70
     8
 71
     3
 72
    24
 73
    20
 74
     0
 42
0.000000001
 43
0.0000000001
 40
-6.0
 40
-6.0
 40
-6.0
 40
-6.0
 40
-5.0
 40
-4.0
 40
-3.0
 40
-2.0
 40
-1.0
 40
0.0
 40
0.0
 40
0.0
 40
1.0
 40
1.0
 40
1.0
 40
2.0
 40
3.0
 40
4.0
 40
5.0
 40
6.0
 40
7.0
 40
7.0
 40
7.0
 40
7.0
 10
6.000146061033306
 20
69.0744519792716
 30
0.0
 10
5.828192992482314
 20
69.06946107726249
 30
0.0
 10
5.484038944442598
 20
69.0664351800331
 30
0.0
 10
4.968216501051005
 20
69.08376912778319
 30
0.0
 10
4.452917266062446
 20
69.1167150783365
 30
0.0
 10
3.942984273082802
 20
69.20518584540173
 30
0.0
 10
3.461386348397698
 20
69.4032618290888
 30
0.0
 10
3.1086844346276
 20
69.38587831175828
 30
0.0
 10
2.937999987423435
 20
69.38582602619188
 30
0.0
 10
0.979333329141145
 20
69.38522603013318
 30
0.0
 10
-0.979333329141145
 20
69.38522603013318
 30
0.0
 10
-2.937999987423435
 20
69.38582602619188
 30
0.0
 10
-3.1086844346276
 20
69.38587831175828
 30
0.0
 10
-3.461386348397698
 20
69.4032618290888
 30
0.0
 10
-3.942984273082802
 20
69.20518584540173
 30
0.0
 10
-4.452917266062446
 20
69.1167150783365
 30
0.0
 10
-4.968216501051005
 20
69.08376912778319
 30
0.0
 10
-5.484038944442598
 20
69.0664351800331
 30
0.0
 10
-5.828192992482314
 20
69.06946107726249
 30
0.0
 10
-6.000146061033306
 20
69.0744519792716
 30
0.0
  0
SPLINE
  5
BC
330
1F
100
AcDbEntity
  8
Layer 01
100
AcDbSpline
210
0.0
220
0.0
230
1.0
 70
     8
 71
     3
 72
    40
 73
    36
 74
     0
 42
0.000000001
 43
0.0000000001
 40
3.886615418809494
 40
3.886615418809494
 40
3.886615418809494
 40
3.886615418809494
 40
5.237854985890808
 40
5.237854985890808
 40
5.237854985890808
 40
11.76470840684035
 40
11.76470840684035
 40
11.76470840684035
 40
12.76470840684035
 40
13.76470840684035
 40
14.76470840684035
 40
15.76470840684035
 40
16.76470840684035
 40
17.76470840684035
 40
18.76470840684035
 40
18.76470840684035
 40
18.76470840684035
 40
19.76470840684035
 40
20.76470840684035
 40
21.76470840684035
 40
21.76470840684035
 40
21.76470840684035
 40
22.76470840684035
 40
23.76470840684035
 40
24.76470840684035
 40
25.76470840684035
 40
26.76470840684035
 40
27.76470840684035
 40
28.76470840684035
 40
28.76470840684035
 40
28.76470840684035
 40
35.29156182778989
 40
35.29156182778989
 40
35.29156182778989
 40
36.64280139487121
 40
36.64280139487121
 40
36.64280139487121
 40
36.64280139487121
 10
10.99071368610771
 20
71.27548728849283
 30
0.0
 10
11.01384013886495
 20
71.4150476646774
 30
0.0
 10
11.01451949626405
 20
71.55440523961227
 30
0.0
 10
10.97967966754641
 20
71.6930428148605
 30
0.0
 10
10.81078644163686
 20
72.36511693743195
 30
0.0
 10
10.64189321572732
 20
73.0371910600034
 30
0.0
 10
10.47299998981778
 20
73.70926518257485
 30
0.0
 10
10.41291688823122
 20
73.94835291130227
 30
0.0
 10
10.33339222116748
 20
74.50299891319125
 30
0.0
 10
9.599242030498004
 20
74.86382257248685
 30
0.0
 10
8.9040531335206
 20
75.14404947830224
 30
0.0
 10
8.15085235366295
 20
75.29991059977847
 30
0.0
 10
7.393241941037287
 20
75.37924662210723
 30
0.0
 10
6.632073437711367
 20
75.43278914920165
 30
0.0
 10
6.124151897867809
 20
75.4550684387035
 30
0.0
 10
5.869999985069473
 20
75.46184174768956
 30
0.0
 10
4.565849138443902
 20
75.49659819139033
 30
0.0
 10
1.957012492687434
 20
75.5445351304722
 30
0.0
 10
-1.957012492629551
 20
75.54453513047284
 30
0.0
 10
-4.565849138445383
 20
75.4965981913903
 30
0.0
 10
-5.869999985069473
 20
75.46184174768956
 30
0.0
 10
-6.124151897867809
 20
75.4550684387035
 30
0.0
 10
-6.632073437711367
 20
75.43278914920165
 30
0.0
 10
-7.393241941037287
 20
75.37924662210723
 30
0.0
 10
-8.15085235366295
 20
75.29991059977847
 30
0.0
 10
-8.9040531335206
 20
75.14404947830224
 30
0.0
 10
-9.599242030498004
 20
74.86382257248685
 30
0.0
 10
-10.33339222116748
 20
74.50299891319125
 30
0.0
 10
-10.41291688823122
 20
73.94835291130227
 30
0.0
 10
-10.47299998981778
 20
73.70926518257485
 30
0.0
 10
-10.64189321572732
 20
73.0371910600034
 30
0.0
 10
-10.81078644163686
 20
72.36511693743195
 30
0.0
 10
-10.97967966754641
 20
71.6930428148605
 30
0.0
 10
-11.01451949626405
 20
71.55440523961227
 30
0.0
 10
-11.01384013886495
 20
71.4150476646774
 30
0.0
 10
-10.99071368610771
 20
71.27548728849283
 30
0.0
  0
SPLINE
  5
BD
330
1F
100
AcDbEntity
  8
Layer 01
100
AcDbSpline
210
0.0
220
0.0
230
1.0
 70
    11
 71
     3
 72
    93
 73
    89
 74
     0
 42
0.000000001
 43
0.0000000001
 40
-22.0
 40
-22.0
 40
-22.0
 40
-22.0
 40
-21.0
 40
-20.0
 40
-19.0
 40
-18.0
 40
-17.0
 40
-16.0
 40
-15.0
 40
-15.0
 40
-15.0
 40
-14.0
 40
-13.0
 40
-12.0
 40
-12.0
 40
-12.0
 40
-11.0
 40
-10.0
 40
-10.0
 40
-10.0
 40
-9.0
 40
-8.0
 40
-8.0
 40
-8.0
 40
-7.0
 40
-6.0
 40
-5.0
 40
-4.0
 40
-3.0
 40
-3.0
 40
-3.0
 40
-2.0
 40
-1.0
 40
0.0
 40
0.0
 40
0.0
 40
1.0
 40
2.0
 40
3.0
 40
4.0
 40
5.0
 40
5.0
 40
5.0
 40
6.0
 40
7.0
 40
8.0
 40
9.0
 40
10.0
 40
10.0
 40
10.0
 40
11.0
 40
12.0
 40
13.0
 40
13.0
 40
13.0
 40
14.0
 40
15.0
 40
16.0
 40
17.0
 40
18.0
 40
18.0
 40
18.0
 40
19.0
 40
20.0
 40
20.0
 40
20.0
 40
21.0
 40
22.0
 40
22.0
 40
22.0
 40
23.0
 40
24.0
 40
25.0
 40
25.0
 40
25.0
 40
26.0
 40
27.0
 40
28.0
 40
29.0
 40
30.0
 40
31.0
 40
32.0
 40
32.0
 40
32.0
 40
33.0
 40
34.0
 40
35.0
 40
36.0
 40
36.0
 40
36.0
 40
36.0
 10
5.891614422548354
 20
77.41644061483501
 30
0.0
 10
6.167086020134398
 20
77.38913174485893
 30
0.0
 10
6.717123267692176
 20
77.32517274893388
 30
0.0
 10
7.53726168640658
 20
77.19266714939707
 30
0.0
 10
8.347181466195309
 20
77.00633152408314
 30
0.0
 10
9.134318146512632
 20
76.73508639980487
 30
0.0
 10
9.86957837379888
 20
76.3444640185144
 30
0.0
 10
10.48959153818724
 20
75.76413114268107
 30
0.0
 10
10.65814450034733
 20
75.2201589994207
 30
0.0
 10
10.71025744207864
 20
74.94963883823662
 30
0.0
 10
10.75329740744268
 20
74.72621682480141
 30
0.0
 10
10.84294734930267
 20
74.23658132530339
 30
0.0
 10
10.96883616016621
 20
73.565695777527
 30
0.0
 10
11.05016833401886
 20
73.11796166012846
 30
0.0
 10
11.09095798603383
 20
72.8941177668067
 30
0.0
 10
11.09884473227483
 20
72.85083718222175
 30
0.0
 10
11.11086767409026
 20
72.76355142447407
 30
0.0
 10
11.11273595722945
 20
72.66570880080134
 30
0.0
 10
11.11091615044877
 20
72.62174506889401
 30
0.0
 10
11.10175994263088
 20
72.401545148014
 30
0.0
 10
11.07624272984012
 20
71.96146070943011
 30
0.0
 10
11.02808943041102
 20
71.52319197633746
 30
0.0
 10
10.99057542441182
 20
71.27551019974217
 30
0.0
 10
10.95577613359164
 20
71.04575200823422
 30
0.0
 10
10.82751868129109
 20
70.59941023665928
 30
0.0
 10
10.61090629143677
 20
69.93830884183099
 30
0.0
 10
10.38275910353717
 20
69.28089182908671
 30
0.0
 10
10.14740230684816
 20
68.62650872179643
 30
0.0
 10
9.97649147291603
 20
68.1945644990718
 30
0.0
 10
9.876823978882836
 20
68.0138015405059
 30
0.0
 10
9.804959281137332
 20
67.88346340461783
 30
0.0
 10
9.530006769374658
 20
67.76628655774721
 30
0.0
 10
9.110728145037852
 20
67.69261994087901
 30
0.0
 10
8.8260381073897
 20
67.65788055178349
 30
0.0
 10
8.683972253910232
 20
67.6438820617509
 30
0.0
 10
8.10732488058111
 20
67.58706198634104
 30
0.0
 10
6.949179688164739
 20
67.55098148400067
 30
0.0
 10
5.212319292592291
 20
67.50897765591284
 30
0.0
 10
3.474975547324825
 20
67.4814676521384
 30
0.0
 10
1.737504919929725
 20
67.47053889650454
 30
0.0
 10
0.5791672103762504
 20
67.4689503626048
 30
0.0
 10
0.0
 20
67.46894185333092
 30
0.0
 10
-0.5791672103762504
 20
67.4689503626048
 30
0.0
 10
-1.737504919929725
 20
67.47053889650454
 30
0.0
 10
-3.474975547324825
 20
67.4814676521384
 30
0.0
 10
-5.212319292592291
 20
67.50897765591284
 30
0.0
 10
-6.949179688164739
 20
67.55098148400067
 30
0.0
 10
-8.10732488058111
 20
67.58706198634104
 30
0.0
 10
-8.683972253910232
 20
67.6438820617509
 30
0.0
 10
-8.8260381073897
 20
67.65788055178349
 30
0.0
 10
-9.110728145037852
 20
67.69261994087901
 30
0.0
 10
-9.530006769374658
 20
67.76628655774721
 30
0.0
 10
-9.804959281137332
 20
67.88346340461783
 30
0.0
 10
-9.876823978882836
 20
68.0138015405059
 30
0.0
 10
-9.97649147291603
 20
68.1945644990718
 30
0.0
 10
-10.14740230684816
 20
68.62650872179643
 30
0.0
 10
-10.38275910353717
 20
69.28089182908671
 30
0.0
 10
-10.61090629143677
 20
69.93830884183099
 30
0.0
 10
-10.82751868129109
 20
70.59941023665928
 30
0.0
 10
-10.95577613359164
 20
71.04575200823422
 30
0.0
 10
-10.99057542441182
 20
71.27551019974217
 30
0.0
 10
-11.02808943041102
 20
71.52319197633746
 30
0.0
 10
-11.07624272984012
 20
71.96146070943011
 30
0.0
 10
-11.10175994263088
 20
72.401545148014
 30
0.0
 10
-11.11091615044877
 20
72.62174506889401
 30
0.0
 10
-11.11273595722945
 20
72.66570880080134
 30
0.0
 10
-11.11086767409026
 20
72.76355142447407
 30
0.0
 10
-11.09884473227483
 20
72.85083718222175
 30
0.0
 10
-11.09095798603383
 20
72.8941177668067
 30
0.0
 10
-11.05016833401886
 20
73.11796166012846
 30
0.0
 10
-10.96883616016621
 20
73.565695777527
 30
0.0
 10
-10.84294734930267
 20
74.23658132530339
 30
0.0
 10
-10.75329740744268
 20
74.72621682480141
 30
0.0
 10
-10.71025744207864
 20
74.94963883823662
 30
0.0
 10
-10.65814450034733
 20
75.2201589994207
 30
0.0
 10
-10.48959153818724
 20
75.76413114268107
 30
0.0
 10
-9.86957837379888
 20
76.3444640185144
 30
0.0
 10
-9.134318146512632
 20
76.73508639980487
 30
0.0
 10
-8.347181466195309
 20
77.00633152408314
 30
0.0
 10
-7.53726168640658
 20
77.19266714939707
 30
0.0
 10
-6.717123267692176
 20
77.32517274893388
 30
0.0
 10
-6.167086020134398
 20
77.38913174485893
 30
0.0
 10
-5.891614422548354
 20
77.41644061483501
 30
0.0
 10
-4.913417343940513
 20
77.51341415789635
 30
0.0
 10
-2.948692326958637
 20
77.60716757152544
 30
0.0
 10
0.0000000171896545
 20
77.59485379196127
 30
0.0
 10
2.948692258200019
 20
77.60716757540611
 30
0.0
 10
4.913417480406093
 20
77.51341414436783
 30
0.0
 10
5.891614422548354
 20
77.41644061483501
 30
0.0
  0
POLYLINE
  5
BE
330
1F
100
AcDbEntity
  8
Layer 01
100
AcDb2dPolyline
 66
     1
 10
0.0
 20
0.0
 30
0.0
  0
VERTEX
  5
BF
330
BE
100
AcDbEntity
  8
Layer 01
100
AcDbVertex
100
AcDb2dVertex
 10
-14.33286596652701
 20
21.20542900223926
 30
0.0
  0
VERTEX
  5
C0
330
BE
100
AcDbEntity
  8
Layer 01
100
AcDbVertex
100
AcDb2dVertex
 10
-14.61337094660945
 20
21.475223891503
 30
0.0
  0
SEQEND
  5
C1
330
BE
100
AcDbEntity
  8
Layer 01
  0
SPLINE
  5
C2
330
1F
100
AcDbEntity
  8
Layer 01
100
AcDbSpline
210
0.0
220
0.0
230
1.0
 70
    28
 71
     2
 72
     6
 73
     3
 74
     0
 42
0.000000001
 43
0.0000000001
 40
6.276937607088634
 40
6.276937607088634
 40
6.276937607088634
 40
9.949592522919907
 40
9.949592522919907
 40
9.949592522919907
 10
-12.82722234905027
 20
13.86243757081621
 30
0.0
 41
0.9944876740173796
 10
-12.9237962958659
 20
12.08602454868483
 30
0.0
 41
0.9944876740173796
 10
-13.02037024268154
 20
10.30961152655346
 30
0.0
 41
0.9944876740173796
  0
SPLINE
  5
C3
330
1F
100
AcDbEntity
  8
Layer 01
100
AcDbSpline
210
0.0
220
0.0
230
1.0
 70
    24
 71
     2
 72
     6
 73
     3
 74
     0
 42
0.000000001
 43
0.0000000001
 40
-15.945908124944
 40
-15.945908124944
 40
-15.945908124944
 40
0.0
 40
0.0
 40
0.0
 10
7.972954060429583
 20
7.437195555054113
 30
0.0
 10
-0.0000000020436977
 20
7.437195555054113
 30
0.0
 10
-7.972954064516978
 20
7.437195555054113
 30
0.0
  0
SPLINE
  5
C4
330
1F
100
AcDbEntity
  8
Layer 01
100
AcDbSpline
210
0.0
220
0.0
230
1.0
 70
    24
 71
     2
 72
     6
 73
     3
 74
     0
 42
0.000000001
 43
0.0000000001
 40
0.0
 40
0.0
 40
0.0
 40
9.469572678587204
 40
9.469572678587204
 40
9.469572678587204
 10
-13.2648074781537
 20
5.874438332501182
 30
0.0
 10
-10.18980973083854
 20
6.247653569502375
 30
0.0
 10
-7.114811983523387
 20
6.620868806503568
 30
0.0
  0
SPLINE
  5
C5
330
1F
100
AcDbEntity
  8
Layer 01
100
AcDbSpline
210
0.0
220
0.0
230
1.0
 70
    24
 71
     2
 72
     6
 73
     3
 74
     0
 42
0.000000001
 43
0.0000000001
 40
-13.94259260257762
 40
-13.94259260257762
 40
-13.94259260257762
 40
-1.008205297406513
 40
-1.008205297406513
 40
-1.008205297406513
 10
-5.272906864387698
 20
7.023987435220737
 30
0.0
 10
-10.05054287852689
 20
7.475818837887037
 30
0.0
 10
-14.82817889266608
 20
7.927650240553338
 30
0.0
  0
SPLINE
  5
C6
330
1F
100
AcDbEntity
  8
Layer 01
100
AcDbSpline
210
0.0
220
0.0
230
1.0
 70
    24
 71
     2
 72
     6
 73
     3
 74
     0
 42
0.000000001
 43
0.0000000001
 40
-17.09979405657922
 40
-17.09979405657922
 40
-17.09979405657922
 40
-3.433910483273074
 40
-3.433910483273074
 40
-3.433910483273074
 10
-14.1481882797837
 20
5.94678656254117
 30
0.0
 10
-9.710547572085698
 20
6.485386998880953
 30
0.0
 10
-5.272906864387698
 20
7.023987435220737
 30
0.0
  0
SPLINE
  5
C7
330
1F
100
AcDbEntity
  8
Layer 01
100
AcDbSpline
210
0.0
220
0.0
230
1.0
 70
    24
 71
     2
 72
     6
 73
     3
 74
     0
 42
0.000000001
 43
0.0000000001
 40
-8.029104312748998
 40
-8.029104312748998
 40
-8.029104312748998
 40
-4.902529260817001
 40
-4.902529260817001
 40
-4.902529260817001
 10
-1.563287528009699
 20
7.294662313243634
 30
0.0
 10
-0.0000000020436985
 20
7.294662313243634
 30
0.0
 10
1.563287523922302
 20
7.294662313243634
 30
0.0
  0
SPLINE
  5
C8
330
1F
100
AcDbEntity
  8
Layer 01
100
AcDbSpline
210
0.0
220
0.0
230
1.0
 70
    24
 71
     2
 72
     6
 73
     3
 74
     0
 42
0.000000001
 43
0.0000000001
 40
11.27781730344079
 40
11.27781730344079
 40
11.27781730344079
 40
18.01763817787969
 40
18.01763817787969
 40
18.01763817787969
 10
-5.940451041010002
 20
6.763402048314019
 30
0.0
 10
-3.75186928450985
 20
7.029032180778827
 30
0.0
 10
-1.563287528009699
 20
7.294662313243634
 30
0.0
  0
SPLINE
  5
C9
330
1F
100
AcDbEntity
  8
Layer 01
100
AcDbSpline
210
0.0
220
0.0
230
1.0
 70
    24
 71
     2
 72
     6
 73
     3
 74
     0
 42
0.000000001
 43
0.0000000001
 40
-14.229623962958
 40
-14.229623962958
 40
-14.229623962958
 40
0.0
 40
0.0
 40
0.0
 10
-7.114811983523387
 20
6.620868806503568
 30
0.0
 10
-0.0000000020436994
 20
6.620868806503568
 30
0.0
 10
7.114811979435988
 20
6.620868806503568
 30
0.0
  0
SPLINE
  5
CA
330
1F
100
AcDbEntity
  8
Layer 01
100
AcDbSpline
210
0.0
220
0.0
230
1.0
 70
    24
 71
     2
 72
     6
 73
     3
 74
     0
 42
0.000000001
 43
0.0000000001
 40
-11.880902077934
 40
-11.880902077934
 40
-11.880902077934
 40
0.0
 40
0.0
 40
0.0
 10
5.940451036922607
 20
6.76340204831402
 30
0.0
 10
-0.0000000020436977
 20
6.763402048314019
 30
0.0
 10
-5.940451041010002
 20
6.763402048314019
 30
0.0
  0
SPLINE
  5
CB
330
1F
100
AcDbEntity
  8
Layer 01
100
AcDbSpline
210
0.0
220
0.0
230
1.0
 70
     8
 71
     3
 72
    11
 73
     7
 74
     0
 42
0.000000001
 43
0.0000000001
 40
-1.297299422860892
 40
-1.297299422860892
 40
-1.297299422860892
 40
-1.297299422860892
 40
-0.9729745671456692
 40
-0.6486497114304461
 40
-0.3243248557152231
 40
0.0
 40
0.0
 40
0.0
 40
0.0
 10
-14.1481882797837
 20
5.94678656254117
 30
0.0
 10
-14.0092859947037
 20
5.949887560958073
 30
0.0
 10
-13.7942815512537
 20
5.947307344728814
 30
0.0
 10
-13.5423206230437
 20
5.933571631165874
 30
0.0
 10
-13.3551537707237
 20
5.910774862958345
 30
0.0
 10
-13.2765734145337
 20
5.889116573732022
 30
0.0
 10
-13.2648074781537
 20
5.874438332501182
 30
0.0
  0
SPLINE
  5
CC
330
1F
100
AcDbEntity
  8
Layer 01
100
AcDbSpline
210
0.0
220
0.0
230
1.0
 70
     8
 71
     3
 72
     8
 73
     4
 74
     0
 42
0.000000001
 43
0.0000000001
 40
-1.968749757736357
 40
-1.968749757736357
 40
-1.968749757736357
 40
-1.968749757736357
 40
0.0
 40
0.0
 40
0.0
 40
0.0
 10
-14.0346643922637
 20
7.850279844450112
 30
0.0
 10
-14.07248065990368
 20
7.21577365112311
 30
0.0
 10
-14.11032150526366
 20
6.581275738707817
 30
0.0
 10
-14.1481882797837
 20
5.94678656254117
 30
0.0
  0
ENDSEC
  0
SECTION
  2
OBJECTS
  0
DICTIONARY
  5
C
330
0
100
AcDbDictionary
281
     1
  3
ACAD_DETAILVIEWSTYLE
350
108
  3
ACAD_GROUP
350
D
  3
ACAD_LAYOUT
350
1A
  3
ACAD_MATERIAL
350
43
  3
ACAD_MLEADERSTYLE
350
6B
  3
ACAD_MLINESTYLE
350
17
  3
ACAD_PLOTSETTINGS
350
19
  3
ACAD_PLOTSTYLENAME
350
E
  3
ACAD_SCALELIST
350
47
  3
ACAD_SECTIONVIEWSTYLE
350
109
  3
ACAD_TABLESTYLE
350
69
  3
ACAD_VISUALSTYLE
350
2A
  3
ACDB_RECOMPOSE_DATA
350
105
  3
AcDbVariableDictionary
350
CD
  0
SUN
  5
6D
330
29
100
AcDbSun
 90
        1
290
     0
 63
     7
421
 16777215
 40
1.0
291
     1
 91
  2455826
 92
 54000000
292
     0
 70
     2
 71
   256
280
     1
  0
DICTIONARY
  5
108
102
{ACAD_REACTORS
330
C
102
}
330
C
100
AcDbDictionary
281
     1
  0
DICTIONARY
  5
D
102
{ACAD_REACTORS
330
C
102
}
330
C
100
AcDbDictionary
281
     1
  0
DICTIONARY
  5
1A
102
{ACAD_REACTORS
330
C
102
}
330
C
100
AcDbDictionary
281
     1
  3
Layout1
350
1E
  3
Layout2
350
26
  3
Model
350
22
  0
DICTIONARY
  5
43
102
{ACAD_REACTORS
330
C
102
}
330
C
100
AcDbDictionary
281
     1
  3
ByBlock
350
45
  3
ByLayer
350
44
  3
Global
350
46
  0
DICTIONARY
  5
6B
102
{ACAD_REACTORS
330
C
102
}
330
C
100
AcDbDictionary
281
     1
  3
Standard
350
6C
  0
DICTIONARY
  5
17
102
{ACAD_REACTORS
330
C
102
}
330
C
100
AcDbDictionary
281
     1
  3
Standard
350
18
  0
DICTIONARY
  5
19
102
{ACAD_REACTORS
330
C
102
}
330
C
100
AcDbDictionary
281
     1
  0
ACDBDICTIONARYWDFLT
  5
E
102
{ACAD_REACTORS
330
C
102
}
330
C
100
AcDbDictionary
281
     1
  3
Normal
350
F
100
AcDbDictionaryWithDefault
340
F
  0
DICTIONARY
  5
47
102
{ACAD_REACTORS
330
C
102
}
330
C
100
AcDbDictionary
281
     1
  3
A0
350
48
  3
A1
350
49
  3
A2
350
4A
  3
A3
350
4B
  3
A4
350
4C
  3
A5
350
4D
  3
A6
350
4E
  3
A7
350
4F
  3
A8
350
50
  3
A9
350
51
  3
B0
350
52
  3
B1
350
53
  3
B2
350
54
  3
B3
350
55
  3
B4
350
56
  3
B5
350
57
  3
B6
350
58
  3
B7
350
59
  3
B8
350
5A
  3
B9
350
5B
  3
C0
350
5C
  3
C1
350
5D
  3
C2
350
5E
  3
C3
350
5F
  3
C4
350
60
  3
C5
350
61
  3
C6
350
62
  3
C7
350
63
  3
C8
350
64
  3
C9
350
65
  3
D0
350
66
  3
D1
350
67
  3
D2
350
68
  0
DICTIONARY
  5
109
102
{ACAD_REACTORS
330
C
102
}
330
C
100
AcDbDictionary
281
     1
  0
DICTIONARY
  5
69
102
{ACAD_REACTORS
330
C
102
}
330
C
100
AcDbDictionary
281
     1
  3
Standard
350
6A
  0
DICTIONARY
  5
2A
102
{ACAD_REACTORS
330
C
102
}
330
C
100
AcDbDictionary
281
     1
  3
2dWireframe
350
2F
  3
Basic
350
32
  3
Brighten
350
36
  3
ColorChange
350
3A
  3
Conceptual
350
34
  3
Dim
350
35
  3
EdgeColorOff
350
3D
  3
Facepattern
350
39
  3
Flat
350
2B
  3
FlatWithEdges
350
2C
  3
Gouraud
350
2D
  3
GouraudWithEdges
350
2E
  3
Hidden
350
31
  3
JitterOff
350
3B
  3
Linepattern
350
38
  3
OverhangOff
350
3C
  3
Realistic
350
33
  3
Shaded
350
42
  3
Shaded with edges
350
41
  3
Shades of Gray
350
3E
  3
Sketchy
350
3F
  3
Thicken
350
37
  3
Wireframe
350
30
  3
X-Ray
350
40
  0
XRECORD
  5
105
102
{ACAD_REACTORS
330
C
102
}
330
C
100
AcDbXrecord
280
     1
 90
        1
330
6A
  0
DICTIONARY
  5
CD
102
{ACAD_REACTORS
330
C
102
}
330
C
100
AcDbDictionary
281
     1
  3
CANNOSCALE
350
CE
  3
CMLEADERSTYLE
350
107
  3
CTABLESTYLE
350
106
  3
XCLIPFRAME
350
CF
  0
LAYOUT
  5
1E
102
{ACAD_REACTORS
330
1A
102
}
330
1A
100
AcDbPlotSettings
  1

  2
none_device
  4

  6

 40
0.0
 41
0.0
 42
0.0
 43
0.0
 44
0.0
 45
0.0
 46
0.0
 47
0.0
 48
0.0
 49
0.0
140
0.0
141
0.0
142
1.0
143
1.0
 70
   688
 72
     0
 73
     0
 74
     5
  7

 75
    16
 76
     0
 77
     2
 78
   300
147
1.0
148
0.0
149
0.0
100
AcDbLayout
  1
Layout1
 70
     1
 71
     1
 10
0.0
 20
0.0
 11
12.0
 21
9.0
 12
0.0
 22
0.0
 32
0.0
 14
1.000000000000000E+20
 24
1.000000000000000E+20
 34
1.000000000000000E+20
 15
-1.000000000000000E+20
 25
-1.000000000000000E+20
 35
-1.000000000000000E+20
146
0.0
 13
0.0
 23
0.0
 33
0.0
 16
1.0
 26
0.0
 36
0.0
 17
0.0
 27
1.0
 37
0.0
 76
     0
330
1B
  0
LAYOUT
  5
26
102
{ACAD_REACTORS
330
1A
102
}
330
1A
100
AcDbPlotSettings
  1

  2
none_device
  4

  6

 40
0.0
 41
0.0
 42
0.0
 43
0.0
 44
0.0
 45
0.0
 46
0.0
 47
0.0
 48
0.0
 49
0.0
140
0.0
141
0.0
142
1.0
143
1.0
 70
   688
 72
     0
 73
     0
 74
     5
  7

 75
    16
 76
     0
 77
     2
 78
   300
147
1.0
148
0.0
149
0.0
100
AcDbLayout
  1
Layout2
 70
     1
 71
     2
 10
0.0
 20
0.0
 11
0.0
 21
0.0
 12
0.0
 22
0.0
 32
0.0
 14
0.0
 24
0.0
 34
0.0
 15
0.0
 25
0.0
 35
0.0
146
0.0
 13
0.0
 23
0.0
 33
0.0
 16
1.0
 26
0.0
 36
0.0
 17
0.0
 27
1.0
 37
0.0
 76
     0
330
23
  0
LAYOUT
  5
22
102
{ACAD_REACTORS
330
1A
102
}
330
1A
100
AcDbPlotSettings
  1

  2
none_device
  4
Letter_(8.50_x_11.00_Inches)
  6

 40
6.35
 41
6.35
 42
6.35000508
 43
6.35000508
 44
215.9
 45
279.4
 46
0.0
 47
0.0
 48
0.0
 49
0.0
140
0.0
141
0.0
142
1.0
143
1.0
 70
  1712
 72
     0
 73
     0
 74
     0
  7

 75
     0
 76
     0
 77
     2
 78
   300
147
1.0
148
0.0
149
0.0
100
AcDbLayout
  1
Model
 70
     1
 71
     0
 10
0.0
 20
0.0
 11
12.0
 21
9.0
 12
0.0
 22
0.0
 32
0.0
 14
1.000000000000000E+20
 24
1.000000000000000E+20
 34
1.000000000000000E+20
 15
-1.000000000000000E+20
 25
-1.000000000000000E+20
 35
-1.000000000000000E+20
146
0.0
 13
0.0
 23
0.0
 33
0.0
 16
1.0
 26
0.0
 36
0.0
 17
0.0
 27
1.0
 37
0.0
 76
     0
330
1F
331
29
  0
MATERIAL
  5
45
102
{ACAD_REACTORS
330
43
102
}
330
43
100
AcDbMaterial
  1
ByBlock
 72
     1
 94
      127
  0
MATERIAL
  5
44
102
{ACAD_REACTORS
330
43
102
}
330
43
100
AcDbMaterial
  1
ByLayer
 72
     1
 94
      127
  0
MATERIAL
  5
46
102
{ACAD_REACTORS
330
43
102
}
330
43
100
AcDbMaterial
  1
Global
 72
     1
 94
      127
  0
MLEADERSTYLE
  5
6C
102
{ACAD_REACTORS
330
6B
102
}
102
{ACAD_XDICTIONARY
360
103
102
}
330
6B
100
AcDbMLeaderStyle
170
     2
171
     1
172
     0
 90
        2
 40
0.0
 41
0.0
173
     1
 91
-1056964608
340
14
 92
       -2
290
     1
 42
0.09
291
     1
 43
0.36
  3
Standard
341
0
 44
0.18
300

342
11
174
     1
178
     6
175
     1
176
     0
 93
-1056964608
 45
0.18
292
     0
297
     0
 46
0.18
343
0
 94
-1056964608
 47
1.0
 49
1.0
140
1.0
293
     1
141
0.0
294
     1
177
     0
142
1.0
295
     0
296
     0
143
0.125
1001
ACAD_MLEADERVER
1070
     2
  0
MLINESTYLE
  5
18
102
{ACAD_REACTORS
330
17
102
}
330
17
100
AcDbMlineStyle
  2
Standard
 70
     0
  3

 62
   256
 51
90.0
 52
90.0
 71
     2
 49
0.5
 62
   256
  6
BYLAYER
 49
-0.5
 62
   256
  6
BYLAYER
  0
ACDBPLACEHOLDER
  5
F
102
{ACAD_REACTORS
330
E
102
}
330
E
  0
SCALE
  5
48
102
{ACAD_REACTORS
330
47
102
}
330
47
100
AcDbScale
 70
     0
300
1:1
140
1.0
141
1.0
290
     1
  0
SCALE
  5
49
102
{ACAD_REACTORS
330
47
102
}
330
47
100
AcDbScale
 70
     0
300
1:2
140
1.0
141
2.0
290
     0
  0
SCALE
  5
4A
102
{ACAD_REACTORS
330
47
102
}
330
47
100
AcDbScale
 70
     0
300
1:4
140
1.0
141
4.0
290
     0
  0
SCALE
  5
4B
102
{ACAD_REACTORS
330
47
102
}
330
47
100
AcDbScale
 70
     0
300
1:5
140
1.0
141
5.0
290
     0
  0
SCALE
  5
4C
102
{ACAD_REACTORS
330
47
102
}
330
47
100
AcDbScale
 70
     0
300
1:8
140
1.0
141
8.0
290
     0
  0
SCALE
  5
4D
102
{ACAD_REACTORS
330
47
102
}
330
47
100
AcDbScale
 70
     0
300
1:10
140
1.0
141
10.0
290
     0
  0
SCALE
  5
4E
102
{ACAD_REACTORS
330
47
102
}
330
47
100
AcDbScale
 70
     0
300
1:16
140
1.0
141
16.0
290
     0
  0
SCALE
  5
4F
102
{ACAD_REACTORS
330
47
102
}
330
47
100
AcDbScale
 70
     0
300
1:20
140
1.0
141
20.0
290
     0
  0
SCALE
  5
50
102
{ACAD_REACTORS
330
47
102
}
330
47
100
AcDbScale
 70
     0
300
1:30
140
1.0
141
30.0
290
     0
  0
SCALE
  5
51
102
{ACAD_REACTORS
330
47
102
}
330
47
100
AcDbScale
 70
     0
300
1:40
140
1.0
141
40.0
290
     0
  0
SCALE
  5
52
102
{ACAD_REACTORS
330
47
102
}
330
47
100
AcDbScale
 70
     0
300
1:50
140
1.0
141
50.0
290
     0
  0
SCALE
  5
53
102
{ACAD_REACTORS
330
47
102
}
330
47
100
AcDbScale
 70
     0
300
1:100
140
1.0
141
100.0
290
     0
  0
SCALE
  5
54
102
{ACAD_REACTORS
330
47
102
}
330
47
100
AcDbScale
 70
     0
300
2:1
140
2.0
141
1.0
290
     0
  0
SCALE
  5
55
102
{ACAD_REACTORS
330
47
102
}
330
47
100
AcDbScale
 70
     0
300
4:1
140
4.0
141
1.0
290
     0
  0
SCALE
  5
56
102
{ACAD_REACTORS
330
47
102
}
330
47
100
AcDbScale
 70
     0
300
8:1
140
8.0
141
1.0
290
     0
  0
SCALE
  5
57
102
{ACAD_REACTORS
330
47
102
}
330
47
100
AcDbScale
 70
     0
300
10:1
140
10.0
141
1.0
290
     0
  0
SCALE
  5
58
102
{ACAD_REACTORS
330
47
102
}
330
47
100
AcDbScale
 70
     0
300
100:1
140
100.0
141
1.0
290
     0
  0
SCALE
  5
59
102
{ACAD_REACTORS
330
47
102
}
330
47
100
AcDbScale
 70
     0
300
1/128" = 1'-0"
140
0.0078125
141
12.0
290
     0
  0
SCALE
  5
5A
102
{ACAD_REACTORS
330
47
102
}
330
47
100
AcDbScale
 70
     0
300
1/64" = 1'-0"
140
0.015625
141
12.0
290
     0
  0
SCALE
  5
5B
102
{ACAD_REACTORS
330
47
102
}
330
47
100
AcDbScale
 70
     0
300
1/32" = 1'-0"
140
0.03125
141
12.0
290
     0
  0
SCALE
  5
5C
102
{ACAD_REACTORS
330
47
102
}
330
47
100
AcDbScale
 70
     0
300
1/16" = 1'-0"
140
0.0625
141
12.0
290
     0
  0
SCALE
  5
5D
102
{ACAD_REACTORS
330
47
102
}
330
47
100
AcDbScale
 70
     0
300
3/32" = 1'-0"
140
0.09375
141
12.0
290
     0
  0
SCALE
  5
5E
102
{ACAD_REACTORS
330
47
102
}
330
47
100
AcDbScale
 70
     0
300
1/8" = 1'-0"
140
0.125
141
12.0
290
     0
  0
SCALE
  5
5F
102
{ACAD_REACTORS
330
47
102
}
330
47
100
AcDbScale
 70
     0
300
3/16" = 1'-0"
140
0.1875
141
12.0
290
     0
  0
SCALE
  5
60
102
{ACAD_REACTORS
330
47
102
}
330
47
100
AcDbScale
 70
     0
300
1/4" = 1'-0"
140
0.25
141
12.0
290
     0
  0
SCALE
  5
61
102
{ACAD_REACTORS
330
47
102
}
330
47
100
AcDbScale
 70
     0
300
3/8" = 1'-0"
140
0.375
141
12.0
290
     0
  0
SCALE
  5
62
102
{ACAD_REACTORS
330
47
102
}
330
47
100
AcDbScale
 70
     0
300
1/2" = 1'-0"
140
0.5
141
12.0
290
     0
  0
SCALE
  5
63
102
{ACAD_REACTORS
330
47
102
}
330
47
100
AcDbScale
 70
     0
300
3/4" = 1'-0"
140
0.75
141
12.0
290
     0
  0
SCALE
  5
64
102
{ACAD_REACTORS
330
47
102
}
330
47
100
AcDbScale
 70
     0
300
1" = 1'-0"
140
1.0
141
12.0
290
     0
  0
SCALE
  5
65
102
{ACAD_REACTORS
330
47
102
}
330
47
100
AcDbScale
 70
     0
300
1-1/2" = 1'-0"
140
1.5
141
12.0
290
     0
  0
SCALE
  5
66
102
{ACAD_REACTORS
330
47
102
}
330
47
100
AcDbScale
 70
     0
300
3" = 1'-0"
140
3.0
141
12.0
290
     0
  0
SCALE
  5
67
102
{ACAD_REACTORS
330
47
102
}
330
47
100
AcDbScale
 70
     0
300
6" = 1'-0"
140
6.0
141
12.0
290
     0
  0
SCALE
  5
68
102
{ACAD_REACTORS
330
47
102
}
330
47
100
AcDbScale
 70
     0
300
1'-0" = 1'-0"
140
12.0
141
12.0
290
     0
  0
TABLESTYLE
  5
6A
102
{ACAD_REACTORS
330
69
102
}
102
{ACAD_XDICTIONARY
360
100
102
}
330
69
100
AcDbTableStyle
  3
Standard
 70
     0
 71
     0
 40
0.06
 41
0.06
280
     0
281
     0
  7
Standard
140
0.18
170
     2
 62
     0
 63
   257
283
     0
 90
        4
 91
        0
  1

274
    -2
284
     1
 64
     0
275
    -2
285
     1
 65
     0
276
    -2
286
     1
 66
     0
277
    -2
287
     1
 67
     0
278
    -2
288
     1
 68
     0
279
    -2
289
     1
 69
     0
  7
Standard
140
0.25
170
     5
 62
     0
 63
   257
283
     0
 90
        4
 91
        0
  1

274
    -2
284
     1
 64
     0
275
    -2
285
     1
 65
     0
276
    -2
286
     1
 66
     0
277
    -2
287
     1
 67
     0
278
    -2
288
     1
 68
     0
279
    -2
289
     1
 69
     0
  7
Standard
140
0.18
170
     5
 62
     0
 63
   257
283
     0
 90
        4
 91
        0
  1

274
    -2
284
     1
 64
     0
275
    -2
285
     1
 65
     0
276
    -2
286
     1
 66
     0
277
    -2
287
     1
 67
     0
278
    -2
288
     1
 68
     0
279
    -2
289
     1
 69
     0
  0
VISUALSTYLE
  5
2F
102
{ACAD_REACTORS
330
2A
102
}
102
{ACAD_XDICTIONARY
360
D8
102
}
330
2A
100
AcDbVisualStyle
  2
2dWireframe
 70
     4
 71
     0
 72
     2
 73
     0
 90
        0
 40
0.6
 41
30.0
 62
     5
 63
     7
421
 16777215
 74
     1
 91
        4
 64
     7
 65
   257
 75
     1
175
     1
 42
1.0
 92
        0
 66
   257
 43
1.0
 76
     1
 77
     6
 78
     2
 67
     7
 79
     5
170
     0
171
     0
290
     0
174
     0
 93
        1
 44
0.0
173
     0
291
     0
 45
0.0
  0
VISUALSTYLE
  5
32
102
{ACAD_REACTORS
330
2A
102
}
102
{ACAD_XDICTIONARY
360
DE
102
}
330
2A
100
AcDbVisualStyle
  2
Basic
 70
     7
 71
     1
 72
     0
 73
     1
 90
        0
 40
0.6
 41
30.0
 62
     5
 63
     7
421
 16777215
 74
     0
 91
        4
 64
     7
 65
   257
 75
     1
175
     1
 42
1.0
 92
        8
 66
     7
 43
1.0
 76
     1
 77
     6
 78
     2
 67
     7
 79
     5
170
     0
171
     0
290
     0
174
     0
 93
        1
 44
0.0
173
     0
291
     1
 45
0.0
  0
VISUALSTYLE
  5
36
102
{ACAD_REACTORS
330
2A
102
}
102
{ACAD_XDICTIONARY
360
E6
102
}
330
2A
100
AcDbVisualStyle
  2
Brighten
 70
    12
 71
     2
 72
     2
 73
     0
 90
        0
 40
0.6
 41
30.0
 62
     5
 63
     7
421
 16777215
 74
     1
 91
        4
 64
     7
 65
   257
 75
     1
175
     1
 42
1.0
 92
        8
 66
     7
 43
1.0
 76
     1
 77
     6
 78
     2
 67
     7
 79
     5
170
     0
171
     0
290
     0
174
     0
 93
        1
 44
50.0
173
     0
291
     1
 45
0.0
  0
VISUALSTYLE
  5
3A
102
{ACAD_REACTORS
330
2A
102
}
102
{ACAD_XDICTIONARY
360
EE
102
}
330
2A
100
AcDbVisualStyle
  2
ColorChange
 70
    16
 71
     2
 72
     2
 73
     3
 90
        0
 40
0.6
 41
30.0
 62
     5
 63
     8
421
  8421504
 74
     1
 91
        4
 64
     7
 65
   257
 75
     1
175
     1
 42
1.0
 92
        8
 66
     8
424
  8421504
 43
1.0
 76
     1
 77
     6
 78
     2
 67
     7
 79
     5
170
     0
171
     0
290
     0
174
     0
 93
        1
 44
0.0
173
     0
291
     1
 45
0.0
  0
VISUALSTYLE
  5
34
102
{ACAD_REACTORS
330
2A
102
}
102
{ACAD_XDICTIONARY
360
E2
102
}
330
2A
100
AcDbVisualStyle
  2
Conceptual
 70
     9
 71
     3
 72
     2
 73
     0
 90
        0
 40
0.6
 41
30.0
 62
     5
 63
     7
421
 16777215
 74
     2
 91
        2
 64
     7
 65
   257
 75
     1
175
     1
 42
179.0
 92
        8
 66
     7
 43
1.0
 76
     1
 77
     6
 78
     2
 67
     7
 79
     3
170
     0
171
     0
290
     0
174
     0
 93
        1
 44
0.0
173
     0
291
     0
 45
0.0
  0
VISUALSTYLE
  5
35
102
{ACAD_REACTORS
330
2A
102
}
102
{ACAD_XDICTIONARY
360
E4
102
}
330
2A
100
AcDbVisualStyle
  2
Dim
 70
    11
 71
     2
 72
     2
 73
     0
 90
        0
 40
0.6
 41
30.0
 62
     5
 63
     7
421
 16777215
 74
     1
 91
        4
 64
     7
 65
   257
 75
     1
175
     1
 42
1.0
 92
        8
 66
     7
 43
1.0
 76
     1
 77
     6
 78
     2
 67
     7
 79
     5
170
     0
171
     0
290
     0
174
     0
 93
        1
 44
-50.0
173
     0
291
     1
 45
0.0
  0
VISUALSTYLE
  5
3D
102
{ACAD_REACTORS
330
2A
102
}
102
{ACAD_XDICTIONARY
360
F4
102
}
330
2A
100
AcDbVisualStyle
  2
EdgeColorOff
 70
    22
 71
     2
 72
     2
 73
     0
 90
        0
 40
0.6
 41
30.0
 62
     5
 63
     7
421
 16777215
 74
     1
 91
        4
 64
     7
 65
   257
 75
     1
175
     1
 42
1.0
 92
        8
 66
     7
 43
1.0
 76
     1
 77
     6
 78
     2
 67
     7
 79
     5
170
     0
171
     0
290
     0
174
     0
 93
        1
 44
0.0
173
     0
291
     1
 45
0.0
  0
VISUALSTYLE
  5
39
102
{ACAD_REACTORS
330
2A
102
}
102
{ACAD_XDICTIONARY
360
EC
102
}
330
2A
100
AcDbVisualStyle
  2
Facepattern
 70
    15
 71
     2
 72
     2
 73
     0
 90
        0
 40
0.6
 41
30.0
 62
     5
 63
     7
421
 16777215
 74
     1
 91
        4
 64
     7
 65
   257
 75
     1
175
     1
 42
1.0
 92
        8
 66
     7
 43
1.0
 76
     1
 77
     6
 78
     2
 67
     7
 79
     5
170
     0
171
     0
290
     0
174
     0
 93
        1
 44
0.0
173
     0
291
     1
 45
0.0
  0
VISUALSTYLE
  5
2B
102
{ACAD_REACTORS
330
2A
102
}
102
{ACAD_XDICTIONARY
360
D0
102
}
330
2A
100
AcDbVisualStyle
  2
Flat
 70
     0
 71
     2
 72
     1
 73
     1
 90
        2
 40
0.6
 41
30.0
 62
     5
 63
     7
421
 16777215
 74
     0
 91
        0
 64
     7
 65
   257
 75
     1
175
     1
 42
1.0
 92
        8
 66
     7
 43
1.0
 76
     1
 77
     6
 78
     2
 67
     7
 79
     5
170
     0
171
     0
290
     0
174
     0
 93
       13
 44
0.0
173
     0
291
     1
 45
0.0
  0
VISUALSTYLE
  5
2C
102
{ACAD_REACTORS
330
2A
102
}
102
{ACAD_XDICTIONARY
360
D2
102
}
330
2A
100
AcDbVisualStyle
  2
FlatWithEdges
 70
     1
 71
     2
 72
     1
 73
     1
 90
        2
 40
0.6
 41
30.0
 62
     5
 63
     7
421
 16777215
 74
     1
 91
        0
 64
     7
 65
   257
 75
     1
175
     1
 42
1.0
 92
        0
 66
   257
 43
1.0
 76
     1
 77
     6
 78
     2
 67
     7
 79
     5
170
     0
171
     0
290
     0
174
     0
 93
       13
 44
0.0
173
     0
291
     1
 45
0.0
  0
VISUALSTYLE
  5
2D
102
{ACAD_REACTORS
330
2A
102
}
102
{ACAD_XDICTIONARY
360
D4
102
}
330
2A
100
AcDbVisualStyle
  2
Gouraud
 70
     2
 71
     2
 72
     2
 73
     1
 90
        2
 40
0.6
 41
30.0
 62
     5
 63
     7
421
 16777215
 74
     0
 91
        0
 64
     7
 65
   257
 75
     1
175
     1
 42
1.0
 92
        0
 66
     7
 43
1.0
 76
     1
 77
     6
 78
     2
 67
     7
 79
     5
170
     0
171
     0
290
     0
174
     0
 93
       13
 44
0.0
173
     0
291
     1
 45
0.0
  0
VISUALSTYLE
  5
2E
102
{ACAD_REACTORS
330
2A
102
}
102
{ACAD_XDICTIONARY
360
D6
102
}
330
2A
100
AcDbVisualStyle
  2
GouraudWithEdges
 70
     3
 71
     2
 72
     2
 73
     1
 90
        2
 40
0.6
 41
30.0
 62
     5
 63
     7
421
 16777215
 74
     1
 91
        0
 64
     7
 65
   257
 75
     1
175
     1
 42
1.0
 92
        0
 66
   257
 43
1.0
 76
     1
 77
     6
 78
     2
 67
     7
 79
     5
170
     0
171
     0
290
     0
174
     0
 93
       13
 44
0.0
173
     0
291
     1
 45
0.0
  0
VISUALSTYLE
  5
31
102
{ACAD_REACTORS
330
2A
102
}
102
{ACAD_XDICTIONARY
360
DC
102
}
330
2A
100
AcDbVisualStyle
  2
Hidden
 70
     6
 71
     1
 72
     2
 73
     2
 90
        0
 40
0.6
 41
30.0
 62
     5
 63
     7
421
 16777215
 74
     2
 91
        2
 64
     7
 65
   257
 75
     2
175
     1
 42
40.0
 92
        0
 66
   257
 43
1.0
 76
     1
 77
     6
 78
     2
 67
     7
 79
     3
170
     0
171
     0
290
     0
174
     0
 93
        1
 44
0.0
173
     0
291
     0
 45
0.0
  0
VISUALSTYLE
  5
3B
102
{ACAD_REACTORS
330
2A
102
}
102
{ACAD_XDICTIONARY
360
F0
102
}
330
2A
100
AcDbVisualStyle
  2
JitterOff
 70
    20
 71
     2
 72
     2
 73
     0
 90
        0
 40
0.6
 41
30.0
 62
     5
 63
     7
421
 16777215
 74
     1
 91
        4
 64
     7
 65
   257
 75
     1
175
     1
 42
1.0
 92
       10
 66
     7
 43
1.0
 76
     1
 77
     6
 78
     2
 67
     7
 79
     5
170
     0
171
     0
290
     0
174
     0
 93
        1
 44
0.0
173
     0
291
     1
 45
0.0
  0
VISUALSTYLE
  5
38
102
{ACAD_REACTORS
330
2A
102
}
102
{ACAD_XDICTIONARY
360
EA
102
}
330
2A
100
AcDbVisualStyle
  2
Linepattern
 70
    14
 71
     2
 72
     2
 73
     0
 90
        0
 40
0.6
 41
30.0
 62
     5
 63
     7
421
 16777215
 74
     1
 91
        4
 64
     7
 65
   257
 75
     7
175
     7
 42
1.0
 92
        8
 66
     7
 43
1.0
 76
     1
 77
     6
 78
     2
 67
     7
 79
     5
170
     0
171
     0
290
     0
174
     0
 93
        1
 44
0.0
173
     0
291
     1
 45
0.0
  0
VISUALSTYLE
  5
3C
102
{ACAD_REACTORS
330
2A
102
}
102
{ACAD_XDICTIONARY
360
F2
102
}
330
2A
100
AcDbVisualStyle
  2
OverhangOff
 70
    21
 71
     2
 72
     2
 73
     0
 90
        0
 40
0.6
 41
30.0
 62
     5
 63
     7
421
 16777215
 74
     1
 91
        4
 64
     7
 65
   257
 75
     1
175
     1
 42
1.0
 92
        9
 66
     7
 43
1.0
 76
     1
 77
     6
 78
     2
 67
     7
 79
     5
170
     0
171
     0
290
     0
174
     0
 93
        1
 44
0.0
173
     0
291
     1
 45
0.0
  0
VISUALSTYLE
  5
33
102
{ACAD_REACTORS
330
2A
102
}
102
{ACAD_XDICTIONARY
360
E0
102
}
330
2A
100
AcDbVisualStyle
  2
Realistic
 70
     8
 71
     2
 72
     3
 73
     0
 90
        2
 40
0.6
 41
30.0
 62
     5
 63
     7
421
 16777215
 74
     0
 91
        0
 64
     7
 65
   257
 75
     1
175
     1
 42
1.0
 92
        8
 66
   257
 43
1.0
 76
     1
 77
     6
 78
     2
 67
     7
 79
     3
170
     0
171
     0
290
     0
174
     0
 93
       13
 44
0.0
173
     0
291
     0
 45
0.0
  0
VISUALSTYLE
  5
42
102
{ACAD_REACTORS
330
2A
102
}
102
{ACAD_XDICTIONARY
360
FE
102
}
330
2A
100
AcDbVisualStyle
  2
Shaded
 70
    27
 71
     2
 72
     2
 73
     1
 90
        2
 40
0.6
 41
30.0
 62
     5
 63
     7
421
 16777215
 74
     0
 91
        4
 64
     7
 65
   257
 75
     1
175
     1
 42
1.0
 92
        8
 66
   257
 43
1.0
 76
     1
 77
     6
 78
     2
 67
     8
425
  7895160
 79
     3
170
     0
171
     0
290
     0
174
     0
 93
        5
 44
0.0
173
     0
291
     0
 45
0.0
  0
VISUALSTYLE
  5
41
102
{ACAD_REACTORS
330
2A
102
}
102
{ACAD_XDICTIONARY
360
FC
102
}
330
2A
100
AcDbVisualStyle
  2
Shaded with edges
 70
    26
 71
     2
 72
     2
 73
     1
 90
        2
 40
0.6
 41
30.0
 62
     5
 63
     7
421
 16777215
 74
     1
 91
       10
 64
     7
 65
   257
 75
     2
175
     1
 42
1.0
 92
        8
 66
   257
 43
1.0
 76
     1
 77
     6
 78
     2
 67
     7
 79
     3
170
     0
171
     0
290
     0
174
     0
 93
        5
 44
0.0
173
     0
291
     0
 45
0.0
  0
VISUALSTYLE
  5
3E
102
{ACAD_REACTORS
330
2A
102
}
102
{ACAD_XDICTIONARY
360
F6
102
}
330
2A
100
AcDbVisualStyle
  2
Shades of Gray
 70
    23
 71
     2
 72
     2
 73
     3
 90
        0
 40
0.6
 41
30.0
 62
     5
 63
     7
421
 16777215
 74
     2
 91
        2
 64
     7
 65
     7
 75
     1
175
     1
 42
40.0
 92
        8
 66
     7
 43
1.0
 76
     1
 77
     6
 78
     2
 67
     7
 79
     3
170
     0
171
     0
290
     0
174
     0
 93
        1
 44
0.0
173
     0
291
     0
 45
0.0
  0
VISUALSTYLE
  5
3F
102
{ACAD_REACTORS
330
2A
102
}
102
{ACAD_XDICTIONARY
360
F8
102
}
330
2A
100
AcDbVisualStyle
  2
Sketchy
 70
    24
 71
     1
 72
     2
 73
     2
 90
        0
 40
0.6
 41
30.0
 62
     5
 63
     7
421
 16777215
 74
     2
 91
        2
 64
     7
 65
     7
 75
     1
175
     1
 42
40.0
 92
       11
 66
     7
 43
1.0
 76
     1
 77
     6
 78
     2
 67
     7
 79
     6
170
     0
171
     0
290
     0
174
     0
 93
        1
 44
0.0
173
     0
291
     0
 45
0.0
  0
VISUALSTYLE
  5
37
102
{ACAD_REACTORS
330
2A
102
}
102
{ACAD_XDICTIONARY
360
E8
102
}
330
2A
100
AcDbVisualStyle
  2
Thicken
 70
    13
 71
     2
 72
     2
 73
     0
 90
        0
 40
0.6
 41
30.0
 62
     5
 63
     7
421
 16777215
 74
     1
 91
        4
 64
     7
 65
   257
 75
     1
175
     1
 42
1.0
 92
       12
 66
     7
 43
1.0
 76
     1
 77
     6
 78
     2
 67
     7
 79
     5
170
     0
171
     0
290
     0
174
     0
 93
        1
 44
0.0
173
     0
291
     1
 45
0.0
  0
VISUALSTYLE
  5
30
102
{ACAD_REACTORS
330
2A
102
}
102
{ACAD_XDICTIONARY
360
DA
102
}
330
2A
100
AcDbVisualStyle
  2
Wireframe
 70
     5
 71
     0
 72
     2
 73
     0
 90
        0
 40
0.6
 41
30.0
 62
     5
 63
     7
421
 16777215
 74
     1
 91
        4
 64
     7
 65
   257
 75
     1
175
     1
 42
1.0
 92
        0
 66
   257
 43
1.0
 76
     1
 77
     6
 78
     2
 67
     7
 79
     3
170
     0
171
     0
290
     0
174
     0
 93
        1
 44
0.0
173
     0
291
     0
 45
0.0
  0
VISUALSTYLE
  5
40
102
{ACAD_REACTORS
330
2A
102
}
102
{ACAD_XDICTIONARY
360
FA
102
}
330
2A
100
AcDbVisualStyle
  2
X-Ray
 70
    25
 71
     2
 72
     2
 73
     1
 90
        1
 40
0.5
 41
30.0
 62
     5
 63
     7
421
 16777215
 74
     1
 91
        0
 64
     7
 65
   257
 75
     1
175
     1
 42
1.0
 92
        8
 66
     7
 43
1.0
 76
     1
 77
     6
 78
     2
 67
     7
 79
     3
170
     0
171
     0
290
     0
174
     0
 93
       13
 44
0.0
173
     0
291
     0
 45
0.0
  0
DICTIONARYVAR
  5
CE
102
{ACAD_REACTORS
330
CD
102
}
330
CD
100
DictionaryVariables
280
     0
  1
1:1
  0
DICTIONARYVAR
  5
107
102
{ACAD_REACTORS
330
CD
102
}
330
CD
100
DictionaryVariables
280
     0
  1
Standard
  0
DICTIONARYVAR
  5
106
102
{ACAD_REACTORS
330
CD
102
}
330
CD
100
DictionaryVariables
280
     0
  1
Standard
  0
DICTIONARYVAR
  5
CF
102
{ACAD_REACTORS
330
CD
102
}
330
CD
100
DictionaryVariables
280
     0
  1
2
  0
DICTIONARY
  5
103
330
6C
100
AcDbDictionary
280
     1
281
     1
  3
ACAD_XREC_ROUNDTRIP
360
104
  0
DICTIONARY
  5
100
330
6A
100
AcDbDictionary
280
     1
281
     1
  3
ACAD_ROUNDTRIP_2008_TABLESTYLE_CELLSTYLEMAP
360
101
  0
DICTIONARY
  5
D8
330
2F
100
AcDbDictionary
280
     1
281
     1
  3
ACAD_XREC_ROUNDTRIP
360
D9
  0
DICTIONARY
  5
DE
330
32
100
AcDbDictionary
280
     1
281
     1
  3
ACAD_XREC_ROUNDTRIP
360
DF
  0
DICTIONARY
  5
E6
330
36
100
AcDbDictionary
280
     1
281
     1
  3
ACAD_XREC_ROUNDTRIP
360
E7
  0
DICTIONARY
  5
EE
330
3A
100
AcDbDictionary
280
     1
281
     1
  3
ACAD_XREC_ROUNDTRIP
360
EF
  0
DICTIONARY
  5
E2
330
34
100
AcDbDictionary
280
     1
281
     1
  3
ACAD_XREC_ROUNDTRIP
360
E3
  0
DICTIONARY
  5
E4
330
35
100
AcDbDictionary
280
     1
281
     1
  3
ACAD_XREC_ROUNDTRIP
360
E5
  0
DICTIONARY
  5
F4
330
3D
100
AcDbDictionary
280
     1
281
     1
  3
ACAD_XREC_ROUNDTRIP
360
F5
  0
DICTIONARY
  5
EC
330
39
100
AcDbDictionary
280
     1
281
     1
  3
ACAD_XREC_ROUNDTRIP
360
ED
  0
DICTIONARY
  5
D0
330
2B
100
AcDbDictionary
280
     1
281
     1
  3
ACAD_XREC_ROUNDTRIP
360
D1
  0
DICTIONARY
  5
D2
330
2C
100
AcDbDictionary
280
     1
281
     1
  3
ACAD_XREC_ROUNDTRIP
360
D3
  0
DICTIONARY
  5
D4
330
2D
100
AcDbDictionary
280
     1
281
     1
  3
ACAD_XREC_ROUNDTRIP
360
D5
  0
DICTIONARY
  5
D6
330
2E
100
AcDbDictionary
280
     1
281
     1
  3
ACAD_XREC_ROUNDTRIP
360
D7
  0
DICTIONARY
  5
DC
330
31
100
AcDbDictionary
280
     1
281
     1
  3
ACAD_XREC_ROUNDTRIP
360
DD
  0
DICTIONARY
  5
F0
330
3B
100
AcDbDictionary
280
     1
281
     1
  3
ACAD_XREC_ROUNDTRIP
360
F1
  0
DICTIONARY
  5
EA
330
38
100
AcDbDictionary
280
     1
281
     1
  3
ACAD_XREC_ROUNDTRIP
360
EB
  0
DICTIONARY
  5
F2
330
3C
100
AcDbDictionary
280
     1
281
     1
  3
ACAD_XREC_ROUNDTRIP
360
F3
  0
DICTIONARY
  5
E0
330
33
100
AcDbDictionary
280
     1
281
     1
  3
ACAD_XREC_ROUNDTRIP
360
E1
  0
DICTIONARY
  5
FE
330
42
100
AcDbDictionary
280
     1
281
     1
  3
ACAD_XREC_ROUNDTRIP
360
FF
  0
DICTIONARY
  5
FC
330
41
100
AcDbDictionary
280
     1
281
     1
  3
ACAD_XREC_ROUNDTRIP
360
FD
  0
DICTIONARY
  5
F6
330
3E
100
AcDbDictionary
280
     1
281
     1
  3
ACAD_XREC_ROUNDTRIP
360
F7
  0
DICTIONARY
  5
F8
330
3F
100
AcDbDictionary
280
     1
281
     1
  3
ACAD_XREC_ROUNDTRIP
360
F9
  0
DICTIONARY
  5
E8
330
37
100
AcDbDictionary
280
     1
281
     1
  3
ACAD_XREC_ROUNDTRIP
360
E9
  0
DICTIONARY
  5
DA
330
30
100
AcDbDictionary
280
     1
281
     1
  3
ACAD_XREC_ROUNDTRIP
360
DB
  0
DICTIONARY
  5
FA
330
40
100
AcDbDictionary
280
     1
281
     1
  3
ACAD_XREC_ROUNDTRIP
360
FB
  0
XRECORD
  5
104
102
{ACAD_REACTORS
330
103
102
}
330
103
100
AcDbXrecord
280
     1
102
ACAD_ROUNDTRIP_2010_MLEADER_STYLE
  0
CELLSTYLEMAP
  5
101
102
{ACAD_REACTORS
330
100
102
}
330
100
100
AcDbCellStyleMap
 90
        3
300
CELLSTYLE
  1
TABLEFORMAT_BEGIN
 90
        5
170
     1
 91
        0
 92
    32768
 62
   257
 93
        1
300
CONTENTFORMAT
  1
CONTENTFORMAT_BEGIN
 90
        0
 91
        0
 92
        4
 93
        0
300

 40
0.0
140
1.0
 94
        5
 62
     0
340
11
144
0.25
309
CONTENTFORMAT_END
171
     1
301
MARGIN
  1
CELLMARGIN_BEGIN
 40
0.06
 40
0.06
 40
0.06
 40
0.06
 40
0.06
 40
0.06
309
CELLMARGIN_END
 94
        6
 95
        1
302
GRIDFORMAT
  1
GRIDFORMAT_BEGIN
 90
        0
 91
        1
 62
     0
 92
       -2
340
14
 93
        0
 40
0.045
309
GRIDFORMAT_END
 95
        2
302
GRIDFORMAT
  1
GRIDFORMAT_BEGIN
 90
        0
 91
        1
 62
     0
 92
       -2
340
14
 93
        0
 40
0.045
309
GRIDFORMAT_END
 95
        4
302
GRIDFORMAT
  1
GRIDFORMAT_BEGIN
 90
        0
 91
        1
 62
     0
 92
       -2
340
14
 93
        0
 40
0.045
309
GRIDFORMAT_END
 95
        8
302
GRIDFORMAT
  1
GRIDFORMAT_BEGIN
 90
        0
 91
        1
 62
     0
 92
       -2
340
14
 93
        0
 40
0.045
309
GRIDFORMAT_END
 95
       16
302
GRIDFORMAT
  1
GRIDFORMAT_BEGIN
 90
        0
 91
        1
 62
     0
 92
       -2
340
14
 93
        0
 40
0.045
309
GRIDFORMAT_END
 95
       32
302
GRIDFORMAT
  1
GRIDFORMAT_BEGIN
 90
        0
 91
        1
 62
     0
 92
       -2
340
14
 93
        0
 40
0.045
309
GRIDFORMAT_END
309
TABLEFORMAT_END
  1
CELLSTYLE_BEGIN
 90
        1
 91
        1
300
_TITLE
309
CELLSTYLE_END
300
CELLSTYLE
  1
TABLEFORMAT_BEGIN
 90
        5
170
     1
 91
        0
 92
        0
 62
   257
 93
        1
300
CONTENTFORMAT
  1
CONTENTFORMAT_BEGIN
 90
        0
 91
        0
 92
        4
 93
        0
300

 40
0.0
140
1.0
 94
        5
 62
     0
340
11
144
0.18
309
CONTENTFORMAT_END
171
     1
301
MARGIN
  1
CELLMARGIN_BEGIN
 40
0.06
 40
0.06
 40
0.06
 40
0.06
 40
0.06
 40
0.06
309
CELLMARGIN_END
 94
        6
 95
        1
302
GRIDFORMAT
  1
GRIDFORMAT_BEGIN
 90
        0
 91
        1
 62
     0
 92
       -2
340
14
 93
        0
 40
0.045
309
GRIDFORMAT_END
 95
        2
302
GRIDFORMAT
  1
GRIDFORMAT_BEGIN
 90
        0
 91
        1
 62
     0
 92
       -2
340
14
 93
        0
 40
0.045
309
GRIDFORMAT_END
 95
        4
302
GRIDFORMAT
  1
GRIDFORMAT_BEGIN
 90
        0
 91
        1
 62
     0
 92
       -2
340
14
 93
        0
 40
0.045
309
GRIDFORMAT_END
 95
        8
302
GRIDFORMAT
  1
GRIDFORMAT_BEGIN
 90
        0
 91
        1
 62
     0
 92
       -2
340
14
 93
        0
 40
0.045
309
GRIDFORMAT_END
 95
       16
302
GRIDFORMAT
  1
GRIDFORMAT_BEGIN
 90
        0
 91
        1
 62
     0
 92
       -2
340
14
 93
        0
 40
0.045
309
GRIDFORMAT_END
 95
       32
302
GRIDFORMAT
  1
GRIDFORMAT_BEGIN
 90
        0
 91
        1
 62
     0
 92
       -2
340
14
 93
        0
 40
0.045
309
GRIDFORMAT_END
309
TABLEFORMAT_END
  1
CELLSTYLE_BEGIN
 90
        2
 91
        1
300
_HEADER
309
CELLSTYLE_END
300
CELLSTYLE
  1
TABLEFORMAT_BEGIN
 90
        5
170
     1
 91
        0
 92
        0
 62
   257
 93
        1
300
CONTENTFORMAT
  1
CONTENTFORMAT_BEGIN
 90
        0
 91
        0
 92
        4
 93
        0
300

 40
0.0
140
1.0
 94
        2
 62
     0
340
11
144
0.18
309
CONTENTFORMAT_END
171
     1
301
MARGIN
  1
CELLMARGIN_BEGIN
 40
0.06
 40
0.06
 40
0.06
 40
0.06
 40
0.06
 40
0.06
309
CELLMARGIN_END
 94
        6
 95
        1
302
GRIDFORMAT
  1
GRIDFORMAT_BEGIN
 90
        0
 91
        1
 62
     0
 92
       -2
340
14
 93
        0
 40
0.045
309
GRIDFORMAT_END
 95
        2
302
GRIDFORMAT
  1
GRIDFORMAT_BEGIN
 90
        0
 91
        1
 62
     0
 92
       -2
340
14
 93
        0
 40
0.045
309
GRIDFORMAT_END
 95
        4
302
GRIDFORMAT
  1
GRIDFORMAT_BEGIN
 90
        0
 91
        1
 62
     0
 92
       -2
340
14
 93
        0
 40
0.045
309
GRIDFORMAT_END
 95
        8
302
GRIDFORMAT
  1
GRIDFORMAT_BEGIN
 90
        0
 91
        1
 62
     0
 92
       -2
340
14
 93
        0
 40
0.045
309
GRIDFORMAT_END
 95
       16
302
GRIDFORMAT
  1
GRIDFORMAT_BEGIN
 90
        0
 91
        1
 62
     0
 92
       -2
340
14
 93
        0
 40
0.045
309
GRIDFORMAT_END
 95
       32
302
GRIDFORMAT
  1
GRIDFORMAT_BEGIN
 90
        0
 91
        1
 62
     0
 92
       -2
340
14
 93
        0
 40
0.045
309
GRIDFORMAT_END
309
TABLEFORMAT_END
  1
CELLSTYLE_BEGIN
 90
        3
 91
        2
300
_DATA
309
CELLSTYLE_END
  0
XRECORD
  5
D9
102
{ACAD_REACTORS
330
D8
102
}
330
D8
100
AcDbXrecord
280
     1
102
RTVSPropertyOp0
 70
     1
102
RTVSPropertyOp1
 70
     1
102
RTVSPropertyOp2
 70
     1
102
RTVSPropertyOp3
 70
     1
102
RTVSPropertyOp4
 70
     1
102
RTVSPropertyOp5
 70
     1
102
RTVSPropertyOp6
 70
     1
102
RTVSPropertyOp7
 70
     1
102
RTVSPropertyOp8
 70
     1
102
RTVSPropertyOp9
 70
     1
102
RTVSPropertyOp10
 70
     1
102
RTVSPropertyOp11
 70
     1
102
RTVSPropertyOp12
 70
     1
102
RTVSPropertyOp13
 70
     1
102
RTVSPropertyOp14
 70
     1
102
RTVSPropertyOp15
 70
     1
102
RTVSPropertyOp16
 70
     1
102
RTVSPropertyOp17
 70
     1
102
RTVSPropertyOp18
 70
     1
102
RTVSPropertyOp19
 70
     1
102
RTVSPropertyOp20
 70
     1
102
RTVSPropertyOp21
 70
     1
102
RTVSPropertyOp22
 70
     1
102
RTVSPropertyOp23
 70
     1
102
RTVSPropertyOp24
 70
     1
102
RTVSPropertyOp25
 70
     1
102
RTVSPropertyOp26
 70
     1
102
RTVSPropertyOp27
 70
     1
102
RTVSPropertyOp28
 70
     1
102
RTVSPropertyOp29
 70
     1
102
RTVSPropertyOp30
 70
     1
102
RTVSPropertyOp31
 70
     1
102
RTVSPropertyOp32
 70
     1
102
RTVSPropertyOp33
 70
     1
102
RTVSPropertyOp34
 70
     1
102
RTVSPropertyOp35
 70
     1
102
RTVSPropertyOp36
 70
     1
102
RTVSPropertyOp37
 70
     1
102
RTVSPropertyOp38
 70
     1
102
RTVSPropertyOp39
 70
     1
102
RTVSPropertyOp40
 70
     1
102
RTVSPropertyOp41
 70
     1
102
RTVSPropertyOp42
 70
     1
102
RTVSPropertyOp43
 70
     1
102
RTVSPropertyOp44
 70
     1
102
RTVSPropertyOp45
 70
     1
102
RTVSPropertyOp46
 70
     1
102
RTVSPropertyOp47
 70
     1
102
RTVSPropertyOp48
 70
     1
102
RTVSPropertyOp49
 70
     1
102
RTVSPropertyOp50
 70
     1
102
RTVSPropertyOp51
 70
     0
102
RTVSPropertyOp52
 70
     0
102
RTVSPropertyOp53
 70
     1
102
RTVSPropertyOp54
 70
     1
102
RTVSPropertyOp55
 70
     1
102
RTVSPropertyOp56
 70
     1
102
RTVSPropertyOp57
 70
     1
102
RTVSPost2010Prop28
280
     1
102
RTVSPost2010PropOp28
 70
     1
102
RTVSPost2010Prop29
280
     1
102
RTVSPost2010PropOp29
 70
     1
102
RTVSPost2010Prop30
280
     0
102
RTVSPost2010PropOp30
 70
     1
102
RTVSPost2010Prop31
280
     0
102
RTVSPost2010PropOp31
 70
     1
102
RTVSPost2010Prop32
280
     0
102
RTVSPost2010PropOp32
 70
     1
102
RTVSPost2010Prop33
280
     0
102
RTVSPost2010PropOp33
 70
     1
102
RTVSPost2010Prop34
280
     0
102
RTVSPost2010PropOp34
 70
     1
102
RTVSPost2010Prop35
280
     0
102
RTVSPost2010PropOp35
 70
     1
102
RTVSPost2010Prop36
280
     0
102
RTVSPost2010PropOp36
 70
     1
102
RTVSPost2010Prop37
 90
       50
102
RTVSPost2010PropOp37
 70
     1
102
RTVSPost2010Prop38
140
0.0
102
RTVSPost2010PropOp38
 70
     1
102
RTVSPost2010Prop39
140
1.0
102
RTVSPost2010PropOp39
 70
     1
102
RTVSPost2010Prop40
 90
        0
102
RTVSPost2010PropOp40
 70
     1
102
RTVSPost2010Prop41ColorIndex
 90
       18
102
RTVSPost2010Prop41ColorRGB
 90
        0
102
RTVSPost2010PropOp41
 70
     1
102
RTVSPost2010Prop42
 90
       50
102
RTVSPost2010PropOp42
 70
     1
102
RTVSPost2010Prop43
 90
        3
102
RTVSPost2010PropOp43
 70
     1
102
RTVSPost2010Prop44ColorIndex
 90
        5
102
RTVSPost2010Prop44ColorRGB
 90
      255
102
RTVSPost2010PropOp44
 70
     1
102
RTVSPost2010Prop45
280
     0
102
RTVSPost2010PropOp45
 70
     1
102
RTVSPost2010Prop46
 90
       50
102
RTVSPost2010PropOp46
 70
     1
102
RTVSPost2010Prop47
 90
       50
102
RTVSPost2010PropOp47
 70
     1
102
RTVSPost2010Prop48
 90
       50
102
RTVSPost2010PropOp48
 70
     1
102
RTVSPost2010Prop49
280
     0
102
RTVSPost2010PropOp49
 70
     1
102
RTVSPost2010Prop50
 90
       50
102
RTVSPost2010PropOp50
 70
     1
102
RTVSPost2010Prop51ColorIndex
 90
      256
102
RTVSPost2010Prop51ColorRGB
 90
-16777216
102
RTVSPost2010PropOp51
 70
     0
102
RTVSPost2010Prop52
140
1.0
102
RTVSPost2010PropOp52
 70
     0
102
RTVSPost2010Prop53
 90
        2
102
RTVSPost2010PropOp53
 70
     1
102
RTVSPost2010Prop54
  1
strokes_ogs.tif
102
RTVSPost2010PropOp54
 70
     1
102
RTVSPost2010Prop55
280
     0
102
RTVSPost2010PropOp55
 70
     1
102
RTVSPost2010Prop56
140
1.0
102
RTVSPost2010PropOp56
 70
     1
102
RTVSPost2010Prop57
140
1.0
102
RTVSPost2010PropOp57
 70
     1
  0
XRECORD
  5
DF
102
{ACAD_REACTORS
330
DE
102
}
330
DE
100
AcDbXrecord
280
     1
102
RTVSPropertyOp0
 70
     1
102
RTVSPropertyOp1
 70
     1
102
RTVSPropertyOp2
 70
     1
102
RTVSPropertyOp3
 70
     1
102
RTVSPropertyOp4
 70
     1
102
RTVSPropertyOp5
 70
     1
102
RTVSPropertyOp6
 70
     1
102
RTVSPropertyOp7
 70
     1
102
RTVSPropertyOp8
 70
     1
102
RTVSPropertyOp9
 70
     1
102
RTVSPropertyOp10
 70
     1
102
RTVSPropertyOp11
 70
     1
102
RTVSPropertyOp12
 70
     1
102
RTVSPropertyOp13
 70
     1
102
RTVSPropertyOp14
 70
     1
102
RTVSPropertyOp15
 70
     1
102
RTVSPropertyOp16
 70
     1
102
RTVSPropertyOp17
 70
     1
102
RTVSPropertyOp18
 70
     1
102
RTVSPropertyOp19
 70
     1
102
RTVSPropertyOp20
 70
     1
102
RTVSPropertyOp21
 70
     1
102
RTVSPropertyOp22
 70
     1
102
RTVSPropertyOp23
 70
     1
102
RTVSPropertyOp24
 70
     1
102
RTVSPropertyOp25
 70
     1
102
RTVSPropertyOp26
 70
     1
102
RTVSPropertyOp27
 70
     1
102
RTVSPropertyOp28
 70
     1
102
RTVSPropertyOp29
 70
     1
102
RTVSPropertyOp30
 70
     1
102
RTVSPropertyOp31
 70
     1
102
RTVSPropertyOp32
 70
     1
102
RTVSPropertyOp33
 70
     1
102
RTVSPropertyOp34
 70
     1
102
RTVSPropertyOp35
 70
     1
102
RTVSPropertyOp36
 70
     1
102
RTVSPropertyOp37
 70
     1
102
RTVSPropertyOp38
 70
     1
102
RTVSPropertyOp39
 70
     1
102
RTVSPropertyOp40
 70
     1
102
RTVSPropertyOp41
 70
     1
102
RTVSPropertyOp42
 70
     1
102
RTVSPropertyOp43
 70
     1
102
RTVSPropertyOp44
 70
     1
102
RTVSPropertyOp45
 70
     1
102
RTVSPropertyOp46
 70
     1
102
RTVSPropertyOp47
 70
     1
102
RTVSPropertyOp48
 70
     1
102
RTVSPropertyOp49
 70
     1
102
RTVSPropertyOp50
 70
     1
102
RTVSPropertyOp51
 70
     0
102
RTVSPropertyOp52
 70
     0
102
RTVSPropertyOp53
 70
     1
102
RTVSPropertyOp54
 70
     1
102
RTVSPropertyOp55
 70
     1
102
RTVSPropertyOp56
 70
     1
102
RTVSPropertyOp57
 70
     1
102
RTVSPost2010Prop28
280
     0
102
RTVSPost2010PropOp28
 70
     1
102
RTVSPost2010Prop29
280
     1
102
RTVSPost2010PropOp29
 70
     1
102
RTVSPost2010Prop30
280
     1
102
RTVSPost2010PropOp30
 70
     1
102
RTVSPost2010Prop31
280
     0
102
RTVSPost2010PropOp31
 70
     1
102
RTVSPost2010Prop32
280
     0
102
RTVSPost2010PropOp32
 70
     1
102
RTVSPost2010Prop33
280
     0
102
RTVSPost2010PropOp33
 70
     1
102
RTVSPost2010Prop34
280
     0
102
RTVSPost2010PropOp34
 70
     1
102
RTVSPost2010Prop35
280
     0
102
RTVSPost2010PropOp35
 70
     1
102
RTVSPost2010Prop36
280
     0
102
RTVSPost2010PropOp36
 70
     1
102
RTVSPost2010Prop37
 90
       50
102
RTVSPost2010PropOp37
 70
     1
102
RTVSPost2010Prop38
140
0.0
102
RTVSPost2010PropOp38
 70
     1
102
RTVSPost2010Prop39
140
1.0
102
RTVSPost2010PropOp39
 70
     1
102
RTVSPost2010Prop40
 90
        0
102
RTVSPost2010PropOp40
 70
     1
102
RTVSPost2010Prop41ColorIndex
 90
       18
102
RTVSPost2010Prop41ColorRGB
 90
        0
102
RTVSPost2010PropOp41
 70
     1
102
RTVSPost2010Prop42
 90
       50
102
RTVSPost2010PropOp42
 70
     1
102
RTVSPost2010Prop43
 90
        3
102
RTVSPost2010PropOp43
 70
     1
102
RTVSPost2010Prop44ColorIndex
 90
        5
102
RTVSPost2010Prop44ColorRGB
 90
      255
102
RTVSPost2010PropOp44
 70
     1
102
RTVSPost2010Prop45
280
     0
102
RTVSPost2010PropOp45
 70
     1
102
RTVSPost2010Prop46
 90
       50
102
RTVSPost2010PropOp46
 70
     1
102
RTVSPost2010Prop47
 90
       50
102
RTVSPost2010PropOp47
 70
     1
102
RTVSPost2010Prop48
 90
       50
102
RTVSPost2010PropOp48
 70
     1
102
RTVSPost2010Prop49
280
     0
102
RTVSPost2010PropOp49
 70
     1
102
RTVSPost2010Prop50
 90
       50
102
RTVSPost2010PropOp50
 70
     1
102
RTVSPost2010Prop51ColorIndex
 90
      256
102
RTVSPost2010Prop51ColorRGB
 90
-16777216
102
RTVSPost2010PropOp51
 70
     0
102
RTVSPost2010Prop52
140
1.0
102
RTVSPost2010PropOp52
 70
     0
102
RTVSPost2010Prop53
 90
        2
102
RTVSPost2010PropOp53
 70
     1
102
RTVSPost2010Prop54
  1
strokes_ogs.tif
102
RTVSPost2010PropOp54
 70
     1
102
RTVSPost2010Prop55
280
     0
102
RTVSPost2010PropOp55
 70
     1
102
RTVSPost2010Prop56
140
1.0
102
RTVSPost2010PropOp56
 70
     1
102
RTVSPost2010Prop57
140
1.0
102
RTVSPost2010PropOp57
 70
     1
  0
XRECORD
  5
E7
102
{ACAD_REACTORS
330
E6
102
}
330
E6
100
AcDbXrecord
280
     1
102
RTVSPropertyOp0
 70
     1
102
RTVSPropertyOp1
 70
     1
102
RTVSPropertyOp2
 70
     1
102
RTVSPropertyOp3
 70
     1
102
RTVSPropertyOp4
 70
     1
102
RTVSPropertyOp5
 70
     1
102
RTVSPropertyOp6
 70
     1
102
RTVSPropertyOp7
 70
     1
102
RTVSPropertyOp8
 70
     1
102
RTVSPropertyOp9
 70
     1
102
RTVSPropertyOp10
 70
     1
102
RTVSPropertyOp11
 70
     1
102
RTVSPropertyOp12
 70
     1
102
RTVSPropertyOp13
 70
     1
102
RTVSPropertyOp14
 70
     1
102
RTVSPropertyOp15
 70
     1
102
RTVSPropertyOp16
 70
     1
102
RTVSPropertyOp17
 70
     1
102
RTVSPropertyOp18
 70
     1
102
RTVSPropertyOp19
 70
     1
102
RTVSPropertyOp20
 70
     1
102
RTVSPropertyOp21
 70
     1
102
RTVSPropertyOp22
 70
     1
102
RTVSPropertyOp23
 70
     1
102
RTVSPropertyOp24
 70
     1
102
RTVSPropertyOp25
 70
     1
102
RTVSPropertyOp26
 70
     1
102
RTVSPropertyOp27
 70
     1
102
RTVSPropertyOp28
 70
     1
102
RTVSPropertyOp29
 70
     1
102
RTVSPropertyOp30
 70
     1
102
RTVSPropertyOp31
 70
     1
102
RTVSPropertyOp32
 70
     1
102
RTVSPropertyOp33
 70
     1
102
RTVSPropertyOp34
 70
     1
102
RTVSPropertyOp35
 70
     1
102
RTVSPropertyOp36
 70
     1
102
RTVSPropertyOp37
 70
     1
102
RTVSPropertyOp38
 70
     1
102
RTVSPropertyOp39
 70
     1
102
RTVSPropertyOp40
 70
     1
102
RTVSPropertyOp41
 70
     1
102
RTVSPropertyOp42
 70
     1
102
RTVSPropertyOp43
 70
     1
102
RTVSPropertyOp44
 70
     1
102
RTVSPropertyOp45
 70
     1
102
RTVSPropertyOp46
 70
     1
102
RTVSPropertyOp47
 70
     1
102
RTVSPropertyOp48
 70
     1
102
RTVSPropertyOp49
 70
     1
102
RTVSPropertyOp50
 70
     1
102
RTVSPropertyOp51
 70
     0
102
RTVSPropertyOp52
 70
     0
102
RTVSPropertyOp53
 70
     1
102
RTVSPropertyOp54
 70
     1
102
RTVSPropertyOp55
 70
     1
102
RTVSPropertyOp56
 70
     1
102
RTVSPropertyOp57
 70
     1
102
RTVSPost2010Prop28
280
     0
102
RTVSPost2010PropOp28
 70
     1
102
RTVSPost2010Prop29
280
     1
102
RTVSPost2010PropOp29
 70
     1
102
RTVSPost2010Prop30
280
     1
102
RTVSPost2010PropOp30
 70
     1
102
RTVSPost2010Prop31
280
     0
102
RTVSPost2010PropOp31
 70
     1
102
RTVSPost2010Prop32
280
     0
102
RTVSPost2010PropOp32
 70
     1
102
RTVSPost2010Prop33
280
     0
102
RTVSPost2010PropOp33
 70
     1
102
RTVSPost2010Prop34
280
     0
102
RTVSPost2010PropOp34
 70
     1
102
RTVSPost2010Prop35
280
     0
102
RTVSPost2010PropOp35
 70
     1
102
RTVSPost2010Prop36
280
     0
102
RTVSPost2010PropOp36
 70
     1
102
RTVSPost2010Prop37
 90
       50
102
RTVSPost2010PropOp37
 70
     1
102
RTVSPost2010Prop38
140
0.0
102
RTVSPost2010PropOp38
 70
     1
102
RTVSPost2010Prop39
140
1.0
102
RTVSPost2010PropOp39
 70
     1
102
RTVSPost2010Prop40
 90
        0
102
RTVSPost2010PropOp40
 70
     1
102
RTVSPost2010Prop41ColorIndex
 90
       18
102
RTVSPost2010Prop41ColorRGB
 90
        0
102
RTVSPost2010PropOp41
 70
     1
102
RTVSPost2010Prop42
 90
       50
102
RTVSPost2010PropOp42
 70
     1
102
RTVSPost2010Prop43
 90
        3
102
RTVSPost2010PropOp43
 70
     1
102
RTVSPost2010Prop44ColorIndex
 90
        5
102
RTVSPost2010Prop44ColorRGB
 90
      255
102
RTVSPost2010PropOp44
 70
     1
102
RTVSPost2010Prop45
280
     0
102
RTVSPost2010PropOp45
 70
     1
102
RTVSPost2010Prop46
 90
       50
102
RTVSPost2010PropOp46
 70
     1
102
RTVSPost2010Prop47
 90
       50
102
RTVSPost2010PropOp47
 70
     1
102
RTVSPost2010Prop48
 90
       50
102
RTVSPost2010PropOp48
 70
     1
102
RTVSPost2010Prop49
280
     0
102
RTVSPost2010PropOp49
 70
     1
102
RTVSPost2010Prop50
 90
       50
102
RTVSPost2010PropOp50
 70
     1
102
RTVSPost2010Prop51ColorIndex
 90
      256
102
RTVSPost2010Prop51ColorRGB
 90
-16777216
102
RTVSPost2010PropOp51
 70
     0
102
RTVSPost2010Prop52
140
1.0
102
RTVSPost2010PropOp52
 70
     0
102
RTVSPost2010Prop53
 90
        2
102
RTVSPost2010PropOp53
 70
     1
102
RTVSPost2010Prop54
  1
strokes_ogs.tif
102
RTVSPost2010PropOp54
 70
     1
102
RTVSPost2010Prop55
280
     0
102
RTVSPost2010PropOp55
 70
     1
102
RTVSPost2010Prop56
140
1.0
102
RTVSPost2010PropOp56
 70
     1
102
RTVSPost2010Prop57
140
1.0
102
RTVSPost2010PropOp57
 70
     1
  0
XRECORD
  5
EF
102
{ACAD_REACTORS
330
EE
102
}
330
EE
100
AcDbXrecord
280
     1
102
RTVSPropertyOp0
 70
     1
102
RTVSPropertyOp1
 70
     1
102
RTVSPropertyOp2
 70
     1
102
RTVSPropertyOp3
 70
     1
102
RTVSPropertyOp4
 70
     1
102
RTVSPropertyOp5
 70
     1
102
RTVSPropertyOp6
 70
     1
102
RTVSPropertyOp7
 70
     1
102
RTVSPropertyOp8
 70
     1
102
RTVSPropertyOp9
 70
     1
102
RTVSPropertyOp10
 70
     1
102
RTVSPropertyOp11
 70
     1
102
RTVSPropertyOp12
 70
     1
102
RTVSPropertyOp13
 70
     1
102
RTVSPropertyOp14
 70
     1
102
RTVSPropertyOp15
 70
     1
102
RTVSPropertyOp16
 70
     1
102
RTVSPropertyOp17
 70
     1
102
RTVSPropertyOp18
 70
     1
102
RTVSPropertyOp19
 70
     1
102
RTVSPropertyOp20
 70
     1
102
RTVSPropertyOp21
 70
     1
102
RTVSPropertyOp22
 70
     1
102
RTVSPropertyOp23
 70
     1
102
RTVSPropertyOp24
 70
     1
102
RTVSPropertyOp25
 70
     1
102
RTVSPropertyOp26
 70
     1
102
RTVSPropertyOp27
 70
     1
102
RTVSPropertyOp28
 70
     1
102
RTVSPropertyOp29
 70
     1
102
RTVSPropertyOp30
 70
     1
102
RTVSPropertyOp31
 70
     1
102
RTVSPropertyOp32
 70
     1
102
RTVSPropertyOp33
 70
     1
102
RTVSPropertyOp34
 70
     1
102
RTVSPropertyOp35
 70
     1
102
RTVSPropertyOp36
 70
     1
102
RTVSPropertyOp37
 70
     1
102
RTVSPropertyOp38
 70
     1
102
RTVSPropertyOp39
 70
     1
102
RTVSPropertyOp40
 70
     1
102
RTVSPropertyOp41
 70
     1
102
RTVSPropertyOp42
 70
     1
102
RTVSPropertyOp43
 70
     1
102
RTVSPropertyOp44
 70
     1
102
RTVSPropertyOp45
 70
     1
102
RTVSPropertyOp46
 70
     1
102
RTVSPropertyOp47
 70
     1
102
RTVSPropertyOp48
 70
     1
102
RTVSPropertyOp49
 70
     1
102
RTVSPropertyOp50
 70
     1
102
RTVSPropertyOp51
 70
     0
102
RTVSPropertyOp52
 70
     0
102
RTVSPropertyOp53
 70
     1
102
RTVSPropertyOp54
 70
     1
102
RTVSPropertyOp55
 70
     1
102
RTVSPropertyOp56
 70
     1
102
RTVSPropertyOp57
 70
     1
102
RTVSPost2010Prop28
280
     0
102
RTVSPost2010PropOp28
 70
     1
102
RTVSPost2010Prop29
280
     1
102
RTVSPost2010PropOp29
 70
     1
102
RTVSPost2010Prop30
280
     1
102
RTVSPost2010PropOp30
 70
     1
102
RTVSPost2010Prop31
280
     0
102
RTVSPost2010PropOp31
 70
     1
102
RTVSPost2010Prop32
280
     0
102
RTVSPost2010PropOp32
 70
     1
102
RTVSPost2010Prop33
280
     0
102
RTVSPost2010PropOp33
 70
     1
102
RTVSPost2010Prop34
280
     0
102
RTVSPost2010PropOp34
 70
     1
102
RTVSPost2010Prop35
280
     0
102
RTVSPost2010PropOp35
 70
     1
102
RTVSPost2010Prop36
280
     0
102
RTVSPost2010PropOp36
 70
     1
102
RTVSPost2010Prop37
 90
       50
102
RTVSPost2010PropOp37
 70
     1
102
RTVSPost2010Prop38
140
0.0
102
RTVSPost2010PropOp38
 70
     1
102
RTVSPost2010Prop39
140
1.0
102
RTVSPost2010PropOp39
 70
     1
102
RTVSPost2010Prop40
 90
        0
102
RTVSPost2010PropOp40
 70
     1
102
RTVSPost2010Prop41ColorIndex
 90
       18
102
RTVSPost2010Prop41ColorRGB
 90
        0
102
RTVSPost2010PropOp41
 70
     1
102
RTVSPost2010Prop42
 90
       50
102
RTVSPost2010PropOp42
 70
     1
102
RTVSPost2010Prop43
 90
        3
102
RTVSPost2010PropOp43
 70
     1
102
RTVSPost2010Prop44ColorIndex
 90
        5
102
RTVSPost2010Prop44ColorRGB
 90
      255
102
RTVSPost2010PropOp44
 70
     1
102
RTVSPost2010Prop45
280
     0
102
RTVSPost2010PropOp45
 70
     1
102
RTVSPost2010Prop46
 90
       50
102
RTVSPost2010PropOp46
 70
     1
102
RTVSPost2010Prop47
 90
       50
102
RTVSPost2010PropOp47
 70
     1
102
RTVSPost2010Prop48
 90
       50
102
RTVSPost2010PropOp48
 70
     1
102
RTVSPost2010Prop49
280
     0
102
RTVSPost2010PropOp49
 70
     1
102
RTVSPost2010Prop50
 90
       50
102
RTVSPost2010PropOp50
 70
     1
102
RTVSPost2010Prop51ColorIndex
 90
      256
102
RTVSPost2010Prop51ColorRGB
 90
-16777216
102
RTVSPost2010PropOp51
 70
     0
102
RTVSPost2010Prop52
140
1.0
102
RTVSPost2010PropOp52
 70
     0
102
RTVSPost2010Prop53
 90
        2
102
RTVSPost2010PropOp53
 70
     1
102
RTVSPost2010Prop54
  1
strokes_ogs.tif
102
RTVSPost2010PropOp54
 70
     1
102
RTVSPost2010Prop55
280
     0
102
RTVSPost2010PropOp55
 70
     1
102
RTVSPost2010Prop56
140
1.0
102
RTVSPost2010PropOp56
 70
     1
102
RTVSPost2010Prop57
140
1.0
102
RTVSPost2010PropOp57
 70
     1
  0
XRECORD
  5
E3
102
{ACAD_REACTORS
330
E2
102
}
330
E2
100
AcDbXrecord
280
     1
102
RTVSPropertyOp0
 70
     1
102
RTVSPropertyOp1
 70
     1
102
RTVSPropertyOp2
 70
     1
102
RTVSPropertyOp3
 70
     1
102
RTVSPropertyOp4
 70
     1
102
RTVSPropertyOp5
 70
     1
102
RTVSPropertyOp6
 70
     1
102
RTVSPropertyOp7
 70
     1
102
RTVSPropertyOp8
 70
     1
102
RTVSPropertyOp9
 70
     1
102
RTVSPropertyOp10
 70
     1
102
RTVSPropertyOp11
 70
     1
102
RTVSPropertyOp12
 70
     1
102
RTVSPropertyOp13
 70
     1
102
RTVSPropertyOp14
 70
     1
102
RTVSPropertyOp15
 70
     1
102
RTVSPropertyOp16
 70
     1
102
RTVSPropertyOp17
 70
     1
102
RTVSPropertyOp18
 70
     1
102
RTVSPropertyOp19
 70
     1
102
RTVSPropertyOp20
 70
     1
102
RTVSPropertyOp21
 70
     1
102
RTVSPropertyOp22
 70
     1
102
RTVSPropertyOp23
 70
     1
102
RTVSPropertyOp24
 70
     1
102
RTVSPropertyOp25
 70
     1
102
RTVSPropertyOp26
 70
     1
102
RTVSPropertyOp27
 70
     1
102
RTVSPropertyOp28
 70
     1
102
RTVSPropertyOp29
 70
     1
102
RTVSPropertyOp30
 70
     1
102
RTVSPropertyOp31
 70
     1
102
RTVSPropertyOp32
 70
     1
102
RTVSPropertyOp33
 70
     1
102
RTVSPropertyOp34
 70
     1
102
RTVSPropertyOp35
 70
     1
102
RTVSPropertyOp36
 70
     1
102
RTVSPropertyOp37
 70
     1
102
RTVSPropertyOp38
 70
     1
102
RTVSPropertyOp39
 70
     1
102
RTVSPropertyOp40
 70
     1
102
RTVSPropertyOp41
 70
     1
102
RTVSPropertyOp42
 70
     1
102
RTVSPropertyOp43
 70
     1
102
RTVSPropertyOp44
 70
     1
102
RTVSPropertyOp45
 70
     1
102
RTVSPropertyOp46
 70
     1
102
RTVSPropertyOp47
 70
     1
102
RTVSPropertyOp48
 70
     1
102
RTVSPropertyOp49
 70
     1
102
RTVSPropertyOp50
 70
     1
102
RTVSPropertyOp51
 70
     0
102
RTVSPropertyOp52
 70
     0
102
RTVSPropertyOp53
 70
     1
102
RTVSPropertyOp54
 70
     1
102
RTVSPropertyOp55
 70
     1
102
RTVSPropertyOp56
 70
     1
102
RTVSPropertyOp57
 70
     1
102
RTVSPost2010Prop28
280
     0
102
RTVSPost2010PropOp28
 70
     1
102
RTVSPost2010Prop29
280
     1
102
RTVSPost2010PropOp29
 70
     1
102
RTVSPost2010Prop30
280
     1
102
RTVSPost2010PropOp30
 70
     1
102
RTVSPost2010Prop31
280
     0
102
RTVSPost2010PropOp31
 70
     1
102
RTVSPost2010Prop32
280
     0
102
RTVSPost2010PropOp32
 70
     1
102
RTVSPost2010Prop33
280
     0
102
RTVSPost2010PropOp33
 70
     1
102
RTVSPost2010Prop34
280
     0
102
RTVSPost2010PropOp34
 70
     1
102
RTVSPost2010Prop35
280
     0
102
RTVSPost2010PropOp35
 70
     1
102
RTVSPost2010Prop36
280
     0
102
RTVSPost2010PropOp36
 70
     1
102
RTVSPost2010Prop37
 90
       50
102
RTVSPost2010PropOp37
 70
     1
102
RTVSPost2010Prop38
140
0.0
102
RTVSPost2010PropOp38
 70
     1
102
RTVSPost2010Prop39
140
1.0
102
RTVSPost2010PropOp39
 70
     1
102
RTVSPost2010Prop40
 90
        0
102
RTVSPost2010PropOp40
 70
     1
102
RTVSPost2010Prop41ColorIndex
 90
       18
102
RTVSPost2010Prop41ColorRGB
 90
        0
102
RTVSPost2010PropOp41
 70
     1
102
RTVSPost2010Prop42
 90
       50
102
RTVSPost2010PropOp42
 70
     1
102
RTVSPost2010Prop43
 90
        3
102
RTVSPost2010PropOp43
 70
     1
102
RTVSPost2010Prop44ColorIndex
 90
        5
102
RTVSPost2010Prop44ColorRGB
 90
      255
102
RTVSPost2010PropOp44
 70
     1
102
RTVSPost2010Prop45
280
     0
102
RTVSPost2010PropOp45
 70
     1
102
RTVSPost2010Prop46
 90
       50
102
RTVSPost2010PropOp46
 70
     1
102
RTVSPost2010Prop47
 90
       50
102
RTVSPost2010PropOp47
 70
     1
102
RTVSPost2010Prop48
 90
       50
102
RTVSPost2010PropOp48
 70
     1
102
RTVSPost2010Prop49
280
     0
102
RTVSPost2010PropOp49
 70
     1
102
RTVSPost2010Prop50
 90
       50
102
RTVSPost2010PropOp50
 70
     1
102
RTVSPost2010Prop51ColorIndex
 90
      256
102
RTVSPost2010Prop51ColorRGB
 90
-16777216
102
RTVSPost2010PropOp51
 70
     0
102
RTVSPost2010Prop52
140
1.0
102
RTVSPost2010PropOp52
 70
     0
102
RTVSPost2010Prop53
 90
        2
102
RTVSPost2010PropOp53
 70
     1
102
RTVSPost2010Prop54
  1
strokes_ogs.tif
102
RTVSPost2010PropOp54
 70
     1
102
RTVSPost2010Prop55
280
     0
102
RTVSPost2010PropOp55
 70
     1
102
RTVSPost2010Prop56
140
1.0
102
RTVSPost2010PropOp56
 70
     1
102
RTVSPost2010Prop57
140
1.0
102
RTVSPost2010PropOp57
 70
     1
  0
XRECORD
  5
E5
102
{ACAD_REACTORS
330
E4
102
}
330
E4
100
AcDbXrecord
280
     1
102
RTVSPropertyOp0
 70
     1
102
RTVSPropertyOp1
 70
     1
102
RTVSPropertyOp2
 70
     1
102
RTVSPropertyOp3
 70
     1
102
RTVSPropertyOp4
 70
     1
102
RTVSPropertyOp5
 70
     1
102
RTVSPropertyOp6
 70
     1
102
RTVSPropertyOp7
 70
     1
102
RTVSPropertyOp8
 70
     1
102
RTVSPropertyOp9
 70
     1
102
RTVSPropertyOp10
 70
     1
102
RTVSPropertyOp11
 70
     1
102
RTVSPropertyOp12
 70
     1
102
RTVSPropertyOp13
 70
     1
102
RTVSPropertyOp14
 70
     1
102
RTVSPropertyOp15
 70
     1
102
RTVSPropertyOp16
 70
     1
102
RTVSPropertyOp17
 70
     1
102
RTVSPropertyOp18
 70
     1
102
RTVSPropertyOp19
 70
     1
102
RTVSPropertyOp20
 70
     1
102
RTVSPropertyOp21
 70
     1
102
RTVSPropertyOp22
 70
     1
102
RTVSPropertyOp23
 70
     1
102
RTVSPropertyOp24
 70
     1
102
RTVSPropertyOp25
 70
     1
102
RTVSPropertyOp26
 70
     1
102
RTVSPropertyOp27
 70
     1
102
RTVSPropertyOp28
 70
     1
102
RTVSPropertyOp29
 70
     1
102
RTVSPropertyOp30
 70
     1
102
RTVSPropertyOp31
 70
     1
102
RTVSPropertyOp32
 70
     1
102
RTVSPropertyOp33
 70
     1
102
RTVSPropertyOp34
 70
     1
102
RTVSPropertyOp35
 70
     1
102
RTVSPropertyOp36
 70
     1
102
RTVSPropertyOp37
 70
     1
102
RTVSPropertyOp38
 70
     1
102
RTVSPropertyOp39
 70
     1
102
RTVSPropertyOp40
 70
     1
102
RTVSPropertyOp41
 70
     1
102
RTVSPropertyOp42
 70
     1
102
RTVSPropertyOp43
 70
     1
102
RTVSPropertyOp44
 70
     1
102
RTVSPropertyOp45
 70
     1
102
RTVSPropertyOp46
 70
     1
102
RTVSPropertyOp47
 70
     1
102
RTVSPropertyOp48
 70
     1
102
RTVSPropertyOp49
 70
     1
102
RTVSPropertyOp50
 70
     1
102
RTVSPropertyOp51
 70
     0
102
RTVSPropertyOp52
 70
     0
102
RTVSPropertyOp53
 70
     1
102
RTVSPropertyOp54
 70
     1
102
RTVSPropertyOp55
 70
     1
102
RTVSPropertyOp56
 70
     1
102
RTVSPropertyOp57
 70
     1
102
RTVSPost2010Prop28
280
     0
102
RTVSPost2010PropOp28
 70
     1
102
RTVSPost2010Prop29
280
     1
102
RTVSPost2010PropOp29
 70
     1
102
RTVSPost2010Prop30
280
     1
102
RTVSPost2010PropOp30
 70
     1
102
RTVSPost2010Prop31
280
     0
102
RTVSPost2010PropOp31
 70
     1
102
RTVSPost2010Prop32
280
     0
102
RTVSPost2010PropOp32
 70
     1
102
RTVSPost2010Prop33
280
     0
102
RTVSPost2010PropOp33
 70
     1
102
RTVSPost2010Prop34
280
     0
102
RTVSPost2010PropOp34
 70
     1
102
RTVSPost2010Prop35
280
     0
102
RTVSPost2010PropOp35
 70
     1
102
RTVSPost2010Prop36
280
     0
102
RTVSPost2010PropOp36
 70
     1
102
RTVSPost2010Prop37
 90
       50
102
RTVSPost2010PropOp37
 70
     1
102
RTVSPost2010Prop38
140
0.0
102
RTVSPost2010PropOp38
 70
     1
102
RTVSPost2010Prop39
140
1.0
102
RTVSPost2010PropOp39
 70
     1
102
RTVSPost2010Prop40
 90
        0
102
RTVSPost2010PropOp40
 70
     1
102
RTVSPost2010Prop41ColorIndex
 90
       18
102
RTVSPost2010Prop41ColorRGB
 90
        0
102
RTVSPost2010PropOp41
 70
     1
102
RTVSPost2010Prop42
 90
       50
102
RTVSPost2010PropOp42
 70
     1
102
RTVSPost2010Prop43
 90
        3
102
RTVSPost2010PropOp43
 70
     1
102
RTVSPost2010Prop44ColorIndex
 90
        5
102
RTVSPost2010Prop44ColorRGB
 90
      255
102
RTVSPost2010PropOp44
 70
     1
102
RTVSPost2010Prop45
280
     0
102
RTVSPost2010PropOp45
 70
     1
102
RTVSPost2010Prop46
 90
       50
102
RTVSPost2010PropOp46
 70
     1
102
RTVSPost2010Prop47
 90
       50
102
RTVSPost2010PropOp47
 70
     1
102
RTVSPost2010Prop48
 90
       50
102
RTVSPost2010PropOp48
 70
     1
102
RTVSPost2010Prop49
280
     0
102
RTVSPost2010PropOp49
 70
     1
102
RTVSPost2010Prop50
 90
       50
102
RTVSPost2010PropOp50
 70
     1
102
RTVSPost2010Prop51ColorIndex
 90
      256
102
RTVSPost2010Prop51ColorRGB
 90
-16777216
102
RTVSPost2010PropOp51
 70
     0
102
RTVSPost2010Prop52
140
1.0
102
RTVSPost2010PropOp52
 70
     0
102
RTVSPost2010Prop53
 90
        2
102
RTVSPost2010PropOp53
 70
     1
102
RTVSPost2010Prop54
  1
strokes_ogs.tif
102
RTVSPost2010PropOp54
 70
     1
102
RTVSPost2010Prop55
280
     0
102
RTVSPost2010PropOp55
 70
     1
102
RTVSPost2010Prop56
140
1.0
102
RTVSPost2010PropOp56
 70
     1
102
RTVSPost2010Prop57
140
1.0
102
RTVSPost2010PropOp57
 70
     1
  0
XRECORD
  5
F5
102
{ACAD_REACTORS
330
F4
102
}
330
F4
100
AcDbXrecord
280
     1
102
RTVSPropertyOp0
 70
     0
102
RTVSPropertyOp1
 70
     0
102
RTVSPropertyOp2
 70
     0
102
RTVSPropertyOp3
 70
     0
102
RTVSPropertyOp4
 70
     0
102
RTVSPropertyOp5
 70
     0
102
RTVSPropertyOp6
 70
     0
102
RTVSPropertyOp7
 70
     0
102
RTVSPropertyOp8
 70
     0
102
RTVSPropertyOp9
 70
     0
102
RTVSPropertyOp10
 70
     0
102
RTVSPropertyOp11
 70
     0
102
RTVSPropertyOp12
 70
     0
102
RTVSPropertyOp13
 70
     0
102
RTVSPropertyOp14
 70
     2
102
RTVSPropertyOp15
 70
     0
102
RTVSPropertyOp16
 70
     0
102
RTVSPropertyOp17
 70
     0
102
RTVSPropertyOp18
 70
     0
102
RTVSPropertyOp19
 70
     0
102
RTVSPropertyOp20
 70
     0
102
RTVSPropertyOp21
 70
     0
102
RTVSPropertyOp22
 70
     0
102
RTVSPropertyOp23
 70
     0
102
RTVSPropertyOp24
 70
     0
102
RTVSPropertyOp25
 70
     0
102
RTVSPropertyOp26
 70
     0
102
RTVSPropertyOp27
 70
     0
102
RTVSPropertyOp28
 70
     0
102
RTVSPropertyOp29
 70
     0
102
RTVSPropertyOp30
 70
     0
102
RTVSPropertyOp31
 70
     0
102
RTVSPropertyOp32
 70
     0
102
RTVSPropertyOp33
 70
     0
102
RTVSPropertyOp34
 70
     0
102
RTVSPropertyOp35
 70
     0
102
RTVSPropertyOp36
 70
     0
102
RTVSPropertyOp37
 70
     0
102
RTVSPropertyOp38
 70
     0
102
RTVSPropertyOp39
 70
     0
102
RTVSPropertyOp40
 70
     0
102
RTVSPropertyOp41
 70
     0
102
RTVSPropertyOp42
 70
     0
102
RTVSPropertyOp43
 70
     0
102
RTVSPropertyOp44
 70
     0
102
RTVSPropertyOp45
 70
     0
102
RTVSPropertyOp46
 70
     0
102
RTVSPropertyOp47
 70
     0
102
RTVSPropertyOp48
 70
     0
102
RTVSPropertyOp49
 70
     0
102
RTVSPropertyOp50
 70
     0
102
RTVSPropertyOp51
 70
     0
102
RTVSPropertyOp52
 70
     0
102
RTVSPropertyOp53
 70
     0
102
RTVSPropertyOp54
 70
     0
102
RTVSPropertyOp55
 70
     0
102
RTVSPropertyOp56
 70
     0
102
RTVSPropertyOp57
 70
     0
102
RTVSPost2010Prop28
280
     0
102
RTVSPost2010PropOp28
 70
     0
102
RTVSPost2010Prop29
280
     1
102
RTVSPost2010PropOp29
 70
     0
102
RTVSPost2010Prop30
280
     1
102
RTVSPost2010PropOp30
 70
     0
102
RTVSPost2010Prop31
280
     0
102
RTVSPost2010PropOp31
 70
     0
102
RTVSPost2010Prop32
280
     0
102
RTVSPost2010PropOp32
 70
     0
102
RTVSPost2010Prop33
280
     0
102
RTVSPost2010PropOp33
 70
     0
102
RTVSPost2010Prop34
280
     0
102
RTVSPost2010PropOp34
 70
     0
102
RTVSPost2010Prop35
280
     0
102
RTVSPost2010PropOp35
 70
     0
102
RTVSPost2010Prop36
280
     0
102
RTVSPost2010PropOp36
 70
     0
102
RTVSPost2010Prop37
 90
       50
102
RTVSPost2010PropOp37
 70
     0
102
RTVSPost2010Prop38
140
0.0
102
RTVSPost2010PropOp38
 70
     0
102
RTVSPost2010Prop39
140
1.0
102
RTVSPost2010PropOp39
 70
     0
102
RTVSPost2010Prop40
 90
        0
102
RTVSPost2010PropOp40
 70
     0
102
RTVSPost2010Prop41ColorIndex
 90
       18
102
RTVSPost2010Prop41ColorRGB
 90
        0
102
RTVSPost2010PropOp41
 70
     0
102
RTVSPost2010Prop42
 90
       50
102
RTVSPost2010PropOp42
 70
     0
102
RTVSPost2010Prop43
 90
        3
102
RTVSPost2010PropOp43
 70
     0
102
RTVSPost2010Prop44ColorIndex
 90
        5
102
RTVSPost2010Prop44ColorRGB
 90
      255
102
RTVSPost2010PropOp44
 70
     0
102
RTVSPost2010Prop45
280
     0
102
RTVSPost2010PropOp45
 70
     0
102
RTVSPost2010Prop46
 90
       50
102
RTVSPost2010PropOp46
 70
     0
102
RTVSPost2010Prop47
 90
       50
102
RTVSPost2010PropOp47
 70
     0
102
RTVSPost2010Prop48
 90
       50
102
RTVSPost2010PropOp48
 70
     0
102
RTVSPost2010Prop49
280
     0
102
RTVSPost2010PropOp49
 70
     0
102
RTVSPost2010Prop50
 90
       50
102
RTVSPost2010PropOp50
 70
     0
102
RTVSPost2010Prop51ColorIndex
 90
      256
102
RTVSPost2010Prop51ColorRGB
 90
-16777216
102
RTVSPost2010PropOp51
 70
     0
102
RTVSPost2010Prop52
140
1.0
102
RTVSPost2010PropOp52
 70
     0
102
RTVSPost2010Prop53
 90
        2
102
RTVSPost2010PropOp53
 70
     0
102
RTVSPost2010Prop54
  1
strokes_ogs.tif
102
RTVSPost2010PropOp54
 70
     0
102
RTVSPost2010Prop55
280
     0
102
RTVSPost2010PropOp55
 70
     0
102
RTVSPost2010Prop56
140
1.0
102
RTVSPost2010PropOp56
 70
     0
102
RTVSPost2010Prop57
140
1.0
102
RTVSPost2010PropOp57
 70
     0
  0
XRECORD
  5
ED
102
{ACAD_REACTORS
330
EC
102
}
330
EC
100
AcDbXrecord
280
     1
102
RTVSPropertyOp0
 70
     1
102
RTVSPropertyOp1
 70
     1
102
RTVSPropertyOp2
 70
     1
102
RTVSPropertyOp3
 70
     1
102
RTVSPropertyOp4
 70
     1
102
RTVSPropertyOp5
 70
     1
102
RTVSPropertyOp6
 70
     1
102
RTVSPropertyOp7
 70
     1
102
RTVSPropertyOp8
 70
     1
102
RTVSPropertyOp9
 70
     1
102
RTVSPropertyOp10
 70
     1
102
RTVSPropertyOp11
 70
     1
102
RTVSPropertyOp12
 70
     1
102
RTVSPropertyOp13
 70
     1
102
RTVSPropertyOp14
 70
     1
102
RTVSPropertyOp15
 70
     1
102
RTVSPropertyOp16
 70
     1
102
RTVSPropertyOp17
 70
     1
102
RTVSPropertyOp18
 70
     1
102
RTVSPropertyOp19
 70
     1
102
RTVSPropertyOp20
 70
     1
102
RTVSPropertyOp21
 70
     1
102
RTVSPropertyOp22
 70
     1
102
RTVSPropertyOp23
 70
     1
102
RTVSPropertyOp24
 70
     1
102
RTVSPropertyOp25
 70
     1
102
RTVSPropertyOp26
 70
     1
102
RTVSPropertyOp27
 70
     1
102
RTVSPropertyOp28
 70
     1
102
RTVSPropertyOp29
 70
     1
102
RTVSPropertyOp30
 70
     1
102
RTVSPropertyOp31
 70
     1
102
RTVSPropertyOp32
 70
     1
102
RTVSPropertyOp33
 70
     1
102
RTVSPropertyOp34
 70
     1
102
RTVSPropertyOp35
 70
     1
102
RTVSPropertyOp36
 70
     1
102
RTVSPropertyOp37
 70
     1
102
RTVSPropertyOp38
 70
     1
102
RTVSPropertyOp39
 70
     1
102
RTVSPropertyOp40
 70
     1
102
RTVSPropertyOp41
 70
     1
102
RTVSPropertyOp42
 70
     1
102
RTVSPropertyOp43
 70
     1
102
RTVSPropertyOp44
 70
     1
102
RTVSPropertyOp45
 70
     1
102
RTVSPropertyOp46
 70
     1
102
RTVSPropertyOp47
 70
     1
102
RTVSPropertyOp48
 70
     1
102
RTVSPropertyOp49
 70
     1
102
RTVSPropertyOp50
 70
     1
102
RTVSPropertyOp51
 70
     0
102
RTVSPropertyOp52
 70
     0
102
RTVSPropertyOp53
 70
     1
102
RTVSPropertyOp54
 70
     1
102
RTVSPropertyOp55
 70
     1
102
RTVSPropertyOp56
 70
     1
102
RTVSPropertyOp57
 70
     1
102
RTVSPost2010Prop28
280
     0
102
RTVSPost2010PropOp28
 70
     1
102
RTVSPost2010Prop29
280
     1
102
RTVSPost2010PropOp29
 70
     1
102
RTVSPost2010Prop30
280
     1
102
RTVSPost2010PropOp30
 70
     1
102
RTVSPost2010Prop31
280
     0
102
RTVSPost2010PropOp31
 70
     1
102
RTVSPost2010Prop32
280
     0
102
RTVSPost2010PropOp32
 70
     1
102
RTVSPost2010Prop33
280
     0
102
RTVSPost2010PropOp33
 70
     1
102
RTVSPost2010Prop34
280
     0
102
RTVSPost2010PropOp34
 70
     1
102
RTVSPost2010Prop35
280
     0
102
RTVSPost2010PropOp35
 70
     1
102
RTVSPost2010Prop36
280
     0
102
RTVSPost2010PropOp36
 70
     1
102
RTVSPost2010Prop37
 90
       50
102
RTVSPost2010PropOp37
 70
     1
102
RTVSPost2010Prop38
140
0.0
102
RTVSPost2010PropOp38
 70
     1
102
RTVSPost2010Prop39
140
1.0
102
RTVSPost2010PropOp39
 70
     1
102
RTVSPost2010Prop40
 90
        0
102
RTVSPost2010PropOp40
 70
     1
102
RTVSPost2010Prop41ColorIndex
 90
       18
102
RTVSPost2010Prop41ColorRGB
 90
        0
102
RTVSPost2010PropOp41
 70
     1
102
RTVSPost2010Prop42
 90
       50
102
RTVSPost2010PropOp42
 70
     1
102
RTVSPost2010Prop43
 90
        3
102
RTVSPost2010PropOp43
 70
     1
102
RTVSPost2010Prop44ColorIndex
 90
        5
102
RTVSPost2010Prop44ColorRGB
 90
      255
102
RTVSPost2010PropOp44
 70
     1
102
RTVSPost2010Prop45
280
     0
102
RTVSPost2010PropOp45
 70
     1
102
RTVSPost2010Prop46
 90
       50
102
RTVSPost2010PropOp46
 70
     1
102
RTVSPost2010Prop47
 90
       50
102
RTVSPost2010PropOp47
 70
     1
102
RTVSPost2010Prop48
 90
       50
102
RTVSPost2010PropOp48
 70
     1
102
RTVSPost2010Prop49
280
     0
102
RTVSPost2010PropOp49
 70
     1
102
RTVSPost2010Prop50
 90
       50
102
RTVSPost2010PropOp50
 70
     1
102
RTVSPost2010Prop51ColorIndex
 90
      256
102
RTVSPost2010Prop51ColorRGB
 90
-16777216
102
RTVSPost2010PropOp51
 70
     0
102
RTVSPost2010Prop52
140
1.0
102
RTVSPost2010PropOp52
 70
     0
102
RTVSPost2010Prop53
 90
        2
102
RTVSPost2010PropOp53
 70
     1
102
RTVSPost2010Prop54
  1
strokes_ogs.tif
102
RTVSPost2010PropOp54
 70
     1
102
RTVSPost2010Prop55
280
     0
102
RTVSPost2010PropOp55
 70
     1
102
RTVSPost2010Prop56
140
1.0
102
RTVSPost2010PropOp56
 70
     1
102
RTVSPost2010Prop57
140
1.0
102
RTVSPost2010PropOp57
 70
     1
  0
XRECORD
  5
D1
102
{ACAD_REACTORS
330
D0
102
}
330
D0
100
AcDbXrecord
280
     1
102
RTVSPropertyOp0
 70
     1
102
RTVSPropertyOp1
 70
     1
102
RTVSPropertyOp2
 70
     1
102
RTVSPropertyOp3
 70
     1
102
RTVSPropertyOp4
 70
     1
102
RTVSPropertyOp5
 70
     1
102
RTVSPropertyOp6
 70
     1
102
RTVSPropertyOp7
 70
     1
102
RTVSPropertyOp8
 70
     1
102
RTVSPropertyOp9
 70
     1
102
RTVSPropertyOp10
 70
     1
102
RTVSPropertyOp11
 70
     1
102
RTVSPropertyOp12
 70
     1
102
RTVSPropertyOp13
 70
     1
102
RTVSPropertyOp14
 70
     1
102
RTVSPropertyOp15
 70
     1
102
RTVSPropertyOp16
 70
     1
102
RTVSPropertyOp17
 70
     1
102
RTVSPropertyOp18
 70
     1
102
RTVSPropertyOp19
 70
     1
102
RTVSPropertyOp20
 70
     1
102
RTVSPropertyOp21
 70
     1
102
RTVSPropertyOp22
 70
     1
102
RTVSPropertyOp23
 70
     1
102
RTVSPropertyOp24
 70
     1
102
RTVSPropertyOp25
 70
     1
102
RTVSPropertyOp26
 70
     1
102
RTVSPropertyOp27
 70
     1
102
RTVSPropertyOp28
 70
     1
102
RTVSPropertyOp29
 70
     1
102
RTVSPropertyOp30
 70
     1
102
RTVSPropertyOp31
 70
     1
102
RTVSPropertyOp32
 70
     1
102
RTVSPropertyOp33
 70
     1
102
RTVSPropertyOp34
 70
     1
102
RTVSPropertyOp35
 70
     1
102
RTVSPropertyOp36
 70
     1
102
RTVSPropertyOp37
 70
     1
102
RTVSPropertyOp38
 70
     1
102
RTVSPropertyOp39
 70
     1
102
RTVSPropertyOp40
 70
     1
102
RTVSPropertyOp41
 70
     1
102
RTVSPropertyOp42
 70
     1
102
RTVSPropertyOp43
 70
     1
102
RTVSPropertyOp44
 70
     1
102
RTVSPropertyOp45
 70
     1
102
RTVSPropertyOp46
 70
     1
102
RTVSPropertyOp47
 70
     1
102
RTVSPropertyOp48
 70
     1
102
RTVSPropertyOp49
 70
     1
102
RTVSPropertyOp50
 70
     1
102
RTVSPropertyOp51
 70
     0
102
RTVSPropertyOp52
 70
     0
102
RTVSPropertyOp53
 70
     1
102
RTVSPropertyOp54
 70
     1
102
RTVSPropertyOp55
 70
     1
102
RTVSPropertyOp56
 70
     1
102
RTVSPropertyOp57
 70
     1
102
RTVSPost2010Prop28
280
     0
102
RTVSPost2010PropOp28
 70
     1
102
RTVSPost2010Prop29
280
     1
102
RTVSPost2010PropOp29
 70
     1
102
RTVSPost2010Prop30
280
     1
102
RTVSPost2010PropOp30
 70
     1
102
RTVSPost2010Prop31
280
     0
102
RTVSPost2010PropOp31
 70
     1
102
RTVSPost2010Prop32
280
     0
102
RTVSPost2010PropOp32
 70
     1
102
RTVSPost2010Prop33
280
     0
102
RTVSPost2010PropOp33
 70
     1
102
RTVSPost2010Prop34
280
     0
102
RTVSPost2010PropOp34
 70
     1
102
RTVSPost2010Prop35
280
     0
102
RTVSPost2010PropOp35
 70
     1
102
RTVSPost2010Prop36
280
     0
102
RTVSPost2010PropOp36
 70
     1
102
RTVSPost2010Prop37
 90
       50
102
RTVSPost2010PropOp37
 70
     1
102
RTVSPost2010Prop38
140
0.0
102
RTVSPost2010PropOp38
 70
     1
102
RTVSPost2010Prop39
140
1.0
102
RTVSPost2010PropOp39
 70
     1
102
RTVSPost2010Prop40
 90
        0
102
RTVSPost2010PropOp40
 70
     1
102
RTVSPost2010Prop41ColorIndex
 90
       18
102
RTVSPost2010Prop41ColorRGB
 90
        0
102
RTVSPost2010PropOp41
 70
     1
102
RTVSPost2010Prop42
 90
       50
102
RTVSPost2010PropOp42
 70
     1
102
RTVSPost2010Prop43
 90
        3
102
RTVSPost2010PropOp43
 70
     1
102
RTVSPost2010Prop44ColorIndex
 90
        5
102
RTVSPost2010Prop44ColorRGB
 90
      255
102
RTVSPost2010PropOp44
 70
     1
102
RTVSPost2010Prop45
280
     0
102
RTVSPost2010PropOp45
 70
     1
102
RTVSPost2010Prop46
 90
       50
102
RTVSPost2010PropOp46
 70
     1
102
RTVSPost2010Prop47
 90
       50
102
RTVSPost2010PropOp47
 70
     1
102
RTVSPost2010Prop48
 90
       50
102
RTVSPost2010PropOp48
 70
     1
102
RTVSPost2010Prop49
280
     0
102
RTVSPost2010PropOp49
 70
     1
102
RTVSPost2010Prop50
 90
       50
102
RTVSPost2010PropOp50
 70
     1
102
RTVSPost2010Prop51ColorIndex
 90
      256
102
RTVSPost2010Prop51ColorRGB
 90
-16777216
102
RTVSPost2010PropOp51
 70
     0
102
RTVSPost2010Prop52
140
1.0
102
RTVSPost2010PropOp52
 70
     0
102
RTVSPost2010Prop53
 90
        2
102
RTVSPost2010PropOp53
 70
     1
102
RTVSPost2010Prop54
  1
strokes_ogs.tif
102
RTVSPost2010PropOp54
 70
     1
102
RTVSPost2010Prop55
280
     0
102
RTVSPost2010PropOp55
 70
     1
102
RTVSPost2010Prop56
140
1.0
102
RTVSPost2010PropOp56
 70
     1
102
RTVSPost2010Prop57
140
1.0
102
RTVSPost2010PropOp57
 70
     1
  0
XRECORD
  5
D3
102
{ACAD_REACTORS
330
D2
102
}
330
D2
100
AcDbXrecord
280
     1
102
RTVSPropertyOp0
 70
     1
102
RTVSPropertyOp1
 70
     1
102
RTVSPropertyOp2
 70
     1
102
RTVSPropertyOp3
 70
     1
102
RTVSPropertyOp4
 70
     1
102
RTVSPropertyOp5
 70
     1
102
RTVSPropertyOp6
 70
     1
102
RTVSPropertyOp7
 70
     1
102
RTVSPropertyOp8
 70
     1
102
RTVSPropertyOp9
 70
     1
102
RTVSPropertyOp10
 70
     1
102
RTVSPropertyOp11
 70
     1
102
RTVSPropertyOp12
 70
     1
102
RTVSPropertyOp13
 70
     1
102
RTVSPropertyOp14
 70
     1
102
RTVSPropertyOp15
 70
     1
102
RTVSPropertyOp16
 70
     1
102
RTVSPropertyOp17
 70
     1
102
RTVSPropertyOp18
 70
     1
102
RTVSPropertyOp19
 70
     1
102
RTVSPropertyOp20
 70
     1
102
RTVSPropertyOp21
 70
     1
102
RTVSPropertyOp22
 70
     1
102
RTVSPropertyOp23
 70
     1
102
RTVSPropertyOp24
 70
     1
102
RTVSPropertyOp25
 70
     1
102
RTVSPropertyOp26
 70
     1
102
RTVSPropertyOp27
 70
     1
102
RTVSPropertyOp28
 70
     1
102
RTVSPropertyOp29
 70
     1
102
RTVSPropertyOp30
 70
     1
102
RTVSPropertyOp31
 70
     1
102
RTVSPropertyOp32
 70
     1
102
RTVSPropertyOp33
 70
     1
102
RTVSPropertyOp34
 70
     1
102
RTVSPropertyOp35
 70
     1
102
RTVSPropertyOp36
 70
     1
102
RTVSPropertyOp37
 70
     1
102
RTVSPropertyOp38
 70
     1
102
RTVSPropertyOp39
 70
     1
102
RTVSPropertyOp40
 70
     1
102
RTVSPropertyOp41
 70
     1
102
RTVSPropertyOp42
 70
     1
102
RTVSPropertyOp43
 70
     1
102
RTVSPropertyOp44
 70
     1
102
RTVSPropertyOp45
 70
     1
102
RTVSPropertyOp46
 70
     1
102
RTVSPropertyOp47
 70
     1
102
RTVSPropertyOp48
 70
     1
102
RTVSPropertyOp49
 70
     1
102
RTVSPropertyOp50
 70
     1
102
RTVSPropertyOp51
 70
     0
102
RTVSPropertyOp52
 70
     0
102
RTVSPropertyOp53
 70
     1
102
RTVSPropertyOp54
 70
     1
102
RTVSPropertyOp55
 70
     1
102
RTVSPropertyOp56
 70
     1
102
RTVSPropertyOp57
 70
     1
102
RTVSPost2010Prop28
280
     0
102
RTVSPost2010PropOp28
 70
     1
102
RTVSPost2010Prop29
280
     1
102
RTVSPost2010PropOp29
 70
     1
102
RTVSPost2010Prop30
280
     1
102
RTVSPost2010PropOp30
 70
     1
102
RTVSPost2010Prop31
280
     0
102
RTVSPost2010PropOp31
 70
     1
102
RTVSPost2010Prop32
280
     0
102
RTVSPost2010PropOp32
 70
     1
102
RTVSPost2010Prop33
280
     0
102
RTVSPost2010PropOp33
 70
     1
102
RTVSPost2010Prop34
280
     0
102
RTVSPost2010PropOp34
 70
     1
102
RTVSPost2010Prop35
280
     0
102
RTVSPost2010PropOp35
 70
     1
102
RTVSPost2010Prop36
280
     0
102
RTVSPost2010PropOp36
 70
     1
102
RTVSPost2010Prop37
 90
       50
102
RTVSPost2010PropOp37
 70
     1
102
RTVSPost2010Prop38
140
0.0
102
RTVSPost2010PropOp38
 70
     1
102
RTVSPost2010Prop39
140
1.0
102
RTVSPost2010PropOp39
 70
     1
102
RTVSPost2010Prop40
 90
        0
102
RTVSPost2010PropOp40
 70
     1
102
RTVSPost2010Prop41ColorIndex
 90
       18
102
RTVSPost2010Prop41ColorRGB
 90
        0
102
RTVSPost2010PropOp41
 70
     1
102
RTVSPost2010Prop42
 90
       50
102
RTVSPost2010PropOp42
 70
     1
102
RTVSPost2010Prop43
 90
        3
102
RTVSPost2010PropOp43
 70
     1
102
RTVSPost2010Prop44ColorIndex
 90
        5
102
RTVSPost2010Prop44ColorRGB
 90
      255
102
RTVSPost2010PropOp44
 70
     1
102
RTVSPost2010Prop45
280
     0
102
RTVSPost2010PropOp45
 70
     1
102
RTVSPost2010Prop46
 90
       50
102
RTVSPost2010PropOp46
 70
     1
102
RTVSPost2010Prop47
 90
       50
102
RTVSPost2010PropOp47
 70
     1
102
RTVSPost2010Prop48
 90
       50
102
RTVSPost2010PropOp48
 70
     1
102
RTVSPost2010Prop49
280
     0
102
RTVSPost2010PropOp49
 70
     1
102
RTVSPost2010Prop50
 90
       50
102
RTVSPost2010PropOp50
 70
     1
102
RTVSPost2010Prop51ColorIndex
 90
      256
102
RTVSPost2010Prop51ColorRGB
 90
-16777216
102
RTVSPost2010PropOp51
 70
     0
102
RTVSPost2010Prop52
140
1.0
102
RTVSPost2010PropOp52
 70
     0
102
RTVSPost2010Prop53
 90
        2
102
RTVSPost2010PropOp53
 70
     1
102
RTVSPost2010Prop54
  1
strokes_ogs.tif
102
RTVSPost2010PropOp54
 70
     1
102
RTVSPost2010Prop55
280
     0
102
RTVSPost2010PropOp55
 70
     1
102
RTVSPost2010Prop56
140
1.0
102
RTVSPost2010PropOp56
 70
     1
102
RTVSPost2010Prop57
140
1.0
102
RTVSPost2010PropOp57
 70
     1
  0
XRECORD
  5
D5
102
{ACAD_REACTORS
330
D4
102
}
330
D4
100
AcDbXrecord
280
     1
102
RTVSPropertyOp0
 70
     1
102
RTVSPropertyOp1
 70
     1
102
RTVSPropertyOp2
 70
     1
102
RTVSPropertyOp3
 70
     1
102
RTVSPropertyOp4
 70
     1
102
RTVSPropertyOp5
 70
     1
102
RTVSPropertyOp6
 70
     1
102
RTVSPropertyOp7
 70
     1
102
RTVSPropertyOp8
 70
     1
102
RTVSPropertyOp9
 70
     1
102
RTVSPropertyOp10
 70
     1
102
RTVSPropertyOp11
 70
     1
102
RTVSPropertyOp12
 70
     1
102
RTVSPropertyOp13
 70
     1
102
RTVSPropertyOp14
 70
     1
102
RTVSPropertyOp15
 70
     1
102
RTVSPropertyOp16
 70
     1
102
RTVSPropertyOp17
 70
     1
102
RTVSPropertyOp18
 70
     1
102
RTVSPropertyOp19
 70
     1
102
RTVSPropertyOp20
 70
     1
102
RTVSPropertyOp21
 70
     1
102
RTVSPropertyOp22
 70
     1
102
RTVSPropertyOp23
 70
     1
102
RTVSPropertyOp24
 70
     1
102
RTVSPropertyOp25
 70
     1
102
RTVSPropertyOp26
 70
     1
102
RTVSPropertyOp27
 70
     1
102
RTVSPropertyOp28
 70
     1
102
RTVSPropertyOp29
 70
     1
102
RTVSPropertyOp30
 70
     1
102
RTVSPropertyOp31
 70
     1
102
RTVSPropertyOp32
 70
     1
102
RTVSPropertyOp33
 70
     1
102
RTVSPropertyOp34
 70
     1
102
RTVSPropertyOp35
 70
     1
102
RTVSPropertyOp36
 70
     1
102
RTVSPropertyOp37
 70
     1
102
RTVSPropertyOp38
 70
     1
102
RTVSPropertyOp39
 70
     1
102
RTVSPropertyOp40
 70
     1
102
RTVSPropertyOp41
 70
     1
102
RTVSPropertyOp42
 70
     1
102
RTVSPropertyOp43
 70
     1
102
RTVSPropertyOp44
 70
     1
102
RTVSPropertyOp45
 70
     1
102
RTVSPropertyOp46
 70
     1
102
RTVSPropertyOp47
 70
     1
102
RTVSPropertyOp48
 70
     1
102
RTVSPropertyOp49
 70
     1
102
RTVSPropertyOp50
 70
     1
102
RTVSPropertyOp51
 70
     0
102
RTVSPropertyOp52
 70
     0
102
RTVSPropertyOp53
 70
     1
102
RTVSPropertyOp54
 70
     1
102
RTVSPropertyOp55
 70
     1
102
RTVSPropertyOp56
 70
     1
102
RTVSPropertyOp57
 70
     1
102
RTVSPost2010Prop28
280
     0
102
RTVSPost2010PropOp28
 70
     1
102
RTVSPost2010Prop29
280
     1
102
RTVSPost2010PropOp29
 70
     1
102
RTVSPost2010Prop30
280
     1
102
RTVSPost2010PropOp30
 70
     1
102
RTVSPost2010Prop31
280
     0
102
RTVSPost2010PropOp31
 70
     1
102
RTVSPost2010Prop32
280
     0
102
RTVSPost2010PropOp32
 70
     1
102
RTVSPost2010Prop33
280
     0
102
RTVSPost2010PropOp33
 70
     1
102
RTVSPost2010Prop34
280
     0
102
RTVSPost2010PropOp34
 70
     1
102
RTVSPost2010Prop35
280
     0
102
RTVSPost2010PropOp35
 70
     1
102
RTVSPost2010Prop36
280
     0
102
RTVSPost2010PropOp36
 70
     1
102
RTVSPost2010Prop37
 90
       50
102
RTVSPost2010PropOp37
 70
     1
102
RTVSPost2010Prop38
140
0.0
102
RTVSPost2010PropOp38
 70
     1
102
RTVSPost2010Prop39
140
1.0
102
RTVSPost2010PropOp39
 70
     1
102
RTVSPost2010Prop40
 90
        0
102
RTVSPost2010PropOp40
 70
     1
102
RTVSPost2010Prop41ColorIndex
 90
       18
102
RTVSPost2010Prop41ColorRGB
 90
        0
102
RTVSPost2010PropOp41
 70
     1
102
RTVSPost2010Prop42
 90
       50
102
RTVSPost2010PropOp42
 70
     1
102
RTVSPost2010Prop43
 90
        3
102
RTVSPost2010PropOp43
 70
     1
102
RTVSPost2010Prop44ColorIndex
 90
        5
102
RTVSPost2010Prop44ColorRGB
 90
      255
102
RTVSPost2010PropOp44
 70
     1
102
RTVSPost2010Prop45
280
     0
102
RTVSPost2010PropOp45
 70
     1
102
RTVSPost2010Prop46
 90
       50
102
RTVSPost2010PropOp46
 70
     1
102
RTVSPost2010Prop47
 90
       50
102
RTVSPost2010PropOp47
 70
     1
102
RTVSPost2010Prop48
 90
       50
102
RTVSPost2010PropOp48
 70
     1
102
RTVSPost2010Prop49
280
     0
102
RTVSPost2010PropOp49
 70
     1
102
RTVSPost2010Prop50
 90
       50
102
RTVSPost2010PropOp50
 70
     1
102
RTVSPost2010Prop51ColorIndex
 90
      256
102
RTVSPost2010Prop51ColorRGB
 90
-16777216
102
RTVSPost2010PropOp51
 70
     0
102
RTVSPost2010Prop52
140
1.0
102
RTVSPost2010PropOp52
 70
     0
102
RTVSPost2010Prop53
 90
        2
102
RTVSPost2010PropOp53
 70
     1
102
RTVSPost2010Prop54
  1
strokes_ogs.tif
102
RTVSPost2010PropOp54
 70
     1
102
RTVSPost2010Prop55
280
     0
102
RTVSPost2010PropOp55
 70
     1
102
RTVSPost2010Prop56
140
1.0
102
RTVSPost2010PropOp56
 70
     1
102
RTVSPost2010Prop57
140
1.0
102
RTVSPost2010PropOp57
 70
     1
  0
XRECORD
  5
D7
102
{ACAD_REACTORS
330
D6
102
}
330
D6
100
AcDbXrecord
280
     1
102
RTVSPropertyOp0
 70
     1
102
RTVSPropertyOp1
 70
     1
102
RTVSPropertyOp2
 70
     1
102
RTVSPropertyOp3
 70
     1
102
RTVSPropertyOp4
 70
     1
102
RTVSPropertyOp5
 70
     1
102
RTVSPropertyOp6
 70
     1
102
RTVSPropertyOp7
 70
     1
102
RTVSPropertyOp8
 70
     1
102
RTVSPropertyOp9
 70
     1
102
RTVSPropertyOp10
 70
     1
102
RTVSPropertyOp11
 70
     1
102
RTVSPropertyOp12
 70
     1
102
RTVSPropertyOp13
 70
     1
102
RTVSPropertyOp14
 70
     1
102
RTVSPropertyOp15
 70
     1
102
RTVSPropertyOp16
 70
     1
102
RTVSPropertyOp17
 70
     1
102
RTVSPropertyOp18
 70
     1
102
RTVSPropertyOp19
 70
     1
102
RTVSPropertyOp20
 70
     1
102
RTVSPropertyOp21
 70
     1
102
RTVSPropertyOp22
 70
     1
102
RTVSPropertyOp23
 70
     1
102
RTVSPropertyOp24
 70
     1
102
RTVSPropertyOp25
 70
     1
102
RTVSPropertyOp26
 70
     1
102
RTVSPropertyOp27
 70
     1
102
RTVSPropertyOp28
 70
     1
102
RTVSPropertyOp29
 70
     1
102
RTVSPropertyOp30
 70
     1
102
RTVSPropertyOp31
 70
     1
102
RTVSPropertyOp32
 70
     1
102
RTVSPropertyOp33
 70
     1
102
RTVSPropertyOp34
 70
     1
102
RTVSPropertyOp35
 70
     1
102
RTVSPropertyOp36
 70
     1
102
RTVSPropertyOp37
 70
     1
102
RTVSPropertyOp38
 70
     1
102
RTVSPropertyOp39
 70
     1
102
RTVSPropertyOp40
 70
     1
102
RTVSPropertyOp41
 70
     1
102
RTVSPropertyOp42
 70
     1
102
RTVSPropertyOp43
 70
     1
102
RTVSPropertyOp44
 70
     1
102
RTVSPropertyOp45
 70
     1
102
RTVSPropertyOp46
 70
     1
102
RTVSPropertyOp47
 70
     1
102
RTVSPropertyOp48
 70
     1
102
RTVSPropertyOp49
 70
     1
102
RTVSPropertyOp50
 70
     1
102
RTVSPropertyOp51
 70
     0
102
RTVSPropertyOp52
 70
     0
102
RTVSPropertyOp53
 70
     1
102
RTVSPropertyOp54
 70
     1
102
RTVSPropertyOp55
 70
     1
102
RTVSPropertyOp56
 70
     1
102
RTVSPropertyOp57
 70
     1
102
RTVSPost2010Prop28
280
     0
102
RTVSPost2010PropOp28
 70
     1
102
RTVSPost2010Prop29
280
     1
102
RTVSPost2010PropOp29
 70
     1
102
RTVSPost2010Prop30
280
     1
102
RTVSPost2010PropOp30
 70
     1
102
RTVSPost2010Prop31
280
     0
102
RTVSPost2010PropOp31
 70
     1
102
RTVSPost2010Prop32
280
     0
102
RTVSPost2010PropOp32
 70
     1
102
RTVSPost2010Prop33
280
     0
102
RTVSPost2010PropOp33
 70
     1
102
RTVSPost2010Prop34
280
     0
102
RTVSPost2010PropOp34
 70
     1
102
RTVSPost2010Prop35
280
     0
102
RTVSPost2010PropOp35
 70
     1
102
RTVSPost2010Prop36
280
     0
102
RTVSPost2010PropOp36
 70
     1
102
RTVSPost2010Prop37
 90
       50
102
RTVSPost2010PropOp37
 70
     1
102
RTVSPost2010Prop38
140
0.0
102
RTVSPost2010PropOp38
 70
     1
102
RTVSPost2010Prop39
140
1.0
102
RTVSPost2010PropOp39
 70
     1
102
RTVSPost2010Prop40
 90
        0
102
RTVSPost2010PropOp40
 70
     1
102
RTVSPost2010Prop41ColorIndex
 90
       18
102
RTVSPost2010Prop41ColorRGB
 90
        0
102
RTVSPost2010PropOp41
 70
     1
102
RTVSPost2010Prop42
 90
       50
102
RTVSPost2010PropOp42
 70
     1
102
RTVSPost2010Prop43
 90
        3
102
RTVSPost2010PropOp43
 70
     1
102
RTVSPost2010Prop44ColorIndex
 90
        5
102
RTVSPost2010Prop44ColorRGB
 90
      255
102
RTVSPost2010PropOp44
 70
     1
102
RTVSPost2010Prop45
280
     0
102
RTVSPost2010PropOp45
 70
     1
102
RTVSPost2010Prop46
 90
       50
102
RTVSPost2010PropOp46
 70
     1
102
RTVSPost2010Prop47
 90
       50
102
RTVSPost2010PropOp47
 70
     1
102
RTVSPost2010Prop48
 90
       50
102
RTVSPost2010PropOp48
 70
     1
102
RTVSPost2010Prop49
280
     0
102
RTVSPost2010PropOp49
 70
     1
102
RTVSPost2010Prop50
 90
       50
102
RTVSPost2010PropOp50
 70
     1
102
RTVSPost2010Prop51ColorIndex
 90
      256
102
RTVSPost2010Prop51ColorRGB
 90
-16777216
102
RTVSPost2010PropOp51
 70
     0
102
RTVSPost2010Prop52
140
1.0
102
RTVSPost2010PropOp52
 70
     0
102
RTVSPost2010Prop53
 90
        2
102
RTVSPost2010PropOp53
 70
     1
102
RTVSPost2010Prop54
  1
strokes_ogs.tif
102
RTVSPost2010PropOp54
 70
     1
102
RTVSPost2010Prop55
280
     0
102
RTVSPost2010PropOp55
 70
     1
102
RTVSPost2010Prop56
140
1.0
102
RTVSPost2010PropOp56
 70
     1
102
RTVSPost2010Prop57
140
1.0
102
RTVSPost2010PropOp57
 70
     1
  0
XRECORD
  5
DD
102
{ACAD_REACTORS
330
DC
102
}
330
DC
100
AcDbXrecord
280
     1
102
RTVSPropertyOp0
 70
     1
102
RTVSPropertyOp1
 70
     1
102
RTVSPropertyOp2
 70
     1
102
RTVSPropertyOp3
 70
     1
102
RTVSPropertyOp4
 70
     1
102
RTVSPropertyOp5
 70
     1
102
RTVSPropertyOp6
 70
     1
102
RTVSPropertyOp7
 70
     1
102
RTVSPropertyOp8
 70
     1
102
RTVSPropertyOp9
 70
     1
102
RTVSPropertyOp10
 70
     1
102
RTVSPropertyOp11
 70
     1
102
RTVSPropertyOp12
 70
     1
102
RTVSPropertyOp13
 70
     1
102
RTVSPropertyOp14
 70
     1
102
RTVSPropertyOp15
 70
     1
102
RTVSPropertyOp16
 70
     1
102
RTVSPropertyOp17
 70
     1
102
RTVSPropertyOp18
 70
     1
102
RTVSPropertyOp19
 70
     1
102
RTVSPropertyOp20
 70
     1
102
RTVSPropertyOp21
 70
     1
102
RTVSPropertyOp22
 70
     1
102
RTVSPropertyOp23
 70
     1
102
RTVSPropertyOp24
 70
     1
102
RTVSPropertyOp25
 70
     1
102
RTVSPropertyOp26
 70
     1
102
RTVSPropertyOp27
 70
     1
102
RTVSPropertyOp28
 70
     1
102
RTVSPropertyOp29
 70
     1
102
RTVSPropertyOp30
 70
     1
102
RTVSPropertyOp31
 70
     1
102
RTVSPropertyOp32
 70
     1
102
RTVSPropertyOp33
 70
     1
102
RTVSPropertyOp34
 70
     1
102
RTVSPropertyOp35
 70
     1
102
RTVSPropertyOp36
 70
     1
102
RTVSPropertyOp37
 70
     1
102
RTVSPropertyOp38
 70
     1
102
RTVSPropertyOp39
 70
     1
102
RTVSPropertyOp40
 70
     1
102
RTVSPropertyOp41
 70
     1
102
RTVSPropertyOp42
 70
     1
102
RTVSPropertyOp43
 70
     1
102
RTVSPropertyOp44
 70
     1
102
RTVSPropertyOp45
 70
     1
102
RTVSPropertyOp46
 70
     1
102
RTVSPropertyOp47
 70
     1
102
RTVSPropertyOp48
 70
     1
102
RTVSPropertyOp49
 70
     1
102
RTVSPropertyOp50
 70
     1
102
RTVSPropertyOp51
 70
     0
102
RTVSPropertyOp52
 70
     0
102
RTVSPropertyOp53
 70
     1
102
RTVSPropertyOp54
 70
     1
102
RTVSPropertyOp55
 70
     1
102
RTVSPropertyOp56
 70
     1
102
RTVSPropertyOp57
 70
     1
102
RTVSPost2010Prop28
280
     0
102
RTVSPost2010PropOp28
 70
     1
102
RTVSPost2010Prop29
280
     1
102
RTVSPost2010PropOp29
 70
     1
102
RTVSPost2010Prop30
280
     1
102
RTVSPost2010PropOp30
 70
     1
102
RTVSPost2010Prop31
280
     0
102
RTVSPost2010PropOp31
 70
     1
102
RTVSPost2010Prop32
280
     0
102
RTVSPost2010PropOp32
 70
     1
102
RTVSPost2010Prop33
280
     0
102
RTVSPost2010PropOp33
 70
     1
102
RTVSPost2010Prop34
280
     0
102
RTVSPost2010PropOp34
 70
     1
102
RTVSPost2010Prop35
280
     0
102
RTVSPost2010PropOp35
 70
     1
102
RTVSPost2010Prop36
280
     0
102
RTVSPost2010PropOp36
 70
     1
102
RTVSPost2010Prop37
 90
       50
102
RTVSPost2010PropOp37
 70
     1
102
RTVSPost2010Prop38
140
0.0
102
RTVSPost2010PropOp38
 70
     1
102
RTVSPost2010Prop39
140
1.0
102
RTVSPost2010PropOp39
 70
     1
102
RTVSPost2010Prop40
 90
        0
102
RTVSPost2010PropOp40
 70
     1
102
RTVSPost2010Prop41ColorIndex
 90
       18
102
RTVSPost2010Prop41ColorRGB
 90
        0
102
RTVSPost2010PropOp41
 70
     1
102
RTVSPost2010Prop42
 90
       50
102
RTVSPost2010PropOp42
 70
     1
102
RTVSPost2010Prop43
 90
        3
102
RTVSPost2010PropOp43
 70
     1
102
RTVSPost2010Prop44ColorIndex
 90
        5
102
RTVSPost2010Prop44ColorRGB
 90
      255
102
RTVSPost2010PropOp44
 70
     1
102
RTVSPost2010Prop45
280
     0
102
RTVSPost2010PropOp45
 70
     1
102
RTVSPost2010Prop46
 90
       50
102
RTVSPost2010PropOp46
 70
     1
102
RTVSPost2010Prop47
 90
       50
102
RTVSPost2010PropOp47
 70
     1
102
RTVSPost2010Prop48
 90
       50
102
RTVSPost2010PropOp48
 70
     1
102
RTVSPost2010Prop49
280
     0
102
RTVSPost2010PropOp49
 70
     1
102
RTVSPost2010Prop50
 90
       50
102
RTVSPost2010PropOp50
 70
     1
102
RTVSPost2010Prop51ColorIndex
 90
      256
102
RTVSPost2010Prop51ColorRGB
 90
-16777216
102
RTVSPost2010PropOp51
 70
     0
102
RTVSPost2010Prop52
140
1.0
102
RTVSPost2010PropOp52
 70
     0
102
RTVSPost2010Prop53
 90
        2
102
RTVSPost2010PropOp53
 70
     1
102
RTVSPost2010Prop54
  1
strokes_ogs.tif
102
RTVSPost2010PropOp54
 70
     1
102
RTVSPost2010Prop55
280
     0
102
RTVSPost2010PropOp55
 70
     1
102
RTVSPost2010Prop56
140
1.0
102
RTVSPost2010PropOp56
 70
     1
102
RTVSPost2010Prop57
140
1.0
102
RTVSPost2010PropOp57
 70
     1
  0
XRECORD
  5
F1
102
{ACAD_REACTORS
330
F0
102
}
330
F0
100
AcDbXrecord
280
     1
102
RTVSPropertyOp0
 70
     0
102
RTVSPropertyOp1
 70
     0
102
RTVSPropertyOp2
 70
     0
102
RTVSPropertyOp3
 70
     0
102
RTVSPropertyOp4
 70
     0
102
RTVSPropertyOp5
 70
     0
102
RTVSPropertyOp6
 70
     0
102
RTVSPropertyOp7
 70
     0
102
RTVSPropertyOp8
 70
     0
102
RTVSPropertyOp9
 70
     0
102
RTVSPropertyOp10
 70
     0
102
RTVSPropertyOp11
 70
     0
102
RTVSPropertyOp12
 70
     0
102
RTVSPropertyOp13
 70
     0
102
RTVSPropertyOp14
 70
     2
102
RTVSPropertyOp15
 70
     0
102
RTVSPropertyOp16
 70
     0
102
RTVSPropertyOp17
 70
     0
102
RTVSPropertyOp18
 70
     0
102
RTVSPropertyOp19
 70
     0
102
RTVSPropertyOp20
 70
     0
102
RTVSPropertyOp21
 70
     0
102
RTVSPropertyOp22
 70
     0
102
RTVSPropertyOp23
 70
     0
102
RTVSPropertyOp24
 70
     0
102
RTVSPropertyOp25
 70
     0
102
RTVSPropertyOp26
 70
     0
102
RTVSPropertyOp27
 70
     0
102
RTVSPropertyOp28
 70
     0
102
RTVSPropertyOp29
 70
     0
102
RTVSPropertyOp30
 70
     0
102
RTVSPropertyOp31
 70
     0
102
RTVSPropertyOp32
 70
     0
102
RTVSPropertyOp33
 70
     0
102
RTVSPropertyOp34
 70
     0
102
RTVSPropertyOp35
 70
     0
102
RTVSPropertyOp36
 70
     0
102
RTVSPropertyOp37
 70
     0
102
RTVSPropertyOp38
 70
     0
102
RTVSPropertyOp39
 70
     0
102
RTVSPropertyOp40
 70
     0
102
RTVSPropertyOp41
 70
     0
102
RTVSPropertyOp42
 70
     0
102
RTVSPropertyOp43
 70
     0
102
RTVSPropertyOp44
 70
     0
102
RTVSPropertyOp45
 70
     0
102
RTVSPropertyOp46
 70
     0
102
RTVSPropertyOp47
 70
     0
102
RTVSPropertyOp48
 70
     0
102
RTVSPropertyOp49
 70
     0
102
RTVSPropertyOp50
 70
     0
102
RTVSPropertyOp51
 70
     0
102
RTVSPropertyOp52
 70
     0
102
RTVSPropertyOp53
 70
     0
102
RTVSPropertyOp54
 70
     0
102
RTVSPropertyOp55
 70
     0
102
RTVSPropertyOp56
 70
     0
102
RTVSPropertyOp57
 70
     0
102
RTVSPost2010Prop28
280
     0
102
RTVSPost2010PropOp28
 70
     0
102
RTVSPost2010Prop29
280
     1
102
RTVSPost2010PropOp29
 70
     0
102
RTVSPost2010Prop30
280
     1
102
RTVSPost2010PropOp30
 70
     0
102
RTVSPost2010Prop31
280
     0
102
RTVSPost2010PropOp31
 70
     0
102
RTVSPost2010Prop32
280
     0
102
RTVSPost2010PropOp32
 70
     0
102
RTVSPost2010Prop33
280
     0
102
RTVSPost2010PropOp33
 70
     0
102
RTVSPost2010Prop34
280
     0
102
RTVSPost2010PropOp34
 70
     0
102
RTVSPost2010Prop35
280
     0
102
RTVSPost2010PropOp35
 70
     0
102
RTVSPost2010Prop36
280
     0
102
RTVSPost2010PropOp36
 70
     0
102
RTVSPost2010Prop37
 90
       50
102
RTVSPost2010PropOp37
 70
     0
102
RTVSPost2010Prop38
140
0.0
102
RTVSPost2010PropOp38
 70
     0
102
RTVSPost2010Prop39
140
1.0
102
RTVSPost2010PropOp39
 70
     0
102
RTVSPost2010Prop40
 90
        0
102
RTVSPost2010PropOp40
 70
     0
102
RTVSPost2010Prop41ColorIndex
 90
       18
102
RTVSPost2010Prop41ColorRGB
 90
        0
102
RTVSPost2010PropOp41
 70
     0
102
RTVSPost2010Prop42
 90
       50
102
RTVSPost2010PropOp42
 70
     0
102
RTVSPost2010Prop43
 90
        3
102
RTVSPost2010PropOp43
 70
     0
102
RTVSPost2010Prop44ColorIndex
 90
        5
102
RTVSPost2010Prop44ColorRGB
 90
      255
102
RTVSPost2010PropOp44
 70
     0
102
RTVSPost2010Prop45
280
     0
102
RTVSPost2010PropOp45
 70
     0
102
RTVSPost2010Prop46
 90
       50
102
RTVSPost2010PropOp46
 70
     0
102
RTVSPost2010Prop47
 90
       50
102
RTVSPost2010PropOp47
 70
     0
102
RTVSPost2010Prop48
 90
       50
102
RTVSPost2010PropOp48
 70
     0
102
RTVSPost2010Prop49
280
     0
102
RTVSPost2010PropOp49
 70
     0
102
RTVSPost2010Prop50
 90
       50
102
RTVSPost2010PropOp50
 70
     0
102
RTVSPost2010Prop51ColorIndex
 90
      256
102
RTVSPost2010Prop51ColorRGB
 90
-16777216
102
RTVSPost2010PropOp51
 70
     0
102
RTVSPost2010Prop52
140
1.0
102
RTVSPost2010PropOp52
 70
     0
102
RTVSPost2010Prop53
 90
        2
102
RTVSPost2010PropOp53
 70
     0
102
RTVSPost2010Prop54
  1
strokes_ogs.tif
102
RTVSPost2010PropOp54
 70
     0
102
RTVSPost2010Prop55
280
     0
102
RTVSPost2010PropOp55
 70
     0
102
RTVSPost2010Prop56
140
1.0
102
RTVSPost2010PropOp56
 70
     0
102
RTVSPost2010Prop57
140
1.0
102
RTVSPost2010PropOp57
 70
     0
  0
XRECORD
  5
EB
102
{ACAD_REACTORS
330
EA
102
}
330
EA
100
AcDbXrecord
280
     1
102
RTVSPropertyOp0
 70
     1
102
RTVSPropertyOp1
 70
     1
102
RTVSPropertyOp2
 70
     1
102
RTVSPropertyOp3
 70
     1
102
RTVSPropertyOp4
 70
     1
102
RTVSPropertyOp5
 70
     1
102
RTVSPropertyOp6
 70
     1
102
RTVSPropertyOp7
 70
     1
102
RTVSPropertyOp8
 70
     1
102
RTVSPropertyOp9
 70
     1
102
RTVSPropertyOp10
 70
     1
102
RTVSPropertyOp11
 70
     1
102
RTVSPropertyOp12
 70
     1
102
RTVSPropertyOp13
 70
     1
102
RTVSPropertyOp14
 70
     1
102
RTVSPropertyOp15
 70
     1
102
RTVSPropertyOp16
 70
     1
102
RTVSPropertyOp17
 70
     1
102
RTVSPropertyOp18
 70
     1
102
RTVSPropertyOp19
 70
     1
102
RTVSPropertyOp20
 70
     1
102
RTVSPropertyOp21
 70
     1
102
RTVSPropertyOp22
 70
     1
102
RTVSPropertyOp23
 70
     1
102
RTVSPropertyOp24
 70
     1
102
RTVSPropertyOp25
 70
     1
102
RTVSPropertyOp26
 70
     1
102
RTVSPropertyOp27
 70
     1
102
RTVSPropertyOp28
 70
     1
102
RTVSPropertyOp29
 70
     1
102
RTVSPropertyOp30
 70
     1
102
RTVSPropertyOp31
 70
     1
102
RTVSPropertyOp32
 70
     1
102
RTVSPropertyOp33
 70
     1
102
RTVSPropertyOp34
 70
     1
102
RTVSPropertyOp35
 70
     1
102
RTVSPropertyOp36
 70
     1
102
RTVSPropertyOp37
 70
     1
102
RTVSPropertyOp38
 70
     1
102
RTVSPropertyOp39
 70
     1
102
RTVSPropertyOp40
 70
     1
102
RTVSPropertyOp41
 70
     1
102
RTVSPropertyOp42
 70
     1
102
RTVSPropertyOp43
 70
     1
102
RTVSPropertyOp44
 70
     1
102
RTVSPropertyOp45
 70
     1
102
RTVSPropertyOp46
 70
     1
102
RTVSPropertyOp47
 70
     1
102
RTVSPropertyOp48
 70
     1
102
RTVSPropertyOp49
 70
     1
102
RTVSPropertyOp50
 70
     1
102
RTVSPropertyOp51
 70
     0
102
RTVSPropertyOp52
 70
     0
102
RTVSPropertyOp53
 70
     1
102
RTVSPropertyOp54
 70
     1
102
RTVSPropertyOp55
 70
     1
102
RTVSPropertyOp56
 70
     1
102
RTVSPropertyOp57
 70
     1
102
RTVSPost2010Prop28
280
     0
102
RTVSPost2010PropOp28
 70
     1
102
RTVSPost2010Prop29
280
     1
102
RTVSPost2010PropOp29
 70
     1
102
RTVSPost2010Prop30
280
     1
102
RTVSPost2010PropOp30
 70
     1
102
RTVSPost2010Prop31
280
     0
102
RTVSPost2010PropOp31
 70
     1
102
RTVSPost2010Prop32
280
     0
102
RTVSPost2010PropOp32
 70
     1
102
RTVSPost2010Prop33
280
     0
102
RTVSPost2010PropOp33
 70
     1
102
RTVSPost2010Prop34
280
     0
102
RTVSPost2010PropOp34
 70
     1
102
RTVSPost2010Prop35
280
     0
102
RTVSPost2010PropOp35
 70
     1
102
RTVSPost2010Prop36
280
     0
102
RTVSPost2010PropOp36
 70
     1
102
RTVSPost2010Prop37
 90
       50
102
RTVSPost2010PropOp37
 70
     1
102
RTVSPost2010Prop38
140
0.0
102
RTVSPost2010PropOp38
 70
     1
102
RTVSPost2010Prop39
140
1.0
102
RTVSPost2010PropOp39
 70
     1
102
RTVSPost2010Prop40
 90
        0
102
RTVSPost2010PropOp40
 70
     1
102
RTVSPost2010Prop41ColorIndex
 90
       18
102
RTVSPost2010Prop41ColorRGB
 90
        0
102
RTVSPost2010PropOp41
 70
     1
102
RTVSPost2010Prop42
 90
       50
102
RTVSPost2010PropOp42
 70
     1
102
RTVSPost2010Prop43
 90
        3
102
RTVSPost2010PropOp43
 70
     1
102
RTVSPost2010Prop44ColorIndex
 90
        5
102
RTVSPost2010Prop44ColorRGB
 90
      255
102
RTVSPost2010PropOp44
 70
     1
102
RTVSPost2010Prop45
280
     0
102
RTVSPost2010PropOp45
 70
     1
102
RTVSPost2010Prop46
 90
       50
102
RTVSPost2010PropOp46
 70
     1
102
RTVSPost2010Prop47
 90
       50
102
RTVSPost2010PropOp47
 70
     1
102
RTVSPost2010Prop48
 90
       50
102
RTVSPost2010PropOp48
 70
     1
102
RTVSPost2010Prop49
280
     0
102
RTVSPost2010PropOp49
 70
     1
102
RTVSPost2010Prop50
 90
       50
102
RTVSPost2010PropOp50
 70
     1
102
RTVSPost2010Prop51ColorIndex
 90
      256
102
RTVSPost2010Prop51ColorRGB
 90
-16777216
102
RTVSPost2010PropOp51
 70
     0
102
RTVSPost2010Prop52
140
1.0
102
RTVSPost2010PropOp52
 70
     0
102
RTVSPost2010Prop53
 90
        2
102
RTVSPost2010PropOp53
 70
     1
102
RTVSPost2010Prop54
  1
strokes_ogs.tif
102
RTVSPost2010PropOp54
 70
     1
102
RTVSPost2010Prop55
280
     0
102
RTVSPost2010PropOp55
 70
     1
102
RTVSPost2010Prop56
140
1.0
102
RTVSPost2010PropOp56
 70
     1
102
RTVSPost2010Prop57
140
1.0
102
RTVSPost2010PropOp57
 70
     1
  0
XRECORD
  5
F3
102
{ACAD_REACTORS
330
F2
102
}
330
F2
100
AcDbXrecord
280
     1
102
RTVSPropertyOp0
 70
     0
102
RTVSPropertyOp1
 70
     0
102
RTVSPropertyOp2
 70
     0
102
RTVSPropertyOp3
 70
     0
102
RTVSPropertyOp4
 70
     0
102
RTVSPropertyOp5
 70
     0
102
RTVSPropertyOp6
 70
     0
102
RTVSPropertyOp7
 70
     0
102
RTVSPropertyOp8
 70
     0
102
RTVSPropertyOp9
 70
     0
102
RTVSPropertyOp10
 70
     0
102
RTVSPropertyOp11
 70
     0
102
RTVSPropertyOp12
 70
     0
102
RTVSPropertyOp13
 70
     0
102
RTVSPropertyOp14
 70
     2
102
RTVSPropertyOp15
 70
     0
102
RTVSPropertyOp16
 70
     0
102
RTVSPropertyOp17
 70
     0
102
RTVSPropertyOp18
 70
     0
102
RTVSPropertyOp19
 70
     0
102
RTVSPropertyOp20
 70
     0
102
RTVSPropertyOp21
 70
     0
102
RTVSPropertyOp22
 70
     0
102
RTVSPropertyOp23
 70
     0
102
RTVSPropertyOp24
 70
     0
102
RTVSPropertyOp25
 70
     0
102
RTVSPropertyOp26
 70
     0
102
RTVSPropertyOp27
 70
     0
102
RTVSPropertyOp28
 70
     0
102
RTVSPropertyOp29
 70
     0
102
RTVSPropertyOp30
 70
     0
102
RTVSPropertyOp31
 70
     0
102
RTVSPropertyOp32
 70
     0
102
RTVSPropertyOp33
 70
     0
102
RTVSPropertyOp34
 70
     0
102
RTVSPropertyOp35
 70
     0
102
RTVSPropertyOp36
 70
     0
102
RTVSPropertyOp37
 70
     0
102
RTVSPropertyOp38
 70
     0
102
RTVSPropertyOp39
 70
     0
102
RTVSPropertyOp40
 70
     0
102
RTVSPropertyOp41
 70
     0
102
RTVSPropertyOp42
 70
     0
102
RTVSPropertyOp43
 70
     0
102
RTVSPropertyOp44
 70
     0
102
RTVSPropertyOp45
 70
     0
102
RTVSPropertyOp46
 70
     0
102
RTVSPropertyOp47
 70
     0
102
RTVSPropertyOp48
 70
     0
102
RTVSPropertyOp49
 70
     0
102
RTVSPropertyOp50
 70
     0
102
RTVSPropertyOp51
 70
     0
102
RTVSPropertyOp52
 70
     0
102
RTVSPropertyOp53
 70
     0
102
RTVSPropertyOp54
 70
     0
102
RTVSPropertyOp55
 70
     0
102
RTVSPropertyOp56
 70
     0
102
RTVSPropertyOp57
 70
     0
102
RTVSPost2010Prop28
280
     0
102
RTVSPost2010PropOp28
 70
     0
102
RTVSPost2010Prop29
280
     1
102
RTVSPost2010PropOp29
 70
     0
102
RTVSPost2010Prop30
280
     1
102
RTVSPost2010PropOp30
 70
     0
102
RTVSPost2010Prop31
280
     0
102
RTVSPost2010PropOp31
 70
     0
102
RTVSPost2010Prop32
280
     0
102
RTVSPost2010PropOp32
 70
     0
102
RTVSPost2010Prop33
280
     0
102
RTVSPost2010PropOp33
 70
     0
102
RTVSPost2010Prop34
280
     0
102
RTVSPost2010PropOp34
 70
     0
102
RTVSPost2010Prop35
280
     0
102
RTVSPost2010PropOp35
 70
     0
102
RTVSPost2010Prop36
280
     0
102
RTVSPost2010PropOp36
 70
     0
102
RTVSPost2010Prop37
 90
       50
102
RTVSPost2010PropOp37
 70
     0
102
RTVSPost2010Prop38
140
0.0
102
RTVSPost2010PropOp38
 70
     0
102
RTVSPost2010Prop39
140
1.0
102
RTVSPost2010PropOp39
 70
     0
102
RTVSPost2010Prop40
 90
        0
102
RTVSPost2010PropOp40
 70
     0
102
RTVSPost2010Prop41ColorIndex
 90
       18
102
RTVSPost2010Prop41ColorRGB
 90
        0
102
RTVSPost2010PropOp41
 70
     0
102
RTVSPost2010Prop42
 90
       50
102
RTVSPost2010PropOp42
 70
     0
102
RTVSPost2010Prop43
 90
        3
102
RTVSPost2010PropOp43
 70
     0
102
RTVSPost2010Prop44ColorIndex
 90
        5
102
RTVSPost2010Prop44ColorRGB
 90
      255
102
RTVSPost2010PropOp44
 70
     0
102
RTVSPost2010Prop45
280
     0
102
RTVSPost2010PropOp45
 70
     0
102
RTVSPost2010Prop46
 90
       50
102
RTVSPost2010PropOp46
 70
     0
102
RTVSPost2010Prop47
 90
       50
102
RTVSPost2010PropOp47
 70
     0
102
RTVSPost2010Prop48
 90
       50
102
RTVSPost2010PropOp48
 70
     0
102
RTVSPost2010Prop49
280
     0
102
RTVSPost2010PropOp49
 70
     0
102
RTVSPost2010Prop50
 90
       50
102
RTVSPost2010PropOp50
 70
     0
102
RTVSPost2010Prop51ColorIndex
 90
      256
102
RTVSPost2010Prop51ColorRGB
 90
-16777216
102
RTVSPost2010PropOp51
 70
     0
102
RTVSPost2010Prop52
140
1.0
102
RTVSPost2010PropOp52
 70
     0
102
RTVSPost2010Prop53
 90
        2
102
RTVSPost2010PropOp53
 70
     0
102
RTVSPost2010Prop54
  1
strokes_ogs.tif
102
RTVSPost2010PropOp54
 70
     0
102
RTVSPost2010Prop55
280
     0
102
RTVSPost2010PropOp55
 70
     0
102
RTVSPost2010Prop56
140
1.0
102
RTVSPost2010PropOp56
 70
     0
102
RTVSPost2010Prop57
140
1.0
102
RTVSPost2010PropOp57
 70
     0
  0
XRECORD
  5
E1
102
{ACAD_REACTORS
330
E0
102
}
330
E0
100
AcDbXrecord
280
     1
102
RTVSPropertyOp0
 70
     1
102
RTVSPropertyOp1
 70
     1
102
RTVSPropertyOp2
 70
     1
102
RTVSPropertyOp3
 70
     1
102
RTVSPropertyOp4
 70
     1
102
RTVSPropertyOp5
 70
     1
102
RTVSPropertyOp6
 70
     1
102
RTVSPropertyOp7
 70
     1
102
RTVSPropertyOp8
 70
     1
102
RTVSPropertyOp9
 70
     1
102
RTVSPropertyOp10
 70
     1
102
RTVSPropertyOp11
 70
     1
102
RTVSPropertyOp12
 70
     1
102
RTVSPropertyOp13
 70
     1
102
RTVSPropertyOp14
 70
     1
102
RTVSPropertyOp15
 70
     1
102
RTVSPropertyOp16
 70
     1
102
RTVSPropertyOp17
 70
     1
102
RTVSPropertyOp18
 70
     1
102
RTVSPropertyOp19
 70
     1
102
RTVSPropertyOp20
 70
     1
102
RTVSPropertyOp21
 70
     1
102
RTVSPropertyOp22
 70
     1
102
RTVSPropertyOp23
 70
     1
102
RTVSPropertyOp24
 70
     1
102
RTVSPropertyOp25
 70
     1
102
RTVSPropertyOp26
 70
     1
102
RTVSPropertyOp27
 70
     1
102
RTVSPropertyOp28
 70
     1
102
RTVSPropertyOp29
 70
     1
102
RTVSPropertyOp30
 70
     1
102
RTVSPropertyOp31
 70
     1
102
RTVSPropertyOp32
 70
     1
102
RTVSPropertyOp33
 70
     1
102
RTVSPropertyOp34
 70
     1
102
RTVSPropertyOp35
 70
     1
102
RTVSPropertyOp36
 70
     1
102
RTVSPropertyOp37
 70
     1
102
RTVSPropertyOp38
 70
     1
102
RTVSPropertyOp39
 70
     1
102
RTVSPropertyOp40
 70
     1
102
RTVSPropertyOp41
 70
     1
102
RTVSPropertyOp42
 70
     1
102
RTVSPropertyOp43
 70
     1
102
RTVSPropertyOp44
 70
     1
102
RTVSPropertyOp45
 70
     1
102
RTVSPropertyOp46
 70
     1
102
RTVSPropertyOp47
 70
     1
102
RTVSPropertyOp48
 70
     1
102
RTVSPropertyOp49
 70
     1
102
RTVSPropertyOp50
 70
     1
102
RTVSPropertyOp51
 70
     0
102
RTVSPropertyOp52
 70
     0
102
RTVSPropertyOp53
 70
     1
102
RTVSPropertyOp54
 70
     1
102
RTVSPropertyOp55
 70
     1
102
RTVSPropertyOp56
 70
     1
102
RTVSPropertyOp57
 70
     1
102
RTVSPost2010Prop28
280
     0
102
RTVSPost2010PropOp28
 70
     1
102
RTVSPost2010Prop29
280
     1
102
RTVSPost2010PropOp29
 70
     1
102
RTVSPost2010Prop30
280
     1
102
RTVSPost2010PropOp30
 70
     1
102
RTVSPost2010Prop31
280
     0
102
RTVSPost2010PropOp31
 70
     1
102
RTVSPost2010Prop32
280
     0
102
RTVSPost2010PropOp32
 70
     1
102
RTVSPost2010Prop33
280
     0
102
RTVSPost2010PropOp33
 70
     1
102
RTVSPost2010Prop34
280
     0
102
RTVSPost2010PropOp34
 70
     1
102
RTVSPost2010Prop35
280
     0
102
RTVSPost2010PropOp35
 70
     1
102
RTVSPost2010Prop36
280
     0
102
RTVSPost2010PropOp36
 70
     1
102
RTVSPost2010Prop37
 90
       50
102
RTVSPost2010PropOp37
 70
     1
102
RTVSPost2010Prop38
140
0.0
102
RTVSPost2010PropOp38
 70
     1
102
RTVSPost2010Prop39
140
1.0
102
RTVSPost2010PropOp39
 70
     1
102
RTVSPost2010Prop40
 90
        0
102
RTVSPost2010PropOp40
 70
     1
102
RTVSPost2010Prop41ColorIndex
 90
       18
102
RTVSPost2010Prop41ColorRGB
 90
        0
102
RTVSPost2010PropOp41
 70
     1
102
RTVSPost2010Prop42
 90
       50
102
RTVSPost2010PropOp42
 70
     1
102
RTVSPost2010Prop43
 90
        3
102
RTVSPost2010PropOp43
 70
     1
102
RTVSPost2010Prop44ColorIndex
 90
        5
102
RTVSPost2010Prop44ColorRGB
 90
      255
102
RTVSPost2010PropOp44
 70
     1
102
RTVSPost2010Prop45
280
     0
102
RTVSPost2010PropOp45
 70
     1
102
RTVSPost2010Prop46
 90
       50
102
RTVSPost2010PropOp46
 70
     1
102
RTVSPost2010Prop47
 90
       50
102
RTVSPost2010PropOp47
 70
     1
102
RTVSPost2010Prop48
 90
       50
102
RTVSPost2010PropOp48
 70
     1
102
RTVSPost2010Prop49
280
     0
102
RTVSPost2010PropOp49
 70
     1
102
RTVSPost2010Prop50
 90
       50
102
RTVSPost2010PropOp50
 70
     1
102
RTVSPost2010Prop51ColorIndex
 90
      256
102
RTVSPost2010Prop51ColorRGB
 90
-16777216
102
RTVSPost2010PropOp51
 70
     0
102
RTVSPost2010Prop52
140
1.0
102
RTVSPost2010PropOp52
 70
     0
102
RTVSPost2010Prop53
 90
        2
102
RTVSPost2010PropOp53
 70
     1
102
RTVSPost2010Prop54
  1
strokes_ogs.tif
102
RTVSPost2010PropOp54
 70
     1
102
RTVSPost2010Prop55
280
     0
102
RTVSPost2010PropOp55
 70
     1
102
RTVSPost2010Prop56
140
1.0
102
RTVSPost2010PropOp56
 70
     1
102
RTVSPost2010Prop57
140
1.0
102
RTVSPost2010PropOp57
 70
     1
  0
XRECORD
  5
FF
102
{ACAD_REACTORS
330
FE
102
}
330
FE
100
AcDbXrecord
280
     1
102
RTVSPropertyOp0
 70
     1
102
RTVSPropertyOp1
 70
     1
102
RTVSPropertyOp2
 70
     1
102
RTVSPropertyOp3
 70
     1
102
RTVSPropertyOp4
 70
     1
102
RTVSPropertyOp5
 70
     1
102
RTVSPropertyOp6
 70
     1
102
RTVSPropertyOp7
 70
     1
102
RTVSPropertyOp8
 70
     1
102
RTVSPropertyOp9
 70
     1
102
RTVSPropertyOp10
 70
     1
102
RTVSPropertyOp11
 70
     1
102
RTVSPropertyOp12
 70
     1
102
RTVSPropertyOp13
 70
     1
102
RTVSPropertyOp14
 70
     1
102
RTVSPropertyOp15
 70
     1
102
RTVSPropertyOp16
 70
     1
102
RTVSPropertyOp17
 70
     1
102
RTVSPropertyOp18
 70
     1
102
RTVSPropertyOp19
 70
     1
102
RTVSPropertyOp20
 70
     1
102
RTVSPropertyOp21
 70
     1
102
RTVSPropertyOp22
 70
     1
102
RTVSPropertyOp23
 70
     1
102
RTVSPropertyOp24
 70
     1
102
RTVSPropertyOp25
 70
     1
102
RTVSPropertyOp26
 70
     1
102
RTVSPropertyOp27
 70
     1
102
RTVSPropertyOp28
 70
     1
102
RTVSPropertyOp29
 70
     1
102
RTVSPropertyOp30
 70
     1
102
RTVSPropertyOp31
 70
     1
102
RTVSPropertyOp32
 70
     1
102
RTVSPropertyOp33
 70
     1
102
RTVSPropertyOp34
 70
     1
102
RTVSPropertyOp35
 70
     1
102
RTVSPropertyOp36
 70
     1
102
RTVSPropertyOp37
 70
     1
102
RTVSPropertyOp38
 70
     1
102
RTVSPropertyOp39
 70
     1
102
RTVSPropertyOp40
 70
     1
102
RTVSPropertyOp41
 70
     1
102
RTVSPropertyOp42
 70
     1
102
RTVSPropertyOp43
 70
     1
102
RTVSPropertyOp44
 70
     1
102
RTVSPropertyOp45
 70
     1
102
RTVSPropertyOp46
 70
     1
102
RTVSPropertyOp47
 70
     1
102
RTVSPropertyOp48
 70
     1
102
RTVSPropertyOp49
 70
     1
102
RTVSPropertyOp50
 70
     1
102
RTVSPropertyOp51
 70
     0
102
RTVSPropertyOp52
 70
     0
102
RTVSPropertyOp53
 70
     1
102
RTVSPropertyOp54
 70
     1
102
RTVSPropertyOp55
 70
     1
102
RTVSPropertyOp56
 70
     1
102
RTVSPropertyOp57
 70
     1
102
RTVSPost2010Prop28
280
     0
102
RTVSPost2010PropOp28
 70
     1
102
RTVSPost2010Prop29
280
     1
102
RTVSPost2010PropOp29
 70
     1
102
RTVSPost2010Prop30
280
     1
102
RTVSPost2010PropOp30
 70
     1
102
RTVSPost2010Prop31
280
     0
102
RTVSPost2010PropOp31
 70
     1
102
RTVSPost2010Prop32
280
     0
102
RTVSPost2010PropOp32
 70
     1
102
RTVSPost2010Prop33
280
     0
102
RTVSPost2010PropOp33
 70
     1
102
RTVSPost2010Prop34
280
     0
102
RTVSPost2010PropOp34
 70
     1
102
RTVSPost2010Prop35
280
     0
102
RTVSPost2010PropOp35
 70
     1
102
RTVSPost2010Prop36
280
     0
102
RTVSPost2010PropOp36
 70
     1
102
RTVSPost2010Prop37
 90
       50
102
RTVSPost2010PropOp37
 70
     1
102
RTVSPost2010Prop38
140
0.0
102
RTVSPost2010PropOp38
 70
     1
102
RTVSPost2010Prop39
140
1.0
102
RTVSPost2010PropOp39
 70
     1
102
RTVSPost2010Prop40
 90
        0
102
RTVSPost2010PropOp40
 70
     1
102
RTVSPost2010Prop41ColorIndex
 90
       18
102
RTVSPost2010Prop41ColorRGB
 90
        0
102
RTVSPost2010PropOp41
 70
     1
102
RTVSPost2010Prop42
 90
       50
102
RTVSPost2010PropOp42
 70
     1
102
RTVSPost2010Prop43
 90
        3
102
RTVSPost2010PropOp43
 70
     1
102
RTVSPost2010Prop44ColorIndex
 90
        5
102
RTVSPost2010Prop44ColorRGB
 90
      255
102
RTVSPost2010PropOp44
 70
     1
102
RTVSPost2010Prop45
280
     0
102
RTVSPost2010PropOp45
 70
     1
102
RTVSPost2010Prop46
 90
       50
102
RTVSPost2010PropOp46
 70
     1
102
RTVSPost2010Prop47
 90
       50
102
RTVSPost2010PropOp47
 70
     1
102
RTVSPost2010Prop48
 90
       50
102
RTVSPost2010PropOp48
 70
     1
102
RTVSPost2010Prop49
280
     0
102
RTVSPost2010PropOp49
 70
     1
102
RTVSPost2010Prop50
 90
       50
102
RTVSPost2010PropOp50
 70
     1
102
RTVSPost2010Prop51ColorIndex
 90
      256
102
RTVSPost2010Prop51ColorRGB
 90
-16777216
102
RTVSPost2010PropOp51
 70
     0
102
RTVSPost2010Prop52
140
1.0
102
RTVSPost2010PropOp52
 70
     0
102
RTVSPost2010Prop53
 90
        2
102
RTVSPost2010PropOp53
 70
     1
102
RTVSPost2010Prop54
  1
strokes_ogs.tif
102
RTVSPost2010PropOp54
 70
     1
102
RTVSPost2010Prop55
280
     0
102
RTVSPost2010PropOp55
 70
     1
102
RTVSPost2010Prop56
140
1.0
102
RTVSPost2010PropOp56
 70
     1
102
RTVSPost2010Prop57
140
1.0
102
RTVSPost2010PropOp57
 70
     1
  0
XRECORD
  5
FD
102
{ACAD_REACTORS
330
FC
102
}
330
FC
100
AcDbXrecord
280
     1
102
RTVSPropertyOp0
 70
     1
102
RTVSPropertyOp1
 70
     1
102
RTVSPropertyOp2
 70
     1
102
RTVSPropertyOp3
 70
     1
102
RTVSPropertyOp4
 70
     1
102
RTVSPropertyOp5
 70
     1
102
RTVSPropertyOp6
 70
     1
102
RTVSPropertyOp7
 70
     1
102
RTVSPropertyOp8
 70
     1
102
RTVSPropertyOp9
 70
     1
102
RTVSPropertyOp10
 70
     1
102
RTVSPropertyOp11
 70
     1
102
RTVSPropertyOp12
 70
     1
102
RTVSPropertyOp13
 70
     1
102
RTVSPropertyOp14
 70
     1
102
RTVSPropertyOp15
 70
     1
102
RTVSPropertyOp16
 70
     1
102
RTVSPropertyOp17
 70
     1
102
RTVSPropertyOp18
 70
     1
102
RTVSPropertyOp19
 70
     1
102
RTVSPropertyOp20
 70
     1
102
RTVSPropertyOp21
 70
     1
102
RTVSPropertyOp22
 70
     1
102
RTVSPropertyOp23
 70
     1
102
RTVSPropertyOp24
 70
     1
102
RTVSPropertyOp25
 70
     1
102
RTVSPropertyOp26
 70
     1
102
RTVSPropertyOp27
 70
     1
102
RTVSPropertyOp28
 70
     1
102
RTVSPropertyOp29
 70
     1
102
RTVSPropertyOp30
 70
     1
102
RTVSPropertyOp31
 70
     1
102
RTVSPropertyOp32
 70
     1
102
RTVSPropertyOp33
 70
     1
102
RTVSPropertyOp34
 70
     1
102
RTVSPropertyOp35
 70
     1
102
RTVSPropertyOp36
 70
     1
102
RTVSPropertyOp37
 70
     1
102
RTVSPropertyOp38
 70
     1
102
RTVSPropertyOp39
 70
     1
102
RTVSPropertyOp40
 70
     1
102
RTVSPropertyOp41
 70
     1
102
RTVSPropertyOp42
 70
     1
102
RTVSPropertyOp43
 70
     1
102
RTVSPropertyOp44
 70
     1
102
RTVSPropertyOp45
 70
     1
102
RTVSPropertyOp46
 70
     1
102
RTVSPropertyOp47
 70
     1
102
RTVSPropertyOp48
 70
     1
102
RTVSPropertyOp49
 70
     1
102
RTVSPropertyOp50
 70
     1
102
RTVSPropertyOp51
 70
     0
102
RTVSPropertyOp52
 70
     0
102
RTVSPropertyOp53
 70
     1
102
RTVSPropertyOp54
 70
     1
102
RTVSPropertyOp55
 70
     1
102
RTVSPropertyOp56
 70
     1
102
RTVSPropertyOp57
 70
     1
102
RTVSPost2010Prop28
280
     0
102
RTVSPost2010PropOp28
 70
     1
102
RTVSPost2010Prop29
280
     1
102
RTVSPost2010PropOp29
 70
     1
102
RTVSPost2010Prop30
280
     1
102
RTVSPost2010PropOp30
 70
     1
102
RTVSPost2010Prop31
280
     0
102
RTVSPost2010PropOp31
 70
     1
102
RTVSPost2010Prop32
280
     0
102
RTVSPost2010PropOp32
 70
     1
102
RTVSPost2010Prop33
280
     0
102
RTVSPost2010PropOp33
 70
     1
102
RTVSPost2010Prop34
280
     0
102
RTVSPost2010PropOp34
 70
     1
102
RTVSPost2010Prop35
280
     0
102
RTVSPost2010PropOp35
 70
     1
102
RTVSPost2010Prop36
280
     0
102
RTVSPost2010PropOp36
 70
     1
102
RTVSPost2010Prop37
 90
       50
102
RTVSPost2010PropOp37
 70
     1
102
RTVSPost2010Prop38
140
0.0
102
RTVSPost2010PropOp38
 70
     1
102
RTVSPost2010Prop39
140
1.0
102
RTVSPost2010PropOp39
 70
     1
102
RTVSPost2010Prop40
 90
        0
102
RTVSPost2010PropOp40
 70
     1
102
RTVSPost2010Prop41ColorIndex
 90
       18
102
RTVSPost2010Prop41ColorRGB
 90
        0
102
RTVSPost2010PropOp41
 70
     1
102
RTVSPost2010Prop42
 90
       50
102
RTVSPost2010PropOp42
 70
     1
102
RTVSPost2010Prop43
 90
        3
102
RTVSPost2010PropOp43
 70
     1
102
RTVSPost2010Prop44ColorIndex
 90
        5
102
RTVSPost2010Prop44ColorRGB
 90
      255
102
RTVSPost2010PropOp44
 70
     1
102
RTVSPost2010Prop45
280
     0
102
RTVSPost2010PropOp45
 70
     1
102
RTVSPost2010Prop46
 90
       50
102
RTVSPost2010PropOp46
 70
     1
102
RTVSPost2010Prop47
 90
       50
102
RTVSPost2010PropOp47
 70
     1
102
RTVSPost2010Prop48
 90
       50
102
RTVSPost2010PropOp48
 70
     1
102
RTVSPost2010Prop49
280
     0
102
RTVSPost2010PropOp49
 70
     1
102
RTVSPost2010Prop50
 90
       50
102
RTVSPost2010PropOp50
 70
     1
102
RTVSPost2010Prop51ColorIndex
 90
      256
102
RTVSPost2010Prop51ColorRGB
 90
-16777216
102
RTVSPost2010PropOp51
 70
     0
102
RTVSPost2010Prop52
140
1.0
102
RTVSPost2010PropOp52
 70
     0
102
RTVSPost2010Prop53
 90
        2
102
RTVSPost2010PropOp53
 70
     1
102
RTVSPost2010Prop54
  1
strokes_ogs.tif
102
RTVSPost2010PropOp54
 70
     1
102
RTVSPost2010Prop55
280
     0
102
RTVSPost2010PropOp55
 70
     1
102
RTVSPost2010Prop56
140
1.0
102
RTVSPost2010PropOp56
 70
     1
102
RTVSPost2010Prop57
140
1.0
102
RTVSPost2010PropOp57
 70
     1
  0
XRECORD
  5
F7
102
{ACAD_REACTORS
330
F6
102
}
330
F6
100
AcDbXrecord
280
     1
102
RTVSPropertyOp0
 70
     1
102
RTVSPropertyOp1
 70
     1
102
RTVSPropertyOp2
 70
     1
102
RTVSPropertyOp3
 70
     1
102
RTVSPropertyOp4
 70
     1
102
RTVSPropertyOp5
 70
     1
102
RTVSPropertyOp6
 70
     1
102
RTVSPropertyOp7
 70
     1
102
RTVSPropertyOp8
 70
     1
102
RTVSPropertyOp9
 70
     1
102
RTVSPropertyOp10
 70
     1
102
RTVSPropertyOp11
 70
     1
102
RTVSPropertyOp12
 70
     1
102
RTVSPropertyOp13
 70
     1
102
RTVSPropertyOp14
 70
     1
102
RTVSPropertyOp15
 70
     1
102
RTVSPropertyOp16
 70
     1
102
RTVSPropertyOp17
 70
     1
102
RTVSPropertyOp18
 70
     1
102
RTVSPropertyOp19
 70
     1
102
RTVSPropertyOp20
 70
     1
102
RTVSPropertyOp21
 70
     1
102
RTVSPropertyOp22
 70
     1
102
RTVSPropertyOp23
 70
     1
102
RTVSPropertyOp24
 70
     1
102
RTVSPropertyOp25
 70
     1
102
RTVSPropertyOp26
 70
     1
102
RTVSPropertyOp27
 70
     1
102
RTVSPropertyOp28
 70
     1
102
RTVSPropertyOp29
 70
     1
102
RTVSPropertyOp30
 70
     1
102
RTVSPropertyOp31
 70
     1
102
RTVSPropertyOp32
 70
     1
102
RTVSPropertyOp33
 70
     1
102
RTVSPropertyOp34
 70
     1
102
RTVSPropertyOp35
 70
     1
102
RTVSPropertyOp36
 70
     1
102
RTVSPropertyOp37
 70
     1
102
RTVSPropertyOp38
 70
     1
102
RTVSPropertyOp39
 70
     1
102
RTVSPropertyOp40
 70
     1
102
RTVSPropertyOp41
 70
     1
102
RTVSPropertyOp42
 70
     1
102
RTVSPropertyOp43
 70
     1
102
RTVSPropertyOp44
 70
     1
102
RTVSPropertyOp45
 70
     1
102
RTVSPropertyOp46
 70
     1
102
RTVSPropertyOp47
 70
     1
102
RTVSPropertyOp48
 70
     1
102
RTVSPropertyOp49
 70
     1
102
RTVSPropertyOp50
 70
     1
102
RTVSPropertyOp51
 70
     0
102
RTVSPropertyOp52
 70
     0
102
RTVSPropertyOp53
 70
     1
102
RTVSPropertyOp54
 70
     1
102
RTVSPropertyOp55
 70
     1
102
RTVSPropertyOp56
 70
     1
102
RTVSPropertyOp57
 70
     1
102
RTVSPost2010Prop28
280
     0
102
RTVSPost2010PropOp28
 70
     1
102
RTVSPost2010Prop29
280
     1
102
RTVSPost2010PropOp29
 70
     1
102
RTVSPost2010Prop30
280
     1
102
RTVSPost2010PropOp30
 70
     1
102
RTVSPost2010Prop31
280
     0
102
RTVSPost2010PropOp31
 70
     1
102
RTVSPost2010Prop32
280
     0
102
RTVSPost2010PropOp32
 70
     1
102
RTVSPost2010Prop33
280
     0
102
RTVSPost2010PropOp33
 70
     1
102
RTVSPost2010Prop34
280
     0
102
RTVSPost2010PropOp34
 70
     1
102
RTVSPost2010Prop35
280
     0
102
RTVSPost2010PropOp35
 70
     1
102
RTVSPost2010Prop36
280
     0
102
RTVSPost2010PropOp36
 70
     1
102
RTVSPost2010Prop37
 90
       50
102
RTVSPost2010PropOp37
 70
     1
102
RTVSPost2010Prop38
140
0.0
102
RTVSPost2010PropOp38
 70
     1
102
RTVSPost2010Prop39
140
1.0
102
RTVSPost2010PropOp39
 70
     1
102
RTVSPost2010Prop40
 90
        0
102
RTVSPost2010PropOp40
 70
     1
102
RTVSPost2010Prop41ColorIndex
 90
       18
102
RTVSPost2010Prop41ColorRGB
 90
        0
102
RTVSPost2010PropOp41
 70
     1
102
RTVSPost2010Prop42
 90
       50
102
RTVSPost2010PropOp42
 70
     1
102
RTVSPost2010Prop43
 90
        3
102
RTVSPost2010PropOp43
 70
     1
102
RTVSPost2010Prop44ColorIndex
 90
        5
102
RTVSPost2010Prop44ColorRGB
 90
      255
102
RTVSPost2010PropOp44
 70
     1
102
RTVSPost2010Prop45
280
     0
102
RTVSPost2010PropOp45
 70
     1
102
RTVSPost2010Prop46
 90
       50
102
RTVSPost2010PropOp46
 70
     1
102
RTVSPost2010Prop47
 90
       50
102
RTVSPost2010PropOp47
 70
     1
102
RTVSPost2010Prop48
 90
       50
102
RTVSPost2010PropOp48
 70
     1
102
RTVSPost2010Prop49
280
     0
102
RTVSPost2010PropOp49
 70
     1
102
RTVSPost2010Prop50
 90
       50
102
RTVSPost2010PropOp50
 70
     1
102
RTVSPost2010Prop51ColorIndex
 90
      256
102
RTVSPost2010Prop51ColorRGB
 90
-16777216
102
RTVSPost2010PropOp51
 70
     0
102
RTVSPost2010Prop52
140
1.0
102
RTVSPost2010PropOp52
 70
     0
102
RTVSPost2010Prop53
 90
        2
102
RTVSPost2010PropOp53
 70
     1
102
RTVSPost2010Prop54
  1
strokes_ogs.tif
102
RTVSPost2010PropOp54
 70
     1
102
RTVSPost2010Prop55
280
     0
102
RTVSPost2010PropOp55
 70
     1
102
RTVSPost2010Prop56
140
1.0
102
RTVSPost2010PropOp56
 70
     1
102
RTVSPost2010Prop57
140
1.0
102
RTVSPost2010PropOp57
 70
     1
  0
XRECORD
  5
F9
102
{ACAD_REACTORS
330
F8
102
}
330
F8
100
AcDbXrecord
280
     1
102
RTVSPropertyOp0
 70
     1
102
RTVSPropertyOp1
 70
     1
102
RTVSPropertyOp2
 70
     1
102
RTVSPropertyOp3
 70
     1
102
RTVSPropertyOp4
 70
     1
102
RTVSPropertyOp5
 70
     1
102
RTVSPropertyOp6
 70
     1
102
RTVSPropertyOp7
 70
     1
102
RTVSPropertyOp8
 70
     1
102
RTVSPropertyOp9
 70
     1
102
RTVSPropertyOp10
 70
     1
102
RTVSPropertyOp11
 70
     1
102
RTVSPropertyOp12
 70
     1
102
RTVSPropertyOp13
 70
     1
102
RTVSPropertyOp14
 70
     1
102
RTVSPropertyOp15
 70
     1
102
RTVSPropertyOp16
 70
     1
102
RTVSPropertyOp17
 70
     1
102
RTVSPropertyOp18
 70
     1
102
RTVSPropertyOp19
 70
     1
102
RTVSPropertyOp20
 70
     1
102
RTVSPropertyOp21
 70
     1
102
RTVSPropertyOp22
 70
     1
102
RTVSPropertyOp23
 70
     1
102
RTVSPropertyOp24
 70
     1
102
RTVSPropertyOp25
 70
     1
102
RTVSPropertyOp26
 70
     1
102
RTVSPropertyOp27
 70
     1
102
RTVSPropertyOp28
 70
     1
102
RTVSPropertyOp29
 70
     1
102
RTVSPropertyOp30
 70
     1
102
RTVSPropertyOp31
 70
     1
102
RTVSPropertyOp32
 70
     1
102
RTVSPropertyOp33
 70
     1
102
RTVSPropertyOp34
 70
     1
102
RTVSPropertyOp35
 70
     1
102
RTVSPropertyOp36
 70
     1
102
RTVSPropertyOp37
 70
     1
102
RTVSPropertyOp38
 70
     1
102
RTVSPropertyOp39
 70
     1
102
RTVSPropertyOp40
 70
     1
102
RTVSPropertyOp41
 70
     1
102
RTVSPropertyOp42
 70
     1
102
RTVSPropertyOp43
 70
     1
102
RTVSPropertyOp44
 70
     1
102
RTVSPropertyOp45
 70
     1
102
RTVSPropertyOp46
 70
     1
102
RTVSPropertyOp47
 70
     1
102
RTVSPropertyOp48
 70
     1
102
RTVSPropertyOp49
 70
     1
102
RTVSPropertyOp50
 70
     1
102
RTVSPropertyOp51
 70
     0
102
RTVSPropertyOp52
 70
     0
102
RTVSPropertyOp53
 70
     1
102
RTVSPropertyOp54
 70
     1
102
RTVSPropertyOp55
 70
     1
102
RTVSPropertyOp56
 70
     1
102
RTVSPropertyOp57
 70
     1
102
RTVSPost2010Prop28
280
     0
102
RTVSPost2010PropOp28
 70
     1
102
RTVSPost2010Prop29
280
     1
102
RTVSPost2010PropOp29
 70
     1
102
RTVSPost2010Prop30
280
     1
102
RTVSPost2010PropOp30
 70
     1
102
RTVSPost2010Prop31
280
     0
102
RTVSPost2010PropOp31
 70
     1
102
RTVSPost2010Prop32
280
     0
102
RTVSPost2010PropOp32
 70
     1
102
RTVSPost2010Prop33
280
     0
102
RTVSPost2010PropOp33
 70
     1
102
RTVSPost2010Prop34
280
     0
102
RTVSPost2010PropOp34
 70
     1
102
RTVSPost2010Prop35
280
     0
102
RTVSPost2010PropOp35
 70
     1
102
RTVSPost2010Prop36
280
     0
102
RTVSPost2010PropOp36
 70
     1
102
RTVSPost2010Prop37
 90
       50
102
RTVSPost2010PropOp37
 70
     1
102
RTVSPost2010Prop38
140
0.0
102
RTVSPost2010PropOp38
 70
     1
102
RTVSPost2010Prop39
140
1.0
102
RTVSPost2010PropOp39
 70
     1
102
RTVSPost2010Prop40
 90
        0
102
RTVSPost2010PropOp40
 70
     1
102
RTVSPost2010Prop41ColorIndex
 90
       18
102
RTVSPost2010Prop41ColorRGB
 90
        0
102
RTVSPost2010PropOp41
 70
     1
102
RTVSPost2010Prop42
 90
       50
102
RTVSPost2010PropOp42
 70
     1
102
RTVSPost2010Prop43
 90
        3
102
RTVSPost2010PropOp43
 70
     1
102
RTVSPost2010Prop44ColorIndex
 90
        5
102
RTVSPost2010Prop44ColorRGB
 90
      255
102
RTVSPost2010PropOp44
 70
     1
102
RTVSPost2010Prop45
280
     0
102
RTVSPost2010PropOp45
 70
     1
102
RTVSPost2010Prop46
 90
       50
102
RTVSPost2010PropOp46
 70
     1
102
RTVSPost2010Prop47
 90
       50
102
RTVSPost2010PropOp47
 70
     1
102
RTVSPost2010Prop48
 90
       50
102
RTVSPost2010PropOp48
 70
     1
102
RTVSPost2010Prop49
280
     0
102
RTVSPost2010PropOp49
 70
     1
102
RTVSPost2010Prop50
 90
       50
102
RTVSPost2010PropOp50
 70
     1
102
RTVSPost2010Prop51ColorIndex
 90
      256
102
RTVSPost2010Prop51ColorRGB
 90
-16777216
102
RTVSPost2010PropOp51
 70
     0
102
RTVSPost2010Prop52
140
1.0
102
RTVSPost2010PropOp52
 70
     0
102
RTVSPost2010Prop53
 90
        2
102
RTVSPost2010PropOp53
 70
     1
102
RTVSPost2010Prop54
  1
strokes_ogs.tif
102
RTVSPost2010PropOp54
 70
     1
102
RTVSPost2010Prop55
280
     0
102
RTVSPost2010PropOp55
 70
     1
102
RTVSPost2010Prop56
140
1.0
102
RTVSPost2010PropOp56
 70
     1
102
RTVSPost2010Prop57
140
1.0
102
RTVSPost2010PropOp57
 70
     1
  0
XRECORD
  5
E9
102
{ACAD_REACTORS
330
E8
102
}
330
E8
100
AcDbXrecord
280
     1
102
RTVSPropertyOp0
 70
     1
102
RTVSPropertyOp1
 70
     1
102
RTVSPropertyOp2
 70
     1
102
RTVSPropertyOp3
 70
     1
102
RTVSPropertyOp4
 70
     1
102
RTVSPropertyOp5
 70
     1
102
RTVSPropertyOp6
 70
     1
102
RTVSPropertyOp7
 70
     1
102
RTVSPropertyOp8
 70
     1
102
RTVSPropertyOp9
 70
     1
102
RTVSPropertyOp10
 70
     1
102
RTVSPropertyOp11
 70
     1
102
RTVSPropertyOp12
 70
     1
102
RTVSPropertyOp13
 70
     1
102
RTVSPropertyOp14
 70
     1
102
RTVSPropertyOp15
 70
     1
102
RTVSPropertyOp16
 70
     1
102
RTVSPropertyOp17
 70
     1
102
RTVSPropertyOp18
 70
     1
102
RTVSPropertyOp19
 70
     1
102
RTVSPropertyOp20
 70
     1
102
RTVSPropertyOp21
 70
     1
102
RTVSPropertyOp22
 70
     1
102
RTVSPropertyOp23
 70
     1
102
RTVSPropertyOp24
 70
     1
102
RTVSPropertyOp25
 70
     1
102
RTVSPropertyOp26
 70
     1
102
RTVSPropertyOp27
 70
     1
102
RTVSPropertyOp28
 70
     1
102
RTVSPropertyOp29
 70
     1
102
RTVSPropertyOp30
 70
     1
102
RTVSPropertyOp31
 70
     1
102
RTVSPropertyOp32
 70
     1
102
RTVSPropertyOp33
 70
     1
102
RTVSPropertyOp34
 70
     1
102
RTVSPropertyOp35
 70
     1
102
RTVSPropertyOp36
 70
     1
102
RTVSPropertyOp37
 70
     1
102
RTVSPropertyOp38
 70
     1
102
RTVSPropertyOp39
 70
     1
102
RTVSPropertyOp40
 70
     1
102
RTVSPropertyOp41
 70
     1
102
RTVSPropertyOp42
 70
     1
102
RTVSPropertyOp43
 70
     1
102
RTVSPropertyOp44
 70
     1
102
RTVSPropertyOp45
 70
     1
102
RTVSPropertyOp46
 70
     1
102
RTVSPropertyOp47
 70
     1
102
RTVSPropertyOp48
 70
     1
102
RTVSPropertyOp49
 70
     1
102
RTVSPropertyOp50
 70
     1
102
RTVSPropertyOp51
 70
     0
102
RTVSPropertyOp52
 70
     0
102
RTVSPropertyOp53
 70
     1
102
RTVSPropertyOp54
 70
     1
102
RTVSPropertyOp55
 70
     1
102
RTVSPropertyOp56
 70
     1
102
RTVSPropertyOp57
 70
     1
102
RTVSPost2010Prop28
280
     0
102
RTVSPost2010PropOp28
 70
     1
102
RTVSPost2010Prop29
280
     1
102
RTVSPost2010PropOp29
 70
     1
102
RTVSPost2010Prop30
280
     1
102
RTVSPost2010PropOp30
 70
     1
102
RTVSPost2010Prop31
280
     0
102
RTVSPost2010PropOp31
 70
     1
102
RTVSPost2010Prop32
280
     0
102
RTVSPost2010PropOp32
 70
     1
102
RTVSPost2010Prop33
280
     0
102
RTVSPost2010PropOp33
 70
     1
102
RTVSPost2010Prop34
280
     0
102
RTVSPost2010PropOp34
 70
     1
102
RTVSPost2010Prop35
280
     0
102
RTVSPost2010PropOp35
 70
     1
102
RTVSPost2010Prop36
280
     0
102
RTVSPost2010PropOp36
 70
     1
102
RTVSPost2010Prop37
 90
       50
102
RTVSPost2010PropOp37
 70
     1
102
RTVSPost2010Prop38
140
0.0
102
RTVSPost2010PropOp38
 70
     1
102
RTVSPost2010Prop39
140
1.0
102
RTVSPost2010PropOp39
 70
     1
102
RTVSPost2010Prop40
 90
        0
102
RTVSPost2010PropOp40
 70
     1
102
RTVSPost2010Prop41ColorIndex
 90
       18
102
RTVSPost2010Prop41ColorRGB
 90
        0
102
RTVSPost2010PropOp41
 70
     1
102
RTVSPost2010Prop42
 90
       50
102
RTVSPost2010PropOp42
 70
     1
102
RTVSPost2010Prop43
 90
        3
102
RTVSPost2010PropOp43
 70
     1
102
RTVSPost2010Prop44ColorIndex
 90
        5
102
RTVSPost2010Prop44ColorRGB
 90
      255
102
RTVSPost2010PropOp44
 70
     1
102
RTVSPost2010Prop45
280
     0
102
RTVSPost2010PropOp45
 70
     1
102
RTVSPost2010Prop46
 90
       50
102
RTVSPost2010PropOp46
 70
     1
102
RTVSPost2010Prop47
 90
       50
102
RTVSPost2010PropOp47
 70
     1
102
RTVSPost2010Prop48
 90
       50
102
RTVSPost2010PropOp48
 70
     1
102
RTVSPost2010Prop49
280
     0
102
RTVSPost2010PropOp49
 70
     1
102
RTVSPost2010Prop50
 90
       50
102
RTVSPost2010PropOp50
 70
     1
102
RTVSPost2010Prop51ColorIndex
 90
      256
102
RTVSPost2010Prop51ColorRGB
 90
-16777216
102
RTVSPost2010PropOp51
 70
     0
102
RTVSPost2010Prop52
140
1.0
102
RTVSPost2010PropOp52
 70
     0
102
RTVSPost2010Prop53
 90
        2
102
RTVSPost2010PropOp53
 70
     1
102
RTVSPost2010Prop54
  1
strokes_ogs.tif
102
RTVSPost2010PropOp54
 70
     1
102
RTVSPost2010Prop55
280
     0
102
RTVSPost2010PropOp55
 70
     1
102
RTVSPost2010Prop56
140
1.0
102
RTVSPost2010PropOp56
 70
     1
102
RTVSPost2010Prop57
140
1.0
102
RTVSPost2010PropOp57
 70
     1
  0
XRECORD
  5
DB
102
{ACAD_REACTORS
330
DA
102
}
330
DA
100
AcDbXrecord
280
     1
102
RTVSPropertyOp0
 70
     1
102
RTVSPropertyOp1
 70
     1
102
RTVSPropertyOp2
 70
     1
102
RTVSPropertyOp3
 70
     1
102
RTVSPropertyOp4
 70
     1
102
RTVSPropertyOp5
 70
     1
102
RTVSPropertyOp6
 70
     1
102
RTVSPropertyOp7
 70
     1
102
RTVSPropertyOp8
 70
     1
102
RTVSPropertyOp9
 70
     1
102
RTVSPropertyOp10
 70
     1
102
RTVSPropertyOp11
 70
     1
102
RTVSPropertyOp12
 70
     1
102
RTVSPropertyOp13
 70
     1
102
RTVSPropertyOp14
 70
     1
102
RTVSPropertyOp15
 70
     1
102
RTVSPropertyOp16
 70
     1
102
RTVSPropertyOp17
 70
     1
102
RTVSPropertyOp18
 70
     1
102
RTVSPropertyOp19
 70
     1
102
RTVSPropertyOp20
 70
     1
102
RTVSPropertyOp21
 70
     1
102
RTVSPropertyOp22
 70
     1
102
RTVSPropertyOp23
 70
     1
102
RTVSPropertyOp24
 70
     1
102
RTVSPropertyOp25
 70
     1
102
RTVSPropertyOp26
 70
     1
102
RTVSPropertyOp27
 70
     1
102
RTVSPropertyOp28
 70
     1
102
RTVSPropertyOp29
 70
     1
102
RTVSPropertyOp30
 70
     1
102
RTVSPropertyOp31
 70
     1
102
RTVSPropertyOp32
 70
     1
102
RTVSPropertyOp33
 70
     1
102
RTVSPropertyOp34
 70
     1
102
RTVSPropertyOp35
 70
     1
102
RTVSPropertyOp36
 70
     1
102
RTVSPropertyOp37
 70
     1
102
RTVSPropertyOp38
 70
     1
102
RTVSPropertyOp39
 70
     1
102
RTVSPropertyOp40
 70
     1
102
RTVSPropertyOp41
 70
     1
102
RTVSPropertyOp42
 70
     1
102
RTVSPropertyOp43
 70
     1
102
RTVSPropertyOp44
 70
     1
102
RTVSPropertyOp45
 70
     1
102
RTVSPropertyOp46
 70
     1
102
RTVSPropertyOp47
 70
     1
102
RTVSPropertyOp48
 70
     1
102
RTVSPropertyOp49
 70
     1
102
RTVSPropertyOp50
 70
     1
102
RTVSPropertyOp51
 70
     0
102
RTVSPropertyOp52
 70
     0
102
RTVSPropertyOp53
 70
     1
102
RTVSPropertyOp54
 70
     1
102
RTVSPropertyOp55
 70
     1
102
RTVSPropertyOp56
 70
     1
102
RTVSPropertyOp57
 70
     1
102
RTVSPost2010Prop28
280
     0
102
RTVSPost2010PropOp28
 70
     1
102
RTVSPost2010Prop29
280
     1
102
RTVSPost2010PropOp29
 70
     1
102
RTVSPost2010Prop30
280
     1
102
RTVSPost2010PropOp30
 70
     1
102
RTVSPost2010Prop31
280
     0
102
RTVSPost2010PropOp31
 70
     1
102
RTVSPost2010Prop32
280
     0
102
RTVSPost2010PropOp32
 70
     1
102
RTVSPost2010Prop33
280
     0
102
RTVSPost2010PropOp33
 70
     1
102
RTVSPost2010Prop34
280
     0
102
RTVSPost2010PropOp34
 70
     1
102
RTVSPost2010Prop35
280
     0
102
RTVSPost2010PropOp35
 70
     1
102
RTVSPost2010Prop36
280
     0
102
RTVSPost2010PropOp36
 70
     1
102
RTVSPost2010Prop37
 90
       50
102
RTVSPost2010PropOp37
 70
     1
102
RTVSPost2010Prop38
140
0.0
102
RTVSPost2010PropOp38
 70
     1
102
RTVSPost2010Prop39
140
1.0
102
RTVSPost2010PropOp39
 70
     1
102
RTVSPost2010Prop40
 90
        0
102
RTVSPost2010PropOp40
 70
     1
102
RTVSPost2010Prop41ColorIndex
 90
       18
102
RTVSPost2010Prop41ColorRGB
 90
        0
102
RTVSPost2010PropOp41
 70
     1
102
RTVSPost2010Prop42
 90
       50
102
RTVSPost2010PropOp42
 70
     1
102
RTVSPost2010Prop43
 90
        3
102
RTVSPost2010PropOp43
 70
     1
102
RTVSPost2010Prop44ColorIndex
 90
        5
102
RTVSPost2010Prop44ColorRGB
 90
      255
102
RTVSPost2010PropOp44
 70
     1
102
RTVSPost2010Prop45
280
     0
102
RTVSPost2010PropOp45
 70
     1
102
RTVSPost2010Prop46
 90
       50
102
RTVSPost2010PropOp46
 70
     1
102
RTVSPost2010Prop47
 90
       50
102
RTVSPost2010PropOp47
 70
     1
102
RTVSPost2010Prop48
 90
       50
102
RTVSPost2010PropOp48
 70
     1
102
RTVSPost2010Prop49
280
     0
102
RTVSPost2010PropOp49
 70
     1
102
RTVSPost2010Prop50
 90
       50
102
RTVSPost2010PropOp50
 70
     1
102
RTVSPost2010Prop51ColorIndex
 90
      256
102
RTVSPost2010Prop51ColorRGB
 90
-16777216
102
RTVSPost2010PropOp51
 70
     0
102
RTVSPost2010Prop52
140
1.0
102
RTVSPost2010PropOp52
 70
     0
102
RTVSPost2010Prop53
 90
        2
102
RTVSPost2010PropOp53
 70
     1
102
RTVSPost2010Prop54
  1
strokes_ogs.tif
102
RTVSPost2010PropOp54
 70
     1
102
RTVSPost2010Prop55
280
     0
102
RTVSPost2010PropOp55
 70
     1
102
RTVSPost2010Prop56
140
1.0
102
RTVSPost2010PropOp56
 70
     1
102
RTVSPost2010Prop57
140
1.0
102
RTVSPost2010PropOp57
 70
     1
  0
XRECORD
  5
FB
102
{ACAD_REACTORS
330
FA
102
}
330
FA
100
AcDbXrecord
280
     1
102
RTVSPropertyOp0
 70
     1
102
RTVSPropertyOp1
 70
     1
102
RTVSPropertyOp2
 70
     1
102
RTVSPropertyOp3
 70
     1
102
RTVSPropertyOp4
 70
     1
102
RTVSPropertyOp5
 70
     1
102
RTVSPropertyOp6
 70
     1
102
RTVSPropertyOp7
 70
     1
102
RTVSPropertyOp8
 70
     1
102
RTVSPropertyOp9
 70
     1
102
RTVSPropertyOp10
 70
     1
102
RTVSPropertyOp11
 70
     1
102
RTVSPropertyOp12
 70
     1
102
RTVSPropertyOp13
 70
     1
102
RTVSPropertyOp14
 70
     1
102
RTVSPropertyOp15
 70
     1
102
RTVSPropertyOp16
 70
     1
102
RTVSPropertyOp17
 70
     1
102
RTVSPropertyOp18
 70
     1
102
RTVSPropertyOp19
 70
     1
102
RTVSPropertyOp20
 70
     1
102
RTVSPropertyOp21
 70
     1
102
RTVSPropertyOp22
 70
     1
102
RTVSPropertyOp23
 70
     1
102
RTVSPropertyOp24
 70
     1
102
RTVSPropertyOp25
 70
     1
102
RTVSPropertyOp26
 70
     1
102
RTVSPropertyOp27
 70
     1
102
RTVSPropertyOp28
 70
     1
102
RTVSPropertyOp29
 70
     1
102
RTVSPropertyOp30
 70
     1
102
RTVSPropertyOp31
 70
     1
102
RTVSPropertyOp32
 70
     1
102
RTVSPropertyOp33
 70
     1
102
RTVSPropertyOp34
 70
     1
102
RTVSPropertyOp35
 70
     1
102
RTVSPropertyOp36
 70
     1
102
RTVSPropertyOp37
 70
     1
102
RTVSPropertyOp38
 70
     1
102
RTVSPropertyOp39
 70
     1
102
RTVSPropertyOp40
 70
     1
102
RTVSPropertyOp41
 70
     1
102
RTVSPropertyOp42
 70
     1
102
RTVSPropertyOp43
 70
     1
102
RTVSPropertyOp44
 70
     1
102
RTVSPropertyOp45
 70
     1
102
RTVSPropertyOp46
 70
     1
102
RTVSPropertyOp47
 70
     1
102
RTVSPropertyOp48
 70
     1
102
RTVSPropertyOp49
 70
     1
102
RTVSPropertyOp50
 70
     1
102
RTVSPropertyOp51
 70
     0
102
RTVSPropertyOp52
 70
     0
102
RTVSPropertyOp53
 70
     1
102
RTVSPropertyOp54
 70
     1
102
RTVSPropertyOp55
 70
     1
102
RTVSPropertyOp56
 70
     1
102
RTVSPropertyOp57
 70
     1
102
RTVSPost2010Prop28
280
     0
102
RTVSPost2010PropOp28
 70
     1
102
RTVSPost2010Prop29
280
     1
102
RTVSPost2010PropOp29
 70
     1
102
RTVSPost2010Prop30
280
     1
102
RTVSPost2010PropOp30
 70
     1
102
RTVSPost2010Prop31
280
     0
102
RTVSPost2010PropOp31
 70
     1
102
RTVSPost2010Prop32
280
     0
102
RTVSPost2010PropOp32
 70
     1
102
RTVSPost2010Prop33
280
     0
102
RTVSPost2010PropOp33
 70
     1
102
RTVSPost2010Prop34
280
     0
102
RTVSPost2010PropOp34
 70
     1
102
RTVSPost2010Prop35
280
     0
102
RTVSPost2010PropOp35
 70
     1
102
RTVSPost2010Prop36
280
     0
102
RTVSPost2010PropOp36
 70
     1
102
RTVSPost2010Prop37
 90
       50
102
RTVSPost2010PropOp37
 70
     1
102
RTVSPost2010Prop38
140
0.0
102
RTVSPost2010PropOp38
 70
     1
102
RTVSPost2010Prop39
140
1.0
102
RTVSPost2010PropOp39
 70
     1
102
RTVSPost2010Prop40
 90
        0
102
RTVSPost2010PropOp40
 70
     1
102
RTVSPost2010Prop41ColorIndex
 90
       18
102
RTVSPost2010Prop41ColorRGB
 90
        0
102
RTVSPost2010PropOp41
 70
     1
102
RTVSPost2010Prop42
 90
       50
102
RTVSPost2010PropOp42
 70
     1
102
RTVSPost2010Prop43
 90
        3
102
RTVSPost2010PropOp43
 70
     1
102
RTVSPost2010Prop44ColorIndex
 90
        5
102
RTVSPost2010Prop44ColorRGB
 90
      255
102
RTVSPost2010PropOp44
 70
     1
102
RTVSPost2010Prop45
280
     0
102
RTVSPost2010PropOp45
 70
     1
102
RTVSPost2010Prop46
 90
       50
102
RTVSPost2010PropOp46
 70
     1
102
RTVSPost2010Prop47
 90
       50
102
RTVSPost2010PropOp47
 70
     1
102
RTVSPost2010Prop48
 90
       50
102
RTVSPost2010PropOp48
 70
     1
102
RTVSPost2010Prop49
280
     0
102
RTVSPost2010PropOp49
 70
     1
102
RTVSPost2010Prop50
 90
       50
102
RTVSPost2010PropOp50
 70
     1
102
RTVSPost2010Prop51ColorIndex
 90
      256
102
RTVSPost2010Prop51ColorRGB
 90
-16777216
102
RTVSPost2010PropOp51
 70
     0
102
RTVSPost2010Prop52
140
1.0
102
RTVSPost2010PropOp52
 70
     0
102
RTVSPost2010Prop53
 90
        2
102
RTVSPost2010PropOp53
 70
     1
102
RTVSPost2010Prop54
  1
strokes_ogs.tif
102
RTVSPost2010PropOp54
 70
     1
102
RTVSPost2010Prop55
280
     0
102
RTVSPost2010PropOp55
 70
     1
102
RTVSPost2010Prop56
140
1.0
102
RTVSPost2010PropOp56
 70
     1
102
RTVSPost2010Prop57
140
1.0
102
RTVSPost2010PropOp57
 70
     1
  0
ENDSEC
  0
EOF
