  0
SECTION
  2
HEADER
  9
$ACADVER
  1
AC1018
  9
$ACADMAINTVER
 70
     0
  9
$DWGCODEPAGE
  3
ANSI_1252
  9
$INSBASE
 10
0.0
 20
0.0
 30
0.0
  9
$EXTMIN
 10
-11.50356293150633
 20
-0.0000000000000017
 30
0.0
  9
$EXTMAX
 10
47.9505607703143
 20
75.4088374195329
 30
0.0
  9
$LIMMIN
 10
0.0
 20
0.0
  9
$LIMMAX
 10
12.0
 20
9.0
  9
$ORTHOMODE
 70
     0
  9
$REGENMODE
 70
     1
  9
$FILLMODE
 70
     1
  9
$QTEXTMODE
 70
     0
  9
$MIRRTEXT
 70
     1
  9
$LTSCALE
 40
0.0393700787401575
  9
$ATTMODE
 70
     1
  9
$TEXTSIZE
 40
0.2
  9
$TRACEWID
 40
0.05
  9
$TEXTSTYLE
  7
Standard
  9
$CLAYER
  8
0
  9
$CELTYPE
  6
ByLayer
  9
$CECOLOR
 62
   256
  9
$CELTSCALE
 40
1.0
  9
$DISPSILH
 70
     0
  9
$DIMSCALE
 40
1.0
  9
$DIMASZ
 40
0.18
  9
$DIMEXO
 40
0.0625
  9
$DIMDLI
 40
0.38
  9
$DIMRND
 40
0.0
  9
$DIMDLE
 40
0.0
  9
$DIMEXE
 40
0.18
  9
$DIMTP
 40
0.0
  9
$DIMTM
 40
0.0
  9
$DIMTXT
 40
0.18
  9
$DIMCEN
 40
0.09
  9
$DIMTSZ
 40
0.0
  9
$DIMTOL
 70
     0
  9
$DIMLIM
 70
     0
  9
$DIMTIH
 70
     1
  9
$DIMTOH
 70
     1
  9
$DIMSE1
 70
     0
  9
$DIMSE2
 70
     0
  9
$DIMTAD
 70
     0
  9
$DIMZIN
 70
     0
  9
$DIMBLK
  1

  9
$DIMASO
 70
     1
  9
$DIMSHO
 70
     1
  9
$DIMPOST
  1

  9
$DIMAPOST
  1

  9
$DIMALT
 70
     0
  9
$DIMALTD
 70
     2
  9
$DIMALTF
 40
25.4
  9
$DIMLFAC
 40
1.0
  9
$DIMTOFL
 70
     0
  9
$DIMTVP
 40
0.0
  9
$DIMTIX
 70
     0
  9
$DIMSOXD
 70
     0
  9
$DIMSAH
 70
     0
  9
$DIMBLK1
  1

  9
$DIMBLK2
  1

  9
$DIMSTYLE
  2
Standard
  9
$DIMCLRD
 70
     0
  9
$DIMCLRE
 70
     0
  9
$DIMCLRT
 70
     0
  9
$DIMTFAC
 40
1.0
  9
$DIMGAP
 40
0.09
  9
$DIMJUST
 70
     0
  9
$DIMSD1
 70
     0
  9
$DIMSD2
 70
     0
  9
$DIMTOLJ
 70
     1
  9
$DIMTZIN
 70
     0
  9
$DIMALTZ
 70
     0
  9
$DIMALTTZ
 70
     0
  9
$DIMUPT
 70
     0
  9
$DIMDEC
 70
     4
  9
$DIMTDEC
 70
     4
  9
$DIMALTU
 70
     2
  9
$DIMALTTD
 70
     2
  9
$DIMTXSTY
  7
Standard
  9
$DIMAUNIT
 70
     0
  9
$DIMADEC
 70
     0
  9
$DIMALTRND
 40
0.0
  9
$DIMAZIN
 70
     0
  9
$DIMDSEP
 70
    46
  9
$DIMATFIT
 70
     3
  9
$DIMFRAC
 70
     0
  9
$DIMLDRBLK
  1

  9
$DIMLUNIT
 70
     2
  9
$DIMLWD
 70
    -2
  9
$DIMLWE
 70
    -2
  9
$DIMTMOVE
 70
     2
  9
$LUNITS
 70
     2
  9
$LUPREC
 70
     3
  9
$SKETCHINC
 40
0.1
  9
$FILLETRAD
 40
0.5
  9
$AUNITS
 70
     0
  9
$AUPREC
 70
     0
  9
$MENU
  1
.
  9
$ELEVATION
 40
0.0
  9
$PELEVATION
 40
0.0
  9
$THICKNESS
 40
0.0
  9
$LIMCHECK
 70
     0
  9
$CHAMFERA
 40
0.5
  9
$CHAMFERB
 40
0.5
  9
$CHAMFERC
 40
1.0
  9
$CHAMFERD
 40
0.0
  9
$SKPOLY
 70
     0
  9
$TDCREATE
 40
2456750.474784016
  9
$TDUCREATE
 40
2456750.641450683
  9
$TDUPDATE
 40
2456750.474784028
  9
$TDUUPDATE
 40
2456750.641450694
  9
$TDINDWG
 40
0.0000000116
  9
$TDUSRTIMER
 40
0.0000000116
  9
$USRTIMER
 70
     1
  9
$ANGBASE
 50
0.0
  9
$ANGDIR
 70
     0
  9
$PDMODE
 70
     0
  9
$PDSIZE
 40
0.0
  9
$PLINEWID
 40
0.0
  9
$SPLFRAME
 70
     0
  9
$SPLINETYPE
 70
     6
  9
$SPLINESEGS
 70
     8
  9
$HANDSEED
  5
20E
  9
$SURFTAB1
 70
     6
  9
$SURFTAB2
 70
     6
  9
$SURFTYPE
 70
     6
  9
$SURFU
 70
     6
  9
$SURFV
 70
     6
  9
$UCSBASE
  2

  9
$UCSNAME
  2

  9
$UCSORG
 10
0.0
 20
0.0
 30
0.0
  9
$UCSXDIR
 10
1.0
 20
0.0
 30
0.0
  9
$UCSYDIR
 10
0.0
 20
1.0
 30
0.0
  9
$UCSORTHOREF
  2

  9
$UCSORTHOVIEW
 70
     0
  9
$UCSORGTOP
 10
0.0
 20
0.0
 30
0.0
  9
$UCSORGBOTTOM
 10
0.0
 20
0.0
 30
0.0
  9
$UCSORGLEFT
 10
0.0
 20
0.0
 30
0.0
  9
$UCSORGRIGHT
 10
0.0
 20
0.0
 30
0.0
  9
$UCSORGFRONT
 10
0.0
 20
0.0
 30
0.0
  9
$UCSORGBACK
 10
0.0
 20
0.0
 30
0.0
  9
$PUCSBASE
  2

  9
$PUCSNAME
  2

  9
$PUCSORG
 10
0.0
 20
0.0
 30
0.0
  9
$PUCSXDIR
 10
1.0
 20
0.0
 30
0.0
  9
$PUCSYDIR
 10
0.0
 20
1.0
 30
0.0
  9
$PUCSORTHOREF
  2

  9
$PUCSORTHOVIEW
 70
     0
  9
$PUCSORGTOP
 10
0.0
 20
0.0
 30
0.0
  9
$PUCSORGBOTTOM
 10
0.0
 20
0.0
 30
0.0
  9
$PUCSORGLEFT
 10
0.0
 20
0.0
 30
0.0
  9
$PUCSORGRIGHT
 10
0.0
 20
0.0
 30
0.0
  9
$PUCSORGFRONT
 10
0.0
 20
0.0
 30
0.0
  9
$PUCSORGBACK
 10
0.0
 20
0.0
 30
0.0
  9
$USERI1
 70
     0
  9
$USERI2
 70
     0
  9
$USERI3
 70
     0
  9
$USERI4
 70
     0
  9
$USERI5
 70
     0
  9
$USERR1
 40
0.0
  9
$USERR2
 40
0.0
  9
$USERR3
 40
0.0
  9
$USERR4
 40
0.0
  9
$USERR5
 40
0.0
  9
$WORLDVIEW
 70
     1
  9
$SHADEDGE
 70
     3
  9
$SHADEDIF
 70
    70
  9
$TILEMODE
 70
     1
  9
$MAXACTVP
 70
    64
  9
$PINSBASE
 10
0.0
 20
0.0
 30
0.0
  9
$PLIMCHECK
 70
     0
  9
$PEXTMIN
 10
1.000000000000000E+20
 20
1.000000000000000E+20
 30
1.000000000000000E+20
  9
$PEXTMAX
 10
-1.000000000000000E+20
 20
-1.000000000000000E+20
 30
-1.000000000000000E+20
  9
$PLIMMIN
 10
0.0
 20
0.0
  9
$PLIMMAX
 10
12.0
 20
9.0
  9
$UNITMODE
 70
     0
  9
$VISRETAIN
 70
     1
  9
$PLINEGEN
 70
     0
  9
$PSLTSCALE
 70
     1
  9
$TREEDEPTH
 70
  3020
  9
$CMLSTYLE
  2
Standard
  9
$CMLJUST
 70
     0
  9
$CMLSCALE
 40
1.0
  9
$PROXYGRAPHICS
 70
     1
  9
$MEASUREMENT
 70
     0
  9
$CELWEIGHT
370
    -1
  9
$ENDCAPS
280
     0
  9
$JOINSTYLE
280
     0
  9
$LWDISPLAY
290
     0
  9
$INSUNITS
 70
     1
  9
$HYPERLINKBASE
  1

  9
$STYLESHEET
  1

  9
$XEDIT
290
     1
  9
$CEPSNTYPE
380
     0
  9
$PSTYLEMODE
290
     1
  9
$FINGERPRINTGUID
  2
{84F7E9A5-DF50-4624-94B2-E606EF08CF8F}
  9
$VERSIONGUID
  2
{FAEB1C32-E019-11D5-929B-00C0DF256EC4}
  9
$EXTNAMES
290
     1
  9
$PSVPSCALE
 40
0.0
  9
$OLESTARTUP
290
     0
  9
$SORTENTS
280
   127
  9
$INDEXCTL
280
     0
  9
$HIDETEXT
280
     1
  9
$XCLIPFRAME
290
     0
  9
$HALOGAP
280
     0
  9
$OBSCOLOR
 70
   257
  9
$OBSLTYPE
280
     0
  9
$INTERSECTIONDISPLAY
280
     0
  9
$INTERSECTIONCOLOR
 70
   257
  9
$DIMASSOC
280
     2
  9
$PROJECTNAME
  1

  0
ENDSEC
  0
SECTION
  2
CLASSES
  0
CLASS
  1
ACDBDICTIONARYWDFLT
  2
AcDbDictionaryWithDefault
  3
ObjectDBX Classes
 90
        0
 91
        4
280
     0
281
     0
  0
CLASS
  1
VISUALSTYLE
  2
AcDbVisualStyle
  3
ObjectDBX Classes
 90
     4095
 91
        4
280
     0
281
     0
  0
ENDSEC
  0
SECTION
  2
TABLES
  0
TABLE
  2
VPORT
  5
8
330
0
100
AcDbSymbolTable
 70
     1
  0
VPORT
  5
29
330
8
100
AcDbSymbolTableRecord
100
AcDbViewportTableRecord
  2
*Active
 70
     0
 10
0.0
 20
0.0
 11
1.0
 21
1.0
 12
18.22349891940399
 22
37.70441870976645
 13
0.0
 23
0.0
 14
0.5
 24
0.5
 15
0.5
 25
0.5
 16
0.0
 26
0.0
 36
1.0
 17
0.0
 27
0.0
 37
0.0
 40
76.91701416792355
 41
0.7884238205536958
 42
50.0
 43
0.0
 44
0.0
 50
0.0
 51
0.0
 71
     0
 72
   100
 73
     1
 74
     3
 75
     0
 76
     0
 77
     0
 78
     0
281
     0
 65
     1
110
0.0
120
0.0
130
0.0
111
1.0
121
0.0
131
0.0
112
0.0
122
1.0
132
0.0
 79
     0
146
0.0
  0
ENDTAB
  0
TABLE
  2
LTYPE
  5
5
330
0
100
AcDbSymbolTable
 70
     1
  0
LTYPE
  5
14
330
5
100
AcDbSymbolTableRecord
100
AcDbLinetypeTableRecord
  2
ByBlock
 70
     0
  3

 72
    65
 73
     0
 40
0.0
  0
LTYPE
  5
15
330
5
100
AcDbSymbolTableRecord
100
AcDbLinetypeTableRecord
  2
ByLayer
 70
     0
  3

 72
    65
 73
     0
 40
0.0
  0
LTYPE
  5
16
330
5
100
AcDbSymbolTableRecord
100
AcDbLinetypeTableRecord
  2
Continuous
 70
     0
  3
Solid line
 72
    65
 73
     0
 40
0.0
  0
ENDTAB
  0
TABLE
  2
LAYER
  5
2
330
0
100
AcDbSymbolTable
 70
     5
  0
LAYER
  5
10
330
2
100
AcDbSymbolTableRecord
100
AcDbLayerTableRecord
  2
0
 70
     0
 62
     7
  6
Continuous
370
    -3
390
F
  0
LAYER
  5
3B
330
2
100
AcDbSymbolTableRecord
100
AcDbLayerTableRecord
  2
2D SEAT & WISHBONE
 70
     0
 62
     7
  6
Continuous
370
    -3
390
F
  0
LAYER
  5
CC
330
2
100
AcDbSymbolTableRecord
100
AcDbLayerTableRecord
  2
2D jury base
 70
     0
 62
     7
  6
Continuous
370
    -3
390
F
  0
LAYER
  5
ED
330
2
100
AcDbSymbolTableRecord
100
AcDbLayerTableRecord
  2
2D capped arms
 70
     0
 62
     7
  6
Continuous
370
    -3
390
F
  0
LAYER
  5
203
330
2
100
AcDbSymbolTableRecord
100
AcDbLayerTableRecord
  2
Make2D visible lines - Tangent
 70
     0
 62
     7
  6
Continuous
370
    -3
390
F
  0
ENDTAB
  0
TABLE
  2
STYLE
  5
3
330
0
100
AcDbSymbolTable
 70
     1
  0
STYLE
  5
11
330
3
100
AcDbSymbolTableRecord
100
AcDbTextStyleTableRecord
  2
Standard
 70
     0
 40
0.0
 41
1.0
 50
0.0
 71
     0
 42
0.2
  3
txt
  4

  0
ENDTAB
  0
TABLE
  2
VIEW
  5
6
330
0
100
AcDbSymbolTable
 70
     0
  0
ENDTAB
  0
TABLE
  2
UCS
  5
7
330
0
100
AcDbSymbolTable
 70
     0
  0
ENDTAB
  0
TABLE
  2
APPID
  5
9
330
0
100
AcDbSymbolTable
 70
     1
  0
APPID
  5
12
330
9
100
AcDbSymbolTableRecord
100
AcDbRegAppTableRecord
  2
ACAD
 70
     0
  0
ENDTAB
  0
TABLE
  2
DIMSTYLE
  5
A
330
0
100
AcDbSymbolTable
 70
     1
100
AcDbDimStyleTable
  0
DIMSTYLE
105
27
330
A
100
AcDbSymbolTableRecord
100
AcDbDimStyleTableRecord
  2
Standard
 70
     0
340
11
  0
ENDTAB
  0
TABLE
  2
BLOCK_RECORD
  5
1
330
0
100
AcDbSymbolTable
 70
     1
  0
BLOCK_RECORD
  5
1F
330
1
100
AcDbSymbolTableRecord
100
AcDbBlockTableRecord
  2
*Model_Space
340
22
  0
BLOCK_RECORD
  5
1B
330
1
100
AcDbSymbolTableRecord
100
AcDbBlockTableRecord
  2
*Paper_Space
340
1E
  0
BLOCK_RECORD
  5
23
330
1
100
AcDbSymbolTableRecord
100
AcDbBlockTableRecord
  2
*Paper_Space0
340
26
  0
ENDTAB
  0
ENDSEC
  0
SECTION
  2
BLOCKS
  0
BLOCK
  5
20
330
1F
100
AcDbEntity
  8
0
100
AcDbBlockBegin
  2
*Model_Space
 70
     0
 10
0.0
 20
0.0
 30
0.0
  3
*Model_Space
  1

  0
ENDBLK
  5
21
330
1F
100
AcDbEntity
  8
0
100
AcDbBlockEnd
  0
BLOCK
  5
1C
330
1B
100
AcDbEntity
 67
     1
  8
0
100
AcDbBlockBegin
  2
*Paper_Space
 70
     0
 10
0.0
 20
0.0
 30
0.0
  3
*Paper_Space
  1

  0
ENDBLK
  5
1D
330
1B
100
AcDbEntity
 67
     1
  8
0
100
AcDbBlockEnd
  0
BLOCK
  5
24
330
23
100
AcDbEntity
  8
0
100
AcDbBlockBegin
  2
*Paper_Space0
 70
     0
 10
0.0
 20
0.0
 30
0.0
  3
*Paper_Space0
  1

  0
ENDBLK
  5
25
330
23
100
AcDbEntity
  8
0
100
AcDbBlockEnd
  0
ENDSEC
  0
SECTION
  2
ENTITIES
  0
SPLINE
  5
3C
330
1F
100
AcDbEntity
  8
2D SEAT & WISHBONE
100
AcDbSpline
210
0.0
220
0.0
230
1.0
 70
     8
 71
     2
 72
    13
 73
    10
 74
     0
 42
0.0000000001
 43
0.0000000001
 40
0.0
 40
0.0
 40
0.0
 40
1.0
 40
2.0
 40
3.0
 40
4.0
 40
5.0
 40
6.0
 40
7.0
 40
8.0
 40
8.0
 40
8.0
 10
10.19768541503932
 20
17.70406111927264
 30
0.0
 10
10.18947207582328
 20
17.57258188740087
 30
0.0
 10
10.17307846287665
 20
17.30962181815777
 30
0.0
 10
10.156583176711
 20
17.04666555818994
 30
0.0
 10
10.14074949942508
 20
16.78368272953237
 30
0.0
 10
10.12113217411939
 20
16.52085023262666
 30
0.0
 10
10.07826911173949
 20
16.26079734441238
 30
0.0
 10
10.00159047124827
 20
16.00706456090303
 30
0.0
 10
9.815336817028609
 20
15.77892736065318
 30
0.0
 10
9.695709443825962
 20
15.71572812088699
 30
0.0
  0
SPLINE
  5
3D
330
1F
100
AcDbEntity
  8
2D SEAT & WISHBONE
100
AcDbSpline
210
0.0
220
0.0
230
1.0
 70
     8
 71
     2
 72
    18
 73
    15
 74
     0
 42
0.0000000001
 43
0.0000000001
 40
-13.0
 40
-13.0
 40
-13.0
 40
-12.0
 40
-11.0
 40
-10.0
 40
-9.0
 40
-8.0
 40
-7.0
 40
-6.0
 40
-5.0
 40
-4.0
 40
-3.0
 40
-2.0
 40
-1.0
 40
0.0
 40
0.0
 40
0.0
 10
9.695709443825962
 20
15.71572812088699
 30
0.0
 10
9.362102211699558
 20
15.53948314545669
 30
0.0
 10
8.636020768408954
 20
15.33429617622023
 30
0.0
 10
7.895888428888995
 20
15.19687558034073
 30
0.0
 10
7.145726147457616
 20
15.13442853277704
 30
0.0
 10
6.394443180968011
 20
15.09331512634108
 30
0.0
 10
5.642690414035656
 20
15.06130050937205
 30
0.0
 10
4.890566443975572
 20
15.03990085279441
 30
0.0
 10
4.138267707079926
 20
15.026140883906
 30
0.0
 10
3.385880701438261
 20
15.01876464326445
 30
0.0
 10
2.63346447287649
 20
15.01608892020917
 30
0.0
 10
1.881044379254462
 20
15.01651771005793
 30
0.0
 10
1.128627238563489
 20
15.0184466080611
 30
0.0
 10
0.3762098939824199
 20
15.02027868260876
 30
0.0
 10
0.0
 20
15.02034564591049
 30
0.0
  0
SPLINE
  5
3E
330
1F
100
AcDbEntity
  8
2D SEAT & WISHBONE
100
AcDbSpline
210
0.0
220
0.0
230
1.0
 70
     8
 71
     2
 72
    18
 73
    15
 74
     0
 42
0.0000000001
 43
0.0000000001
 40
0.0
 40
0.0
 40
0.0
 40
1.0
 40
2.0
 40
3.0
 40
4.0
 40
5.0
 40
6.0
 40
7.0
 40
8.0
 40
9.0
 40
10.0
 40
11.0
 40
12.0
 40
13.0
 40
13.0
 40
13.0
 10
0.0
 20
15.02034564591049
 30
0.0
 10
-0.3762098939824199
 20
15.02027868260876
 30
0.0
 10
-1.128627238563489
 20
15.0184466080611
 30
0.0
 10
-1.881044379254462
 20
15.01651771005793
 30
0.0
 10
-2.63346447287649
 20
15.01608892020917
 30
0.0
 10
-3.385880701438261
 20
15.01876464326445
 30
0.0
 10
-4.138267707079926
 20
15.026140883906
 30
0.0
 10
-4.890566443975572
 20
15.03990085279441
 30
0.0
 10
-5.642690414035656
 20
15.06130050937205
 30
0.0
 10
-6.394443180968011
 20
15.09331512634108
 30
0.0
 10
-7.145726147457616
 20
15.13442853277704
 30
0.0
 10
-7.895888428888995
 20
15.19687558034073
 30
0.0
 10
-8.636020768408954
 20
15.33429617622023
 30
0.0
 10
-9.362102211699558
 20
15.53948314545669
 30
0.0
 10
-9.695709443825962
 20
15.71572812088699
 30
0.0
  0
SPLINE
  5
3F
330
1F
100
AcDbEntity
  8
2D SEAT & WISHBONE
100
AcDbSpline
210
0.0
220
0.0
230
1.0
 70
     8
 71
     2
 72
    13
 73
    10
 74
     0
 42
0.0000000001
 43
0.0000000001
 40
-8.0
 40
-8.0
 40
-8.0
 40
-7.0
 40
-6.0
 40
-5.0
 40
-4.0
 40
-3.0
 40
-2.0
 40
-1.0
 40
0.0
 40
0.0
 40
0.0
 10
-9.695709443825962
 20
15.71572812088699
 30
0.0
 10
-9.815336817028609
 20
15.77892736065318
 30
0.0
 10
-10.00159047124827
 20
16.00706456090303
 30
0.0
 10
-10.07826911173949
 20
16.26079734441238
 30
0.0
 10
-10.12113217411939
 20
16.52085023262666
 30
0.0
 10
-10.14074949942508
 20
16.78368272953237
 30
0.0
 10
-10.156583176711
 20
17.04666555818994
 30
0.0
 10
-10.17307846287665
 20
17.30962181815777
 30
0.0
 10
-10.18947207582328
 20
17.57258188740087
 30
0.0
 10
-10.19768541503932
 20
17.70406111927264
 30
0.0
  0
SPLINE
  5
40
330
1F
100
AcDbEntity
  8
2D SEAT & WISHBONE
100
AcDbSpline
210
0.0
220
0.0
230
1.0
 70
    12
 71
     2
 72
     6
 73
     3
 74
     0
 42
0.0000000001
 43
0.0000000001
 40
-2.368192032391631
 40
-2.368192032391631
 40
-2.368192032391631
 40
0.0
 40
0.0
 40
0.0
 10
-10.11818151710298
 20
17.79604028891105
 30
0.0
 41
1.0
 10
-8.934087740455784
 20
17.79356167291619
 30
0.0
 41
0.9999995507432407
 10
-7.749995639061581
 20
17.78882803241358
 30
0.0
 41
1.0
  0
SPLINE
  5
41
330
1F
100
AcDbEntity
  8
2D SEAT & WISHBONE
100
AcDbSpline
210
0.0
220
0.0
230
1.0
 70
    12
 71
     2
 72
     6
 73
     3
 74
     0
 42
0.0000000001
 43
0.0000000001
 40
-7.750035457345537
 40
-7.750035457345537
 40
-7.750035457345537
 40
0.0
 40
0.0
 40
0.0
 10
-7.749995639061581
 20
17.78882803241358
 30
0.0
 41
1.0
 10
-3.875027230331846
 20
17.76652420525994
 30
0.0
 41
0.9999962613668913
 10
0.0
 20
17.76542269539641
 30
0.0
 41
1.0
  0
SPLINE
  5
42
330
1F
100
AcDbEntity
  8
2D SEAT & WISHBONE
100
AcDbSpline
210
0.0
220
0.0
230
1.0
 70
    12
 71
     2
 72
     6
 73
     3
 74
     0
 42
0.0000000001
 43
0.0000000001
 40
0.0
 40
0.0
 40
0.0
 40
7.750035457345537
 40
7.750035457345537
 40
7.750035457345537
 10
0.0
 20
17.76542269539641
 30
0.0
 41
1.0
 10
3.875027230331843
 20
17.76652420525994
 30
0.0
 41
0.9999962613668913
 10
7.749995639061581
 20
17.78882803241358
 30
0.0
 41
1.0
  0
SPLINE
  5
43
330
1F
100
AcDbEntity
  8
2D SEAT & WISHBONE
100
AcDbSpline
210
0.0
220
0.0
230
1.0
 70
    12
 71
     2
 72
     6
 73
     3
 74
     0
 42
0.0000000001
 43
0.0000000001
 40
0.0
 40
0.0
 40
0.0
 40
2.368192032391631
 40
2.368192032391631
 40
2.368192032391631
 10
7.749995639061581
 20
17.78882803241358
 30
0.0
 41
1.0
 10
8.93408774045578
 20
17.79356167291619
 30
0.0
 41
0.9999995507432407
 10
10.11818151710298
 20
17.79604028891105
 30
0.0
 41
1.0
  0
SPLINE
  5
44
330
1F
100
AcDbEntity
  8
2D SEAT & WISHBONE
100
AcDbSpline
210
0.0
220
0.0
230
1.0
 70
     8
 71
     3
 72
     8
 73
     4
 74
     0
 42
0.0000000001
 43
0.0000000001
 40
0.0
 40
0.0
 40
0.0
 40
0.0
 40
1.0
 40
1.0
 40
1.0
 40
1.0
 10
10.11818151710298
 20
17.79604028891105
 30
0.0
 10
10.15870719163723
 20
17.7961251196796
 30
0.0
 10
10.20021208240998
 20
17.74450804059817
 30
0.0
 10
10.19768541503932
 20
17.70406111927264
 30
0.0
  0
SPLINE
  5
45
330
1F
100
AcDbEntity
  8
2D SEAT & WISHBONE
100
AcDbSpline
210
0.0
220
0.0
230
1.0
 70
     8
 71
     3
 72
     8
 73
     4
 74
     0
 42
0.0000000001
 43
0.0000000001
 40
-1.0
 40
-1.0
 40
-1.0
 40
-1.0
 40
0.0
 40
0.0
 40
0.0
 40
0.0
 10
-10.19768541503932
 20
17.70406111927264
 30
0.0
 10
-10.20021208240998
 20
17.74450804059817
 30
0.0
 10
-10.15870719163723
 20
17.7961251196796
 30
0.0
 10
-10.11818151710298
 20
17.79604028891105
 30
0.0
  0
LINE
  5
46
330
1F
100
AcDbEntity
  8
2D SEAT & WISHBONE
100
AcDbLine
 10
33.70922201769924
 20
12.66205283434556
 30
0.0
 11
33.52517587652714
 21
12.75231915127672
 31
0.0
  0
SPLINE
  5
47
330
1F
100
AcDbEntity
  8
2D SEAT & WISHBONE
100
AcDbSpline
210
0.0
220
0.0
230
1.0
 70
    12
 71
     2
 72
     6
 73
     3
 74
     0
 42
0.0000000001
 43
0.0000000001
 40
0.0
 40
0.0
 40
0.0
 40
0.6507937955218512
 40
0.6507937955218512
 40
0.6507937955218512
 10
28.30220991954279
 20
15.35459568384129
 30
0.0
 41
1.0
 10
27.98328786682855
 20
15.28989134181343
 30
0.0
 41
0.9998952772430454
 10
27.66637198811475
 20
15.21598428258516
 30
0.0
 41
1.0
  0
SPLINE
  5
48
330
1F
100
AcDbEntity
  8
2D SEAT & WISHBONE
100
AcDbSpline
210
0.0
220
0.0
230
1.0
 70
    12
 71
     2
 72
     6
 73
     3
 74
     0
 42
0.0000000001
 43
0.0000000001
 40
0.0
 40
0.0
 40
0.0
 40
0.0338601055579185
 40
0.0338601055579185
 40
0.0338601055579185
 10
28.3092809374144
 20
15.38770923775011
 30
0.0
 41
1.0
 10
28.30574667920651
 20
15.37115219371716
 30
0.0
 41
0.9999999971467219
 10
28.30220991954279
 20
15.35459568384129
 30
0.0
 41
1.0
  0
ARC
  5
49
330
1F
100
AcDbEntity
  8
2D SEAT & WISHBONE
100
AcDbCircle
 10
27.71609598730596
 20
19.72068549887261
 30
0.0
 40
4.37345727848227
100
AcDbArc
 50
274.3251132562723
 51
280.8503789372069
  0
SPLINE
  5
4A
330
1F
100
AcDbEntity
  8
2D SEAT & WISHBONE
100
AcDbSpline
210
0.0
220
0.0
230
1.0
 70
    12
 71
     2
 72
     6
 73
     3
 74
     0
 42
0.0000000001
 43
0.0000000001
 40
0.0
 40
0.0
 40
0.0
 40
0.0683225080108007
 40
0.0683225080108007
 40
0.0683225080108007
 10
28.53498144482995
 20
15.40468281512192
 30
0.0
 41
1.0
 10
28.54206935948219
 20
15.43810066660725
 30
0.0
 41
0.9999999635012696
 10
28.54913921540199
 20
15.47152234324512
 30
0.0
 41
1.0
  0
SPLINE
  5
4B
330
1F
100
AcDbEntity
  8
2D SEAT & WISHBONE
100
AcDbSpline
210
0.0
220
0.0
230
1.0
 70
     8
 71
     3
 72
    14
 73
    10
 74
     0
 42
0.0000000001
 43
0.0000000001
 40
0.0
 40
0.0
 40
0.0
 40
0.0
 40
1.0
 40
2.0
 40
3.0
 40
4.0
 40
5.0
 40
6.0
 40
7.0
 40
7.0
 40
7.0
 40
7.0
 10
29.23817728083745
 20
15.58075183502409
 30
0.0
 10
29.20522773768624
 20
15.57042005390727
 30
0.0
 10
29.13898012097955
 20
15.5508955022999
 30
0.0
 10
29.0390480808999
 20
15.52359291447934
 30
0.0
 10
28.93888700553353
 20
15.49714969201125
 30
0.0
 10
28.83815548266024
 20
15.47295319717056
 30
0.0
 10
28.73731670018334
 20
15.44923520828824
 30
0.0
 10
28.63625529567516
 20
15.42647321629583
 30
0.0
 10
28.56876035632821
 20
15.41184816598432
 30
0.0
 10
28.53498144482995
 20
15.40468281512192
 30
0.0
  0
SPLINE
  5
4C
330
1F
100
AcDbEntity
  8
2D SEAT & WISHBONE
100
AcDbSpline
210
0.0
220
0.0
230
1.0
 70
     8
 71
     3
 72
    12
 73
     8
 74
     0
 42
0.0000000001
 43
0.0000000001
 40
0.0
 40
0.0
 40
0.0
 40
0.0
 40
0.1693245796659945
 40
0.3228146590128647
 40
0.6179776245970131
 40
0.8556878131679443
 40
0.9926236370015206
 40
0.9926236370015206
 40
0.9926236370015206
 40
0.9926236370015206
 10
29.72877057702465
 20
16.41864432463985
 30
0.0
 10
29.71164425181112
 20
16.36484406045676
 30
0.0
 10
29.6768158127679
 20
16.26305394290774
 30
0.0
 10
29.60116112864955
 20
16.07132710989454
 30
0.0
 10
29.50224311243693
 20
15.86476470914948
 30
0.0
 10
29.3782256853206
 20
15.67793234958021
 30
0.0
 10
29.28295045490781
 20
15.59430127401463
 30
0.0
 10
29.23817728083745
 20
15.58075183502409
 30
0.0
  0
SPLINE
  5
4D
330
1F
100
AcDbEntity
  8
2D SEAT & WISHBONE
100
AcDbSpline
210
0.0
220
0.0
230
1.0
 70
    24
 71
     2
 72
     6
 73
     3
 74
     0
 42
0.0000000001
 43
0.0000000001
 40
0.0
 40
0.0
 40
0.0
 40
1.266725327321706
 40
1.266725327321706
 40
1.266725327321706
 10
30.11396970475961
 20
17.6253815316864
 30
0.0
 10
29.92137014089213
 20
17.02201292816313
 30
0.0
 10
29.72877057702465
 20
16.41864432463985
 30
0.0
  0
SPLINE
  5
4E
330
1F
100
AcDbEntity
  8
2D SEAT & WISHBONE
100
AcDbSpline
210
0.0
220
0.0
230
1.0
 70
     8
 71
     3
 72
    10
 73
     6
 74
     0
 42
0.0000000001
 43
0.0000000001
 40
0.0
 40
0.0
 40
0.0
 40
0.0
 40
0.0089242210583067
 40
0.0343247094377102
 40
0.0871624794657592
 40
0.0871624794657592
 40
0.0871624794657592
 40
0.0871624794657592
 10
30.10136322071867
 20
17.704649592779
 30
0.0
 10
30.10512739039714
 20
17.70581463515078
 30
0.0
 10
30.11309361935274
 20
17.6972301275616
 30
0.0
 10
30.12119560483774
 20
17.66872901259375
 30
0.0
 10
30.11922855406854
 20
17.64226806664877
 30
0.0
 10
30.11396970475961
 20
17.6253815316864
 30
0.0
  0
SPLINE
  5
4F
330
1F
100
AcDbEntity
  8
2D SEAT & WISHBONE
100
AcDbSpline
210
0.0
220
0.0
230
1.0
 70
     8
 71
     3
 72
    14
 73
    10
 74
     0
 42
0.0000000001
 43
0.0000000001
 40
0.0
 40
0.0
 40
0.0
 40
0.0
 40
1.0
 40
2.0
 40
3.0
 40
4.0
 40
5.0
 40
6.0
 40
7.0
 40
7.0
 40
7.0
 40
7.0
 10
27.70483063213314
 20
15.19982127333814
 30
0.0
 10
28.32721623815793
 20
15.19013529778892
 30
0.0
 10
29.56801748499166
 20
15.0790014617338
 30
0.0
 10
31.43362676242953
 20
14.99409080840837
 30
0.0
 10
33.30024854805821
 20
14.93489557340177
 30
0.0
 10
35.1677577656575
 20
14.92405839985985
 30
0.0
 10
37.03520118646387
 20
14.92635941386456
 30
0.0
 10
38.90266242790365
 20
14.92509752955737
 30
0.0
 10
40.14763278330356
 20
14.92499854385822
 30
0.0
 10
40.77011894599002
 20
14.92480059684968
 30
0.0
  0
SPLINE
  5
50
330
1F
100
AcDbEntity
  8
2D SEAT & WISHBONE
100
AcDbSpline
210
0.0
220
0.0
230
1.0
 70
    12
 71
     2
 72
     6
 73
     3
 74
     0
 42
0.0000000001
 43
0.0000000001
 40
0.0
 40
0.0
 40
0.0
 40
0.3199464223860296
 40
0.3199464223860296
 40
0.3199464223860296
 10
29.7835311019377
 20
17.67067860722596
 30
0.0
 41
1.0
 10
29.94116206870781
 20
17.69968741059268
 30
0.0
 41
0.9971501437526084
 10
30.10136322071867
 20
17.704649592779
 30
0.0
 41
1.0
  0
SPLINE
  5
51
330
1F
100
AcDbEntity
  8
2D SEAT & WISHBONE
100
AcDbSpline
210
0.0
220
0.0
230
1.0
 70
     8
 71
     3
 72
    14
 73
    10
 74
     0
 42
0.0000000001
 43
0.0000000001
 40
0.0
 40
0.0
 40
0.0
 40
0.0
 40
1.0
 40
2.0
 40
3.0
 40
4.0
 40
5.0
 40
6.0
 40
7.0
 40
7.0
 40
7.0
 40
7.0
 10
47.9505607703143
 20
16.02689276591895
 30
0.0
 10
47.95135550122728
 20
15.95685204418201
 30
0.0
 10
47.9490361233008
 20
15.81673943766534
 30
0.0
 10
47.92794580994281
 20
15.60727084215224
 30
0.0
 10
47.87882177948347
 20
15.40263251343748
 30
0.0
 10
47.7889330283582
 20
15.20956894728369
 30
0.0
 10
47.62916514861082
 20
15.06591354817849
 30
0.0
 10
47.42264630196833
 20
15.00683129951773
 30
0.0
 10
47.28045093599061
 20
15.0172637596786
 30
0.0
 10
47.21491710530762
 20
15.0436307281334
 30
0.0
  0
SPLINE
  5
52
330
1F
100
AcDbEntity
  8
2D SEAT & WISHBONE
100
AcDbSpline
210
0.0
220
0.0
230
1.0
 70
    12
 71
     3
 72
    11
 73
     7
 74
     0
 42
0.0000000001
 43
0.0000000001
 40
-0.4999999999998321
 40
-0.4999999999998321
 40
-0.4999999999998321
 40
-0.4999999999998321
 40
-0.3749999999999275
 40
-0.2499999999999018
 40
-0.1249999999998762
 40
0.0
 40
0.0
 40
0.0
 40
0.0
 10
45.72294095861599
 20
17.64282566692429
 30
0.0
 41
1.0
 10
46.00256828356703
 20
17.60354619402284
 30
0.0
 41
1.0
 10
46.5388982862779
 20
17.50174610823542
 30
0.0
 41
1.0
 10
47.23797345462998
 20
17.24276729718323
 30
0.0
 41
1.0
 10
47.77239295945172
 20
16.81715038694728
 30
0.0
 41
1.0
 10
47.94690193871605
 20
16.34781699320225
 30
0.0
 41
1.0
 10
47.9505607703143
 20
16.02689276591895
 30
0.0
 41
1.0
  0
ARC
  5
53
330
1F
100
AcDbEntity
  8
2D SEAT & WISHBONE
100
AcDbCircle
 10
48.94402144275003
 20
20.32377105357296
 30
0.0
 40
5.556049285787077
100
AcDbArc
 50
246.9199493284665
 51
251.8677664571852
  0
SPLINE
  5
54
330
1F
100
AcDbEntity
  8
2D SEAT & WISHBONE
100
AcDbSpline
210
0.0
220
0.0
230
1.0
 70
     8
 71
     3
 72
    18
 73
    14
 74
     0
 42
0.0000000001
 43
0.0000000001
 40
0.0
 40
0.0
 40
0.0
 40
0.0
 40
1.0
 40
2.0
 40
3.0
 40
4.0
 40
5.0
 40
6.0
 40
7.0
 40
8.0
 40
9.0
 40
10.0
 40
11.0
 40
11.0
 40
11.0
 40
11.0
 10
29.15795075338747
 20
15.55660401324199
 30
0.0
 10
29.69337917550412
 20
15.55158279345225
 30
0.0
 10
30.76413469930534
 20
15.56885839529068
 30
0.0
 10
32.37029630092941
 20
15.58515533559919
 30
0.0
 10
33.97644935560255
 20
15.60404050813019
 30
0.0
 10
35.58260515456125
 20
15.62218917852512
 30
0.0
 10
37.18876113630461
 20
15.64069565506375
 30
0.0
 10
38.79491235032336
 20
15.65850739441462
 30
0.0
 10
40.40108279674013
 20
15.67874028030213
 30
0.0
 10
42.00718052606437
 20
15.68998591601579
 30
0.0
 10
43.61355027160019
 20
15.7347613595074
 30
0.0
 10
45.21890645675516
 20
15.65437937634542
 30
0.0
 10
46.27260069297323
 20
15.42266994754595
 30
0.0
 10
46.765956625348
 20
15.21243880871834
 30
0.0
  0
SPLINE
  5
55
330
1F
100
AcDbEntity
  8
2D SEAT & WISHBONE
100
AcDbSpline
210
0.0
220
0.0
230
1.0
 70
     8
 71
     3
 72
    14
 73
    10
 74
     0
 42
0.0000000001
 43
0.0000000001
 40
-7.0
 40
-7.0
 40
-7.0
 40
-7.0
 40
-6.0
 40
-5.0
 40
-4.0
 40
-3.0
 40
-2.0
 40
-1.0
 40
0.0
 40
0.0
 40
0.0
 40
0.0
 10
45.00364807961554
 20
17.72014129225368
 30
0.0
 10
44.2963874178263
 20
17.78429044903529
 30
0.0
 10
42.8762852137705
 20
17.80529277657177
 30
0.0
 10
40.74735491340785
 20
17.77929097475668
 30
0.0
 10
38.61809876377528
 20
17.76669852162249
 30
0.0
 10
36.48893009116898
 20
17.75055120628246
 30
0.0
 10
34.35973749706635
 20
17.73538082896644
 30
0.0
 10
32.2305515984345
 20
17.71996916864732
 30
0.0
 10
30.81109223173125
 20
17.70976126823758
 30
0.0
 10
30.10136322071864
 20
17.70464959277888
 30
0.0
  0
SPLINE
  5
56
330
1F
100
AcDbEntity
  8
2D SEAT & WISHBONE
100
AcDbSpline
210
0.0
220
0.0
230
1.0
 70
    12
 71
     2
 72
     6
 73
     3
 74
     0
 42
0.0000000001
 43
0.0000000001
 40
0.0
 40
0.0
 40
0.0
 40
0.8571435018575718
 40
0.8571435018575718
 40
0.8571435018575718
 10
46.15678682635263
 20
17.55315916088118
 30
0.0
 41
1.0
 10
45.73998201742582
 20
17.65692938925381
 30
0.0
 41
0.997130337852066
 10
45.00364807961554
 20
17.72014129225368
 30
0.0
 41
1.0
  0
SPLINE
  5
57
330
1F
100
AcDbEntity
  8
2D SEAT & WISHBONE
100
AcDbSpline
210
0.0
220
0.0
230
1.0
 70
    12
 71
     3
 72
    12
 73
     8
 74
     0
 42
0.0000000001
 43
0.0000000001
 40
-1.0
 40
-1.0
 40
-1.0
 40
-1.0
 40
-0.75
 40
-0.75
 40
-0.5
 40
-0.5
 40
-0.3904321599967359
 40
-0.3904321599967359
 40
-0.3904321599967359
 40
-0.3904321599967359
 10
47.41540152766844
 20
16.70977008128045
 30
0.0
 41
1.0
 10
47.33020937192366
 20
16.91667468868994
 30
0.0
 41
1.0
 10
47.19388140509261
 20
17.06992255787844
 30
0.0
 41
1.0
 10
46.85975762573509
 20
17.31142740056629
 30
0.0
 41
1.0
 10
46.66269560668599
 20
17.40043595746734
 30
0.0
 41
1.0
 10
46.3542204915817
 20
17.50171969731016
 30
0.0
 41
1.0
 10
46.25700963747563
 20
17.52914868956233
 30
0.0
 41
1.0
 10
46.15678682635263
 20
17.55315916088118
 30
0.0
 41
1.0
  0
SPLINE
  5
58
330
1F
100
AcDbEntity
  8
2D SEAT & WISHBONE
100
AcDbSpline
210
0.0
220
0.0
230
1.0
 70
     8
 71
     3
 72
    14
 73
    10
 74
     0
 42
0.0000000001
 43
0.0000000001
 40
-0.0000000000000001
 40
-0.0000000000000001
 40
-0.0000000000000001
 40
-0.0000000000000001
 40
0.9999999999999998
 40
2.0
 40
3.0
 40
4.0
 40
4.999999999999999
 40
5.999999999999999
 40
6.999999999999999
 40
6.999999999999999
 40
6.999999999999999
 40
6.999999999999999
 10
46.92854892524305
 20
15.18790593582219
 30
0.0
 10
47.01519924350795
 20
15.18733137243274
 30
0.0
 10
47.19496856894868
 20
15.22449723939477
 30
0.0
 10
47.37728248709944
 20
15.42590140309084
 30
0.0
 10
47.46473039472274
 20
15.67553418872455
 30
0.0
 10
47.50294214333995
 20
15.93520913752729
 30
0.0
 10
47.51377166558413
 20
16.19741441387116
 30
0.0
 10
47.49515914864983
 20
16.45943329208103
 30
0.0
 10
47.44878384549521
 20
16.62901506571486
 30
0.0
 10
47.41540152766844
 20
16.70977008128045
 30
0.0
  0
ARC
  5
59
330
1F
100
AcDbEntity
  8
2D SEAT & WISHBONE
100
AcDbCircle
 10
46.93244290591427
 20
15.7751599632675
 30
0.0
 40
0.5872669374621858
100
AcDbArc
 50
253.8761713401878
 51
269.6200870870968
  0
SPLINE
  5
5A
330
1F
100
AcDbEntity
  8
2D SEAT & WISHBONE
100
AcDbSpline
210
0.0
220
0.0
230
1.0
 70
     8
 71
     3
 72
    15
 73
    11
 74
     0
 42
0.0000000001
 43
0.0000000001
 40
0.0
 40
0.0
 40
0.0
 40
0.0
 40
1.0
 40
2.0
 40
3.0
 40
4.0
 40
5.0
 40
6.0
 40
7.0
 40
7.493002866437419
 40
7.493002866437419
 40
7.493002866437419
 40
7.493002866437419
 10
42.98079653796212
 20
14.96860335203024
 30
0.0
 10
43.17458519293861
 20
14.97852729400008
 30
0.0
 10
43.5620679361847
 20
15.0001310522981
 30
0.0
 10
44.14325101779438
 20
15.03326332094565
 30
0.0
 10
44.72467168709075
 20
15.06209756903423
 30
0.0
 10
45.30648871595166
 20
15.08189291264877
 30
0.0
 10
45.88863868453173
 20
15.08792944073556
 30
0.0
 10
46.47072590455642
 20
15.07534960827889
 30
0.0
 10
46.95365028774147
 20
15.04517032965492
 30
0.0
 10
47.24195045057471
 20
15.016274215955
 30
0.0
 10
47.33715929930885
 20
15.01715145464157
 30
0.0
  0
SPLINE
  5
5B
330
1F
100
AcDbEntity
  8
2D SEAT & WISHBONE
100
AcDbSpline
210
0.0
220
0.0
230
1.0
 70
     8
 71
     3
 72
     8
 73
     4
 74
     0
 42
0.0000000001
 43
0.0000000001
 40
0.0
 40
0.0
 40
0.0
 40
0.0
 40
1.0
 40
1.0
 40
1.0
 40
1.0
 10
42.90658192444917
 20
14.88674684546717
 30
0.0
 10
42.95268282577082
 20
14.9105128553882
 30
0.0
 10
42.99228037086712
 20
14.97155292954813
 30
0.0
 10
42.98260609631245
 20
15.02250903558142
 30
0.0
  0
SPLINE
  5
5C
330
1F
100
AcDbEntity
  8
2D SEAT & WISHBONE
100
AcDbSpline
210
0.0
220
0.0
230
1.0
 70
    12
 71
     3
 72
    12
 73
     8
 74
     0
 42
0.0000000001
 43
0.0000000001
 40
0.0
 40
0.0
 40
0.0
 40
0.0
 40
0.3023941545116698
 40
0.3023941545116698
 40
0.5189717390803334
 40
0.5189717390803334
 40
0.5394434577951862
 40
0.5394434577951862
 40
0.5394434577951862
 40
0.5394434577951862
 10
42.82674427299088
 20
15.06311312099148
 30
0.0
 41
1.0
 10
42.85282554702336
 20
15.06295831033963
 30
0.0
 41
1.0
 10
42.89821723937131
 20
15.06116822155117
 30
0.0
 41
1.0
 10
42.95728811178331
 20
15.04558228439705
 30
0.0
 41
1.0
 10
42.97570856152836
 20
15.03536200861871
 30
0.0
 41
1.0
 10
42.98238837662655
 20
15.02112900776441
 30
0.0
 41
1.0
 10
42.98285435681049
 20
15.01987621073821
 30
0.0
 41
1.0
 10
42.98328752439471
 20
15.01862338864443
 30
0.0
 41
1.0
  0
SPLINE
  5
5D
330
1F
100
AcDbEntity
  8
2D SEAT & WISHBONE
100
AcDbSpline
210
0.0
220
0.0
230
1.0
 70
    12
 71
     2
 72
    10
 73
     7
 74
     0
 42
0.0000000001
 43
0.0000000001
 40
0.0
 40
0.0
 40
0.0
 40
0.1800293119344438
 40
0.1800293119344438
 40
0.3589362672071544
 40
0.3589362672071544
 40
0.5367224863957822
 40
0.5367224863957822
 40
0.5367224863957822
 10
42.29002192269279
 20
15.06303696801698
 30
0.0
 41
1.0
 10
42.38003653265847
 20
15.06294126825019
 30
0.0
 41
0.9999999188390115
 10
42.47005119051482
 20
15.06291810084258
 30
0.0
 41
1.0
 10
42.55950467001122
 20
15.06289504565718
 30
0.0
 41
0.9999999189896606
 10
42.64895813908126
 20
15.06294400372959
 30
0.0
 41
1.0
 10
42.73785124022326
 20
15.06299262274842
 30
0.0
 41
0.9999999182701049
 10
42.82674427299088
 20
15.06311312099148
 30
0.0
 41
1.0
  0
SPLINE
  5
5E
330
1F
100
AcDbEntity
  8
2D SEAT & WISHBONE
100
AcDbSpline
210
0.0
220
0.0
230
1.0
 70
    12
 71
     2
 72
     6
 73
     3
 74
     0
 42
0.0000000001
 43
0.0000000001
 40
0.0
 40
0.0
 40
0.0
 40
0.6381112656837131
 40
0.6381112656837131
 40
0.6381112656837131
 10
41.67100258192629
 20
14.92238895253138
 30
0.0
 41
1.0
 10
41.96731742449103
 20
15.05188431534939
 30
0.0
 41
0.982249583780618
 10
42.29002192269279
 20
15.06303696801698
 30
0.0
 41
1.0
  0
SPLINE
  5
5F
330
1F
100
AcDbEntity
  8
2D SEAT & WISHBONE
100
AcDbSpline
210
0.0
220
0.0
230
1.0
 70
     8
 71
     2
 72
    11
 73
     8
 74
     0
 42
0.0000000001
 43
0.0000000001
 40
0.0
 40
0.0
 40
0.0
 40
1.0
 40
2.0
 40
3.0
 40
4.0
 40
5.0
 40
6.0
 40
6.0
 40
6.0
 10
36.11462636161357
 20
12.17657235555756
 30
0.0
 10
36.58502287430679
 20
12.3898118277776
 30
0.0
 10
37.51329397963001
 20
12.84313947118578
 30
0.0
 10
38.42935584872012
 20
13.3205314062712
 30
0.0
 10
39.35328574867518
 20
13.78246511534445
 30
0.0
 10
40.28002998687288
 20
14.23869824969412
 30
0.0
 10
41.20751021748447
 20
14.69343324633052
 30
0.0
 10
41.67100258192629
 20
14.92238895253138
 30
0.0
  0
SPLINE
  5
60
330
1F
100
AcDbEntity
  8
2D SEAT & WISHBONE
100
AcDbSpline
210
0.0
220
0.0
230
1.0
 70
    12
 71
     2
 72
   102
 73
    99
 74
     0
 42
0.0000000001
 43
0.0000000001
 40
0.0
 40
0.0
 40
0.0
 40
0.0933351830226139
 40
0.0933351830226139
 40
0.1939711206841363
 40
0.1939711206841363
 40
0.2847065029894014
 40
0.2847065029894014
 40
0.3667430087822864
 40
0.3667430087822864
 40
0.4431800229206312
 40
0.4431800229206312
 40
0.5194013920464431
 40
0.5194013920464431
 40
0.6012353772974584
 40
0.6012353772974584
 40
0.6904605495300046
 40
0.6904605495300046
 40
0.7830969336759221
 40
0.7830969336759221
 40
0.872847587174429
 40
0.872847587174429
 40
0.9550537306345233
 40
0.9550537306345233
 40
1.028676250081603
 40
1.028676250081603
 40
1.094843889484695
 40
1.094843889484695
 40
1.154832135376147
 40
1.154832135376147
 40
1.209489883143524
 40
1.209489883143524
 40
1.259204360847046
 40
1.259204360847046
 40
1.304024463866833
 40
1.304024463866833
 40
1.344243534224346
 40
1.344243534224346
 40
1.380884602823216
 40
1.380884602823216
 40
1.415483007750777
 40
1.415483007750777
 40
1.449435144395946
 40
1.449435144395946
 40
1.483437119884856
 40
1.483437119884856
 40
1.517348802335681
 40
1.517348802335681
 40
1.550549043538512
 40
1.550549043538512
 40
1.582700602911135
 40
1.582700602911135
 40
1.614243481555567
 40
1.614243481555567
 40
1.646330602547831
 40
1.646330602547831
 40
1.680464346225045
 40
1.680464346225045
 40
1.718131584493278
 40
1.718131584493278
 40
1.759304354175828
 40
1.759304354175828
 40
1.801396952195233
 40
1.801396952195233
 40
1.84181640916083
 40
1.84181640916083
 40
1.880116937464281
 40
1.880116937464281
 40
1.917159169118948
 40
1.917159169118948
 40
1.954458510826637
 40
1.954458510826637
 40
1.99420740600048
 40
1.99420740600048
 40
2.038638105558231
 40
2.038638105558231
 40
2.088543045575526
 40
2.088543045575526
 40
2.143496980453198
 40
2.143496980453198
 40
2.20355386073793
 40
2.20355386073793
 40
2.267576960040648
 40
2.267576960040648
 40
2.331341361601939
 40
2.331341361601939
 40
2.390794943137434
 40
2.390794943137434
 40
2.444329955005614
 40
2.444329955005614
 40
2.491804458650944
 40
2.491804458650944
 40
2.533625319057933
 40
2.533625319057933
 40
2.570625269080765
 40
2.570625269080765
 40
2.606499719970548
 40
2.606499719970548
 40
2.644761876763658
 40
2.644761876763658
 40
2.644761876763658
 10
33.52926869593443
 20
12.12736341083614
 30
0.0
 41
1.0
 10
33.5735396768501
 20
12.11259627539732
 30
0.0
 41
0.9999573196645634
 10
33.61807595497405
 20
12.09864966393902
 30
0.0
 41
1.0
 10
33.66609542709422
 20
12.08360913037392
 30
0.0
 41
0.9999439101925117
 10
33.71442270682414
 20
12.06958909519107
 30
0.0
 41
1.0
 10
33.75799699418669
 20
12.05695406973778
 30
0.0
 41
0.9999508151258677
 10
33.80181332578532
 20
12.04518582974201
 30
0.0
 41
1.0
 10
33.84142795004824
 20
12.03454281453908
 30
0.0
 41
0.9999575843931744
 10
33.88123189550622
 20
12.02463129830386
 30
0.0
 41
1.0
 10
33.91831847282321
 20
12.01539426102728
 30
0.0
 41
0.9999574911901401
 10
33.95556907540194
 20
12.00684267156915
 30
0.0
 41
1.0
 10
33.9927160790218
 20
11.9983214087049
 30
0.0
 41
0.9999548087939242
 10
34.03001838149063
 20
11.9905079568904
 30
0.0
 41
1.0
 10
34.07006693943976
 20
11.98211563326244
 30
0.0
 41
0.9999472302904482
 10
34.11027946551101
 20
11.9745478834879
 30
0.0
 41
1.0
 10
34.15412429283398
 20
11.96629607512931
 30
0.0
 41
0.9999327852069422
 10
34.19814866555231
 20
11.95906310679493
 30
0.0
 41
1.0
 10
34.24385669259145
 20
11.95155514058029
 30
0.0
 41
0.9999236658197845
 10
34.28973628153867
 20
11.94517888693671
 30
0.0
 41
1.0
 10
34.3341864048808
 20
11.93899951796538
 30
0.0
 41
0.9999243610211629
 10
34.37877507213867
 20
11.93391534466141
 30
0.0
 41
1.0
 10
34.41961515765582
 20
11.92925602222268
 30
0.0
 41
0.9999292598972663
 10
34.46055451869597
 20
11.92556948071903
 30
0.0
 41
1.0
 10
34.49721938993525
 20
11.92227311875017
 30
0.0
 41
0.9999391539623624
 10
34.53394805932741
 20
11.9197864281973
 30
0.0
 41
1.0
 10
34.56695747534579
 20
11.91755328881078
 30
0.0
 41
0.9999524957125815
 10
34.60000415043825
 20
11.91596403655641
 30
0.0
 41
1.0
 10
34.62996434830202
 20
11.91452232064042
 30
0.0
 41
0.9999628292870184
 10
34.65994495190009
 20
11.91359743755892
 30
0.0
 41
1.0
 10
34.68726137259382
 20
11.91275464250303
 30
0.0
 41
0.9999700809179024
 10
34.71458756262443
 20
11.91233454556784
 30
0.0
 41
1.0
 10
34.73944226176903
 20
11.91195215579036
 30
0.0
 41
0.999975762924432
 10
34.7642998758144
 20
11.91191588623435
 30
0.0
 41
1.0
 10
34.78671019242618
 20
11.9118833396348
 30
0.0
 41
0.999980674056881
 10
34.80911918133148
 20
11.91212944157023
 30
0.0
 41
1.0
 10
34.82922770277511
 20
11.9123504584491
 30
0.0
 41
0.9999850185882634
 10
34.84933259963887
 20
11.91279159924845
 30
0.0
 41
1.0
 10
34.86764887388031
 20
11.91319335267995
 30
0.0
 41
0.9999880881843305
 10
34.88596035359157
 20
11.91377388578836
 30
0.0
 41
1.0
 10
34.90325099120744
 20
11.91432194732416
 30
0.0
 41
0.9999896879664619
 10
34.92053593778107
 20
11.9150270306926
 30
0.0
 41
1.0
 10
34.93749802639803
 20
11.91571860738283
 30
0.0
 41
0.9999900251565701
 10
34.95445326045412
 20
11.91656167717343
 30
0.0
 41
1.0
 10
34.97143335325342
 20
11.91740656389214
 30
0.0
 41
0.9999901377248477
 10
34.98840527162167
 20
11.91840224051764
 30
0.0
 41
1.0
 10
35.00533210002675
 20
11.91939547023006
 30
0.0
 41
0.999990938937504
 10
35.02224985865467
 20
11.92053277763068
 30
0.0
 41
1.0
 10
35.0388127090071
 20
11.92164587096865
 30
0.0
 41
0.999991876940235
 10
35.05536604831495
 20
11.92289244480795
 30
0.0
 41
1.0
 10
35.07139641502916
 20
11.9241008588732
 30
0.0
 41
0.9999935311372087
 10
35.08741767392084
 20
11.9254245601502
 30
0.0
 41
1.0
 10
35.10313569472895
 20
11.92672217826729
 30
0.0
 41
0.999994896456773
 10
35.11884510332175
 20
11.92812020278956
 30
0.0
 41
1.0
 10
35.13482566509165
 20
11.92954124462327
 30
0.0
 41
0.9999945192343729
 10
35.15079646695574
 20
11.9310680721161
 30
0.0
 41
1.0
 10
35.16778609944558
 20
11.9326909345194
 30
0.0
 41
0.9999918116128762
 10
35.18476204072846
 20
11.934451250423
 30
0.0
 41
1.0
 10
35.20349527675872
 20
11.93639476341098
 30
0.0
 41
0.9999869643005583
 10
35.22220768909881
 20
11.93852947634613
 30
0.0
 41
1.0
 10
35.24266204146949
 20
11.94085984999251
 30
0.0
 41
0.9999788855072608
 10
35.26308437980231
 20
11.94345586024961
 30
0.0
 41
1.0
 10
35.28396242752058
 20
11.94611473297515
 30
0.0
 41
0.9999732843534985
 10
35.30479937451381
 20
11.94907853470582
 30
0.0
 41
1.0
 10
35.32480807318469
 20
11.95192430950839
 30
0.0
 41
0.9999755205526091
 10
35.34477498975774
 20
11.95504980135667
 30
0.0
 41
1.0
 10
35.36369503085307
 20
11.95801208448306
 30
0.0
 41
0.9999786104433316
 10
35.38257470417027
 20
11.96122160341965
 30
0.0
 41
1.0
 10
35.40083403764768
 20
11.9643259480551
 30
0.0
 41
0.999981452967248
 10
35.41905420343008
 20
11.96765247379782
 30
0.0
 41
1.0
 10
35.43740097247827
 20
11.97100129090046
 30
0.0
 41
0.9999821295965002
 10
35.45570639009705
 20
11.974569230964
 30
0.0
 41
1.0
 10
35.47521407927954
 20
11.97837114288375
 30
0.0
 41
0.9999794851525621
 10
35.49467146308125
 20
11.98242264718212
 30
0.0
 41
1.0
 10
35.51642057970052
 20
11.98695195522727
 30
0.0
 41
0.9999742583968652
 10
35.53810246181162
 20
11.991792894517
 30
0.0
 41
1.0
 10
35.56245607832941
 20
11.99722929353956
 30
0.0
 41
0.9999671016731949
 10
35.58671829890409
 20
12.00306005031839
 30
0.0
 41
1.0
 10
35.61343464034267
 20
12.00948344958933
 30
0.0
 41
0.9999610424373001
 10
35.64003342606429
 20
12.01637747281172
 30
0.0
 41
1.0
 10
35.66910250497214
 20
12.02391060082575
 30
0.0
 41
0.9999566273549962
 10
35.69802622556855
 20
12.03198387482628
 30
0.0
 41
1.0
 10
35.72886103104238
 20
12.04058750508869
 30
0.0
 41
0.9999499628069172
 10
35.75951753929613
 20
12.04980630023711
 30
0.0
 41
1.0
 10
35.79004927137559
 20
12.0589908790329
 30
0.0
 41
0.9999495164615372
 10
35.82039027220057
 20
12.06878714466673
 30
0.0
 41
1.0
 10
35.84867827003556
 20
12.07792581962282
 30
0.0
 41
0.9999625629201657
 10
35.87680388562521
 20
12.08755265446969
 30
0.0
 41
1.0
 10
35.90213007922932
 20
12.09621900937396
 30
0.0
 41
0.9999765367722229
 10
35.92733516534014
 20
12.10523152422525
 30
0.0
 41
1.0
 10
35.9496864541836
 20
12.11322448180438
 30
0.0
 41
0.9999862107340203
 10
35.97195256119191
 20
12.1214517512493
 30
0.0
 41
1.0
 10
35.9915675619363
 20
12.128697603076
 30
0.0
 41
0.9999922271070064
 10
36.01112481527809
 20
12.13609790473352
 30
0.0
 41
1.0
 10
36.02842841869528
 20
12.14264290498745
 30
0.0
 41
0.9999942057535486
 10
36.04568706057421
 20
12.14930556211795
 30
0.0
 41
1.0
 10
36.0624214896424
 20
12.15576359938739
 30
0.0
 41
0.9999922960874301
 10
36.07910470430602
 20
12.16235281103211
 30
0.0
 41
1.0
 10
36.09689616444303
 20
12.1693860631891
 30
0.0
 41
0.9999907191312188
 10
36.11462636161357
 20
12.17657235555756
 30
0.0
 41
1.0
  0
SPLINE
  5
61
330
1F
100
AcDbEntity
  8
2D SEAT & WISHBONE
100
AcDbSpline
210
0.0
220
0.0
230
1.0
 70
    12
 71
     2
 72
     6
 73
     3
 74
     0
 42
0.0000000001
 43
0.0000000001
 40
0.0
 40
0.0
 40
0.0
 40
0.0729156398802028
 40
0.0729156398802028
 40
0.0729156398802028
 10
33.46251230877668
 20
12.15622336933841
 30
0.0
 41
1.0
 10
33.49769520087165
 20
12.14596786431025
 30
0.0
 41
0.9922698250792436
 10
33.52926869593443
 20
12.12736341083614
 30
0.0
 41
1.0
  0
SPLINE
  5
62
330
1F
100
AcDbEntity
  8
2D SEAT & WISHBONE
100
AcDbSpline
210
0.0
220
0.0
230
1.0
 70
    24
 71
     2
 72
     6
 73
     3
 74
     0
 42
0.0000000001
 43
0.0000000001
 40
-0.5626271926147017
 40
-0.5626271926147017
 40
-0.5626271926147017
 40
0.0
 40
0.0
 40
0.0
 10
33.70915183113073
 20
12.66190934292525
 30
0.0
 10
33.5858320699537
 20
12.40906635613183
 30
0.0
 10
33.46251230877668
 20
12.15622336933841
 30
0.0
  0
SPLINE
  5
63
330
1F
100
AcDbEntity
  8
2D SEAT & WISHBONE
100
AcDbSpline
210
0.0
220
0.0
230
1.0
 70
    12
 71
     2
 72
     6
 73
     3
 74
     0
 42
0.0000000001
 43
0.0000000001
 40
-0.1055348260773938
 40
-0.1055348260773938
 40
-0.1055348260773938
 40
0.0
 40
0.0
 40
0.0
 10
33.79802073049692
 20
12.70088177206401
 30
0.0
 41
1.0
 10
33.7370508943008
 20
12.71910122872127
 30
0.0
 41
0.7624776950869869
 10
33.70915183113073
 20
12.66190934292525
 30
0.0
 41
1.0
  0
SPLINE
  5
64
330
1F
100
AcDbEntity
  8
2D SEAT & WISHBONE
100
AcDbSpline
210
0.0
220
0.0
230
1.0
 70
    12
 71
     2
 72
     6
 73
     3
 74
     0
 42
0.0000000001
 43
0.0000000001
 40
-0.2602301514168993
 40
-0.2602301514168993
 40
-0.2602301514168993
 40
0.0
 40
0.0
 40
0.0
 10
34.04938911685478
 20
12.63359789195942
 30
0.0
 41
1.0
 10
33.92262892746051
 20
12.66330132096629
 30
0.0
 41
0.9995767171005313
 10
33.79802073049692
 20
12.70088177206401
 30
0.0
 41
1.0
  0
SPLINE
  5
65
330
1F
100
AcDbEntity
  8
2D SEAT & WISHBONE
100
AcDbSpline
210
0.0
220
0.0
230
1.0
 70
     8
 71
     3
 72
    11
 73
     7
 74
     0
 42
0.0000000001
 43
0.0000000001
 40
0.0
 40
0.0
 40
0.0
 40
0.0
 40
0.2394082475363763
 40
0.4683749390519508
 40
0.9569435828480347
 40
1.984928384227763
 40
1.984928384227763
 40
1.984928384227763
 40
1.984928384227763
 10
35.99719636465663
 20
12.75333840883394
 30
0.0
 10
35.92341674570336
 20
12.72324691030295
 30
0.0
 10
35.7767415238101
 20
12.6685882837521
 30
0.0
 10
35.46926807238822
 20
12.58405305811118
 30
0.0
 10
34.89152704180401
 20
12.4948522527021
 30
0.0
 10
34.38267393896925
 20
12.55789368771758
 30
0.0
 10
34.04938911685478
 20
12.63359789195942
 30
0.0
  0
SPLINE
  5
66
330
1F
100
AcDbEntity
  8
2D SEAT & WISHBONE
100
AcDbSpline
210
0.0
220
0.0
230
1.0
 70
    12
 71
     2
 72
     8
 73
     5
 74
     0
 42
0.0000000001
 43
0.0000000001
 40
-6.743690181710589
 40
-6.743690181710589
 40
-6.743690181710589
 40
-6.179052111949003
 40
-6.179052111949003
 40
0.0
 40
0.0
 40
0.0
 10
42.19398147198157
 20
15.4269472682173
 30
0.0
 41
1.0
 10
41.90849960605357
 20
15.42773570851149
 30
0.0
 41
0.9834585678144311
 10
41.6213234442432
 20
15.31261166404575
 30
0.0
 41
1.0
 10
38.80925990444992
 20
14.03297503643984
 30
0.0
 41
1.0
 10
35.99719636465663
 20
12.75333840883394
 30
0.0
 41
1.0
  0
SPLINE
  5
67
330
1F
100
AcDbEntity
  8
2D SEAT & WISHBONE
100
AcDbSpline
210
0.0
220
0.0
230
1.0
 70
    12
 71
     2
 72
     6
 73
     3
 74
     0
 42
0.0000000001
 43
0.0000000001
 40
0.0
 40
0.0
 40
0.0
 40
0.5267639210453275
 40
0.5267639210453275
 40
0.5267639210453275
 10
42.72374334804915
 20
15.42547289248755
 30
0.0
 41
1.0
 10
42.45736242804072
 20
15.42621986594324
 30
0.0
 41
0.9999999999999954
 10
42.19398147198157
 20
15.4269472682173
 30
0.0
 41
1.0
  0
SPLINE
  5
68
330
1F
100
AcDbEntity
  8
2D SEAT & WISHBONE
100
AcDbSpline
210
0.0
220
0.0
230
1.0
 70
     8
 71
     3
 72
    11
 73
     7
 74
     0
 42
0.0000000001
 43
0.0000000001
 40
0.0
 40
0.0
 40
0.0
 40
0.0
 40
0.0456291807026746
 40
0.095092866401613
 40
0.15455884769835
 40
0.2334015155375486
 40
0.2334015155375486
 40
0.2334015155375486
 40
0.2334015155375486
 10
42.92392943039874
 20
15.33100798202353
 30
0.0
 10
42.9194467776411
 20
15.34868768964525
 30
0.0
 10
42.90389538228592
 20
15.37757039507566
 30
0.0
 10
42.86036292865705
 20
15.40715037098466
 30
0.0
 10
42.7990888595827
 20
15.42247902611358
 30
0.0
 10
42.75306797811686
 20
15.42519442704138
 30
0.0
 10
42.72374334804915
 20
15.42547289248755
 30
0.0
  0
SPLINE
  5
69
330
1F
100
AcDbEntity
  8
2D SEAT & WISHBONE
100
AcDbSpline
210
0.0
220
0.0
230
1.0
 70
    24
 71
     2
 72
     6
 73
     3
 74
     0
 42
0.0000000001
 43
0.0000000001
 40
0.0
 40
0.0
 40
0.0
 40
0.3109280453855756
 40
0.3109280453855756
 40
0.3109280453855756
 10
42.98328752439471
 20
15.01862338864443
 30
0.0
 10
42.95360847739673
 20
15.17481568533398
 30
0.0
 10
42.92392943039874
 20
15.33100798202353
 30
0.0
  0
SPLINE
  5
6A
330
1F
100
AcDbEntity
  8
2D SEAT & WISHBONE
100
AcDbSpline
210
0.0
220
0.0
230
1.0
 70
    24
 71
     2
 72
     6
 73
     3
 74
     0
 42
0.0000000001
 43
0.0000000001
 40
-0.0674175882177268
 40
-0.0674175882177268
 40
-0.0674175882177268
 40
0.0
 40
0.0
 40
0.0
 10
42.39087801475542
 20
15.6325445100662
 30
0.0
 10
42.39048501959018
 20
15.66625101322311
 30
0.0
 10
42.39009202442494
 20
15.69995751638002
 30
0.0
  0
ARC
  5
6B
330
1F
100
AcDbEntity
  8
2D SEAT & WISHBONE
100
AcDbCircle
 10
42.63581755332093
 20
15.63552033372711
 30
0.0
 40
0.2449576148625512
100
AcDbArc
 50
180.6960646255145
 51
205.2057469261392
  0
ARC
  5
6C
330
1F
100
AcDbEntity
  8
2D SEAT & WISHBONE
100
AcDbCircle
 10
42.61329224726582
 20
15.6249179695033
 30
0.0
 40
0.2200618413254457
100
AcDbArc
 50
205.2057469261395
 51
244.6479390101923
  0
LINE
  5
6D
330
1F
100
AcDbEntity
  8
2D SEAT & WISHBONE
100
AcDbLine
 10
42.84869676737739
 20
14.8569057972922
 30
0.0
 11
42.90658192444917
 21
14.88674684546717
 31
0.0
  0
SPLINE
  5
6E
330
1F
100
AcDbEntity
  8
2D SEAT & WISHBONE
100
AcDbSpline
210
0.0
220
0.0
230
1.0
 70
     8
 71
     2
 72
    15
 73
    12
 74
     0
 42
0.0000000001
 43
0.0000000001
 40
4.217080235518739
 40
4.217080235518739
 40
4.217080235518739
 40
5.217080235518739
 40
6.217080235518739
 40
7.217080235518739
 40
8.21708023551874
 40
9.21708023551874
 40
10.21708023551874
 40
11.21708023551874
 40
12.21708023551874
 40
13.21708023551874
 40
14.21708023551874
 40
14.21708023551874
 40
14.21708023551874
 10
36.14490712845264
 20
11.56785199248375
 30
0.0
 10
36.62959376038711
 20
11.71177642251771
 30
0.0
 10
37.30237378416784
 20
12.00534901204479
 30
0.0
 10
37.95343125548351
 20
12.34395327252965
 30
0.0
 10
38.60594292295065
 20
12.67933299848262
 30
0.0
 10
39.25834393235287
 20
13.01499614749122
 30
0.0
 10
39.91125653049194
 20
13.34965139114307
 30
0.0
 10
40.5640935067313
 20
13.68445600665109
 30
0.0
 10
41.21695235945143
 20
14.01921756876393
 30
0.0
 10
41.86983491200499
 20
14.35393314818242
 30
0.0
 10
42.52263328482978
 20
14.68881303253155
 30
0.0
 10
42.84869676737739
 20
14.8569057972922
 30
0.0
  0
SPLINE
  5
6F
330
1F
100
AcDbEntity
  8
2D SEAT & WISHBONE
100
AcDbSpline
210
0.0
220
0.0
230
1.0
 70
    12
 71
     2
 72
     6
 73
     3
 74
     0
 42
0.0000000001
 43
0.0000000001
 40
-0.503549713502026
 40
-0.503549713502026
 40
-0.503549713502026
 40
0.0
 40
0.0
 40
0.0
 10
35.84277539242643
 20
11.19786627275465
 30
0.0
 41
1.0
 10
35.87795666217054
 20
11.47749093321772
 30
0.0
 41
0.8474541879723547
 10
36.14490712845264
 20
11.56785199248375
 30
0.0
 41
1.0
  0
SPLINE
  5
70
330
1F
100
AcDbEntity
  8
2D SEAT & WISHBONE
100
AcDbSpline
210
0.0
220
0.0
230
1.0
 70
    24
 71
     2
 72
     6
 73
     3
 74
     0
 42
0.0000000001
 43
0.0000000001
 40
-0.1859156470225043
 40
-0.1859156470225043
 40
-0.1859156470225043
 40
0.0
 40
0.0
 40
0.0
 10
35.81956541624257
 20
11.01340509848391
 30
0.0
 10
35.8311704043345
 20
11.10563568561928
 30
0.0
 10
35.84277539242643
 20
11.19786627275465
 30
0.0
  0
SPLINE
  5
71
330
1F
100
AcDbEntity
  8
2D SEAT & WISHBONE
100
AcDbSpline
210
0.0
220
0.0
230
1.0
 70
    12
 71
     2
 72
     6
 73
     3
 74
     0
 42
0.0000000001
 43
0.0000000001
 40
-0.1734753961625848
 40
-0.1734753961625848
 40
-0.1734753961625848
 40
0.0
 40
0.0
 40
0.0
 10
35.70050421167946
 20
10.908386072036
 30
0.0
 41
1.0
 10
35.80635131129413
 20
10.90838607198273
 30
0.0
 41
0.7499471465673857
 10
35.81956541624257
 20
11.01340509848391
 30
0.0
 41
1.0
  0
POLYLINE
  5
72
330
1F
100
AcDbEntity
  8
2D SEAT & WISHBONE
100
AcDb2dPolyline
 66
     1
 10
0.0
 20
0.0
 30
0.0
  0
VERTEX
  5
73
330
72
100
AcDbEntity
  8
2D SEAT & WISHBONE
100
AcDbVertex
100
AcDb2dVertex
 10
34.3119334080823
 20
10.908386072036
 30
0.0
  0
VERTEX
  5
74
330
72
100
AcDbEntity
  8
2D SEAT & WISHBONE
100
AcDbVertex
100
AcDb2dVertex
 10
35.70050421167946
 20
10.908386072036
 30
0.0
  0
SEQEND
  5
75
330
72
100
AcDbEntity
  8
2D SEAT & WISHBONE
  0
SPLINE
  5
76
330
1F
100
AcDbEntity
  8
2D SEAT & WISHBONE
100
AcDbSpline
210
0.0
220
0.0
230
1.0
 70
    12
 71
     2
 72
     6
 73
     3
 74
     0
 42
0.0000000001
 43
0.0000000001
 40
-0.1731769833218032
 40
-0.1731769833218032
 40
-0.1731769833218032
 40
0.0
 40
0.0
 40
0.0
 10
34.19290982591006
 20
11.01310906686688
 30
0.0
 41
1.0
 10
34.20635131124239
 20
10.90838607204162
 30
0.0
 41
0.7507690645319871
 10
34.3119334080823
 20
10.908386072036
 30
0.0
 41
1.0
  0
SPLINE
  5
77
330
1F
100
AcDbEntity
  8
2D SEAT & WISHBONE
100
AcDbSpline
210
0.0
220
0.0
230
1.0
 70
    24
 71
     2
 72
     6
 73
     3
 74
     0
 42
0.0000000001
 43
0.0000000001
 40
-0.1723961963319146
 40
-0.1723961963319146
 40
-0.1723961963319146
 40
0.0
 40
0.0
 40
0.0
 10
34.1709623454397
 20
11.18410250712327
 30
0.0
 10
34.18193608567488
 20
11.09860578699508
 30
0.0
 10
34.19290982591006
 20
11.01310906686688
 30
0.0
  0
SPLINE
  5
78
330
1F
100
AcDbEntity
  8
2D SEAT & WISHBONE
100
AcDbSpline
210
0.0
220
0.0
230
1.0
 70
    12
 71
     2
 72
     6
 73
     3
 74
     0
 42
0.0000000001
 43
0.0000000001
 40
0.0
 40
0.0
 40
0.0
 40
0.5301893265109335
 40
0.5301893265109335
 40
0.5301893265109335
 10
33.84245844841224
 20
11.56111215984924
 30
0.0
 41
1.0
 10
34.13267912743959
 20
11.48236902944845
 30
0.0
 41
0.8314414279315625
 10
34.1709623454397
 20
11.18410250712327
 30
0.0
 41
1.0
  0
SPLINE
  5
79
330
1F
100
AcDbEntity
  8
2D SEAT & WISHBONE
100
AcDbSpline
210
0.0
220
0.0
230
1.0
 70
    12
 71
     3
 72
    10
 73
     6
 74
     0
 42
0.0000000001
 43
0.0000000001
 40
0.0
 40
0.0
 40
0.0
 40
0.0
 40
0.5
 40
0.5
 40
1.0
 40
1.0
 40
1.0
 40
1.0
 10
32.6470487412485
 20
12.06552075341815
 30
0.0
 41
1.0
 10
32.83556000314002
 20
11.96701542051549
 30
0.0
 41
1.0
 10
33.02401843685037
 20
11.86406832010093
 30
0.0
 41
1.0
 10
33.41966571871947
 20
11.69273328035402
 30
0.0
 41
1.0
 10
33.62596089819343
 20
11.61987013542686
 30
0.0
 41
1.0
 10
33.84245844841224
 20
11.56111215984924
 30
0.0
 41
1.0
  0
SPLINE
  5
7A
330
1F
100
AcDbEntity
  8
2D SEAT & WISHBONE
100
AcDbSpline
210
0.0
220
0.0
230
1.0
 70
    12
 71
     2
 72
     6
 73
     3
 74
     0
 42
0.0000000001
 43
0.0000000001
 40
0.0
 40
0.0
 40
0.0
 40
0.0898061690698103
 40
0.0898061690698103
 40
0.0898061690698103
 10
32.60806347425824
 20
12.14123107233404
 30
0.0
 41
0.9999999328525018
 10
32.60151737301327
 20
12.09048294139275
 30
0.0
 41
0.8260533388662387
 10
32.6470487412485
 20
12.06552075341815
 30
0.0
 41
1.0
  0
SPLINE
  5
7B
330
1F
100
AcDbEntity
  8
2D SEAT & WISHBONE
100
AcDbSpline
210
0.0
220
0.0
230
1.0
 70
    12
 71
     2
 72
     6
 73
     3
 74
     0
 42
0.0000000001
 43
0.0000000001
 40
-0.0404807022423484
 40
-0.0404807022423484
 40
-0.0404807022423484
 40
0.0
 40
0.0
 40
0.0
 10
32.61324214448197
 20
12.1813791396319
 30
0.0
 41
1.0
 10
32.61065279434445
 20
12.16130510792113
 30
0.0
 41
1.0
 10
32.60806347425824
 20
12.14123107233404
 30
0.0
 41
1.0
  0
LINE
  5
7C
330
1F
100
AcDbEntity
  8
2D SEAT & WISHBONE
100
AcDbLine
 10
41.55162789118557
 20
15.69039391923322
 30
0.0
 11
41.40996438213772
 21
15.21643218814867
 31
0.0
  0
POLYLINE
  5
7D
330
1F
100
AcDbEntity
  8
2D SEAT & WISHBONE
100
AcDb2dPolyline
 66
     1
 10
0.0
 20
0.0
 30
0.0
  0
VERTEX
  5
7E
330
7D
100
AcDbEntity
  8
2D SEAT & WISHBONE
100
AcDbVertex
100
AcDb2dVertex
 10
37.85896999739737
 20
14.88286753468872
 30
0.0
  0
VERTEX
  5
7F
330
7D
100
AcDbEntity
  8
2D SEAT & WISHBONE
100
AcDbVertex
100
AcDb2dVertex
 10
40.66536051552509
 20
14.87706684041804
 30
0.0
  0
SEQEND
  5
80
330
7D
100
AcDbEntity
  8
2D SEAT & WISHBONE
  0
SPLINE
  5
81
330
1F
100
AcDbEntity
  8
2D SEAT & WISHBONE
100
AcDbSpline
210
0.0
220
0.0
230
1.0
 70
    12
 71
     2
 72
     8
 73
     5
 74
     0
 42
0.0000000001
 43
0.0000000001
 40
0.0
 40
0.0
 40
0.0
 40
0.0899716330427267
 40
0.0899716330427267
 40
0.1799432660854534
 40
0.1799432660854534
 40
0.1799432660854534
 10
37.75975335702336
 20
14.76084381306379
 30
0.0
 41
1.0
 10
37.74998665007606
 20
14.80802928132694
 30
0.0
 41
0.9033031893651716
 10
37.78038551996116
 20
14.84541598604287
 30
0.0
 41
1.0
 10
37.81078438984623
 20
14.8828026907588
 30
0.0
 41
0.9033031893651716
 10
37.85896999739737
 20
14.88286753468872
 30
0.0
 41
1.0
  0
SPLINE
  5
82
330
1F
100
AcDbEntity
  8
2D SEAT & WISHBONE
100
AcDbSpline
210
0.0
220
0.0
230
1.0
 70
    24
 71
     2
 72
     6
 73
     3
 74
     0
 42
0.0000000001
 43
0.0000000001
 40
0.0
 40
0.0
 40
0.0
 40
0.4484089199002907
 40
0.4484089199002907
 40
0.4484089199002907
 10
37.84999925795574
 20
14.32161012035449
 30
0.0
 10
37.80487630748955
 20
14.54122696670914
 30
0.0
 10
37.75975335702336
 20
14.76084381306379
 30
0.0
  0
SPLINE
  5
83
330
1F
100
AcDbEntity
  8
2D SEAT & WISHBONE
100
AcDbSpline
210
0.0
220
0.0
230
1.0
 70
    12
 71
     2
 72
     6
 73
     3
 74
     0
 42
0.0000000001
 43
0.0000000001
 40
-0.1296812134731248
 40
-0.1296812134731248
 40
-0.1296812134731248
 40
0.0
 40
0.0
 40
0.0
 10
37.94209533434345
 20
14.24393855358432
 30
0.0
 41
1.0
 10
37.86592280381469
 20
14.24705537747648
 30
0.0
 41
0.7901513580637403
 10
37.84999925795574
 20
14.32161012035449
 30
0.0
 41
1.0
  0
POLYLINE
  5
84
330
1F
100
AcDbEntity
  8
2D SEAT & WISHBONE
100
AcDb2dPolyline
 66
     1
 10
0.0
 20
0.0
 30
0.0
  0
VERTEX
  5
85
330
84
100
AcDbEntity
  8
2D SEAT & WISHBONE
100
AcDbVertex
100
AcDb2dVertex
 10
38.36000750518521
 20
14.24391051598504
 30
0.0
  0
VERTEX
  5
86
330
84
100
AcDbEntity
  8
2D SEAT & WISHBONE
100
AcDbVertex
100
AcDb2dVertex
 10
37.94209533434345
 20
14.24393855358432
 30
0.0
  0
SEQEND
  5
87
330
84
100
AcDbEntity
  8
2D SEAT & WISHBONE
  0
SPLINE
  5
88
330
1F
100
AcDbEntity
  8
2D SEAT & WISHBONE
100
AcDbSpline
210
0.0
220
0.0
230
1.0
 70
     8
 71
     3
 72
     8
 73
     4
 74
     0
 42
0.0000000001
 43
0.0000000001
 40
0.0
 40
0.0
 40
0.0
 40
0.0
 40
1.0
 40
1.0
 40
1.0
 40
1.0
 10
38.5572767444761
 20
14.27274603310556
 30
0.0
 10
38.49292139343619
 20
14.25617249680087
 30
0.0
 10
38.42646270282418
 20
14.24390605752623
 30
0.0
 10
38.36000750518521
 20
14.24391051598504
 30
0.0
  0
POLYLINE
  5
89
330
1F
100
AcDbEntity
  8
2D SEAT & WISHBONE
100
AcDb2dPolyline
 66
     1
 10
0.0
 20
0.0
 30
0.0
  0
VERTEX
  5
8A
330
89
100
AcDbEntity
  8
2D SEAT & WISHBONE
100
AcDbVertex
100
AcDb2dVertex
 10
39.73306514547394
 20
14.57554869730809
 30
0.0
  0
VERTEX
  5
8B
330
89
100
AcDbEntity
  8
2D SEAT & WISHBONE
100
AcDbVertex
100
AcDb2dVertex
 10
38.5572767444761
 20
14.27274603310556
 30
0.0
  0
SEQEND
  5
8C
330
89
100
AcDbEntity
  8
2D SEAT & WISHBONE
  0
SPLINE
  5
8D
330
1F
100
AcDbEntity
  8
2D SEAT & WISHBONE
100
AcDbSpline
210
0.0
220
0.0
230
1.0
 70
     8
 71
     3
 72
     8
 73
     4
 74
     0
 42
0.0000000001
 43
0.0000000001
 40
0.0
 40
0.0
 40
0.0
 40
0.0
 40
1.0
 40
1.0
 40
1.0
 40
1.0
 10
39.86366784439768
 20
14.58684374909265
 30
0.0
 10
39.81997166505489
 20
14.58706444460097
 30
0.0
 10
39.77538115567809
 20
14.58644640697878
 30
0.0
 10
39.73306514547394
 20
14.57554869730809
 30
0.0
  0
SPLINE
  5
8E
330
1F
100
AcDbEntity
  8
2D SEAT & WISHBONE
100
AcDbSpline
210
0.0
220
0.0
230
1.0
 70
    24
 71
     2
 72
     6
 73
     3
 74
     0
 42
0.0000000001
 43
0.0000000001
 40
-0.1630131667630006
 40
-0.1630131667630006
 40
-0.1630131667630006
 40
0.0
 40
0.0
 40
0.0
 10
40.02667893201732
 20
14.58602043191972
 30
0.0
 10
39.9451733882075
 20
14.58643209050619
 30
0.0
 10
39.86366784439768
 20
14.58684374909265
 30
0.0
  0
ARC
  5
8F
330
1F
100
AcDbEntity
  8
2D SEAT & WISHBONE
100
AcDbCircle
 10
-8.726290452566673
 20
14.09089495977841
 30
0.0
 40
0.9378695041135955
100
AcDbArc
 50
14.58111489036043
 51
14.71673090844974
  0
LINE
  5
90
330
1F
100
AcDbEntity
  8
2D SEAT & WISHBONE
100
AcDbLine
 10
-7.802838211745389
 20
14.26630532698202
 30
0.0
 11
-7.818627660155684
 21
14.32700396430591
 31
0.0
  0
SPLINE
  5
91
330
1F
100
AcDbEntity
  8
2D SEAT & WISHBONE
100
AcDbSpline
210
0.0
220
0.0
230
1.0
 70
     8
 71
     3
 72
     8
 73
     4
 74
     0
 42
0.0000000001
 43
0.0000000001
 40
0.0
 40
0.0
 40
0.0
 40
0.0
 40
1.0
 40
1.0
 40
1.0
 40
1.0
 10
-7.785843024157003
 20
14.24573058859339
 30
0.0
 10
-7.794738028275525
 20
14.24581646738948
 30
0.0
 10
-7.800598786708719
 20
14.25769641015461
 30
0.0
 10
-7.802838211745389
 20
14.26630532698202
 30
0.0
  0
LINE
  5
92
330
1F
100
AcDbEntity
  8
2D SEAT & WISHBONE
100
AcDbLine
 10
-7.673065483719313
 20
14.24467766892773
 30
0.0
 11
-7.785843024157003
 21
14.24573058859339
 31
0.0
  0
SPLINE
  5
93
330
1F
100
AcDbEntity
  8
2D SEAT & WISHBONE
100
AcDbSpline
210
0.0
220
0.0
230
1.0
 70
    12
 71
     2
 72
     6
 73
     3
 74
     0
 42
0.0000000001
 43
0.0000000001
 40
-0.0250209661673179
 40
-0.0250209661673179
 40
-0.0250209661673179
 40
0.0
 40
0.0
 40
0.0
 10
-7.650054038176449
 20
14.25345357488953
 30
0.0
 41
1.0
 10
-7.660146375938106
 20
14.24536280276649
 30
0.0
 41
0.9514834584249582
 10
-7.673065483719313
 20
14.24467766892773
 30
0.0
 41
1.0
  0
LINE
  5
94
330
1F
100
AcDbEntity
  8
2D SEAT & WISHBONE
100
AcDbLine
 10
-6.171667125154372
 20
14.82456510279077
 30
0.0
 11
-6.226287814860655
 21
14.63311303844019
 31
0.0
  0
SPLINE
  5
95
330
1F
100
AcDbEntity
  8
2D SEAT & WISHBONE
100
AcDbSpline
210
0.0
220
0.0
230
1.0
 70
     8
 71
     3
 72
     8
 73
     4
 74
     0
 42
0.0000000001
 43
0.0000000001
 40
0.0
 40
0.0
 40
0.0
 40
0.0
 40
1.0
 40
1.0
 40
1.0
 40
1.0
 10
-6.348962394176823
 20
14.87641124040934
 30
0.0
 10
-6.287390109048509
 20
14.87602859749445
 30
0.0
 10
-6.154774438108575
 20
14.88377599567287
 30
0.0
 10
-6.171667125154372
 20
14.82456510279077
 30
0.0
  0
POLYLINE
  5
96
330
1F
100
AcDbEntity
  8
2D SEAT & WISHBONE
100
AcDb2dPolyline
 66
     1
 10
0.0
 20
0.0
 30
0.0
  0
VERTEX
  5
97
330
96
100
AcDbEntity
  8
2D SEAT & WISHBONE
100
AcDbVertex
100
AcDb2dVertex
 10
-6.348962394176823
 20
14.87641124040934
 30
0.0
  0
VERTEX
  5
98
330
96
100
AcDbEntity
  8
2D SEAT & WISHBONE
100
AcDbVertex
100
AcDb2dVertex
 10
-6.833919796810086
 20
14.87641124040934
 30
0.0
  0
SEQEND
  5
99
330
96
100
AcDbEntity
  8
2D SEAT & WISHBONE
  0
SPLINE
  5
9A
330
1F
100
AcDbEntity
  8
2D SEAT & WISHBONE
100
AcDbSpline
210
0.0
220
0.0
230
1.0
 70
    12
 71
     3
 72
    10
 73
     6
 74
     0
 42
0.0000000001
 43
0.0000000001
 40
-1.0
 40
-1.0
 40
-1.0
 40
-1.0
 40
-0.7500589360920537
 40
-0.7500589360920537
 40
-0.5514703589813611
 40
-0.5514703589813611
 40
-0.5514703589813611
 40
-0.5514703589813611
 10
9.072012407659024
 20
15.06303696801697
 30
0.0
 41
1.0
 10
9.110928026039218
 20
15.0629052455052
 30
0.0
 41
1.0
 10
9.141655545680301
 20
15.05905192462579
 30
0.0
 41
1.0
 10
9.177631954896029
 20
15.04613373911014
 30
0.0
 41
1.0
 10
9.186865333692374
 20
15.03831158878122
 30
0.0
 41
1.0
 10
9.189025811037311
 20
15.02880719509534
 30
0.0
 41
1.0
  0
SPLINE
  5
9B
330
1F
100
AcDbEntity
  8
2D SEAT & WISHBONE
100
AcDbSpline
210
0.0
220
0.0
230
1.0
 70
    12
 71
     2
 72
    10
 73
     7
 74
     0
 42
0.0000000001
 43
0.0000000001
 40
-0.4746180042488886
 40
-0.4746180042488886
 40
-0.4746180042488886
 40
-0.3173409042585785
 40
-0.3173409042585785
 40
-0.1591351643457946
 40
-0.1591351643457946
 40
0.0
 40
0.0
 40
0.0
 10
8.597394557295388
 20
15.06311312099149
 30
0.0
 41
1.0
 10
8.676033020466203
 20
15.06299263957195
 30
0.0
 41
0.9999998956627083
 10
8.754671560891325
 20
15.06294400372959
 30
0.0
 41
1.0
 10
8.8337744211613
 20
15.06289504822257
 30
0.0
 41
0.9999998964169878
 10
8.9128772932211
 20
15.06291810084259
 30
0.0
 41
1.0
 10
8.992444877538162
 20
15.06294125646837
 30
0.0
 41
0.9999998960597791
 10
9.072012407659024
 20
15.06303696801697
 30
0.0
 41
1.0
  0
SPLINE
  5
9C
330
1F
100
AcDbEntity
  8
2D SEAT & WISHBONE
100
AcDbSpline
210
0.0
220
0.0
230
1.0
 70
    12
 71
     2
 72
     6
 73
     3
 74
     0
 42
0.0000000001
 43
0.0000000001
 40
-0.6244842084228673
 40
-0.6244842084228673
 40
-0.6244842084228673
 40
0.0
 40
0.0
 40
0.0
 10
7.990830095500414
 20
14.92666525425535
 30
0.0
 41
1.0
 10
8.282891490417105
 20
15.04477021911464
 30
0.0
 41
0.9867430574526554
 10
8.597394557295388
 20
15.06311312099149
 30
0.0
 41
1.0
  0
SPLINE
  5
9D
330
1F
100
AcDbEntity
  8
2D SEAT & WISHBONE
100
AcDbSpline
210
0.0
220
0.0
230
1.0
 70
     8
 71
     2
 72
    18
 73
    15
 74
     0
 42
0.0000000001
 43
0.0000000001
 40
-13.0
 40
-13.0
 40
-13.0
 40
-12.0
 40
-11.0
 40
-10.0
 40
-9.0
 40
-8.0
 40
-7.0
 40
-6.0
 40
-5.0
 40
-4.0
 40
-3.0
 40
-2.0
 40
-1.0
 40
0.0
 40
0.0
 40
0.0
 10
0.0
 20
11.83875231213578
 30
0.0
 10
0.3319936406187409
 20
11.83903306817276
 30
0.0
 10
0.9795398972619083
 20
11.98246586201432
 30
0.0
 10
1.590546344146745
 20
12.2376297635616
 30
0.0
 10
2.199483140393504
 20
12.49479544506917
 30
0.0
 10
2.80882459448172
 20
12.75149996375876
 30
0.0
 10
3.418294193688673
 20
13.00781467359055
 30
0.0
 10
4.027968483049229
 20
13.26365684706491
 30
0.0
 10
4.63771377466815
 20
13.51932716003968
 30
0.0
 10
5.24747789202533
 20
13.77495292760756
 30
0.0
 10
5.857220804952881
 20
14.03062898066027
 30
0.0
 10
6.466939876307848
 20
14.28636262003753
 30
0.0
 10
7.076629616614923
 20
14.54216557649308
 30
0.0
 10
7.686198940297466
 20
14.79825569159779
 30
0.0
 10
7.990830095500414
 20
14.92666525425535
 30
0.0
  0
SPLINE
  5
9E
330
1F
100
AcDbEntity
  8
2D SEAT & WISHBONE
100
AcDbSpline
210
0.0
220
0.0
230
1.0
 70
     8
 71
     2
 72
    18
 73
    15
 74
     0
 42
0.0000000001
 43
0.0000000001
 40
0.0
 40
0.0
 40
0.0
 40
1.0
 40
2.0
 40
3.0
 40
4.0
 40
5.0
 40
6.0
 40
7.0
 40
8.0
 40
9.0
 40
10.0
 40
11.0
 40
12.0
 40
13.0
 40
13.0
 40
13.0
 10
-7.990830095500414
 20
14.92666525425535
 30
0.0
 10
-7.686198940297466
 20
14.79825569159779
 30
0.0
 10
-7.076629616614923
 20
14.54216557649308
 30
0.0
 10
-6.466939876307848
 20
14.28636262003753
 30
0.0
 10
-5.857220804952881
 20
14.03062898066027
 30
0.0
 10
-5.24747789202533
 20
13.77495292760756
 30
0.0
 10
-4.63771377466815
 20
13.51932716003968
 30
0.0
 10
-4.027968483049229
 20
13.26365684706491
 30
0.0
 10
-3.418294193688673
 20
13.00781467359055
 30
0.0
 10
-2.80882459448172
 20
12.75149996375876
 30
0.0
 10
-2.199483140393504
 20
12.49479544506917
 30
0.0
 10
-1.590546344146745
 20
12.2376297635616
 30
0.0
 10
-0.9795398972619083
 20
11.98246586201432
 30
0.0
 10
-0.3319936406187409
 20
11.83903306817276
 30
0.0
 10
0.0
 20
11.83875231213578
 30
0.0
  0
SPLINE
  5
9F
330
1F
100
AcDbEntity
  8
2D SEAT & WISHBONE
100
AcDbSpline
210
0.0
220
0.0
230
1.0
 70
    12
 71
     2
 72
     6
 73
     3
 74
     0
 42
0.0000000001
 43
0.0000000001
 40
0.0
 40
0.0
 40
0.0
 40
0.6244842084228673
 40
0.6244842084228673
 40
0.6244842084228673
 10
-8.597394557295388
 20
15.06311312099149
 30
0.0
 41
1.0
 10
-8.282891490417105
 20
15.04477021911464
 30
0.0
 41
0.9867430574526554
 10
-7.990830095500414
 20
14.92666525425535
 30
0.0
 41
1.0
  0
SPLINE
  5
A0
330
1F
100
AcDbEntity
  8
2D SEAT & WISHBONE
100
AcDbSpline
210
0.0
220
0.0
230
1.0
 70
    12
 71
     2
 72
    10
 73
     7
 74
     0
 42
0.0000000001
 43
0.0000000001
 40
0.0
 40
0.0
 40
0.0
 40
0.1591351643457946
 40
0.1591351643457946
 40
0.3173409042585785
 40
0.3173409042585785
 40
0.4746180042488886
 40
0.4746180042488886
 40
0.4746180042488886
 10
-9.072012407659024
 20
15.06303696801697
 30
0.0
 41
1.0
 10
-8.992444877538166
 20
15.06294125646837
 30
0.0
 41
0.9999998960597791
 10
-8.9128772932211
 20
15.06291810084259
 30
0.0
 41
1.0
 10
-8.833774421161296
 20
15.06289504822257
 30
0.0
 41
0.9999998964169878
 10
-8.754671560891325
 20
15.06294400372959
 30
0.0
 41
1.0
 10
-8.6760330204662
 20
15.06299263957195
 30
0.0
 41
0.9999998956627083
 10
-8.597394557295388
 20
15.06311312099149
 30
0.0
 41
1.0
  0
SPLINE
  5
A1
330
1F
100
AcDbEntity
  8
2D SEAT & WISHBONE
100
AcDbSpline
210
0.0
220
0.0
230
1.0
 70
    12
 71
     3
 72
    10
 73
     6
 74
     0
 42
0.0000000001
 43
0.0000000001
 40
0.5514703589813611
 40
0.5514703589813611
 40
0.5514703589813611
 40
0.5514703589813611
 40
0.7500589360920537
 40
0.7500589360920537
 40
1.0
 40
1.0
 40
1.0
 40
1.0
 10
-9.189025811037311
 20
15.02880719509534
 30
0.0
 41
1.0
 10
-9.186865333692374
 20
15.03831158878122
 30
0.0
 41
1.0
 10
-9.177631954896029
 20
15.04613373911014
 30
0.0
 41
1.0
 10
-9.141655545680301
 20
15.05905192462579
 30
0.0
 41
1.0
 10
-9.110928026039218
 20
15.0629052455052
 30
0.0
 41
1.0
 10
-9.072012407659024
 20
15.06303696801697
 30
0.0
 41
1.0
  0
SPLINE
  5
A2
330
1F
100
AcDbEntity
  8
2D SEAT & WISHBONE
100
AcDbSpline
210
0.0
220
0.0
230
1.0
 70
     8
 71
     2
 72
    18
 73
    15
 74
     0
 42
0.0000000001
 43
0.0000000001
 40
-13.0
 40
-13.0
 40
-13.0
 40
-12.00000031633673
 40
-11.00000028997533
 40
-10.00000026361394
 40
-9.000000237252545
 40
-8.000000210891152
 40
-7.000000184529757
 40
-6.000000158168364
 40
-5.00000013180697
 40
-4.000000105445576
 40
-3.000000079084182
 40
-2.000000052722788
 40
-1.000000026361394
 40
0.0
 40
0.0
 40
0.0
 10
0.0
 20
12.38098276137737
 30
0.0
 10
0.3123252968490107
 20
12.38233831584304
 30
0.0
 10
0.9201414050791996
 20
12.52216174279144
 30
0.0
 10
1.508339750796367
 20
12.72469443967035
 30
0.0
 10
2.084830217534751
 20
12.95837079308706
 30
0.0
 10
2.661656683996085
 20
13.19089095376563
 30
0.0
 10
3.236175955033403
 20
13.42912040025203
 30
0.0
 10
3.812081234390938
 20
13.66392063481034
 30
0.0
 10
4.389235205388758
 20
13.89567981627446
 30
0.0
 10
4.966285055380951
 20
14.12768727015794
 30
0.0
 10
5.543462649403423
 20
14.35937838476661
 30
0.0
 10
6.120728354975689
 20
14.59084960618856
 30
0.0
 10
6.698088487861838
 20
14.8220856292924
 30
0.0
 10
7.275544919016646
 20
15.05308049490183
 30
0.0
 10
7.564351329660568
 20
15.16838259570005
 30
0.0
  0
SPLINE
  5
A3
330
1F
100
AcDbEntity
  8
2D SEAT & WISHBONE
100
AcDbSpline
210
0.0
220
0.0
230
1.0
 70
     8
 71
     2
 72
    18
 73
    15
 74
     0
 42
0.0000000001
 43
0.0000000001
 40
0.0
 40
0.0
 40
0.0
 40
1.000000026361394
 40
2.000000052722788
 40
3.000000079084182
 40
4.000000105445576
 40
5.00000013180697
 40
6.000000158168364
 40
7.000000184529757
 40
8.000000210891152
 40
9.000000237252545
 40
10.00000026361394
 40
11.00000028997533
 40
12.00000031633673
 40
13.0
 40
13.0
 40
13.0
 10
-7.564351329660568
 20
15.16838259570005
 30
0.0
 10
-7.275544919016646
 20
15.05308049490183
 30
0.0
 10
-6.698088487861838
 20
14.8220856292924
 30
0.0
 10
-6.120728354975689
 20
14.59084960618856
 30
0.0
 10
-5.543462649403423
 20
14.35937838476661
 30
0.0
 10
-4.966285055380951
 20
14.12768727015794
 30
0.0
 10
-4.389235205388758
 20
13.89567981627446
 30
0.0
 10
-3.812081234390938
 20
13.66392063481034
 30
0.0
 10
-3.236175955033403
 20
13.42912040025203
 30
0.0
 10
-2.661656683996085
 20
13.19089095376563
 30
0.0
 10
-2.084830217534751
 20
12.95837079308706
 30
0.0
 10
-1.508339750796367
 20
12.72469443967035
 30
0.0
 10
-0.9201414050791996
 20
12.52216174279144
 30
0.0
 10
-0.3123252968490107
 20
12.38233831584304
 30
0.0
 10
0.0
 20
12.38098276137737
 30
0.0
  0
SPLINE
  5
A4
330
1F
100
AcDbEntity
  8
2D SEAT & WISHBONE
100
AcDbSpline
210
0.0
220
0.0
230
1.0
 70
     8
 71
     3
 72
     8
 73
     4
 74
     0
 42
0.0000000001
 43
0.0000000001
 40
0.0
 40
0.0
 40
0.0
 40
0.0
 40
1.0
 40
1.0
 40
1.0
 40
1.0
 10
0.0
 20
15.52526223802004
 30
0.0
 10
-2.605558562521274
 20
15.52526223802004
 30
0.0
 10
-5.29313933121432
 20
15.67644134623505
 30
0.0
 10
-7.749995829117267
 20
16.54407696758386
 30
0.0
  0
SPLINE
  5
A5
330
1F
100
AcDbEntity
  8
2D SEAT & WISHBONE
100
AcDbSpline
210
0.0
220
0.0
230
1.0
 70
     8
 71
     3
 72
     8
 73
     4
 74
     0
 42
0.0000000001
 43
0.0000000001
 40
-1.0
 40
-1.0
 40
-1.0
 40
-1.0
 40
0.0
 40
0.0
 40
0.0
 40
0.0
 10
7.749995829117267
 20
16.54407696758386
 30
0.0
 10
5.29313933121432
 20
15.67644134623505
 30
0.0
 10
2.605558562521274
 20
15.52526223802004
 30
0.0
 10
0.0
 20
15.52526223802004
 30
0.0
  0
SPLINE
  5
A6
330
1F
100
AcDbEntity
  8
2D SEAT & WISHBONE
100
AcDbSpline
210
0.0
220
0.0
230
1.0
 70
    12
 71
     2
 72
     6
 73
     3
 74
     0
 42
0.0000000001
 43
0.0000000001
 40
-2.618100006982349
 40
-2.618100006982349
 40
-2.618100006982349
 40
0.0
 40
0.0
 40
0.0
 10
0.0
 20
14.92460980285929
 30
0.0
 41
1.0
 10
1.309704500046523
 20
14.91872284581014
 30
0.0
 41
0.999235437675937
 10
2.615865095875179
 20
15.01518543755757
 30
0.0
 41
1.0
  0
SPLINE
  5
A7
330
1F
100
AcDbEntity
  8
2D SEAT & WISHBONE
100
AcDbSpline
210
0.0
220
0.0
230
1.0
 70
    12
 71
     2
 72
     6
 73
     3
 74
     0
 42
0.0000000001
 43
0.0000000001
 40
0.0
 40
0.0
 40
0.0
 40
2.618100006982349
 40
2.618100006982349
 40
2.618100006982349
 10
-2.615865095875179
 20
15.01518543755757
 30
0.0
 41
1.0
 10
-1.309704500046523
 20
14.91872284581014
 30
0.0
 41
0.999235437675937
 10
0.0
 20
14.92460980285929
 30
0.0
 41
1.0
  0
SPLINE
  5
A8
330
1F
100
AcDbEntity
  8
2D SEAT & WISHBONE
100
AcDbSpline
210
0.0
220
0.0
230
1.0
 70
    12
 71
     2
 72
    14
 73
    11
 74
     0
 42
0.0000000001
 43
0.0000000001
 40
-0.0673767226427244
 40
-0.0673767226427244
 40
-0.0673767226427244
 40
-0.0478472977139558
 40
-0.0478472977139558
 40
-0.0307729959271478
 40
-0.0307729959271478
 40
-0.0174431654792866
 40
-0.0174431654792866
 40
-0.0074983184778639
 40
-0.0074983184778639
 40
0.0
 40
0.0
 40
0.0
 10
0.8950000016610815
 20
13.04135162641993
 30
0.0
 41
1.0
 10
0.9047606430470404
 20
13.04083287148719
 30
0.0
 41
0.9985113951233835
 10
0.9144067035536025
 20
13.03925402898415
 30
0.0
 41
1.0
 10
0.9228454788560908
 20
13.03788956811782
 30
0.0
 41
0.9980319860234819
 10
0.931047103573853
 20
13.03547958180029
 30
0.0
 41
1.0
 10
0.9374639356879642
 20
13.03361961205803
 30
0.0
 41
0.9964016174282261
 10
0.9434744152548689
 20
13.03070253180568
 30
0.0
 41
1.0
 10
0.9480115420495117
 20
13.02857272078591
 30
0.0
 41
0.988154208492988
 10
0.9516890028417535
 20
13.02516715230882
 30
0.0
 41
1.0
 10
0.9547064853104669
 20
13.02260487858765
 30
0.0
 41
0.9224982877625536
 10
0.9550000000012844
 20
13.01865718353895
 30
0.0
 41
1.0
  0
POLYLINE
  5
A9
330
1F
100
AcDbEntity
  8
2D SEAT & WISHBONE
100
AcDb2dPolyline
 66
     1
 10
0.0
 20
0.0
 30
0.0
  0
VERTEX
  5
AA
330
A9
100
AcDbEntity
  8
2D SEAT & WISHBONE
100
AcDbVertex
100
AcDb2dVertex
 10
0.0
 20
13.04135162641993
 30
0.0
  0
VERTEX
  5
AB
330
A9
100
AcDbEntity
  8
2D SEAT & WISHBONE
100
AcDbVertex
100
AcDb2dVertex
 10
0.8950000016610815
 20
13.04135162641993
 30
0.0
  0
SEQEND
  5
AC
330
A9
100
AcDbEntity
  8
2D SEAT & WISHBONE
  0
POLYLINE
  5
AD
330
1F
100
AcDbEntity
  8
2D SEAT & WISHBONE
100
AcDb2dPolyline
 66
     1
 10
0.0
 20
0.0
 30
0.0
  0
VERTEX
  5
AE
330
AD
100
AcDbEntity
  8
2D SEAT & WISHBONE
100
AcDbVertex
100
AcDb2dVertex
 10
-0.8950000016610815
 20
13.04135162641993
 30
0.0
  0
VERTEX
  5
AF
330
AD
100
AcDbEntity
  8
2D SEAT & WISHBONE
100
AcDbVertex
100
AcDb2dVertex
 10
0.0
 20
13.04135162641993
 30
0.0
  0
SEQEND
  5
B0
330
AD
100
AcDbEntity
  8
2D SEAT & WISHBONE
  0
SPLINE
  5
B1
330
1F
100
AcDbEntity
  8
2D SEAT & WISHBONE
100
AcDbSpline
210
0.0
220
0.0
230
1.0
 70
    12
 71
     2
 72
    14
 73
    11
 74
     0
 42
0.0000000001
 43
0.0000000001
 40
0.0
 40
0.0
 40
0.0
 40
0.0074983184778639
 40
0.0074983184778639
 40
0.0174431654792866
 40
0.0174431654792866
 40
0.0307729959271478
 40
0.0307729959271478
 40
0.0478472977139558
 40
0.0478472977139558
 40
0.0673767226427244
 40
0.0673767226427244
 40
0.0673767226427244
 10
-0.9550000000012844
 20
13.01865718353895
 30
0.0
 41
1.0
 10
-0.9547064853104674
 20
13.02260487858765
 30
0.0
 41
0.9224982877625536
 10
-0.9516890028417535
 20
13.02516715230882
 30
0.0
 41
1.0
 10
-0.9480115420495147
 20
13.02857272078591
 30
0.0
 41
0.988154208492988
 10
-0.9434744152548689
 20
13.03070253180568
 30
0.0
 41
1.0
 10
-0.9374639356879616
 20
13.03361961205803
 30
0.0
 41
0.9964016174282261
 10
-0.931047103573853
 20
13.03547958180029
 30
0.0
 41
1.0
 10
-0.9228454788560939
 20
13.03788956811782
 30
0.0
 41
0.9980319860234819
 10
-0.9144067035536025
 20
13.03925402898415
 30
0.0
 41
1.0
 10
-0.9047606430470388
 20
13.04083287148719
 30
0.0
 41
0.9985113951233835
 10
-0.8950000016610815
 20
13.04135162641993
 30
0.0
 41
1.0
  0
POLYLINE
  5
B2
330
1F
100
AcDbEntity
  8
2D SEAT & WISHBONE
100
AcDb2dPolyline
 66
     1
 10
0.0
 20
0.0
 30
0.0
  0
VERTEX
  5
B3
330
B2
100
AcDbEntity
  8
2D SEAT & WISHBONE
100
AcDbVertex
100
AcDb2dVertex
 10
0.0
 20
13.02893226796118
 30
0.0
  0
VERTEX
  5
B4
330
B2
100
AcDbEntity
  8
2D SEAT & WISHBONE
100
AcDbVertex
100
AcDb2dVertex
 10
0.8222892282676639
 20
13.02893226796118
 30
0.0
  0
SEQEND
  5
B5
330
B2
100
AcDbEntity
  8
2D SEAT & WISHBONE
  0
POLYLINE
  5
B6
330
1F
100
AcDbEntity
  8
2D SEAT & WISHBONE
100
AcDb2dPolyline
 66
     1
 10
0.0
 20
0.0
 30
0.0
  0
VERTEX
  5
B7
330
B6
100
AcDbEntity
  8
2D SEAT & WISHBONE
100
AcDbVertex
100
AcDb2dVertex
 10
-0.8222892282676639
 20
13.02893226796118
 30
0.0
  0
VERTEX
  5
B8
330
B6
100
AcDbEntity
  8
2D SEAT & WISHBONE
100
AcDbVertex
100
AcDb2dVertex
 10
0.0
 20
13.02893226796118
 30
0.0
  0
SEQEND
  5
B9
330
B6
100
AcDbEntity
  8
2D SEAT & WISHBONE
  0
ARC
  5
BA
330
1F
100
AcDbEntity
  8
2D SEAT & WISHBONE
100
AcDbCircle
 10
22983.1596811488
 20
14.80681577779633
 30
0.0
 40
22983.18968154365
100
AcDbArc
 50
180.0041702914547
 51
180.0044012013239
  0
LINE
  5
BB
330
1F
100
AcDbEntity
  8
2D SEAT & WISHBONE
100
AcDbLine
 10
-0.0300000929532445
 20
14.92461765362421
 30
0.0
 11
-0.0299395158053173
 21
13.13397704062025
 31
0.0
  0
SPLINE
  5
BC
330
1F
100
AcDbEntity
  8
2D SEAT & WISHBONE
100
AcDbSpline
210
0.0
220
0.0
230
1.0
 70
    12
 71
     2
 72
     6
 73
     3
 74
     0
 42
0.0000000001
 43
0.0000000001
 40
0.0730764861925065
 40
0.0730764861925065
 40
0.0730764861925065
 40
0.6290236661937546
 40
0.6290236661937546
 40
0.6290236661937546
 10
-0.8949641035159288
 20
12.72071017383767
 30
0.0
 41
0.999999999881127
 10
-1.172862552082967
 20
12.71421500442674
 30
0.0
 41
0.9999999994871971
 10
-1.450760620308589
 20
12.70773512578805
 30
0.0
 41
0.9999999999795354
  0
SPLINE
  5
BD
330
1F
100
AcDbEntity
  8
2D SEAT & WISHBONE
100
AcDbSpline
210
0.0
220
0.0
230
1.0
 70
    12
 71
     2
 72
     6
 73
     3
 74
     0
 42
0.0000000001
 43
0.0000000001
 40
0.0
 40
0.0
 40
0.0
 40
0.2391171221126788
 40
0.2391171221126788
 40
0.2391171221126788
 10
-0.8950000073859457
 20
12.95986044296044
 30
0.0
 41
1.0
 10
-0.8949826698296249
 20
12.84030188316014
 30
0.0
 41
0.9999999999869073
 10
-0.8949641035159317
 20
12.72071017383767
 30
0.0
 41
1.0
  0
LINE
  5
BE
330
1F
100
AcDbEntity
  8
2D SEAT & WISHBONE
100
AcDbLine
 10
-0.9550000000012844
 20
13.01865718353895
 30
0.0
 11
-0.9550000000012844
 21
12.71930716576269
 31
0.0
  0
ARC
  5
BF
330
1F
100
AcDbEntity
  8
2D SEAT & WISHBONE
100
AcDbCircle
 10
-3.317800147743135
 20
29.09458606590005
 30
0.0
 40
13.31013287630552
100
AcDbArc
 50
244.0561429788216
 51
250.5493938902445
  0
ARC
  5
C0
330
1F
100
AcDbEntity
  8
2D SEAT & WISHBONE
100
AcDbCircle
 10
-6.494414214529932
 20
22.56533172883303
 30
0.0
 40
6.04913851413884
100
AcDbArc
 50
232.5262498562293
 51
244.0561429788216
  0
SPLINE
  5
C1
330
1F
100
AcDbEntity
  8
2D SEAT & WISHBONE
100
AcDbSpline
210
0.0
220
0.0
230
1.0
 70
    12
 71
     2
 72
     6
 73
     3
 74
     0
 42
0.0000000001
 43
0.0000000001
 40
0.0
 40
0.0
 40
0.0
 40
0.1109088946832377
 40
0.1109088946832377
 40
0.1109088946832377
 10
-0.8222892282676639
 20
13.02893226796118
 30
0.0
 41
1.0
 10
-0.8920858835233992
 20
13.02959942825457
 30
0.0
 41
0.7184002901755238
 10
-0.8950000073865283
 20
12.95986044296044
 30
0.0
 41
1.0
  0
SPLINE
  5
C2
330
1F
100
AcDbEntity
  8
2D SEAT & WISHBONE
100
AcDbSpline
210
0.0
220
0.0
230
1.0
 70
    12
 71
     2
 72
     6
 73
     3
 74
     0
 42
0.0000000001
 43
0.0000000001
 40
0.0
 40
0.0
 40
0.0
 40
2.077377954523681
 40
2.077377954523681
 40
2.077377954523681
 10
-1.817169795344356
 20
14.96460537533312
 30
0.0
 41
1.0
 10
-1.866713130862339
 20
13.92709862865275
 30
0.0
 41
0.9999999999904212
 10
-1.9162473841211
 20
12.88959144831699
 30
0.0
 41
1.0
  0
ARC
  5
C3
330
1F
100
AcDbEntity
  8
2D SEAT & WISHBONE
100
AcDbCircle
 10
-22983.1596811488
 20
14.80681577779633
 30
0.0
 40
22983.18968154365
100
AcDbArc
 50
359.995598798676
 51
359.9958297085453
  0
LINE
  5
C4
330
1F
100
AcDbEntity
  8
2D SEAT & WISHBONE
100
AcDbLine
 10
0.0300000929532445
 20
14.92461765362421
 30
0.0
 11
0.0299395158053173
 21
13.13397704062025
 31
0.0
  0
SPLINE
  5
C5
330
1F
100
AcDbEntity
  8
2D SEAT & WISHBONE
100
AcDbSpline
210
0.0
220
0.0
230
1.0
 70
    12
 71
     2
 72
     6
 73
     3
 74
     0
 42
0.0000000001
 43
0.0000000001
 40
0.0730764861925065
 40
0.0730764861925065
 40
0.0730764861925065
 40
0.6290236661937546
 40
0.6290236661937546
 40
0.6290236661937546
 10
0.8949641035159293
 20
12.72071017383767
 30
0.0
 41
0.999999999881127
 10
1.172862552082964
 20
12.71421500442674
 30
0.0
 41
0.9999999994871971
 10
1.450760620308587
 20
12.70773512578805
 30
0.0
 41
0.9999999999795354
  0
SPLINE
  5
C6
330
1F
100
AcDbEntity
  8
2D SEAT & WISHBONE
100
AcDbSpline
210
0.0
220
0.0
230
1.0
 70
    12
 71
     2
 72
     6
 73
     3
 74
     0
 42
0.0000000001
 43
0.0000000001
 40
0.0
 40
0.0
 40
0.0
 40
0.2391171221126788
 40
0.2391171221126788
 40
0.2391171221126788
 10
0.8950000073859457
 20
12.95986044296044
 30
0.0
 41
1.0
 10
0.8949826698296238
 20
12.84030188316014
 30
0.0
 41
0.9999999999869073
 10
0.8949641035159317
 20
12.72071017383767
 30
0.0
 41
1.0
  0
LINE
  5
C7
330
1F
100
AcDbEntity
  8
2D SEAT & WISHBONE
100
AcDbLine
 10
0.9550000000012844
 20
13.01865718353895
 30
0.0
 11
0.9550000000012844
 21
12.71930716576269
 31
0.0
  0
ARC
  5
C8
330
1F
100
AcDbEntity
  8
2D SEAT & WISHBONE
100
AcDbCircle
 10
3.317800147743135
 20
29.09458606590005
 30
0.0
 40
13.31013287630552
100
AcDbArc
 50
289.4506061097555
 51
295.9438570211784
  0
ARC
  5
C9
330
1F
100
AcDbEntity
  8
2D SEAT & WISHBONE
100
AcDbCircle
 10
6.494414214529932
 20
22.56533172883303
 30
0.0
 40
6.04913851413884
100
AcDbArc
 50
295.9438570211784
 51
307.4737501437705
  0
SPLINE
  5
CA
330
1F
100
AcDbEntity
  8
2D SEAT & WISHBONE
100
AcDbSpline
210
0.0
220
0.0
230
1.0
 70
    12
 71
     2
 72
     6
 73
     3
 74
     0
 42
0.0000000001
 43
0.0000000001
 40
0.0
 40
0.0
 40
0.0
 40
0.1109088946832377
 40
0.1109088946832377
 40
0.1109088946832377
 10
0.8222892282676639
 20
13.02893226796118
 30
0.0
 41
1.0
 10
0.8920858835233961
 20
13.02959942825457
 30
0.0
 41
0.7184002901755238
 10
0.8950000073865283
 20
12.95986044296044
 30
0.0
 41
1.0
  0
SPLINE
  5
CB
330
1F
100
AcDbEntity
  8
2D SEAT & WISHBONE
100
AcDbSpline
210
0.0
220
0.0
230
1.0
 70
    12
 71
     2
 72
     6
 73
     3
 74
     0
 42
0.0000000001
 43
0.0000000001
 40
0.0
 40
0.0
 40
0.0
 40
2.077377954523681
 40
2.077377954523681
 40
2.077377954523681
 10
1.817169795344356
 20
14.96460537533312
 30
0.0
 41
1.0
 10
1.866713130862341
 20
13.92709862865275
 30
0.0
 41
0.9999999999904212
 10
1.9162473841211
 20
12.88959144831699
 30
0.0
 41
1.0
  0
SPLINE
  5
CD
330
1F
100
AcDbEntity
  8
2D jury base
100
AcDbSpline
210
0.0
220
0.0
230
1.0
 70
    24
 71
     2
 72
     6
 73
     3
 74
     0
 42
0.0000000001
 43
0.0000000001
 40
0.0
 40
0.0
 40
0.0
 40
0.8854000000000006
 40
0.8854000000000006
 40
0.8854000000000006
 10
-0.5511811023634863
 20
10.423965860396
 30
0.0
 10
-0.5511811023634934
 20
9.981265860396
 30
0.0
 10
-0.5511811023635005
 20
9.538565860395998
 30
0.0
  0
SPLINE
  5
CE
330
1F
100
AcDbEntity
  8
2D jury base
100
AcDbSpline
210
0.0
220
0.0
230
1.0
 70
    24
 71
     2
 72
     6
 73
     3
 74
     0
 42
0.0000000001
 43
0.0000000001
 40
0.0
 40
0.0
 40
0.0
 40
0.8854000000000006
 40
0.8854000000000006
 40
0.8854000000000006
 10
0.5511188976364991
 20
9.538565860395998
 30
0.0
 10
0.551118897636492
 20
9.981265860396
 30
0.0
 10
0.5511188976364849
 20
10.423965860396
 30
0.0
  0
SPLINE
  5
CF
330
1F
100
AcDbEntity
  8
2D jury base
100
AcDbSpline
210
0.0
220
0.0
230
1.0
 70
    24
 71
     2
 72
     6
 73
     3
 74
     0
 42
0.0000000001
 43
0.0000000001
 40
0.0
 40
0.0
 40
0.0
 40
1.9685
 40
1.9685
 40
1.9685
 10
0.9842188976365023
 20
9.538565860395998
 30
0.0
 10
-0.0000311023635007
 20
9.538565860395998
 30
0.0
 10
-0.9842811023635036
 20
9.538565860395998
 30
0.0
  0
SPLINE
  5
D0
330
1F
100
AcDbEntity
  8
2D jury base
100
AcDbSpline
210
0.0
220
0.0
230
1.0
 70
    24
 71
     2
 72
     6
 73
     3
 74
     0
 42
0.0000000001
 43
0.0000000001
 40
0.0
 40
0.0
 40
0.0
 40
6.6536
 40
6.6536
 40
6.6536
 10
-0.9842811023634894
 20
2.884965860396001
 30
0.0
 10
-0.9842811023634965
 20
6.211765860396
 30
0.0
 10
-0.9842811023635036
 20
9.538565860395998
 30
0.0
  0
SPLINE
  5
D1
330
1F
100
AcDbEntity
  8
2D jury base
100
AcDbSpline
210
0.0
220
0.0
230
1.0
 70
    24
 71
     2
 72
     6
 73
     3
 74
     0
 42
0.0000000001
 43
0.0000000001
 40
0.0
 40
0.0
 40
0.0
 40
6.6536
 40
6.6536
 40
6.6536
 10
0.9842188976365023
 20
9.538565860395998
 30
0.0
 10
0.9842188976364916
 20
6.211765860396
 30
0.0
 10
0.984218897636481
 20
2.884965860396001
 30
0.0
  0
SPLINE
  5
D2
330
1F
100
AcDbEntity
  8
2D jury base
100
AcDbSpline
210
0.0
220
0.0
230
1.0
 70
    24
 71
     2
 72
     6
 73
     3
 74
     0
 42
0.0000000001
 43
0.0000000001
 40
0.0
 40
0.0
 40
0.0
 40
0.0098691515174568
 40
0.0098691515174568
 40
0.0098691515174568
 10
-0.9842785984981361
 20
2.884866047706033
 30
0.0
 10
-0.984154850430702
 20
2.879933023853017
 30
0.0
 10
-0.984031102363268
 20
2.875
 30
0.0
  0
SPLINE
  5
D3
330
1F
100
AcDbEntity
  8
2D jury base
100
AcDbSpline
210
0.0
220
0.0
230
1.0
 70
    24
 71
     2
 72
     6
 73
     3
 74
     0
 42
0.0000000001
 43
0.0000000001
 40
0.0
 40
0.0
 40
0.0
 40
0.0099689956080192
 40
0.0099689956080192
 40
0.0099689956080192
 10
0.9839688976362666
 20
2.875
 30
0.0
 10
0.9840938976363738
 20
2.879982930198
 30
0.0
 10
0.984218897636481
 20
2.884965860396001
 30
0.0
  0
SPLINE
  5
D4
330
1F
100
AcDbEntity
  8
2D jury base
100
AcDbSpline
210
0.0
220
0.0
230
1.0
 70
    24
 71
     2
 72
     6
 73
     3
 74
     0
 42
0.0000000001
 43
0.0000000001
 40
0.0
 40
0.0
 40
0.0
 40
2.494943635768455
 40
2.494943635768455
 40
2.494943635768455
 10
1.244912533404957
 20
2.875
 30
0.0
 10
-0.0025592844792719
 20
2.875
 30
0.0
 10
-1.250031102363501
 20
2.875
 30
0.0
  0
SPLINE
  5
D5
330
1F
100
AcDbEntity
  8
2D jury base
100
AcDbSpline
210
0.0
220
0.0
230
1.0
 70
    24
 71
     2
 72
     6
 73
     3
 74
     0
 42
0.0000000001
 43
0.0000000001
 40
0.0
 40
0.0
 40
0.0
 40
2.625
 40
2.625
 40
2.625
 10
1.249968897636499
 20
2.875
 30
0.0
 10
1.249968897636499
 20
1.5625
 30
0.0
 10
1.249968897636499
 20
0.25
 30
0.0
  0
SPLINE
  5
D6
330
1F
100
AcDbEntity
  8
2D jury base
100
AcDbSpline
210
0.0
220
0.0
230
1.0
 70
    24
 71
     2
 72
     6
 73
     3
 74
     0
 42
0.0000000001
 43
0.0000000001
 40
0.0
 40
0.0
 40
0.0
 40
2.625
 40
2.625
 40
2.625
 10
-1.250031102363501
 20
0.25
 30
0.0
 10
-1.250031102363501
 20
1.5625
 30
0.0
 10
-1.250031102363501
 20
2.875
 30
0.0
  0
SPLINE
  5
D7
330
1F
100
AcDbEntity
  8
2D jury base
100
AcDbSpline
210
0.0
220
0.0
230
1.0
 70
    24
 71
     2
 72
     6
 73
     3
 74
     0
 42
0.0000000001
 43
0.0000000001
 40
0.0
 40
0.0
 40
0.0
 40
10.0
 40
10.0
 40
10.0
 10
4.999968897636499
 20
0.25
 30
0.0
 10
-0.0000311023635007
 20
0.25
 30
0.0
 10
-5.000031102363501
 20
0.25
 30
0.0
  0
SPLINE
  5
D8
330
1F
100
AcDbEntity
  8
2D jury base
100
AcDbSpline
210
0.0
220
0.0
230
1.0
 70
    24
 71
     2
 72
     6
 73
     3
 74
     0
 42
0.0000000001
 43
0.0000000001
 40
0.0
 40
0.0
 40
0.0
 40
0.25
 40
0.25
 40
0.25
 10
4.999968897636499
 20
0.25
 30
0.0
 10
4.999968897636499
 20
0.125
 30
0.0
 10
4.999968897636499
 20
0.0
 30
0.0
  0
SPLINE
  5
D9
330
1F
100
AcDbEntity
  8
2D jury base
100
AcDbSpline
210
0.0
220
0.0
230
1.0
 70
    24
 71
     2
 72
     6
 73
     3
 74
     0
 42
0.0000000001
 43
0.0000000001
 40
0.0
 40
0.0
 40
0.0
 40
0.25
 40
0.25
 40
0.25
 10
-5.000031102363501
 20
0.0
 30
0.0
 10
-5.000031102363501
 20
0.125
 30
0.0
 10
-5.000031102363501
 20
0.25
 30
0.0
  0
SPLINE
  5
DA
330
1F
100
AcDbEntity
  8
2D jury base
100
AcDbSpline
210
0.0
220
0.0
230
1.0
 70
    24
 71
     2
 72
     6
 73
     3
 74
     0
 42
0.0000000001
 43
0.0000000001
 40
0.0
 40
0.0
 40
0.0
 40
10.0
 40
10.0
 40
10.0
 10
-5.000031102363501
 20
0.0
 30
0.0
 10
-0.0000311023635007
 20
0.0
 30
0.0
 10
4.999968897636499
 20
0.0
 30
0.0
  0
SPLINE
  5
DB
330
1F
100
AcDbEntity
  8
2D jury base
100
AcDbSpline
210
0.0
220
0.0
230
1.0
 70
    24
 71
     2
 72
     6
 73
     3
 74
     0
 42
0.0000000001
 43
0.0000000001
 40
0.0
 40
0.0
 40
0.0
 40
0.8854000000000006
 40
0.8854000000000006
 40
0.8854000000000006
 10
34.45517020888668
 20
10.423965860396
 30
0.0
 10
34.45517020888668
 20
9.981265860395999
 30
0.0
 10
34.45517020888667
 20
9.538565860395996
 30
0.0
  0
SPLINE
  5
DC
330
1F
100
AcDbEntity
  8
2D jury base
100
AcDbSpline
210
0.0
220
0.0
230
1.0
 70
    24
 71
     2
 72
     6
 73
     3
 74
     0
 42
0.0000000001
 43
0.0000000001
 40
0.0
 40
0.0
 40
0.0
 40
0.8854000000000006
 40
0.8854000000000006
 40
0.8854000000000006
 10
35.55747020888667
 20
9.538565860395996
 30
0.0
 10
35.55747020888666
 20
9.981265860395999
 30
0.0
 10
35.55747020888666
 20
10.423965860396
 30
0.0
  0
SPLINE
  5
DD
330
1F
100
AcDbEntity
  8
2D jury base
100
AcDbSpline
210
0.0
220
0.0
230
1.0
 70
    24
 71
     2
 72
     6
 73
     3
 74
     0
 42
0.0000000001
 43
0.0000000001
 40
0.0
 40
0.0
 40
0.0
 40
1.9685
 40
1.9685
 40
1.9685
 10
35.99057020888667
 20
9.538565860395996
 30
0.0
 10
35.00632020888667
 20
9.538565860395996
 30
0.0
 10
34.02207020888667
 20
9.538565860395996
 30
0.0
  0
SPLINE
  5
DE
330
1F
100
AcDbEntity
  8
2D jury base
100
AcDbSpline
210
0.0
220
0.0
230
1.0
 70
    24
 71
     2
 72
     6
 73
     3
 74
     0
 42
0.0000000001
 43
0.0000000001
 40
0.0
 40
0.0
 40
0.0
 40
6.6536
 40
6.6536
 40
6.6536
 10
34.02207020888668
 20
2.884965860395999
 30
0.0
 10
34.02207020888667
 20
6.211765860395998
 30
0.0
 10
34.02207020888667
 20
9.538565860395996
 30
0.0
  0
SPLINE
  5
DF
330
1F
100
AcDbEntity
  8
2D jury base
100
AcDbSpline
210
0.0
220
0.0
230
1.0
 70
    24
 71
     2
 72
     6
 73
     3
 74
     0
 42
0.0000000001
 43
0.0000000001
 40
0.0
 40
0.0
 40
0.0
 40
6.6536
 40
6.6536
 40
6.6536
 10
35.99057020888667
 20
9.538565860395996
 30
0.0
 10
35.99057020888667
 20
6.211765860395998
 30
0.0
 10
35.99057020888665
 20
2.884965860395999
 30
0.0
  0
SPLINE
  5
E0
330
1F
100
AcDbEntity
  8
2D jury base
100
AcDbSpline
210
0.0
220
0.0
230
1.0
 70
    24
 71
     2
 72
     6
 73
     3
 74
     0
 42
0.0000000001
 43
0.0000000001
 40
0.0
 40
0.0
 40
0.0
 40
0.0098691515174568
 40
0.0098691515174568
 40
0.0098691515174568
 10
34.02207271275203
 20
2.884866047706032
 30
0.0
 10
34.02219646081947
 20
2.879933023853015
 30
0.0
 10
34.0223202088869
 20
2.874999999999998
 30
0.0
  0
SPLINE
  5
E1
330
1F
100
AcDbEntity
  8
2D jury base
100
AcDbSpline
210
0.0
220
0.0
230
1.0
 70
    24
 71
     2
 72
     6
 73
     3
 74
     0
 42
0.0000000001
 43
0.0000000001
 40
0.0
 40
0.0
 40
0.0
 40
0.0099689956080192
 40
0.0099689956080192
 40
0.0099689956080192
 10
35.99032020888644
 20
2.874999999999998
 30
0.0
 10
35.99044520888654
 20
2.879982930197999
 30
0.0
 10
35.99057020888665
 20
2.884965860395999
 30
0.0
  0
SPLINE
  5
E2
330
1F
100
AcDbEntity
  8
2D jury base
100
AcDbSpline
210
0.0
220
0.0
230
1.0
 70
    24
 71
     2
 72
     6
 73
     3
 74
     0
 42
0.0000000001
 43
0.0000000001
 40
0.0
 40
0.0
 40
0.0
 40
2.494943635768455
 40
2.494943635768455
 40
2.494943635768455
 10
36.25126384465513
 20
2.874999999999998
 30
0.0
 10
35.0037920267709
 20
2.874999999999998
 30
0.0
 10
33.75632020888667
 20
2.874999999999998
 30
0.0
  0
SPLINE
  5
E3
330
1F
100
AcDbEntity
  8
2D jury base
100
AcDbSpline
210
0.0
220
0.0
230
1.0
 70
    24
 71
     2
 72
     6
 73
     3
 74
     0
 42
0.0000000001
 43
0.0000000001
 40
0.0
 40
0.0
 40
0.0
 40
2.625
 40
2.625
 40
2.625
 10
36.25632020888667
 20
2.874999999999998
 30
0.0
 10
36.25632020888667
 20
1.562499999999998
 30
0.0
 10
36.25632020888667
 20
0.2499999999999983
 30
0.0
  0
SPLINE
  5
E4
330
1F
100
AcDbEntity
  8
2D jury base
100
AcDbSpline
210
0.0
220
0.0
230
1.0
 70
    24
 71
     2
 72
     6
 73
     3
 74
     0
 42
0.0000000001
 43
0.0000000001
 40
0.0
 40
0.0
 40
0.0
 40
2.625
 40
2.625
 40
2.625
 10
33.75632020888667
 20
0.2499999999999983
 30
0.0
 10
33.75632020888667
 20
1.562499999999998
 30
0.0
 10
33.75632020888667
 20
2.874999999999998
 30
0.0
  0
SPLINE
  5
E5
330
1F
100
AcDbEntity
  8
2D jury base
100
AcDbSpline
210
0.0
220
0.0
230
1.0
 70
    24
 71
     2
 72
     6
 73
     3
 74
     0
 42
0.0000000001
 43
0.0000000001
 40
0.0
 40
0.0
 40
0.0
 40
10.0
 40
10.0
 40
10.0
 10
40.00632020888667
 20
0.2499999999999983
 30
0.0
 10
35.00632020888667
 20
0.2499999999999983
 30
0.0
 10
30.00632020888667
 20
0.2499999999999983
 30
0.0
  0
SPLINE
  5
E6
330
1F
100
AcDbEntity
  8
2D jury base
100
AcDbSpline
210
0.0
220
0.0
230
1.0
 70
    24
 71
     2
 72
     6
 73
     3
 74
     0
 42
0.0000000001
 43
0.0000000001
 40
0.0
 40
0.0
 40
0.0
 40
0.25
 40
0.25
 40
0.25
 10
40.00632020888667
 20
0.2499999999999983
 30
0.0
 10
40.00632020888667
 20
0.1249999999999983
 30
0.0
 10
40.00632020888667
 20
-0.0000000000000017
 30
0.0
  0
SPLINE
  5
E7
330
1F
100
AcDbEntity
  8
2D jury base
100
AcDbSpline
210
0.0
220
0.0
230
1.0
 70
    24
 71
     2
 72
     6
 73
     3
 74
     0
 42
0.0000000001
 43
0.0000000001
 40
0.0
 40
0.0
 40
0.0
 40
0.25
 40
0.25
 40
0.25
 10
30.00632020888667
 20
-0.0000000000000017
 30
0.0
 10
30.00632020888667
 20
0.1249999999999983
 30
0.0
 10
30.00632020888667
 20
0.2499999999999983
 30
0.0
  0
SPLINE
  5
E8
330
1F
100
AcDbEntity
  8
2D jury base
100
AcDbSpline
210
0.0
220
0.0
230
1.0
 70
    24
 71
     2
 72
     6
 73
     3
 74
     0
 42
0.0000000001
 43
0.0000000001
 40
0.0
 40
0.0
 40
0.0
 40
10.0
 40
10.0
 40
10.0
 10
30.00632020888667
 20
-0.0000000000000017
 30
0.0
 10
35.00632020888667
 20
-0.0000000000000017
 30
0.0
 10
40.00632020888667
 20
-0.0000000000000017
 30
0.0
  0
LINE
  5
E9
330
1F
100
AcDbEntity
  8
2D jury base
100
AcDbLine
 10
34.45517020888668
 20
10.423965860396
 30
0.0
 11
34.46732220060667
 21
10.908386072036
 31
0.0
  0
LINE
  5
EA
330
1F
100
AcDbEntity
  8
2D jury base
100
AcDbLine
 10
35.54531821716667
 20
10.908386072036
 30
0.0
 11
35.55747020888666
 21
10.423965860396
 31
0.0
  0
LINE
  5
EB
330
1F
100
AcDbEntity
  8
2D jury base
100
AcDbLine
 10
-0.5511811023634863
 20
10.423965860396
 30
0.0
 11
-0.5390291106434897
 21
10.908386072036
 31
0.0
  0
LINE
  5
EC
330
1F
100
AcDbEntity
  8
2D jury base
100
AcDbLine
 10
0.5389669059164883
 20
10.908386072036
 30
0.0
 11
0.5511188976364849
 21
10.423965860396
 31
0.0
  0
SPLINE
  5
EE
330
1F
100
AcDbEntity
  8
2D capped arms
100
AcDbSpline
210
0.0
220
0.0
230
1.0
 70
     8
 71
     2
 72
    19
 73
    16
 74
     0
 42
0.0000000001
 43
0.0000000001
 40
-14.0
 40
-14.0
 40
-14.0
 40
-13.0
 40
-12.0
 40
-11.0
 40
-10.0
 40
-9.0
 40
-8.0
 40
-7.0
 40
-6.0
 40
-5.0
 40
-4.0
 40
-3.0
 40
-2.0
 40
-1.0
 40
0.0
 40
0.0
 40
0.0
 10
9.282846864834426
 20
38.28436404043615
 30
0.0
 10
9.305973692977844
 20
37.55228400742758
 30
0.0
 10
9.353197619316838
 20
36.08815510328827
 30
0.0
 10
9.40228840870914
 20
34.62408726404475
 30
0.0
 10
9.452890234606024
 20
33.1600713425274
 30
0.0
 10
9.504500468347558
 20
31.69609051918194
 30
0.0
 10
9.556841414149169
 20
30.232135419774
 30
0.0
 10
9.611748957634894
 20
28.76827215010386
 30
0.0
 10
9.658484397876258
 20
27.30412175858451
 30
0.0
 10
9.693639060877807
 20
25.8397084797514
 30
0.0
 10
9.713310091843077
 20
24.37454942327675
 30
0.0
 10
9.610492120458503
 20
22.91258870701989
 30
0.0
 10
9.52869866810643
 20
21.45007868430317
 30
0.0
 10
9.443297475696255
 20
19.98766322532631
 30
0.0
 10
9.358518270960026
 20
18.52523083377596
 30
0.0
 10
9.31606648968183
 20
17.7940166734178
 30
0.0
  0
SPLINE
  5
EF
330
1F
100
AcDbEntity
  8
2D capped arms
100
AcDbSpline
210
0.0
220
0.0
230
1.0
 70
     8
 71
     2
 72
     7
 73
     4
 74
     0
 42
0.0000000001
 43
0.0000000001
 40
0.0
 40
0.0
 40
0.0
 40
1.0
 40
2.0
 40
2.0
 40
2.0
 10
8.182278359188885
 20
39.58402498766892
 30
0.0
 10
8.66389916996149
 20
39.51246132398742
 30
0.0
 10
9.279258657973287
 20
38.76842694904107
 30
0.0
 10
9.282846864834426
 20
38.28436404043615
 30
0.0
  0
SPLINE
  5
F0
330
1F
100
AcDbEntity
  8
2D capped arms
100
AcDbSpline
210
0.0
220
0.0
230
1.0
 70
     8
 71
     2
 72
    19
 73
    16
 74
     0
 42
0.0000000001
 43
0.0000000001
 40
-14.0
 40
-14.0
 40
-14.0
 40
-13.0
 40
-12.0
 40
-11.0
 40
-10.0
 40
-9.0
 40
-8.0
 40
-7.0
 40
-6.0
 40
-5.0
 40
-4.0
 40
-3.0
 40
-2.0
 40
-1.0
 40
0.0
 40
0.0
 40
0.0
 10
-9.282846864834426
 20
38.28436404043615
 30
0.0
 10
-9.305973692977844
 20
37.55228400742758
 30
0.0
 10
-9.353197619316838
 20
36.08815510328827
 30
0.0
 10
-9.40228840870914
 20
34.62408726404475
 30
0.0
 10
-9.452890234606024
 20
33.1600713425274
 30
0.0
 10
-9.504500468347558
 20
31.69609051918194
 30
0.0
 10
-9.556841414149169
 20
30.232135419774
 30
0.0
 10
-9.611748957634894
 20
28.76827215010386
 30
0.0
 10
-9.658484397876258
 20
27.30412175858451
 30
0.0
 10
-9.693639060877807
 20
25.8397084797514
 30
0.0
 10
-9.713310091843077
 20
24.37454942327675
 30
0.0
 10
-9.610492120458503
 20
22.91258870701989
 30
0.0
 10
-9.52869866810643
 20
21.45007868430317
 30
0.0
 10
-9.443297475696255
 20
19.98766322532631
 30
0.0
 10
-9.358518270960026
 20
18.52523083377596
 30
0.0
 10
-9.31606648968183
 20
17.7940166734178
 30
0.0
  0
SPLINE
  5
F1
330
1F
100
AcDbEntity
  8
2D capped arms
100
AcDbSpline
210
0.0
220
0.0
230
1.0
 70
     8
 71
     2
 72
     7
 73
     4
 74
     0
 42
0.0000000001
 43
0.0000000001
 40
0.0
 40
0.0
 40
0.0
 40
1.0
 40
2.0
 40
2.0
 40
2.0
 10
-8.182278359188885
 20
39.58402498766892
 30
0.0
 10
-8.66389916996149
 20
39.51246132398742
 30
0.0
 10
-9.279258657973287
 20
38.76842694904107
 30
0.0
 10
-9.282846864834426
 20
38.28436404043615
 30
0.0
  0
SPLINE
  5
F2
330
1F
100
AcDbEntity
  8
2D capped arms
100
AcDbSpline
210
0.0
220
0.0
230
1.0
 70
     8
 71
     2
 72
    13
 73
    10
 74
     0
 42
0.0000000001
 43
0.0000000001
 40
0.0
 40
0.0
 40
0.0
 40
1.0
 40
2.0
 40
3.0
 40
4.0
 40
5.0
 40
6.0
 40
7.0
 40
8.0
 40
8.0
 40
8.0
 10
-9.218861894526299
 20
38.3441982527019
 30
0.0
 10
-9.263987612106838
 20
37.05937835633917
 30
0.0
 10
-9.35457310467116
 20
34.48975175996066
 30
0.0
 10
-9.44651480435455
 20
31.92016237838304
 30
0.0
 10
-9.534020305557277
 20
29.35048046491143
 30
0.0
 10
-9.650821924920741
 20
26.78145955437156
 30
0.0
 10
-9.645747623773183
 20
24.21051157243641
 30
0.0
 10
-9.471984597146658
 20
21.64430588980667
 30
0.0
 10
-9.327305733501802
 20
19.07728234997973
 30
0.0
 10
-9.252057827382728
 20
17.79385213630013
 30
0.0
  0
SPLINE
  5
F3
330
1F
100
AcDbEntity
  8
2D capped arms
100
AcDbSpline
210
0.0
220
0.0
230
1.0
 70
     8
 71
     3
 72
    12
 73
     8
 74
     0
 42
0.0000000001
 43
0.0000000001
 40
0.0
 40
0.0
 40
0.0
 40
0.0
 40
0.2663585804846456
 40
0.5318592651950426
 40
1.058300684471268
 40
1.55013404137355
 40
2.086386930122629
 40
2.086386930122629
 40
2.086386930122629
 40
2.086386930122629
 10
-7.851842669328384
 20
39.61305803477853
 30
0.0
 10
-7.940490547586563
 20
39.6145873309617
 30
0.0
 10
-8.118391944252167
 20
39.60303995888652
 30
0.0
 10
-8.461990535254913
 20
39.51954398271116
 30
0.0
 10
-8.840260631047173
 20
39.29916560781852
 30
0.0
 10
-9.144769339393491
 20
38.8655356064199
 30
0.0
 10
-9.212664032527108
 20
38.52244233295999
 30
0.0
 10
-9.218861894526299
 20
38.3441982527019
 30
0.0
  0
SPLINE
  5
F4
330
1F
100
AcDbEntity
  8
2D capped arms
100
AcDbSpline
210
0.0
220
0.0
230
1.0
 70
    12
 71
     2
 72
     6
 73
     3
 74
     0
 42
0.0000000001
 43
0.0000000001
 40
0.0
 40
0.0
 40
0.0
 40
7.852208943503554
 40
7.852208943503554
 40
7.852208943503554
 10
0.0
 20
39.54711078757805
 30
0.0
 41
1.0
 10
-3.926196572694415
 20
39.54714938560787
 30
0.0
 41
0.9999648132140816
 10
-7.851842669328384
 20
39.61305803477853
 30
0.0
 41
1.0
  0
SPLINE
  5
F5
330
1F
100
AcDbEntity
  8
2D capped arms
100
AcDbSpline
210
0.0
220
0.0
230
1.0
 70
    12
 71
     2
 72
     6
 73
     3
 74
     0
 42
0.0000000001
 43
0.0000000001
 40
-7.852208943503554
 40
-7.852208943503554
 40
-7.852208943503554
 40
0.0
 40
0.0
 40
0.0
 10
7.851842669328384
 20
39.61305803477853
 30
0.0
 41
1.0
 10
3.926196572694413
 20
39.54714938560787
 30
0.0
 41
0.9999648132140816
 10
0.0
 20
39.54711078757805
 30
0.0
 41
1.0
  0
SPLINE
  5
F6
330
1F
100
AcDbEntity
  8
2D capped arms
100
AcDbSpline
210
0.0
220
0.0
230
1.0
 70
     8
 71
     3
 72
    12
 73
     8
 74
     0
 42
0.0000000001
 43
0.0000000001
 40
-2.086386930122629
 40
-2.086386930122629
 40
-2.086386930122629
 40
-2.086386930122629
 40
-1.55013404137355
 40
-1.058300684471268
 40
-0.5318592651950426
 40
-0.2663585804846456
 40
0.0
 40
0.0
 40
0.0
 40
0.0
 10
9.218861894526299
 20
38.3441982527019
 30
0.0
 10
9.212664032527108
 20
38.52244233295999
 30
0.0
 10
9.144769339393491
 20
38.8655356064199
 30
0.0
 10
8.840260631047173
 20
39.29916560781852
 30
0.0
 10
8.461990535254913
 20
39.51954398271116
 30
0.0
 10
8.118391944252167
 20
39.60303995888652
 30
0.0
 10
7.940490547586563
 20
39.6145873309617
 30
0.0
 10
7.851842669328384
 20
39.61305803477853
 30
0.0
  0
SPLINE
  5
F7
330
1F
100
AcDbEntity
  8
2D capped arms
100
AcDbSpline
210
0.0
220
0.0
230
1.0
 70
     8
 71
     2
 72
    13
 73
    10
 74
     0
 42
0.0000000001
 43
0.0000000001
 40
-8.0
 40
-8.0
 40
-8.0
 40
-7.0
 40
-6.0
 40
-5.0
 40
-4.0
 40
-3.0
 40
-2.0
 40
-1.0
 40
0.0
 40
0.0
 40
0.0
 10
9.252057827382728
 20
17.79385213630013
 30
0.0
 10
9.327305733501802
 20
19.07728234997973
 30
0.0
 10
9.471984597146658
 20
21.64430588980667
 30
0.0
 10
9.645747623773183
 20
24.21051157243641
 30
0.0
 10
9.650821924920741
 20
26.78145955437156
 30
0.0
 10
9.534020305557277
 20
29.35048046491143
 30
0.0
 10
9.44651480435455
 20
31.92016237838304
 30
0.0
 10
9.35457310467116
 20
34.48975175996066
 30
0.0
 10
9.263987612106838
 20
37.05937835633917
 30
0.0
 10
9.218861894526299
 20
38.3441982527019
 30
0.0
  0
SPLINE
  5
F8
330
1F
100
AcDbEntity
  8
2D capped arms
100
AcDbSpline
210
0.0
220
0.0
230
1.0
 70
    12
 71
     2
 72
     6
 73
     3
 74
     0
 42
0.0000000001
 43
0.0000000001
 40
0.0
 40
0.0
 40
0.0
 40
0.2354356909432306
 40
0.2354356909432306
 40
0.2354356909432306
 10
9.656609525165578
 20
69.62893409568275
 30
0.0
 41
1.0
 10
9.5557924153928
 20
69.54244593378282
 30
0.0
 41
0.8377473143768094
 10
9.435968959850413
 20
69.59977508233442
 30
0.0
 41
1.0
  0
SPLINE
  5
F9
330
1F
100
AcDbEntity
  8
2D capped arms
100
AcDbSpline
210
0.0
220
0.0
230
1.0
 70
     8
 71
     3
 72
     8
 73
     4
 74
     0
 42
0.0000000001
 43
0.0000000001
 40
0.0
 40
0.0
 40
0.0
 40
0.0
 40
1.0
 40
1.0
 40
1.0
 40
1.0
 10
-9.435968959847791
 20
69.5997750823344
 30
0.0
 10
-3.761372679965895
 20
72.31476749869577
 30
0.0
 10
3.761372679968659
 20
72.31476749869609
 30
0.0
 10
9.435968959850413
 20
69.59977508233442
 30
0.0
  0
SPLINE
  5
FA
330
1F
100
AcDbEntity
  8
2D capped arms
100
AcDbSpline
210
0.0
220
0.0
230
1.0
 70
     8
 71
     3
 72
     8
 73
     4
 74
     0
 42
0.0000000001
 43
0.0000000001
 40
0.0
 40
0.0
 40
0.0
 40
0.0
 40
1.0
 40
1.0
 40
1.0
 40
1.0
 10
9.656609525165578
 20
69.62893409568275
 30
0.0
 10
9.713471092944019
 20
69.67771403483188
 30
0.0
 10
9.712091674910823
 20
69.77399294340486
 30
0.0
 10
9.70450459367455
 20
69.8485258660091
 30
0.0
  0
SPLINE
  5
FB
330
1F
100
AcDbEntity
  8
2D capped arms
100
AcDbSpline
210
0.0
220
0.0
230
1.0
 70
    12
 71
     2
 72
     6
 73
     3
 74
     0
 42
0.0000000001
 43
0.0000000001
 40
0.0
 40
0.0
 40
0.0
 40
0.2354356909432306
 40
0.2354356909432306
 40
0.2354356909432306
 10
-9.656609525162992
 20
69.62893409568275
 30
0.0
 41
1.0
 10
-9.55579241539021
 20
69.54244593378282
 30
0.0
 41
0.8377473143768094
 10
-9.435968959847827
 20
69.59977508233442
 30
0.0
 41
1.0
  0
SPLINE
  5
FC
330
1F
100
AcDbEntity
  8
2D capped arms
100
AcDbSpline
210
0.0
220
0.0
230
1.0
 70
     8
 71
     3
 72
     8
 73
     4
 74
     0
 42
0.0000000001
 43
0.0000000001
 40
0.0
 40
0.0
 40
0.0
 40
0.0
 40
1.0
 40
1.0
 40
1.0
 40
1.0
 10
-9.656609525162992
 20
69.62893409568275
 30
0.0
 10
-9.713471092941433
 20
69.67771403483188
 30
0.0
 10
-9.712091674908237
 20
69.77399294340486
 30
0.0
 10
-9.704504593671963
 20
69.8485258660091
 30
0.0
  0
ARC
  5
FD
330
1F
100
AcDbEntity
  8
2D capped arms
100
AcDbCircle
 10
-5.957808200897254
 20
69.6607446352825
 30
0.0
 40
3.698938110704151
100
AcDbArc
 50
175.4190409215802
 51
180.492744694703
  0
SPLINE
  5
FE
330
1F
100
AcDbEntity
  8
2D capped arms
100
AcDbSpline
210
0.0
220
0.0
230
1.0
 70
     8
 71
     2
 72
     8
 73
     5
 74
     0
 42
0.0000000001
 43
0.0000000001
 40
3.405522370663221
 40
3.405522370663221
 40
3.405522370663221
 40
4.40552237066322
 40
5.40552237066322
 40
6.40552237066322
 40
6.40552237066322
 40
6.40552237066322
 10
-9.248192015284118
 20
73.92406206339821
 30
0.0
 10
-9.310177406138571
 20
73.26232604249387
 30
0.0
 10
-9.442447473600367
 20
71.93965762591985
 30
0.0
 10
-9.591842714299695
 20
70.61873696347469
 30
0.0
 10
-9.644929963785344
 20
69.95617017997459
 30
0.0
  0
SPLINE
  5
FF
330
1F
100
AcDbEntity
  8
2D capped arms
100
AcDbSpline
210
0.0
220
0.0
230
1.0
 70
     8
 71
     2
 72
     8
 73
     5
 74
     0
 42
0.0000000001
 43
0.0000000001
 40
0.0
 40
0.0
 40
0.0
 40
1.0
 40
2.0
 40
3.0
 40
3.0
 40
3.0
 10
-8.27716925643091
 20
74.38036060834864
 30
0.0
 10
-8.462040160302031
 20
74.3471755607099
 30
0.0
 10
-8.82344421085724
 20
74.25722476102835
 30
0.0
 10
-9.184914647043819
 20
74.10933760995103
 30
0.0
 10
-9.248192015284118
 20
73.92406206339821
 30
0.0
  0
SPLINE
  5
100
330
1F
100
AcDbEntity
  8
2D capped arms
100
AcDbSpline
210
0.0
220
0.0
230
1.0
 70
    12
 71
     2
 72
     6
 73
     3
 74
     0
 42
0.0000000001
 43
0.0000000001
 40
0.0
 40
0.0
 40
0.0
 40
0.4055223706632203
 40
0.4055223706632203
 40
0.4055223706632203
 10
-7.8769572937059
 20
74.44563709888438
 30
0.0
 41
1.0
 10
-8.077650795902873
 20
74.41660096004676
 30
0.0
 41
0.9998380214841238
 10
-8.27716925643091
 20
74.38036060834864
 30
0.0
 41
1.0
  0
SPLINE
  5
101
330
1F
100
AcDbEntity
  8
2D capped arms
100
AcDbSpline
210
0.0
220
0.0
230
1.0
 70
    12
 71
     2
 72
     6
 73
     3
 74
     0
 42
0.0000000001
 43
0.0000000001
 40
-7.904778914556895
 40
-7.904778914556895
 40
-7.904778914556895
 40
0.0
 40
0.0
 40
0.0
 10
0.0000000000012932
 20
75.01934087799509
 30
0.0
 41
1.0
 10
-3.959362948652719
 20
75.01923061256801
 30
0.0
 41
0.997360193085894
 10
-7.8769572937059
 20
74.44563709888438
 30
0.0
 41
1.0
  0
SPLINE
  5
102
330
1F
100
AcDbEntity
  8
2D capped arms
100
AcDbSpline
210
0.0
220
0.0
230
1.0
 70
    12
 71
     2
 72
     6
 73
     3
 74
     0
 42
0.0000000001
 43
0.0000000001
 40
0.0
 40
0.0
 40
0.0
 40
7.904778914556895
 40
7.904778914556895
 40
7.904778914556895
 10
7.876957293708486
 20
74.44563709888438
 30
0.0
 41
1.0
 10
3.959362948655305
 20
75.01923061256801
 30
0.0
 41
0.997360193085894
 10
0.0000000000012932
 20
75.01934087799509
 30
0.0
 41
1.0
  0
SPLINE
  5
103
330
1F
100
AcDbEntity
  8
2D capped arms
100
AcDbSpline
210
0.0
220
0.0
230
1.0
 70
    12
 71
     2
 72
     6
 73
     3
 74
     0
 42
0.0000000001
 43
0.0000000001
 40
-0.4055223706632203
 40
-0.4055223706632203
 40
-0.4055223706632203
 40
0.0
 40
0.0
 40
0.0
 10
8.277169256433496
 20
74.38036060834864
 30
0.0
 41
1.0
 10
8.077650795905456
 20
74.41660096004676
 30
0.0
 41
0.9998380214841238
 10
7.876957293708486
 20
74.44563709888438
 30
0.0
 41
1.0
  0
SPLINE
  5
104
330
1F
100
AcDbEntity
  8
2D capped arms
100
AcDbSpline
210
0.0
220
0.0
230
1.0
 70
     8
 71
     2
 72
     8
 73
     5
 74
     0
 42
0.0000000001
 43
0.0000000001
 40
-3.0
 40
-3.0
 40
-3.0
 40
-2.0
 40
-1.0
 40
0.0
 40
0.0
 40
0.0
 10
9.248192015286705
 20
73.92406206339821
 30
0.0
 10
9.184914647046405
 20
74.10933760995103
 30
0.0
 10
8.823444210859826
 20
74.25722476102835
 30
0.0
 10
8.462040160304618
 20
74.3471755607099
 30
0.0
 10
8.277169256433496
 20
74.38036060834864
 30
0.0
  0
SPLINE
  5
105
330
1F
100
AcDbEntity
  8
2D capped arms
100
AcDbSpline
210
0.0
220
0.0
230
1.0
 70
     8
 71
     2
 72
     8
 73
     5
 74
     0
 42
0.0000000001
 43
0.0000000001
 40
-6.40552237066322
 40
-6.40552237066322
 40
-6.40552237066322
 40
-5.40552237066322
 40
-4.40552237066322
 40
-3.405522370663221
 40
-3.405522370663221
 40
-3.405522370663221
 10
9.64492996378793
 20
69.95617017997459
 30
0.0
 10
9.591842714302281
 20
70.61873696347469
 30
0.0
 10
9.442447473602954
 20
71.93965762591985
 30
0.0
 10
9.310177406141158
 20
73.26232604249387
 30
0.0
 10
9.248192015286705
 20
73.92406206339821
 30
0.0
  0
ARC
  5
106
330
1F
100
AcDbEntity
  8
2D capped arms
100
AcDbCircle
 10
5.957808200899841
 20
69.6607446352825
 30
0.0
 40
3.698938110704151
100
AcDbArc
 50
359.507255305297
 51
4.580959078419822
  0
SPLINE
  5
107
330
1F
100
AcDbEntity
  8
2D capped arms
100
AcDbSpline
210
0.0
220
0.0
230
1.0
 70
     8
 71
     2
 72
     8
 73
     5
 74
     0
 42
0.0000000001
 43
0.0000000001
 40
-3.0
 40
-3.0
 40
-3.0
 40
-2.0
 40
-1.0
 40
0.0
 40
0.0
 40
0.0
 10
9.282846864834418
 20
73.94843608242117
 30
0.0
 10
9.348310468891135
 20
73.26462898832003
 30
0.0
 10
9.48837274776021
 20
71.8979139616795
 30
0.0
 10
9.63493800469783
 20
70.5319245315269
 30
0.0
 10
9.70450459367455
 20
69.8485258660091
 30
0.0
  0
SPLINE
  5
108
330
1F
100
AcDbEntity
  8
2D capped arms
100
AcDbSpline
210
0.0
220
0.0
230
1.0
 70
     8
 71
     2
 72
     9
 73
     6
 74
     0
 42
0.0000000001
 43
0.0000000001
 40
-4.0
 40
-4.0
 40
-4.0
 40
-3.0
 40
-2.0
 40
-1.0
 40
0.0
 40
0.0
 40
0.0
 10
8.289791367618811
 20
74.41639501066426
 30
0.0
 10
8.431252025728028
 20
74.39035623442304
 30
0.0
 10
8.71226101145799
 20
74.32672020152191
 30
0.0
 10
8.984971284094861
 20
74.23889992965618
 30
0.0
 10
9.248033419191756
 20
74.09682790459564
 30
0.0
 10
9.282846864834418
 20
73.94843608242117
 30
0.0
  0
SPLINE
  5
109
330
1F
100
AcDbEntity
  8
2D capped arms
100
AcDbSpline
210
0.0
220
0.0
230
1.0
 70
     8
 71
     2
 72
     8
 73
     5
 74
     0
 42
0.0000000001
 43
0.0000000001
 40
-3.0
 40
-3.0
 40
-3.0
 40
-2.0
 40
-1.0
 40
0.0
 40
0.0
 40
0.0
 10
0.0000000000012932
 20
75.0567895511768
 30
0.0
 10
1.387479568614502
 20
75.05680232209843
 30
0.0
 10
4.158738519563862
 20
74.9148831056035
 30
0.0
 10
6.919637423867947
 20
74.63473636120959
 30
0.0
 10
8.289791367618811
 20
74.41639501066426
 30
0.0
  0
SPLINE
  5
10A
330
1F
100
AcDbEntity
  8
2D capped arms
100
AcDbSpline
210
0.0
220
0.0
230
1.0
 70
     8
 71
     2
 72
     8
 73
     5
 74
     0
 42
0.0000000001
 43
0.0000000001
 40
0.0
 40
0.0
 40
0.0
 40
1.0
 40
2.0
 40
3.0
 40
3.0
 40
3.0
 10
-8.289791367616225
 20
74.41639501066426
 30
0.0
 10
-6.91963742386536
 20
74.63473636120959
 30
0.0
 10
-4.158738519561275
 20
74.9148831056035
 30
0.0
 10
-1.387479568611916
 20
75.05680232209843
 30
0.0
 10
0.0000000000012932
 20
75.0567895511768
 30
0.0
  0
SPLINE
  5
10B
330
1F
100
AcDbEntity
  8
2D capped arms
100
AcDbSpline
210
0.0
220
0.0
230
1.0
 70
     8
 71
     2
 72
     9
 73
     6
 74
     0
 42
0.0000000001
 43
0.0000000001
 40
0.0
 40
0.0
 40
0.0
 40
1.0
 40
2.0
 40
3.0
 40
4.0
 40
4.0
 40
4.0
 10
-9.282846864831832
 20
73.94843608242117
 30
0.0
 10
-9.24803341918917
 20
74.09682790459564
 30
0.0
 10
-8.984971284092275
 20
74.23889992965618
 30
0.0
 10
-8.712261011455404
 20
74.32672020152191
 30
0.0
 10
-8.431252025725442
 20
74.39035623442304
 30
0.0
 10
-8.289791367616225
 20
74.41639501066426
 30
0.0
  0
SPLINE
  5
10C
330
1F
100
AcDbEntity
  8
2D capped arms
100
AcDbSpline
210
0.0
220
0.0
230
1.0
 70
     8
 71
     2
 72
     8
 73
     5
 74
     0
 42
0.0000000001
 43
0.0000000001
 40
0.0
 40
0.0
 40
0.0
 40
1.0
 40
2.0
 40
3.0
 40
3.0
 40
3.0
 10
-9.704504593671963
 20
69.8485258660091
 30
0.0
 10
-9.634938004695243
 20
70.5319245315269
 30
0.0
 10
-9.488372747757623
 20
71.8979139616795
 30
0.0
 10
-9.348310468888549
 20
73.26462898832003
 30
0.0
 10
-9.282846864831832
 20
73.94843608242117
 30
0.0
  0
ARC
  5
10D
330
1F
100
AcDbEntity
  8
2D capped arms
100
AcDbCircle
 10
-8.463926390197209
 20
73.92490261483591
 30
0.0
 40
0.8192585476346241
100
AcDbArc
 50
174.2433815279465
 51
178.3539337175114
  0
SPLINE
  5
10E
330
1F
100
AcDbEntity
  8
2D capped arms
100
AcDbSpline
210
0.0
220
0.0
230
1.0
 70
     8
 71
     3
 72
    12
 73
     8
 74
     0
 42
0.0000000001
 43
0.0000000001
 40
0.0
 40
0.0
 40
0.0
 40
0.0
 40
0.330958645903872
 40
0.6130287355156565
 40
1.058585319570286
 40
1.378389717630065
 40
1.70900769244544
 40
1.70900769244544
 40
1.70900769244544
 40
1.70900769244544
 10
-7.939548716714555
 20
74.83056421234262
 30
0.0
 10
-8.04800507385798
 20
74.8132918129921
 30
0.0
 10
-8.252060503669782
 20
74.78261711334034
 30
0.0
 10
-8.59206254864906
 20
74.69664903386116
 30
0.0
 10
-8.92748740748246
 20
74.58410340890104
 30
0.0
 10
-9.207312862560016
 20
74.33472738010052
 30
0.0
 10
-9.26816919485912
 20
74.11504239214368
 30
0.0
 10
-9.279053366572128
 20
74.00707669991311
 30
0.0
  0
SPLINE
  5
10F
330
1F
100
AcDbEntity
  8
2D capped arms
100
AcDbSpline
210
0.0
220
0.0
230
1.0
 70
    12
 71
     2
 72
     6
 73
     3
 74
     0
 42
0.0000000001
 43
0.0000000001
 40
0.0
 40
0.0
 40
0.0
 40
7.967387000270449
 40
7.967387000270449
 40
7.967387000270449
 10
0.0000000000012924
 20
75.4088374195329
 30
0.0
 41
0.9999999978205802
 10
-3.990718858628678
 20
75.40870594744443
 30
0.0
 41
0.9973608356095144
 10
-7.939548716714555
 20
74.83056421234262
 30
0.0
 41
1.0
  0
SPLINE
  5
110
330
1F
100
AcDbEntity
  8
2D capped arms
100
AcDbSpline
210
0.0
220
0.0
230
1.0
 70
    12
 71
     2
 72
     6
 73
     3
 74
     0
 42
0.0000000001
 43
0.0000000001
 40
-7.967387000270449
 40
-7.967387000270449
 40
-7.967387000270449
 40
0.0
 40
0.0
 40
0.0
 10
7.939548716717141
 20
74.83056421234262
 30
0.0
 41
1.0
 10
3.990718858631262
 20
75.40870594744443
 30
0.0
 41
0.9973608356095144
 10
0.0000000000012924
 20
75.4088374195329
 30
0.0
 41
0.9999999978205802
  0
SPLINE
  5
111
330
1F
100
AcDbEntity
  8
2D capped arms
100
AcDbSpline
210
0.0
220
0.0
230
1.0
 70
     8
 71
     3
 72
    12
 73
     8
 74
     0
 42
0.0000000001
 43
0.0000000001
 40
-1.70900769244544
 40
-1.70900769244544
 40
-1.70900769244544
 40
-1.70900769244544
 40
-1.378389717630065
 40
-1.058585319570286
 40
-0.6130287355156565
 40
-0.330958645903872
 40
0.0
 40
0.0
 40
0.0
 40
0.0
 10
9.279053366574715
 20
74.00707669991311
 30
0.0
 10
9.268169194861706
 20
74.11504239214368
 30
0.0
 10
9.207312862562603
 20
74.33472738010052
 30
0.0
 10
8.927487407485046
 20
74.58410340890104
 30
0.0
 10
8.592062548651647
 20
74.69664903386116
 30
0.0
 10
8.252060503672368
 20
74.78261711334034
 30
0.0
 10
8.048005073860566
 20
74.8132918129921
 30
0.0
 10
7.939548716717141
 20
74.83056421234262
 30
0.0
  0
ARC
  5
112
330
1F
100
AcDbEntity
  8
2D capped arms
100
AcDbCircle
 10
8.463926390199795
 20
73.92490261483591
 30
0.0
 40
0.8192585476346241
100
AcDbArc
 50
1.646066282488628
 51
5.756618472053492
  0
SPLINE
  5
113
330
1F
100
AcDbEntity
  8
2D capped arms
100
AcDbSpline
210
0.0
220
0.0
230
1.0
 70
    12
 71
     2
 72
     6
 73
     3
 74
     0
 42
0.0000000001
 43
0.0000000001
 40
0.0
 40
0.0
 40
0.0
 40
0.2026761038332088
 40
0.2026761038332088
 40
0.2026761038332088
 10
33.27886504313159
 20
12.08420332445247
 30
0.0
 41
1.0
 10
33.33959771014996
 20
12.16532634298888
 30
0.0
 41
0.9999999844168006
 10
33.40035901631015
 20
12.24642791296959
 30
0.0
 41
1.0
  0
SPLINE
  5
114
330
1F
100
AcDbEntity
  8
2D capped arms
100
AcDbSpline
210
0.0
220
0.0
230
1.0
 70
    12
 71
     2
 72
     6
 73
     3
 74
     0
 42
0.0000000001
 43
0.0000000001
 40
0.0
 40
0.0
 40
0.0
 40
0.3511314193796798
 40
0.3511314193796798
 40
0.3511314193796798
 10
32.95580986018717
 20
12.02300155098061
 30
0.0
 41
1.0
 10
33.1393575205671
 20
11.9373689205176
 30
0.0
 41
0.8116924086006584
 10
33.27886504313159
 20
12.08420332445247
 30
0.0
 41
1.0
  0
SPLINE
  5
115
330
1F
100
AcDbEntity
  8
2D capped arms
100
AcDbSpline
210
0.0
220
0.0
230
1.0
 70
    12
 71
     2
 72
     6
 73
     3
 74
     0
 42
0.0000000001
 43
0.0000000001
 40
-0.4474293187033804
 40
-0.4474293187033804
 40
-0.4474293187033804
 40
0.0
 40
0.0
 40
0.0
 10
32.55088901277122
 20
12.21334887024144
 30
0.0
 41
1.0
 10
32.75335856257752
 20
12.11819462431978
 30
0.0
 41
0.9999999954026586
 10
32.95580986018717
 20
12.02300155098061
 30
0.0
 41
1.0
  0
SPLINE
  5
116
330
1F
100
AcDbEntity
  8
2D capped arms
100
AcDbSpline
210
0.0
220
0.0
230
1.0
 70
    12
 71
     2
 72
     6
 73
     3
 74
     0
 42
0.0000000001
 43
0.0000000001
 40
-0.0923766455965594
 40
-0.0923766455965594
 40
-0.0923766455965594
 40
0.0
 40
0.0
 40
0.0
 10
32.46294483649103
 20
12.23834854352227
 30
0.0
 41
1.0
 10
32.51008935830419
 20
12.23700873537687
 30
0.0
 41
0.969270125316243
 10
32.55088901277122
 20
12.21334887024144
 30
0.0
 41
1.0
  0
SPLINE
  5
117
330
1F
100
AcDbEntity
  8
2D capped arms
100
AcDbSpline
210
0.0
220
0.0
230
1.0
 70
    12
 71
     2
 72
     6
 73
     3
 74
     0
 42
0.0000000001
 43
0.0000000001
 40
0.0
 40
0.0
 40
0.0
 40
0.0722825569271646
 40
0.0722825569271646
 40
0.0722825569271646
 10
32.43122357545005
 20
12.17339854855939
 30
0.0
 41
1.0
 10
32.44721392670071
 20
12.20581019106835
 30
0.0
 41
0.9999920221599621
 10
32.46294483649103
 20
12.23834854352227
 30
0.0
 41
1.0
  0
SPLINE
  5
118
330
1F
100
AcDbEntity
  8
2D capped arms
100
AcDbSpline
210
0.0
220
0.0
230
1.0
 70
     8
 71
     3
 72
    11
 73
     7
 74
     0
 42
0.0000000001
 43
0.0000000001
 40
0.0
 40
0.0
 40
0.0
 40
0.0
 40
1.0
 40
2.0
 40
3.0
 40
4.0
 40
4.0
 40
4.0
 40
4.0
 10
25.83183189302321
 20
15.34730621760542
 30
0.0
 10
26.3788841303124
 20
15.07692442315012
 30
0.0
 10
27.48445015885636
 20
14.55966916721411
 30
0.0
 10
29.13162930063996
 20
13.76062652190247
 30
0.0
 10
30.7818363891222
 20
12.96786285349015
 30
0.0
 10
31.88134369630968
 20
12.43804558712178
 30
0.0
 10
32.43122357545005
 20
12.17339854855939
 30
0.0
  0
SPLINE
  5
119
330
1F
100
AcDbEntity
  8
2D capped arms
100
AcDbSpline
210
0.0
220
0.0
230
1.0
 70
     8
 71
     2
 72
     6
 73
     3
 74
     0
 42
0.0000000001
 43
0.0000000001
 40
-1.0
 40
-1.0
 40
-1.0
 40
0.0
 40
0.0
 40
0.0
 10
33.11349508964517
 20
12.20156223961062
 30
0.0
 10
29.49654611258782
 20
13.76372987184931
 30
0.0
 10
25.89375302824706
 20
15.35793794522183
 30
0.0
  0
SPLINE
  5
11A
330
1F
100
AcDbEntity
  8
2D capped arms
100
AcDbSpline
210
0.0
220
0.0
230
1.0
 70
    12
 71
     2
 72
     6
 73
     3
 74
     0
 42
0.0000000001
 43
0.0000000001
 40
-0.3620652350043809
 40
-0.3620652350043809
 40
-0.3620652350043809
 40
0.0
 40
0.0
 40
0.0
 10
33.4369574779748
 20
12.29152333956611
 30
0.0
 41
1.0
 10
33.31070975013867
 20
12.11895912542003
 30
0.0
 41
0.7851161078609683
 10
33.11349508964517
 20
12.20156223961062
 30
0.0
 41
1.0
  0
POLYLINE
  5
11B
330
1F
100
AcDbEntity
  8
2D capped arms
100
AcDb2dPolyline
 66
     1
 10
0.0
 20
0.0
 30
0.0
  0
VERTEX
  5
11C
330
11B
100
AcDbEntity
  8
2D capped arms
100
AcDbVertex
100
AcDb2dVertex
 10
33.54022185108269
 20
12.49251380551116
 30
0.0
  0
VERTEX
  5
11D
330
11B
100
AcDbEntity
  8
2D capped arms
100
AcDbVertex
100
AcDb2dVertex
 10
33.4369574779748
 20
12.29152333956611
 30
0.0
  0
SEQEND
  5
11E
330
11B
100
AcDbEntity
  8
2D capped arms
  0
SPLINE
  5
11F
330
1F
100
AcDbEntity
  8
2D capped arms
100
AcDbSpline
210
0.0
220
0.0
230
1.0
 70
    12
 71
     2
 72
     6
 73
     3
 74
     0
 42
0.0000000001
 43
0.0000000001
 40
-0.4861752922532782
 40
-0.4861752922532782
 40
-0.4861752922532782
 40
0.0
 40
0.0
 40
0.0
 10
33.36706030300924
 20
12.89567224253865
 30
0.0
 41
1.0
 10
33.651656450579
 20
12.77914308244892
 30
0.0
 41
0.7133848486816444
 10
33.54022185108269
 20
12.49251380551116
 30
0.0
 41
1.0
  0
ARC
  5
120
330
1F
100
AcDbEntity
  8
2D capped arms
100
AcDbCircle
 10
29.37408177249969
 20
4.555883233085419
 30
0.0
 40
9.246402449996816
100
AcDbArc
 50
64.41552894033417
 51
68.0833524105865
  0
LINE
  5
121
330
1F
100
AcDbEntity
  8
2D capped arms
100
AcDbLine
 10
27.55192541134096
 20
15.26453336350761
 30
0.0
 11
32.82536948981667
 21
13.13402821668205
 31
0.0
  0
SPLINE
  5
122
330
1F
100
AcDbEntity
  8
2D capped arms
100
AcDbSpline
210
0.0
220
0.0
230
1.0
 70
     8
 71
     3
 72
     9
 73
     5
 74
     0
 42
0.0000000001
 43
0.0000000001
 40
0.0
 40
0.0
 40
0.0
 40
0.0
 40
1.0
 40
2.0
 40
2.0
 40
2.0
 40
2.0
 10
27.59408953105113
 20
16.97203090400104
 30
0.0
 10
29.25364477550954
 20
22.9311402147877
 30
0.0
 10
29.49413048729571
 20
28.26555054895331
 30
0.0
 10
27.70540605345789
 20
34.1406346038729
 30
0.0
 10
26.45173944632018
 20
38.42374689351622
 30
0.0
  0
ARC
  5
123
330
1F
100
AcDbEntity
  8
2D capped arms
100
AcDbCircle
 10
20.30201011495866
 20
45.84186680837221
 30
0.0
 40
30.64166849966011
100
AcDbArc
 50
280.6964857377661
 51
283.4606116704867
  0
SPLINE
  5
124
330
1F
100
AcDbEntity
  8
2D capped arms
100
AcDbSpline
210
0.0
220
0.0
230
1.0
 70
    12
 71
     2
 72
     8
 73
     5
 74
     0
 42
0.0000000001
 43
0.0000000001
 40
0.0
 40
0.0
 40
0.0
 40
0.0593673382585044
 40
0.0593673382585044
 40
0.1187346765170088
 40
0.1187346765170088
 40
0.1187346765170088
 10
25.9291422125751
 20
15.81286440453369
 30
0.0
 41
1.0
 10
25.91816000216004
 20
15.78241581894106
 30
0.0
 41
0.8800980232536747
 10
25.93757588216137
 20
15.75651699823495
 30
0.0
 41
1.0
 10
25.95699176216267
 20
15.73061817752884
 30
0.0
 41
0.8800980232536747
 10
25.98929824179584
 20
15.73262234416488
 30
0.0
 41
1.0
  0
SPLINE
  5
125
330
1F
100
AcDbEntity
  8
2D capped arms
100
AcDbSpline
210
0.0
220
0.0
230
1.0
 70
    12
 71
     2
 72
     6
 73
     3
 74
     0
 42
0.0000000001
 43
0.0000000001
 40
0.0
 40
0.0
 40
0.0
 40
0.1526408505796308
 40
0.1526408505796308
 40
0.1526408505796308
 10
25.9941417645683
 20
15.94911267629563
 30
0.0
 41
1.0
 10
25.94369681885872
 20
15.88954958839493
 30
0.0
 41
0.9670124436664068
 10
25.9291422125751
 20
15.81286440453369
 30
0.0
 41
1.0
  0
SPLINE
  5
126
330
1F
100
AcDbEntity
  8
2D capped arms
100
AcDbSpline
210
0.0
220
0.0
230
1.0
 70
    12
 71
     2
 72
     6
 73
     3
 74
     0
 42
0.0000000001
 43
0.0000000001
 40
0.0
 40
0.0
 40
0.0
 40
1.430903128791218
 40
1.430903128791218
 40
1.430903128791218
 10
27.09347805417744
 20
16.86505125431813
 30
0.0
 41
1.0
 10
26.54376151049891
 20
16.40714005505232
 30
0.0
 41
0.9999999944157121
 10
25.9941417645683
 20
15.94911267629563
 30
0.0
 41
1.0
  0
SPLINE
  5
127
330
1F
100
AcDbEntity
  8
2D capped arms
100
AcDbSpline
210
0.0
220
0.0
230
1.0
 70
     8
 71
     3
 72
     8
 73
     4
 74
     0
 42
0.0000000001
 43
0.0000000001
 40
0.0
 40
0.0
 40
0.0
 40
0.0
 40
1.0
 40
1.0
 40
1.0
 40
1.0
 10
27.24799394794439
 20
16.91737693971564
 30
0.0
 10
27.19428110698001
 20
16.9088948329364
 30
0.0
 10
27.135259682615
 20
16.89985514698815
 30
0.0
 10
27.09347805417744
 20
16.86505125431813
 30
0.0
  0
POLYLINE
  5
128
330
1F
100
AcDbEntity
  8
2D capped arms
100
AcDb2dPolyline
 66
     1
 10
0.0
 20
0.0
 30
0.0
  0
VERTEX
  5
129
330
128
100
AcDbEntity
  8
2D capped arms
100
AcDbVertex
100
AcDb2dVertex
 10
27.89284737743087
 20
17.01920949125562
 30
0.0
  0
VERTEX
  5
12A
330
128
100
AcDbEntity
  8
2D capped arms
100
AcDbVertex
100
AcDb2dVertex
 10
27.24799394794439
 20
16.91737693971564
 30
0.0
  0
SEQEND
  5
12B
330
128
100
AcDbEntity
  8
2D capped arms
  0
SPLINE
  5
12C
330
1F
100
AcDbEntity
  8
2D capped arms
100
AcDbSpline
210
0.0
220
0.0
230
1.0
 70
     8
 71
     3
 72
    15
 73
    11
 74
     0
 42
0.0000000001
 43
0.0000000001
 40
-8.0
 40
-8.0
 40
-8.0
 40
-8.0
 40
-7.0
 40
-6.0
 40
-5.0
 40
-4.0
 40
-3.0
 40
-2.0
 40
-1.0
 40
0.0
 40
0.0
 40
0.0
 40
0.0
 10
29.76497928903797
 20
28.53252004813105
 30
0.0
 10
29.62297974534668
 20
28.97016459567298
 30
0.0
 10
29.33955895610036
 20
29.84417535923268
 30
0.0
 10
28.91413491868427
 20
31.15510663564618
 30
0.0
 10
28.48827609578998
 20
32.46586355901865
 30
0.0
 10
28.0624892407305
 20
33.77676646933216
 30
0.0
 10
27.63488956550196
 20
35.08662298353316
 30
0.0
 10
27.21250977284537
 20
36.39988175426693
 30
0.0
 10
26.76910415566572
 20
37.69993997882392
 30
0.0
 10
26.52478339678771
 20
38.5991533693671
 30
0.0
 10
26.28789838517091
 20
38.98195974060685
 30
0.0
  0
SPLINE
  5
12D
330
1F
100
AcDbEntity
  8
2D capped arms
100
AcDbSpline
210
0.0
220
0.0
230
1.0
 70
     8
 71
     3
 72
    12
 73
     8
 74
     0
 42
0.0000000001
 43
0.0000000001
 40
-3.784410220108227
 40
-3.784410220108227
 40
-3.784410220108227
 40
-3.784410220108227
 40
-2.749410859426182
 40
-1.934596181342362
 40
-1.013096195575606
 40
-0.5157617321526748
 40
0.0
 40
0.0
 40
0.0
 40
0.0
 10
29.85023537748341
 20
24.81563503107617
 30
0.0
 10
29.9366424760924
 20
25.1493544123112
 30
0.0
 10
30.08796579408421
 20
25.74895188425382
 30
0.0
 10
30.1516216351442
 20
26.6745396352297
 30
0.0
 10
30.06226089831704
 20
27.41675959848903
 30
0.0
 10
29.91568228688735
 20
28.04468791625766
 30
0.0
 10
29.81829315331048
 20
28.36841527735722
 30
0.0
 10
29.76497928903797
 20
28.53252004813105
 30
0.0
  0
SPLINE
  5
12E
330
1F
100
AcDbEntity
  8
2D capped arms
100
AcDbSpline
210
0.0
220
0.0
230
1.0
 70
     8
 71
     3
 72
    11
 73
     7
 74
     0
 42
0.0000000001
 43
0.0000000001
 40
-4.0
 40
-4.0
 40
-4.0
 40
-4.0
 40
-3.0
 40
-2.0
 40
-1.0
 40
0.0
 40
0.0
 40
0.0
 40
0.0
 10
27.84756745249638
 20
16.82413427998397
 30
0.0
 10
28.02655633060463
 20
17.48698561965782
 30
0.0
 10
28.35317393201714
 20
18.82074695480068
 30
0.0
 10
28.85368023745527
 20
20.81865881330319
 30
0.0
 10
29.35148859305448
 20
22.81726773895677
 30
0.0
 10
29.68350212150071
 20
24.1496350495127
 30
0.0
 10
29.85023537748341
 20
24.81563503107617
 30
0.0
  0
SPLINE
  5
12F
330
1F
100
AcDbEntity
  8
2D capped arms
100
AcDbSpline
210
0.0
220
0.0
230
1.0
 70
     8
 71
     3
 72
    11
 73
     7
 74
     0
 42
0.0000000001
 43
0.0000000001
 40
0.0
 40
0.0
 40
0.0
 40
0.0
 40
1.0
 40
2.0
 40
3.0
 40
4.0
 40
4.0
 40
4.0
 40
4.0
 10
27.31593355900982
 20
16.10462534190984
 30
0.0
 10
27.39299505864271
 20
16.12028058673683
 30
0.0
 10
27.5268820560284
 20
16.20736660428449
 30
0.0
 10
27.67440007361107
 20
16.3903165146501
 30
0.0
 10
27.7754939766417
 20
16.60205734985087
 30
0.0
 10
27.8268491950022
 20
16.74904451959014
 30
0.0
 10
27.84756745249638
 20
16.82413427998397
 30
0.0
  0
SPLINE
  5
130
330
1F
100
AcDbEntity
  8
2D capped arms
100
AcDbSpline
210
0.0
220
0.0
230
1.0
 70
     8
 71
     3
 72
    11
 73
     7
 74
     0
 42
0.0000000001
 43
0.0000000001
 40
0.0
 40
0.0
 40
0.0
 40
0.0
 40
1.0
 40
2.0
 40
3.0
 40
4.0
 40
4.0
 40
4.0
 40
4.0
 10
25.9291422125751
 20
15.81286440453369
 30
0.0
 10
26.04559724983163
 20
15.83264189516023
 30
0.0
 10
26.27695288295513
 20
15.88047160192781
 30
0.0
 10
26.62282577190651
 20
15.95741175300316
 30
0.0
 10
26.96882512575867
 20
16.033682391652
 30
0.0
 10
27.19927715320534
 20
16.085809994883
 30
0.0
 10
27.31593355900982
 20
16.10462534190984
 30
0.0
  0
SPLINE
  5
131
330
1F
100
AcDbEntity
  8
2D capped arms
100
AcDbSpline
210
0.0
220
0.0
230
1.0
 70
    12
 71
     2
 72
     6
 73
     3
 74
     0
 42
0.0000000001
 43
0.0000000001
 40
0.0
 40
0.0
 40
0.0
 40
0.0641577844066522
 40
0.0641577844066522
 40
0.0641577844066522
 10
25.89375302824706
 20
15.35793794522182
 30
0.0
 41
1.0
 10
25.86207797218547
 20
15.35286223249649
 30
0.0
 41
0.9999878206848596
 10
25.83035435818388
 20
15.34809942336162
 30
0.0
 41
1.0
  0
SPLINE
  5
132
330
1F
100
AcDbEntity
  8
2D capped arms
100
AcDbSpline
210
0.0
220
0.0
230
1.0
 70
    12
 71
     2
 72
     6
 73
     3
 74
     0
 42
0.0000000001
 43
0.0000000001
 40
-1.306531290276886
 40
-1.306531290276886
 40
-1.306531290276886
 40
0.0
 40
0.0
 40
0.0
 10
27.2008252890549
 20
15.63460025567345
 30
0.0
 41
1.0
 10
26.55831441744216
 20
15.49420896320319
 30
0.0
 41
0.9999998877082102
 10
25.92021964424353
 20
15.3542406545414
 30
0.0
 41
1.0
  0
SPLINE
  5
133
330
1F
100
AcDbEntity
  8
2D capped arms
100
AcDbSpline
210
0.0
220
0.0
230
1.0
 70
     8
 71
     3
 72
    12
 73
     8
 74
     0
 42
0.0000000001
 43
0.0000000001
 40
0.0
 40
0.0
 40
0.0
 40
0.0
 40
0.2417752198941064
 40
0.4538960773241859
 40
0.8508813973326683
 40
1.158119201160014
 40
1.425381389695539
 40
1.425381389695539
 40
1.425381389695539
 40
1.425381389695539
 10
27.98464552690449
 20
16.75618593485667
 30
0.0
 10
27.96471232188787
 20
16.67825939495673
 30
0.0
 10
27.9247360360211
 20
16.53182496430853
 30
0.0
 10
27.82278266380128
 20
16.26724284479867
 30
0.0
 10
27.67717358190085
 20
15.99696658387893
 30
0.0
 10
27.46511626565365
 20
15.74895462540791
 30
0.0
 10
27.29155153359346
 20
15.65626306108945
 30
0.0
 10
27.2008252890549
 20
15.63460025567345
 30
0.0
  0
SPLINE
  5
134
330
1F
100
AcDbEntity
  8
2D SEAT & WISHBONE
100
AcDbSpline
210
0.0
220
0.0
230
1.0
 70
    12
 71
     2
 72
     6
 73
     3
 74
     0
 42
0.0000000001
 43
0.0000000001
 40
-0.1637644495588675
 40
-0.1637644495588675
 40
-0.1637644495588675
 40
0.0
 40
0.0
 40
0.0
 10
9.114674774789364
 20
15.34854565704207
 30
0.0
 41
1.0
 10
9.069168471713835
 20
15.43510161790906
 30
0.0
 41
0.8333131685789318
 10
8.976850780372096
 20
15.42627985538699
 30
0.0
 41
1.0
  0
SPLINE
  5
135
330
1F
100
AcDbEntity
  8
2D SEAT & WISHBONE
100
AcDbSpline
210
0.0
220
0.0
230
1.0
 70
    24
 71
     2
 72
     6
 73
     3
 74
     0
 42
0.0000000001
 43
0.0000000001
 40
-0.3123357786636093
 40
-0.3123357786636093
 40
-0.3123357786636093
 40
0.0
 40
0.0
 40
0.0
 10
9.187818589840802
 20
15.03406758390166
 30
0.0
 10
9.151246682315083
 20
15.19130662047187
 30
0.0
 10
9.114674774789364
 20
15.34854565704207
 30
0.0
  0
SPLINE
  5
136
330
1F
100
AcDbEntity
  8
2D SEAT & WISHBONE
100
AcDbSpline
210
0.0
220
0.0
230
1.0
 70
    12
 71
     2
 72
     6
 73
     3
 74
     0
 42
0.0000000001
 43
0.0000000001
 40
-0.1422474348555807
 40
-0.1422474348555807
 40
-0.1422474348555807
 40
0.0
 40
0.0
 40
0.0
 10
9.129637843078484
 20
14.90866465388087
 30
0.0
 41
1.0
 10
9.19991612405525
 20
14.94867581276657
 30
0.0
 41
0.8286531362622334
 10
9.187818589840802
 20
15.03406758390166
 30
0.0
 41
1.0
  0
SPLINE
  5
137
330
1F
100
AcDbEntity
  8
2D SEAT & WISHBONE
100
AcDbSpline
210
0.0
220
0.0
230
1.0
 70
     8
 71
     2
 72
    18
 73
    15
 74
     0
 42
0.0000000001
 43
0.0000000001
 40
-13.0
 40
-13.0
 40
-13.0
 40
-12.0
 40
-11.0
 40
-10.0
 40
-9.0
 40
-8.0
 40
-7.0
 40
-6.0
 40
-5.0
 40
-4.0
 40
-3.0
 40
-2.0
 40
-1.0
 40
0.0
 40
0.0
 40
0.0
 10
1.147089217859239
 20
11.55371587643287
 30
0.0
 10
1.492533048198126
 20
11.64723788969346
 30
0.0
 10
2.129318845490495
 20
11.8396099696755
 30
0.0
 10
2.74377298275401
 20
12.09340373379551
 30
0.0
 10
3.358439862491331
 20
12.3463786685069
 30
0.0
 10
3.968959101786496
 20
12.60932831162649
 30
0.0
 10
4.576104898572453
 20
12.87993763795525
 30
0.0
 10
5.180180935953324
 20
13.15733142791023
 30
0.0
 10
5.785785524608123
 20
13.43136154549606
 30
0.0
 10
6.392475072190514
 20
13.70298229563497
 30
0.0
 10
7.000319470917105
 20
13.97200626895553
 30
0.0
 10
7.609255177261545
 20
14.23856431135061
 30
0.0
 10
8.219507062202801
 20
14.50202047815842
 30
0.0
 10
8.82970357748598
 20
14.76602202241808
 30
0.0
 10
9.129637843078484
 20
14.90866465388087
 30
0.0
  0
SPLINE
  5
138
330
1F
100
AcDbEntity
  8
2D SEAT & WISHBONE
100
AcDbSpline
210
0.0
220
0.0
230
1.0
 70
    12
 71
     2
 72
     6
 73
     3
 74
     0
 42
0.0000000001
 43
0.0000000001
 40
-0.5136567142276746
 40
-0.5136567142276746
 40
-0.5136567142276746
 40
0.0
 40
0.0
 40
0.0
 10
0.8345589147421464
 20
11.1812715115005
 30
0.0
 41
1.0
 10
0.8712083655352068
 20
11.46786715840234
 30
0.0
 41
0.8413809746725338
 10
1.147089217859239
 20
11.55371587643287
 30
0.0
 41
1.0
  0
SPLINE
  5
139
330
1F
100
AcDbEntity
  8
2D SEAT & WISHBONE
100
AcDbSpline
210
0.0
220
0.0
230
1.0
 70
    24
 71
     2
 72
     6
 73
     3
 74
     0
 42
0.0000000001
 43
0.0000000001
 40
-0.1695342608272357
 40
-0.1695342608272357
 40
-0.1695342608272357
 40
0.0
 40
0.0
 40
0.0
 10
0.812994467607993
 20
11.01311432249559
 30
0.0
 10
0.8237766911750697
 20
11.09719291699805
 30
0.0
 10
0.8345589147421464
 20
11.1812715115005
 30
0.0
  0
SPLINE
  5
13A
330
1F
100
AcDbEntity
  8
2D SEAT & WISHBONE
100
AcDbSpline
210
0.0
220
0.0
230
1.0
 70
    12
 71
     2
 72
     6
 73
     3
 74
     0
 42
0.0000000001
 43
0.0000000001
 40
0.0
 40
0.0
 40
0.0
 40
0.173131761589951
 40
0.173131761589951
 40
0.173131761589951
 10
0.69388386905419
 20
10.908386072036
 30
0.0
 41
1.0
 10
0.7995931983129533
 20
10.90840945689523
 30
0.0
 41
0.750724645280054
 10
0.812994467607993
 20
11.01311432249559
 30
0.0
 41
1.0
  0
SPLINE
  5
13B
330
1F
100
AcDbEntity
  8
2D SEAT & WISHBONE
100
AcDbSpline
210
0.0
220
0.0
230
1.0
 70
    24
 71
     2
 72
     6
 73
     3
 74
     0
 42
0.0000000001
 43
0.0000000001
 40
0.0
 40
0.0
 40
0.0
 40
0.6937335123029733
 40
0.6937335123029733
 40
0.6937335123029733
 10
0.0
 20
10.908386072036
 30
0.0
 10
0.346941934527095
 20
10.908386072036
 30
0.0
 10
0.69388386905419
 20
10.908386072036
 30
0.0
  0
SPLINE
  5
13C
330
1F
100
AcDbEntity
  8
2D SEAT & WISHBONE
100
AcDbSpline
210
0.0
220
0.0
230
1.0
 70
    24
 71
     2
 72
     6
 73
     3
 74
     0
 42
0.0000000001
 43
0.0000000001
 40
-0.6937335123029733
 40
-0.6937335123029733
 40
-0.6937335123029733
 40
0.0
 40
0.0
 40
0.0
 10
-0.69388386905419
 20
10.908386072036
 30
0.0
 10
-0.346941934527095
 20
10.908386072036
 30
0.0
 10
0.0
 20
10.908386072036
 30
0.0
  0
SPLINE
  5
13D
330
1F
100
AcDbEntity
  8
2D SEAT & WISHBONE
100
AcDbSpline
210
0.0
220
0.0
230
1.0
 70
    12
 71
     2
 72
     6
 73
     3
 74
     0
 42
0.0000000001
 43
0.0000000001
 40
-0.173131761589951
 40
-0.173131761589951
 40
-0.173131761589951
 40
0.0
 40
0.0
 40
0.0
 10
-0.812994467607993
 20
11.01311432249559
 30
0.0
 41
1.0
 10
-0.7995931983129506
 20
10.90840945689523
 30
0.0
 41
0.750724645280054
 10
-0.69388386905419
 20
10.908386072036
 30
0.0
 41
1.0
  0
SPLINE
  5
13E
330
1F
100
AcDbEntity
  8
2D SEAT & WISHBONE
100
AcDbSpline
210
0.0
220
0.0
230
1.0
 70
    24
 71
     2
 72
     6
 73
     3
 74
     0
 42
0.0000000001
 43
0.0000000001
 40
0.0
 40
0.0
 40
0.0
 40
0.1695342608272357
 40
0.1695342608272357
 40
0.1695342608272357
 10
-0.8345589147421464
 20
11.1812715115005
 30
0.0
 10
-0.8237766911750697
 20
11.09719291699805
 30
0.0
 10
-0.812994467607993
 20
11.01311432249559
 30
0.0
  0
SPLINE
  5
13F
330
1F
100
AcDbEntity
  8
2D SEAT & WISHBONE
100
AcDbSpline
210
0.0
220
0.0
230
1.0
 70
    12
 71
     2
 72
     6
 73
     3
 74
     0
 42
0.0000000001
 43
0.0000000001
 40
0.0
 40
0.0
 40
0.0
 40
0.5136567142276746
 40
0.5136567142276746
 40
0.5136567142276746
 10
-1.147089217859239
 20
11.55371587643287
 30
0.0
 41
1.0
 10
-0.8712083655352079
 20
11.46786715840234
 30
0.0
 41
0.8413809746725338
 10
-0.8345589147421464
 20
11.1812715115005
 30
0.0
 41
1.0
  0
SPLINE
  5
140
330
1F
100
AcDbEntity
  8
2D SEAT & WISHBONE
100
AcDbSpline
210
0.0
220
0.0
230
1.0
 70
     8
 71
     2
 72
    18
 73
    15
 74
     0
 42
0.0000000001
 43
0.0000000001
 40
0.0
 40
0.0
 40
0.0
 40
1.0
 40
2.0
 40
3.0
 40
4.0
 40
5.0
 40
6.0
 40
7.0
 40
8.0
 40
9.0
 40
10.0
 40
11.0
 40
12.0
 40
13.0
 40
13.0
 40
13.0
 10
-9.129637843078484
 20
14.90866465388087
 30
0.0
 10
-8.82970357748598
 20
14.76602202241808
 30
0.0
 10
-8.219507062202801
 20
14.50202047815842
 30
0.0
 10
-7.609255177261545
 20
14.23856431135061
 30
0.0
 10
-7.000319470917105
 20
13.97200626895553
 30
0.0
 10
-6.392475072190514
 20
13.70298229563497
 30
0.0
 10
-5.785785524608123
 20
13.43136154549606
 30
0.0
 10
-5.180180935953324
 20
13.15733142791023
 30
0.0
 10
-4.576104898572453
 20
12.87993763795525
 30
0.0
 10
-3.968959101786496
 20
12.60932831162649
 30
0.0
 10
-3.358439862491331
 20
12.3463786685069
 30
0.0
 10
-2.74377298275401
 20
12.09340373379551
 30
0.0
 10
-2.129318845490495
 20
11.8396099696755
 30
0.0
 10
-1.492533048198126
 20
11.64723788969346
 30
0.0
 10
-1.147089217859239
 20
11.55371587643287
 30
0.0
  0
SPLINE
  5
141
330
1F
100
AcDbEntity
  8
2D SEAT & WISHBONE
100
AcDbSpline
210
0.0
220
0.0
230
1.0
 70
    12
 71
     2
 72
     6
 73
     3
 74
     0
 42
0.0000000001
 43
0.0000000001
 40
0.0
 40
0.0
 40
0.0
 40
0.1422474348555807
 40
0.1422474348555807
 40
0.1422474348555807
 10
-9.187818589840802
 20
15.03406758390166
 30
0.0
 41
1.0
 10
-9.199916124055246
 20
14.94867581276657
 30
0.0
 41
0.8286531362622334
 10
-9.129637843078484
 20
14.90866465388087
 30
0.0
 41
1.0
  0
SPLINE
  5
142
330
1F
100
AcDbEntity
  8
2D SEAT & WISHBONE
100
AcDbSpline
210
0.0
220
0.0
230
1.0
 70
    24
 71
     2
 72
     6
 73
     3
 74
     0
 42
0.0000000001
 43
0.0000000001
 40
0.0
 40
0.0
 40
0.0
 40
0.3123357786636093
 40
0.3123357786636093
 40
0.3123357786636093
 10
-9.114674774789364
 20
15.34854565704207
 30
0.0
 10
-9.151246682315083
 20
15.19130662047187
 30
0.0
 10
-9.187818589840802
 20
15.03406758390166
 30
0.0
  0
SPLINE
  5
143
330
1F
100
AcDbEntity
  8
2D SEAT & WISHBONE
100
AcDbSpline
210
0.0
220
0.0
230
1.0
 70
    12
 71
     2
 72
     6
 73
     3
 74
     0
 42
0.0000000001
 43
0.0000000001
 40
0.0
 40
0.0
 40
0.0
 40
0.1637644495588675
 40
0.1637644495588675
 40
0.1637644495588675
 10
-8.976850780372096
 20
15.42627985538699
 30
0.0
 41
1.0
 10
-9.069168471713837
 20
15.43510161790906
 30
0.0
 41
0.8333131685789318
 10
-9.114674774789364
 20
15.34854565704207
 30
0.0
 41
1.0
  0
SPLINE
  5
144
330
1F
100
AcDbEntity
  8
2D capped arms
100
AcDbSpline
210
0.0
220
0.0
230
1.0
 70
     8
 71
     2
 72
     8
 73
     5
 74
     0
 42
0.0000000001
 43
0.0000000001
 40
-8.0
 40
-8.0
 40
-8.0
 40
-7.0
 40
-6.0
 40
-5.159015867030632
 40
-5.159015867030632
 40
-5.159015867030632
 10
-9.656737152437486
 20
54.85925867733367
 30
0.0
 10
-10.10926612977656
 20
55.67355252807652
 30
0.0
 10
-10.218594588602
 20
57.69933021504482
 30
0.0
 10
-10.1485836171265
 20
59.39010533797904
 30
0.0
 10
-10.11992479149431
 20
60.16321522906368
 30
0.0
  0
SPLINE
  5
145
330
1F
100
AcDbEntity
  8
2D capped arms
100
AcDbSpline
210
0.0
220
0.0
230
1.0
 70
     8
 71
     2
 72
    13
 73
    10
 74
     0
 42
0.0000000001
 43
0.0000000001
 40
-8.0
 40
-8.0
 40
-8.0
 40
-7.0
 40
-6.0
 40
-5.0
 40
-4.0
 40
-3.0
 40
-2.0
 40
-1.0
 40
0.0
 40
0.0
 40
0.0
 10
0.0000000000012932
 20
53.09833092186592
 30
0.0
 10
-0.6247670307859892
 20
53.098446270489
 30
0.0
 10
-1.87418226627171
 20
53.11592583151141
 30
0.0
 10
-3.12316378407364
 20
53.15360450855103
 30
0.0
 10
-4.371221994398503
 20
53.21431556228871
 30
0.0
 10
-5.617871383103704
 20
53.30158352997402
 30
0.0
 10
-6.861577575605239
 20
53.41330715489244
 30
0.0
 10
-8.105924230808412
 20
53.57797212219236
 30
0.0
 10
-9.346536261486442
 20
54.30107413966787
 30
0.0
 10
-9.656737152437486
 20
54.85925867733367
 30
0.0
  0
SPLINE
  5
146
330
1F
100
AcDbEntity
  8
2D capped arms
100
AcDbSpline
210
0.0
220
0.0
230
1.0
 70
     8
 71
     2
 72
    13
 73
    10
 74
     0
 42
0.0000000001
 43
0.0000000001
 40
0.0
 40
0.0
 40
0.0
 40
1.0
 40
2.0
 40
3.0
 40
4.0
 40
5.0
 40
6.0
 40
7.0
 40
8.0
 40
8.0
 40
8.0
 10
9.656737152440073
 20
54.85925867733367
 30
0.0
 10
9.346536261489028
 20
54.30107413966787
 30
0.0
 10
8.105924230810999
 20
53.57797212219236
 30
0.0
 10
6.861577575607825
 20
53.41330715489244
 30
0.0
 10
5.617871383106291
 20
53.30158352997402
 30
0.0
 10
4.37122199440109
 20
53.21431556228871
 30
0.0
 10
3.123163784076226
 20
53.15360450855103
 30
0.0
 10
1.874182266274296
 20
53.11592583151141
 30
0.0
 10
0.6247670307885755
 20
53.098446270489
 30
0.0
 10
0.0000000000012932
 20
53.09833092186592
 30
0.0
  0
SPLINE
  5
147
330
1F
100
AcDbEntity
  8
2D capped arms
100
AcDbSpline
210
0.0
220
0.0
230
1.0
 70
     8
 71
     2
 72
     8
 73
     5
 74
     0
 42
0.0000000001
 43
0.0000000001
 40
5.159015867031118
 40
5.159015867031118
 40
5.159015867031118
 40
6.0
 40
7.0
 40
8.0
 40
8.0
 40
8.0
 10
10.11992479149693
 20
60.16321522906279
 30
0.0
 10
10.14858361712911
 20
59.3901053379786
 30
0.0
 10
10.21859458860458
 20
57.69933021504482
 30
0.0
 10
10.10926612977914
 20
55.67355252807652
 30
0.0
 10
9.656737152440073
 20
54.85925867733367
 30
0.0
  0
SPLINE
  5
148
330
1F
100
AcDbEntity
  8
2D capped arms
100
AcDbSpline
210
0.0
220
0.0
230
1.0
 70
     8
 71
     2
 72
    10
 73
     7
 74
     0
 42
0.0000000001
 43
0.0000000001
 40
-3.0
 40
-3.0
 40
-3.0
 40
-2.0
 40
-1.0
 40
0.0
 40
0.0
 40
0.644725949861671
 40
0.644725949861671
 40
0.644725949861671
 10
10.10879364728106
 20
60.39912830809576
 30
0.0
 10
10.10190851964532
 20
60.31850991486363
 30
0.0
 10
9.96037496681399
 20
60.51938994123393
 30
0.0
 10
9.914556785920041
 20
60.65553196956111
 30
0.0
 10
9.895862888534353
 20
60.72712914658268
 30
0.0
 10
9.883810447785748
 20
60.77328970454533
 30
0.0
 10
9.871758007037144
 20
60.81945026250798
 30
0.0
  0
SPLINE
  5
149
330
1F
100
AcDbEntity
  8
2D capped arms
100
AcDbSpline
210
0.0
220
0.0
230
1.0
 70
    12
 71
     2
 72
     6
 73
     3
 74
     0
 42
0.0000000001
 43
0.0000000001
 40
-0.4354083098142956
 40
-0.4354083098142956
 40
-0.4354083098142956
 40
0.0
 40
0.0
 40
0.0
 10
10.11467266331898
 20
60.83412410122929
 30
0.0
 41
1.0
 10
10.12735079591732
 20
60.61641513053005
 30
0.0
 41
0.9974318804283254
 10
10.10879364728106
 20
60.39912830809576
 30
0.0
 41
1.0
  0
SPLINE
  5
14A
330
1F
100
AcDbEntity
  8
2D capped arms
100
AcDbSpline
210
0.0
220
0.0
230
1.0
 70
     8
 71
     2
 72
     8
 73
     5
 74
     0
 42
0.0000000001
 43
0.0000000001
 40
0.0
 40
0.0
 40
0.0
 40
1.0
 40
2.0
 40
3.0
 40
3.0
 40
3.0
 10
10.11553038738169
 20
60.26243314686801
 30
0.0
 10
10.10951900826372
 20
60.18257988550628
 30
0.0
 10
9.967285374601445
 20
60.36059105468534
 30
0.0
 10
9.923065612668815
 20
60.49489465579716
 30
0.0
 10
9.903739478550882
 20
60.56535544102449
 30
0.0
  0
SPLINE
  5
14B
330
1F
100
AcDbEntity
  8
2D capped arms
100
AcDbSpline
210
0.0
220
0.0
230
1.0
 70
     8
 71
     5
 72
    12
 73
     6
 74
     0
 42
0.0000000001
 43
0.0000000001
 40
0.0
 40
0.0
 40
0.0
 40
0.0
 40
0.0
 40
0.0
 40
1.0
 40
1.0
 40
1.0
 40
1.0
 40
1.0
 40
1.0
 10
31.55835972693415
 20
24.73910175249207
 30
0.0
 10
31.60648047193267
 20
24.90908112989448
 30
0.0
 10
31.65577776981782
 20
25.07872742805929
 30
0.0
 10
31.89870334173516
 20
25.21753126758072
 30
0.0
 10
32.07078418780031
 20
25.25749111726071
 30
0.0
 10
32.24289008048639
 20
25.29734279908288
 30
0.0
  0
SPLINE
  5
14C
330
1F
100
AcDbEntity
  8
2D capped arms
100
AcDbSpline
210
0.0
220
0.0
230
1.0
 70
     8
 71
     2
 72
     9
 73
     6
 74
     0
 42
0.0000000001
 43
0.0000000001
 40
0.0
 40
0.0
 40
0.0
 40
1.0
 40
2.0
 40
3.0
 40
4.0
 40
4.0
 40
4.0
 10
30.39561503662279
 20
20.12401140428946
 30
0.0
 10
30.53874617131358
 20
20.70153485770261
 30
0.0
 10
30.82642208427008
 20
21.85626353573348
 30
0.0
 10
31.11506299531668
 20
23.0106733258724
 30
0.0
 10
31.39648820038568
 20
24.16731465105102
 30
0.0
 10
31.55835972693415
 20
24.73910175249207
 30
0.0
  0
SPLINE
  5
14D
330
1F
100
AcDbEntity
  8
2D capped arms
100
AcDbSpline
210
0.0
220
0.0
230
1.0
 70
     8
 71
     2
 72
     9
 73
     6
 74
     0
 42
0.0000000001
 43
0.0000000001
 40
0.0
 40
0.0
 40
0.0
 40
0.9999999686279304
 40
1.999999979085287
 40
2.999999989542643
 40
4.0
 40
4.0
 40
4.0
 10
30.93439191195364
 20
19.45601188669992
 30
0.0
 10
30.80845127404314
 20
19.45170980545743
 30
0.0
 10
30.58221001209323
 20
19.55970923099292
 30
0.0
 10
30.42766573844995
 20
19.75732654028575
 30
0.0
 10
30.37102023883746
 20
20.00125620623513
 30
0.0
 10
30.39561503662279
 20
20.12401140428946
 30
0.0
  0
SPLINE
  5
14E
330
1F
100
AcDbEntity
  8
2D capped arms
100
AcDbSpline
210
0.0
220
0.0
230
1.0
 70
     8
 71
     2
 72
     9
 73
     6
 74
     0
 42
0.0000000001
 43
0.0000000001
 40
0.0
 40
0.0
 40
0.0
 40
0.999999986192167
 40
1.999999999316723
 40
3.000000012441279
 40
4.0
 40
4.0
 40
4.0
 10
32.59166568452223
 20
19.47664656779538
 30
0.0
 10
32.3845204625108
 20
19.47314036148393
 30
0.0
 10
31.97016905890924
 20
19.47067141237908
 30
0.0
 10
31.55584367014683
 20
19.46575873669054
 30
0.0
 10
31.14153708028994
 20
19.45936532287289
 30
0.0
 10
30.93439191195364
 20
19.45601188669992
 30
0.0
  0
SPLINE
  5
14F
330
1F
100
AcDbEntity
  8
2D capped arms
100
AcDbSpline
210
0.0
220
0.0
230
1.0
 70
    12
 71
     2
 72
     6
 73
     3
 74
     0
 42
0.0000000001
 43
0.0000000001
 40
0.0
 40
0.0
 40
0.0
 40
0.7548357871886903
 40
0.7548357871886903
 40
0.7548357871886903
 10
33.33984052837505
 20
19.56760908703727
 30
0.0
 41
1.0
 10
32.97014226531845
 20
19.48595697861997
 30
0.0
 41
0.99535821943242
 10
32.59166568452223
 20
19.47664656779538
 30
0.0
 41
0.999999999862645
  0
SPLINE
  5
150
330
1F
100
AcDbEntity
  8
2D capped arms
100
AcDbSpline
210
0.0
220
0.0
230
1.0
 70
     8
 71
     2
 72
    13
 73
    10
 74
     0
 42
0.0000000001
 43
0.0000000001
 40
0.0
 40
0.0
 40
0.0
 40
1.0
 40
2.0
 40
3.0
 40
4.0
 40
5.0
 40
6.0
 40
7.0
 40
8.0
 40
8.0
 40
8.0
 10
39.94232169831714
 20
21.15586212002987
 30
0.0
 10
39.53053063514415
 20
21.0530632665997
 30
0.0
 10
38.70473549038582
 20
20.85636812974675
 30
0.0
 10
37.87935963765835
 20
20.65816029010098
 30
0.0
 10
37.05391259087062
 20
20.4602090242157
 30
0.0
 10
36.22847351043939
 20
20.26223104111303
 30
0.0
 10
35.40305733477583
 20
20.06415666974776
 30
0.0
 10
34.5774962845159
 20
19.86668746998879
 30
0.0
 10
33.75278140556604
 20
19.66568358771907
 30
0.0
 10
33.33984052837505
 20
19.56760908703727
 30
0.0
  0
SPLINE
  5
151
330
1F
100
AcDbEntity
  8
2D capped arms
100
AcDbSpline
210
0.0
220
0.0
230
1.0
 70
    12
 71
     2
 72
     6
 73
     3
 74
     0
 42
0.0000000001
 43
0.0000000001
 40
0.0
 40
0.0
 40
0.0
 40
0.362639787507691
 40
0.362639787507691
 40
0.362639787507691
 10
40.19270144522392
 20
21.40295199956163
 30
0.0
 41
1.0
 10
40.12407441317345
 20
21.22214412829356
 30
0.0
 41
0.9093117697924425
 10
39.94232169831714
 20
21.15586212002987
 30
0.0
 41
1.0
  0
SPLINE
  5
152
330
1F
100
AcDbEntity
  8
2D capped arms
100
AcDbSpline
210
0.0
220
0.0
230
1.0
 70
     8
 71
     2
 72
    13
 73
    10
 74
     0
 42
0.0000000001
 43
0.0000000001
 40
0.0
 40
0.0
 40
0.0
 40
1.0
 40
2.0
 40
3.0
 40
4.0
 40
5.0
 40
6.0
 40
7.0
 40
8.0
 40
8.0
 40
8.0
 10
40.54599159174939
 20
25.46830464822573
 30
0.0
 10
40.55952664652879
 20
25.21281140266063
 30
0.0
 10
40.56677697105417
 20
24.70104321317077
 30
0.0
 10
40.55731422028414
 20
24.18934833506443
 30
0.0
 10
40.53062682747897
 20
23.6782528721509
 30
0.0
 10
40.48682736554697
 20
23.16834353947532
 30
0.0
 10
40.42605558437001
 20
22.66016404298392
 30
0.0
 10
40.3478174681735
 20
22.15443921821927
 30
0.0
 10
40.25554644297053
 20
21.65082654095011
 30
0.0
 10
40.19270144522392
 20
21.40295199956163
 30
0.0
  0
SPLINE
  5
153
330
1F
100
AcDbEntity
  8
2D capped arms
100
AcDbSpline
210
0.0
220
0.0
230
1.0
 70
    12
 71
     2
 72
     6
 73
     3
 74
     0
 42
0.0000000001
 43
0.0000000001
 40
0.0
 40
0.0
 40
0.0
 40
0.4832170000256679
 40
0.4832170000256679
 40
0.4832170000256679
 10
40.21070943155733
 20
25.75413360148417
 30
0.0
 41
0.9999983476816954
 10
40.50827724056919
 20
25.76362790669419
 30
0.0
 41
0.7398538575411018
 10
40.54599159174939
 20
25.46830464822573
 30
0.0
 41
1.0
  0
SPLINE
  5
154
330
1F
100
AcDbEntity
  8
2D capped arms
100
AcDbSpline
210
0.0
220
0.0
230
1.0
 70
     8
 71
     2
 72
    13
 73
    10
 74
     0
 42
0.0000000001
 43
0.0000000001
 40
0.0
 40
0.0
 40
0.0
 40
1.0
 40
2.0
 40
3.0
 40
4.0
 40
5.0
 40
6.0
 40
7.0
 40
8.0
 40
8.0
 40
8.0
 10
34.67360841584929
 20
25.73026732193127
 30
0.0
 10
35.02175827853394
 20
25.7329556509297
 30
0.0
 10
35.71362215330349
 20
25.73545908022449
 30
0.0
 10
36.40548121086526
 20
25.73843961654709
 30
0.0
 10
37.09734097093007
 20
25.74133832825912
 30
0.0
 10
37.78920076566183
 20
25.7442503274301
 30
0.0
 10
38.48106040885473
 20
25.74716388569927
 30
0.0
 10
39.17292002206547
 20
25.75005432828444
 30
0.0
 10
39.864780218012
 20
25.75308145476952
 30
0.0
 10
40.21070943155732
 20
25.75413360148417
 30
0.0
  0
SPLINE
  5
155
330
1F
100
AcDbEntity
  8
2D capped arms
100
AcDbSpline
210
0.0
220
0.0
230
1.0
 70
    12
 71
     2
 72
     6
 73
     3
 74
     0
 42
0.0000000001
 43
0.0000000001
 40
0.0
 40
0.0
 40
0.0
 40
1.037387983725681
 40
1.037387983725681
 40
1.037387983725681
 10
33.64160990128357
 20
25.61633959715457
 30
0.0
 41
1.0
 10
34.15138878350302
 20
25.71967451063688
 30
0.0
 41
0.9959655200203668
 10
34.67360841584929
 20
25.73026732193127
 30
0.0
 41
1.0
  0
SPLINE
  5
156
330
1F
100
AcDbEntity
  8
2D capped arms
100
AcDbSpline
210
0.0
220
0.0
230
1.0
 70
     8
 71
     2
 72
     9
 73
     6
 74
     0
 42
0.0000000001
 43
0.0000000001
 40
0.0
 40
0.0
 40
0.0
 40
1.0
 40
2.0
 40
3.0
 40
4.0
 40
4.0
 40
4.0
 10
32.24289008048639
 20
25.29734279908288
 30
0.0
 10
32.41759228199644
 20
25.33779566469691
 30
0.0
 10
32.76707941593676
 20
25.41834477032931
 30
0.0
 10
33.11669026726165
 20
25.49834903742346
 30
0.0
 10
33.46618964618154
 20
25.57887435568046
 30
0.0
 10
33.64160990128357
 20
25.61633959715457
 30
0.0
  0
LINE
  5
157
330
1F
100
AcDbEntity
  8
2D capped arms
100
AcDbLine
 10
-9.589683820899781
 20
19.50872883860719
 30
0.0
 11
-9.885110428900122
 21
21.17196711678206
 31
0.0
  0
LINE
  5
158
330
1F
100
AcDbEntity
  8
2D capped arms
100
AcDbLine
 10
-9.583165200897346
 20
19.4742938694309
 30
0.0
 11
-9.589683820899781
 21
19.50872883860719
 31
0.0
  0
ARC
  5
159
330
1F
100
AcDbEntity
  8
2D capped arms
100
AcDbCircle
 10
-8.998573490371728
 20
19.58495844409481
 30
0.0
 40
0.5949740465775061
100
AcDbArc
 50
190.7193815440808
 51
197.0702028050162
  0
SPLINE
  5
15A
330
1F
100
AcDbEntity
  8
2D capped arms
100
AcDbSpline
210
0.0
220
0.0
230
1.0
 70
     8
 71
     5
 72
    12
 73
     6
 74
     0
 42
0.0000000001
 43
0.0000000001
 40
-1.0
 40
-1.0
 40
-1.0
 40
-1.0
 40
-1.0
 40
-1.0
 40
0.0
 40
0.0
 40
0.0
 40
0.0
 40
0.0
 40
0.0
 10
-9.549356320942726
 20
19.39469563646269
 30
0.0
 10
-9.554062395894325
 20
19.39542630975018
 30
0.0
 10
-9.558776284829838
 20
19.3961066552173
 30
0.0
 10
-9.564494905944782
 20
19.40121652915813
 30
0.0
 10
-9.565938445812469
 20
19.40575519506333
 30
0.0
 10
-9.567336433628958
 20
19.41030784868161
 30
0.0
  0
SPLINE
  5
15B
330
1F
100
AcDbEntity
  8
2D capped arms
100
AcDbSpline
210
0.0
220
0.0
230
1.0
 70
    12
 71
     2
 72
     6
 73
     3
 74
     0
 42
0.0000000001
 43
0.0000000001
 40
0.0
 40
0.0
 40
0.0
 40
0.0384796057558768
 40
0.0384796057558768
 40
0.0384796057558768
 10
-9.511566534287466
 20
19.38748296857029
 30
0.0
 41
1.0
 10
-9.530336733065218
 20
19.39174262255106
 30
0.0
 41
0.9994027668989172
 10
-9.549356320942726
 20
19.39469563646269
 30
0.0
 41
1.0
  0
SPLINE
  5
15C
330
1F
100
AcDbEntity
  8
2D capped arms
100
AcDbSpline
210
0.0
220
0.0
230
1.0
 70
     8
 71
     5
 72
    12
 73
     6
 74
     0
 42
0.0000000001
 43
0.0000000001
 40
-1.0
 40
-1.0
 40
-1.0
 40
-1.0
 40
-1.0
 40
-1.0
 40
0.0
 40
0.0
 40
0.0
 40
0.0
 40
0.0
 40
0.0
 10
-9.500971016000983
 20
19.41891727849279
 30
0.0
 10
-9.500817823990714
 20
19.41228464959239
 30
0.0
 10
-9.50066647952462
 20
19.40565197801975
 30
0.0
 10
-9.49864863148049
 20
19.38445006705932
 30
0.0
 10
-9.505096646048349
 20
19.38601471106704
 30
0.0
 10
-9.511566534287466
 20
19.38748296857029
 30
0.0
  0
ARC
  5
15D
330
1F
100
AcDbEntity
  8
2D capped arms
100
AcDbCircle
 10
-39.26464775263103
 20
18.73147380158825
 30
0.0
 40
29.7716145248549
100
AcDbArc
 50
1.323109660866385
 51
3.321024376505033
  0
LINE
  5
15E
330
1F
100
AcDbEntity
  8
2D capped arms
100
AcDbLine
 10
-9.775524014248957
 20
24.46273528866854
 30
0.0
 11
-9.543030885477245
 21
20.45615412520502
 31
0.0
  0
ARC
  5
15F
330
1F
100
AcDbEntity
  8
2D capped arms
100
AcDbCircle
 10
-39.04670888831564
 20
22.76419254697034
 30
0.0
 40
29.32042481576905
100
AcDbArc
 50
3.32102437650422
 51
4.966125176511166
  0
ARC
  5
160
330
1F
100
AcDbEntity
  8
2D capped arms
100
AcDbCircle
 10
-10.75588536038204
 20
25.21744998485754
 30
0.0
 40
0.9234465392413341
100
AcDbArc
 50
5.276144437492363
 51
10.03271039813724
  0
LINE
  5
161
330
1F
100
AcDbEntity
  8
2D capped arms
100
AcDbLine
 10
-9.897916179060756
 20
25.66861157050548
 30
0.0
 11
-9.846559744469106
 21
25.3783239575236
 31
0.0
  0
ARC
  5
162
330
1F
100
AcDbEntity
  8
2D capped arms
100
AcDbCircle
 10
-11.0512625728545
 20
25.46456649250181
 30
0.0
 40
1.171256717348744
100
AcDbArc
 50
10.03271039813774
 51
17.92576870768946
  0
SPLINE
  5
163
330
1F
100
AcDbEntity
  8
2D capped arms
100
AcDbSpline
210
0.0
220
0.0
230
1.0
 70
     8
 71
     5
 72
    12
 73
     6
 74
     0
 42
0.0000000001
 43
0.0000000001
 40
-1.0
 40
-1.0
 40
-1.0
 40
-1.0
 40
-1.0
 40
-1.0
 40
0.0
 40
0.0
 40
0.0
 40
0.0
 40
0.0
 40
0.0
 10
-9.955036358355182
 20
25.84110848167215
 30
0.0
 10
-9.950259414113914
 20
25.84027671194016
 30
0.0
 10
-9.945482466190855
 20
25.8394449633531
 30
0.0
 10
-9.939871910863895
 20
25.83428038399087
 30
0.0
 10
-9.938355645857586
 20
25.82967466936726
 30
0.0
 10
-9.936863254480771
 20
25.82506123191242
 30
0.0
  0
LINE
  5
164
330
1F
100
AcDbEntity
  8
2D capped arms
100
AcDbLine
 10
-10.11252044497243
 20
25.86853936904171
 30
0.0
 11
-9.955036358355182
 21
25.84110848167215
 31
0.0
  0
ARC
  5
165
330
1F
100
AcDbEntity
  8
2D capped arms
100
AcDbCircle
 10
6.982406945401808
 20
124.0126128584327
 30
0.0
 40
99.62176320249087
100
AcDbArc
 50
260.1119909430704
 51
260.1192381186461
  0
SPLINE
  5
166
330
1F
100
AcDbEntity
  8
2D capped arms
100
AcDbSpline
210
0.0
220
0.0
230
1.0
 70
     8
 71
     2
 72
     8
 73
     5
 74
     0
 42
0.0000000001
 43
0.0000000001
 40
0.0
 40
0.0
 40
0.0
 40
1.0
 40
2.0
 40
3.0
 40
3.0
 40
3.0
 10
-9.859879779879511
 20
18.4651285622439
 30
0.0
 10
-9.832871301363598
 20
18.35539712258488
 30
0.0
 10
-9.799183620112403
 20
18.13203588902862
 30
0.0
 10
-9.774035910821175
 20
17.9076038663103
 30
0.0
 10
-9.764039359911804
 20
17.79513333457083
 30
0.0
  0
SPLINE
  5
167
330
1F
100
AcDbEntity
  8
2D capped arms
100
AcDbSpline
210
0.0
220
0.0
230
1.0
 70
     8
 71
     5
 72
    12
 73
     6
 74
     0
 42
0.0000000001
 43
0.0000000001
 40
0.0
 40
0.0
 40
0.0
 40
0.0
 40
0.0
 40
0.0
 40
1.0
 40
1.0
 40
1.0
 40
1.0
 40
1.0
 40
1.0
 10
-10.00090594828314
 20
18.68842864046144
 30
0.0
 10
-9.958097904249387
 20
18.65748476271047
 30
0.0
 10
-9.915666917138116
 20
18.6260192609578
 30
0.0
 10
-9.886215653484546
 20
18.56744346938316
 30
0.0
 10
-9.872412619001446
 20
18.51644113524318
 30
0.0
 10
-9.859879779879511
 20
18.4651285622439
 30
0.0
  0
SPLINE
  5
168
330
1F
100
AcDbEntity
  8
2D capped arms
100
AcDbSpline
210
0.0
220
0.0
230
1.0
 70
     8
 71
     3
 72
     9
 73
     5
 74
     0
 42
0.0000000001
 43
0.0000000001
 40
-2.0
 40
-2.0
 40
-2.0
 40
-2.0
 40
-1.0
 40
0.0
 40
0.0
 40
0.0
 40
0.0
 10
-10.79799552509965
 20
19.23927807972256
 30
0.0
 10
-10.66477017625049
 20
19.1341281056862
 30
0.0
 10
-10.45076689027554
 20
18.99251849145752
 30
0.0
 10
-10.14331232033027
 20
18.7913673630088
 30
0.0
 10
-10.00090594828314
 20
18.68842864046144
 30
0.0
  0
SPLINE
  5
169
330
1F
100
AcDbEntity
  8
2D capped arms
100
AcDbSpline
210
0.0
220
0.0
230
1.0
 70
     8
 71
     5
 72
    12
 73
     6
 74
     0
 42
0.0000000001
 43
0.0000000001
 40
0.0
 40
0.0
 40
0.0
 40
0.0
 40
0.0
 40
0.0
 40
1.0
 40
1.0
 40
1.0
 40
1.0
 40
1.0
 40
1.0
 10
-11.00156645202847
 20
19.58673728458162
 30
0.0
 10
-10.98747581059338
 20
19.50743902055759
 30
0.0
 10
-10.97338516915828
 20
19.42814075653355
 30
0.0
 10
-10.92319248387326
 20
19.34065266532031
 30
0.0
 10
-10.86121676669345
 20
19.28917633084038
 30
0.0
 10
-10.79799552509965
 20
19.23927807972256
 30
0.0
  0
SPLINE
  5
16A
330
1F
100
AcDbEntity
  8
2D capped arms
100
AcDbSpline
210
0.0
220
0.0
230
1.0
 70
    24
 71
     2
 72
     6
 73
     3
 74
     0
 42
0.0000000001
 43
0.0000000001
 40
0.0
 40
0.0
 40
0.0
 40
1.284243071523643
 40
1.284243071523643
 40
1.284243071523643
 10
-11.22624626379651
 20
20.85117362103371
 30
0.0
 10
-11.11390635791249
 20
20.21895545280766
 30
0.0
 10
-11.00156645202847
 20
19.58673728458162
 30
0.0
  0
SPLINE
  5
16B
330
1F
100
AcDbEntity
  8
2D capped arms
100
AcDbSpline
210
0.0
220
0.0
230
1.0
 70
     8
 71
     5
 72
    12
 73
     6
 74
     0
 42
0.0000000001
 43
0.0000000001
 40
0.0
 40
0.0
 40
0.0
 40
0.0
 40
0.0
 40
0.0
 40
1.0
 40
1.0
 40
1.0
 40
1.0
 40
1.0
 40
1.0
 10
-11.28132757201269
 20
21.51653868746117
 30
0.0
 10
-11.27379140748281
 20
21.38322330534173
 30
0.0
 10
-11.26621672950022
 20
21.24991010034328
 30
0.0
 10
-11.27296809621741
 20
21.11411127508334
 30
0.0
 10
-11.24960718000696
 20
20.98264244805852
 30
0.0
 10
-11.22624626379651
 20
20.85117362103371
 30
0.0
  0
SPLINE
  5
16C
330
1F
100
AcDbEntity
  8
2D capped arms
100
AcDbSpline
210
0.0
220
0.0
230
1.0
 70
     8
 71
     2
 72
     9
 73
     6
 74
     0
 42
0.0000000001
 43
0.0000000001
 40
0.0
 40
0.0
 40
0.0
 40
1.0
 40
2.0
 40
3.0
 40
4.0
 40
4.0
 40
4.0
 10
-11.50261004634484
 20
25.9981304057859
 30
0.0
 10
-11.49388882568863
 20
25.43742926798694
 30
0.0
 10
-11.43159265835353
 20
24.31711854181619
 30
0.0
 10
-11.3741270841303
 20
23.1967660238999
 30
0.0
 10
-11.31298558380461
 20
22.07657156923349
 30
0.0
 10
-11.28132757201269
 20
21.51653868746117
 30
0.0
  0
LINE
  5
16D
330
1F
100
AcDbEntity
  8
2D capped arms
100
AcDbLine
 10
9.589683820899781
 20
19.50872883860719
 30
0.0
 11
9.885110428900122
 21
21.17196711678206
 31
0.0
  0
LINE
  5
16E
330
1F
100
AcDbEntity
  8
2D capped arms
100
AcDbLine
 10
9.583165200897346
 20
19.4742938694309
 30
0.0
 11
9.589683820899781
 21
19.50872883860719
 31
0.0
  0
ARC
  5
16F
330
1F
100
AcDbEntity
  8
2D capped arms
100
AcDbCircle
 10
8.998573490371728
 20
19.58495844409481
 30
0.0
 40
0.5949740465775061
100
AcDbArc
 50
342.9297971949838
 51
349.2806184559192
  0
SPLINE
  5
170
330
1F
100
AcDbEntity
  8
2D capped arms
100
AcDbSpline
210
0.0
220
0.0
230
1.0
 70
     8
 71
     5
 72
    12
 73
     6
 74
     0
 42
0.0000000001
 43
0.0000000001
 40
-1.0
 40
-1.0
 40
-1.0
 40
-1.0
 40
-1.0
 40
-1.0
 40
0.0
 40
0.0
 40
0.0
 40
0.0
 40
0.0
 40
0.0
 10
9.549356320942726
 20
19.39469563646269
 30
0.0
 10
9.554062395894325
 20
19.39542630975018
 30
0.0
 10
9.558776284829838
 20
19.3961066552173
 30
0.0
 10
9.564494905944782
 20
19.40121652915813
 30
0.0
 10
9.565938445812469
 20
19.40575519506333
 30
0.0
 10
9.567336433628958
 20
19.41030784868161
 30
0.0
  0
SPLINE
  5
171
330
1F
100
AcDbEntity
  8
2D capped arms
100
AcDbSpline
210
0.0
220
0.0
230
1.0
 70
    12
 71
     2
 72
     6
 73
     3
 74
     0
 42
0.0000000001
 43
0.0000000001
 40
0.0
 40
0.0
 40
0.0
 40
0.0384796057558768
 40
0.0384796057558768
 40
0.0384796057558768
 10
9.511566534287466
 20
19.38748296857029
 30
0.0
 41
1.0
 10
9.530336733065218
 20
19.39174262255106
 30
0.0
 41
0.9994027668989172
 10
9.549356320942726
 20
19.39469563646269
 30
0.0
 41
1.0
  0
SPLINE
  5
172
330
1F
100
AcDbEntity
  8
2D capped arms
100
AcDbSpline
210
0.0
220
0.0
230
1.0
 70
     8
 71
     5
 72
    12
 73
     6
 74
     0
 42
0.0000000001
 43
0.0000000001
 40
-1.0
 40
-1.0
 40
-1.0
 40
-1.0
 40
-1.0
 40
-1.0
 40
0.0
 40
0.0
 40
0.0
 40
0.0
 40
0.0
 40
0.0
 10
9.500971016000983
 20
19.41891727849279
 30
0.0
 10
9.500817823990714
 20
19.41228464959239
 30
0.0
 10
9.50066647952462
 20
19.40565197801975
 30
0.0
 10
9.49864863148049
 20
19.38445006705932
 30
0.0
 10
9.505096646048349
 20
19.38601471106704
 30
0.0
 10
9.511566534287466
 20
19.38748296857029
 30
0.0
  0
ARC
  5
173
330
1F
100
AcDbEntity
  8
2D capped arms
100
AcDbCircle
 10
39.26464775263103
 20
18.73147380158825
 30
0.0
 40
29.7716145248549
100
AcDbArc
 50
176.678975623495
 51
178.6768903391336
  0
LINE
  5
174
330
1F
100
AcDbEntity
  8
2D capped arms
100
AcDbLine
 10
9.775524014248957
 20
24.46273528866854
 30
0.0
 11
9.543030885477245
 21
20.45615412520502
 31
0.0
  0
ARC
  5
175
330
1F
100
AcDbEntity
  8
2D capped arms
100
AcDbCircle
 10
39.04670888831564
 20
22.76419254697034
 30
0.0
 40
29.32042481576905
100
AcDbArc
 50
175.0338748234888
 51
176.6789756234958
  0
ARC
  5
176
330
1F
100
AcDbEntity
  8
2D capped arms
100
AcDbCircle
 10
10.75588536038204
 20
25.21744998485754
 30
0.0
 40
0.9234465392413341
100
AcDbArc
 50
169.9672896018627
 51
174.7238555625076
  0
LINE
  5
177
330
1F
100
AcDbEntity
  8
2D capped arms
100
AcDbLine
 10
9.897916179060756
 20
25.66861157050548
 30
0.0
 11
9.846559744469106
 21
25.3783239575236
 31
0.0
  0
ARC
  5
178
330
1F
100
AcDbEntity
  8
2D capped arms
100
AcDbCircle
 10
11.0512625728545
 20
25.46456649250181
 30
0.0
 40
1.171256717348744
100
AcDbArc
 50
162.0742312923105
 51
169.9672896018622
  0
SPLINE
  5
179
330
1F
100
AcDbEntity
  8
2D capped arms
100
AcDbSpline
210
0.0
220
0.0
230
1.0
 70
     8
 71
     5
 72
    12
 73
     6
 74
     0
 42
0.0000000001
 43
0.0000000001
 40
-1.0
 40
-1.0
 40
-1.0
 40
-1.0
 40
-1.0
 40
-1.0
 40
0.0
 40
0.0
 40
0.0
 40
0.0
 40
0.0
 40
0.0
 10
9.955036358355182
 20
25.84110848167215
 30
0.0
 10
9.950259414113914
 20
25.84027671194016
 30
0.0
 10
9.945482466190855
 20
25.8394449633531
 30
0.0
 10
9.939871910863895
 20
25.83428038399087
 30
0.0
 10
9.938355645857586
 20
25.82967466936726
 30
0.0
 10
9.936863254480771
 20
25.82506123191242
 30
0.0
  0
LINE
  5
17A
330
1F
100
AcDbEntity
  8
2D capped arms
100
AcDbLine
 10
10.11252044497243
 20
25.86853936904171
 30
0.0
 11
9.955036358355182
 21
25.84110848167215
 31
0.0
  0
ARC
  5
17B
330
1F
100
AcDbEntity
  8
2D capped arms
100
AcDbCircle
 10
-6.982406945401808
 20
124.0126128584327
 30
0.0
 40
99.62176320249087
100
AcDbArc
 50
279.880761881354
 51
279.8880090569297
  0
SPLINE
  5
17C
330
1F
100
AcDbEntity
  8
2D capped arms
100
AcDbSpline
210
0.0
220
0.0
230
1.0
 70
     8
 71
     2
 72
     8
 73
     5
 74
     0
 42
0.0000000001
 43
0.0000000001
 40
0.0
 40
0.0
 40
0.0
 40
1.0
 40
2.0
 40
3.0
 40
3.0
 40
3.0
 10
9.859879779879511
 20
18.4651285622439
 30
0.0
 10
9.832871301363598
 20
18.35539712258488
 30
0.0
 10
9.799183620112403
 20
18.13203588902862
 30
0.0
 10
9.774035910821175
 20
17.9076038663103
 30
0.0
 10
9.764039359911804
 20
17.79513333457083
 30
0.0
  0
SPLINE
  5
17D
330
1F
100
AcDbEntity
  8
2D capped arms
100
AcDbSpline
210
0.0
220
0.0
230
1.0
 70
     8
 71
     5
 72
    12
 73
     6
 74
     0
 42
0.0000000001
 43
0.0000000001
 40
0.0
 40
0.0
 40
0.0
 40
0.0
 40
0.0
 40
0.0
 40
1.0
 40
1.0
 40
1.0
 40
1.0
 40
1.0
 40
1.0
 10
10.00090594828314
 20
18.68842864046144
 30
0.0
 10
9.958097904249387
 20
18.65748476271047
 30
0.0
 10
9.915666917138116
 20
18.6260192609578
 30
0.0
 10
9.886215653484546
 20
18.56744346938316
 30
0.0
 10
9.872412619001446
 20
18.51644113524318
 30
0.0
 10
9.859879779879511
 20
18.4651285622439
 30
0.0
  0
SPLINE
  5
17E
330
1F
100
AcDbEntity
  8
2D capped arms
100
AcDbSpline
210
0.0
220
0.0
230
1.0
 70
     8
 71
     3
 72
     9
 73
     5
 74
     0
 42
0.0000000001
 43
0.0000000001
 40
-2.0
 40
-2.0
 40
-2.0
 40
-2.0
 40
-1.0
 40
0.0
 40
0.0
 40
0.0
 40
0.0
 10
10.79799552509965
 20
19.23927807972256
 30
0.0
 10
10.66477017625049
 20
19.1341281056862
 30
0.0
 10
10.45076689027554
 20
18.99251849145752
 30
0.0
 10
10.14331232033027
 20
18.7913673630088
 30
0.0
 10
10.00090594828314
 20
18.68842864046144
 30
0.0
  0
SPLINE
  5
17F
330
1F
100
AcDbEntity
  8
2D capped arms
100
AcDbSpline
210
0.0
220
0.0
230
1.0
 70
     8
 71
     5
 72
    12
 73
     6
 74
     0
 42
0.0000000001
 43
0.0000000001
 40
0.0
 40
0.0
 40
0.0
 40
0.0
 40
0.0
 40
0.0
 40
1.0
 40
1.0
 40
1.0
 40
1.0
 40
1.0
 40
1.0
 10
11.00156645202847
 20
19.58673728458162
 30
0.0
 10
10.98747581059338
 20
19.50743902055759
 30
0.0
 10
10.97338516915828
 20
19.42814075653355
 30
0.0
 10
10.92319248387326
 20
19.34065266532031
 30
0.0
 10
10.86121676669345
 20
19.28917633084038
 30
0.0
 10
10.79799552509965
 20
19.23927807972256
 30
0.0
  0
SPLINE
  5
180
330
1F
100
AcDbEntity
  8
2D capped arms
100
AcDbSpline
210
0.0
220
0.0
230
1.0
 70
    24
 71
     2
 72
     6
 73
     3
 74
     0
 42
0.0000000001
 43
0.0000000001
 40
0.0
 40
0.0
 40
0.0
 40
1.284243071523643
 40
1.284243071523643
 40
1.284243071523643
 10
11.22624626379651
 20
20.85117362103371
 30
0.0
 10
11.11390635791249
 20
20.21895545280766
 30
0.0
 10
11.00156645202847
 20
19.58673728458162
 30
0.0
  0
SPLINE
  5
181
330
1F
100
AcDbEntity
  8
2D capped arms
100
AcDbSpline
210
0.0
220
0.0
230
1.0
 70
     8
 71
     5
 72
    12
 73
     6
 74
     0
 42
0.0000000001
 43
0.0000000001
 40
0.0
 40
0.0
 40
0.0
 40
0.0
 40
0.0
 40
0.0
 40
1.0
 40
1.0
 40
1.0
 40
1.0
 40
1.0
 40
1.0
 10
11.28132757201269
 20
21.51653868746117
 30
0.0
 10
11.27379140748281
 20
21.38322330534173
 30
0.0
 10
11.26621672950022
 20
21.24991010034328
 30
0.0
 10
11.27296809621741
 20
21.11411127508334
 30
0.0
 10
11.24960718000696
 20
20.98264244805852
 30
0.0
 10
11.22624626379651
 20
20.85117362103371
 30
0.0
  0
SPLINE
  5
182
330
1F
100
AcDbEntity
  8
2D capped arms
100
AcDbSpline
210
0.0
220
0.0
230
1.0
 70
     8
 71
     2
 72
     9
 73
     6
 74
     0
 42
0.0000000001
 43
0.0000000001
 40
0.0
 40
0.0
 40
0.0
 40
1.0
 40
2.0
 40
3.0
 40
4.0
 40
4.0
 40
4.0
 10
11.50261004634484
 20
25.9981304057859
 30
0.0
 10
11.49388882568863
 20
25.43742926798694
 30
0.0
 10
11.43159265835353
 20
24.31711854181619
 30
0.0
 10
11.3741270841303
 20
23.1967660238999
 30
0.0
 10
11.31298558380461
 20
22.07657156923349
 30
0.0
 10
11.28132757201269
 20
21.51653868746117
 30
0.0
  0
SPLINE
  5
183
330
1F
100
AcDbEntity
  8
2D capped arms
100
AcDbSpline
210
0.0
220
0.0
230
1.0
 70
     8
 71
     2
 72
     8
 73
     5
 74
     0
 42
0.0000000001
 43
0.0000000001
 40
0.0
 40
0.0
 40
0.0
 40
1.0
 40
2.0
 40
3.0
 40
3.0
 40
3.0
 10
11.20976596540232
 20
21.55176698357009
 30
0.0
 10
11.22899861286719
 20
21.55182083918644
 30
0.0
 10
11.2627161599176
 20
21.57032234513954
 30
0.0
 10
11.28333011570626
 20
21.60279148960235
 30
0.0
 10
11.28461027091359
 20
21.62198149992586
 30
0.0
  0
SPLINE
  5
184
330
1F
100
AcDbEntity
  8
2D capped arms
100
AcDbSpline
210
0.0
220
0.0
230
1.0
 70
    24
 71
     2
 72
     6
 73
     3
 74
     0
 42
0.0000000001
 43
0.0000000001
 40
0.0
 40
0.0
 40
0.0
 40
1.227767846525183
 40
1.227767846525183
 40
1.227767846525183
 10
9.98196536874859
 20
21.55176695280107
 30
0.0
 10
10.59586566707545
 20
21.55176696818558
 30
0.0
 10
11.20976596540232
 20
21.55176698357009
 30
0.0
  0
SPLINE
  5
185
330
1F
100
AcDbEntity
  8
2D capped arms
100
AcDbSpline
210
0.0
220
0.0
230
1.0
 70
     8
 71
     2
 72
     8
 73
     5
 74
     0
 42
0.0000000001
 43
0.0000000001
 40
-3.0
 40
-3.0
 40
-3.0
 40
-2.0
 40
-1.0
 40
0.0
 40
0.0
 40
0.0
 10
9.907149400154873
 20
21.6315867345264
 30
0.0
 10
9.905910622389554
 20
21.61070894740864
 30
0.0
 10
9.925453483987049
 20
21.57379844850512
 30
0.0
 10
9.961011519252125
 20
21.55189598491576
 30
0.0
 10
9.98196536874859
 20
21.55176695280107
 30
0.0
  0
SPLINE
  5
186
330
1F
100
AcDbEntity
  8
2D capped arms
100
AcDbSpline
210
0.0
220
0.0
230
1.0
 70
     8
 71
     2
 72
     8
 73
     5
 74
     0
 42
0.0000000001
 43
0.0000000001
 40
0.0
 40
0.0
 40
0.0
 40
1.0
 40
2.0
 40
3.0
 40
3.0
 40
3.0
 10
-11.20976596540232
 20
21.55176698357009
 30
0.0
 10
-11.22899861286719
 20
21.55182083918644
 30
0.0
 10
-11.2627161599176
 20
21.57032234513954
 30
0.0
 10
-11.28333011570626
 20
21.60279148960235
 30
0.0
 10
-11.28461027091359
 20
21.62198149992586
 30
0.0
  0
SPLINE
  5
187
330
1F
100
AcDbEntity
  8
2D capped arms
100
AcDbSpline
210
0.0
220
0.0
230
1.0
 70
    24
 71
     2
 72
     6
 73
     3
 74
     0
 42
0.0000000001
 43
0.0000000001
 40
0.0
 40
0.0
 40
0.0
 40
1.227767846525183
 40
1.227767846525183
 40
1.227767846525183
 10
-9.98196536874859
 20
21.55176695280107
 30
0.0
 10
-10.59586566707545
 20
21.55176696818558
 30
0.0
 10
-11.20976596540232
 20
21.55176698357009
 30
0.0
  0
SPLINE
  5
188
330
1F
100
AcDbEntity
  8
2D capped arms
100
AcDbSpline
210
0.0
220
0.0
230
1.0
 70
     8
 71
     2
 72
     8
 73
     5
 74
     0
 42
0.0000000001
 43
0.0000000001
 40
-3.0
 40
-3.0
 40
-3.0
 40
-2.0
 40
-1.0
 40
0.0
 40
0.0
 40
0.0
 10
-9.907149400154873
 20
21.6315867345264
 30
0.0
 10
-9.905910622389554
 20
21.61070894740864
 30
0.0
 10
-9.925453483987049
 20
21.57379844850512
 30
0.0
 10
-9.961011519252125
 20
21.55189598491576
 30
0.0
 10
-9.98196536874859
 20
21.55176695280107
 30
0.0
  0
SPLINE
  5
189
330
1F
100
AcDbEntity
  8
2D capped arms
100
AcDbSpline
210
0.0
220
0.0
230
1.0
 70
     8
 71
     5
 72
    12
 73
     6
 74
     0
 42
0.0000000001
 43
0.0000000001
 40
0.0
 40
0.0
 40
0.0
 40
0.0
 40
0.0
 40
0.0
 40
0.7134751679787072
 40
0.7134751679787072
 40
0.7134751679787072
 40
0.7134751679787072
 40
0.7134751679787072
 40
0.7134751679787072
 10
9.82224153359484
 20
25.92949497164363
 30
0.0
 10
9.82328471375687
 20
25.94491083913304
 30
0.0
 10
9.824329126951497
 20
25.96032662318407
 30
0.0
 10
9.834668544330615
 20
25.97624312827229
 30
0.0
 10
9.848475072340014
 20
25.98873255382947
 30
0.0
 10
9.863042090290618
 20
25.99796904415877
 30
0.0
  0
SPLINE
  5
18A
330
1F
100
AcDbEntity
  8
2D capped arms
100
AcDbSpline
210
0.0
220
0.0
230
1.0
 70
     8
 71
     2
 72
     8
 73
     5
 74
     0
 42
0.0000000001
 43
0.0000000001
 40
0.0
 40
0.0
 40
0.0
 40
1.0
 40
2.0
 40
3.0
 40
3.0
 40
3.0
 10
9.340885134055723
 20
17.79408000189264
 30
0.0
 10
9.41944858809351
 20
19.15012207844008
 30
0.0
 10
9.577625739690353
 20
21.86211784305268
 30
0.0
 10
9.730553738716369
 20
24.57455461935391
 30
0.0
 10
9.82224153359484
 20
25.92949497164363
 30
0.0
  0
SPLINE
  5
18B
330
1F
100
AcDbEntity
  8
2D capped arms
100
AcDbSpline
210
0.0
220
0.0
230
1.0
 70
     8
 71
     5
 72
    12
 73
     6
 74
     0
 42
0.0000000001
 43
0.0000000001
 40
0.0
 40
0.0
 40
0.0
 40
0.0
 40
0.0
 40
0.0
 40
1.0
 40
1.0
 40
1.0
 40
1.0
 40
1.0
 40
1.0
 10
11.50261004634484
 20
25.9981304057859
 30
0.0
 10
11.50319602680375
 20
26.03580402086701
 30
0.0
 10
11.50371871952558
 20
26.07347862033406
 30
0.0
 10
11.51272771574514
 20
26.16424944912296
 30
0.0
 10
11.47547315959591
 20
26.16989725366002
 30
0.0
 10
11.43816366230726
 20
26.17515520558501
 30
0.0
  0
SPLINE
  5
18C
330
1F
100
AcDbEntity
  8
2D capped arms
100
AcDbSpline
210
0.0
220
0.0
230
1.0
 70
    12
 71
     5
 72
    32
 73
    26
 74
     0
 42
0.0000000001
 43
0.0000000001
 40
-1.45431335464366
 40
-1.45431335464366
 40
-1.45431335464366
 40
-1.45431335464366
 40
-1.45431335464366
 40
-1.45431335464366
 40
-1.174623323756281
 40
-1.174623323756281
 40
-1.174623323756281
 40
-1.174623323756281
 40
-1.174623323756281
 40
-0.1746233237562808
 40
-0.1746233237562808
 40
-0.1746233237562808
 40
-0.1746233237562808
 40
-0.1746233237562808
 40
-0.0958915208038169
 40
-0.0958915208038169
 40
-0.0958915208038169
 40
-0.0958915208038169
 40
-0.0958915208038169
 40
0.0
 40
0.0
 40
0.0
 40
0.0
 40
0.0
 40
0.2498385031232506
 40
0.2498385031232506
 40
0.2498385031232506
 40
0.2498385031232506
 40
0.2498385031232506
 40
0.2498385031232506
 10
10.18066679531256
 20
26.17522401313339
 30
0.0
 41
1.0
 10
10.12527527940619
 20
26.16742398103699
 30
0.0
 41
1.0
 10
10.05486772653401
 20
26.15059276857784
 30
0.0
 41
1.0
 10
10.00012623491524
 20
26.1390849612079
 30
0.0
 41
1.0
 10
9.945384743296472
 20
26.12757715383797
 30
0.0
 41
1.0
 10
9.890643251677702
 20
26.11606934646804
 30
0.0
 41
1.0
 10
9.882890332476974
 20
26.11443952057038
 30
0.0
 41
1.0
 10
9.875137413276246
 20
26.11280969467273
 30
0.0
 41
1.0
 10
9.862833207407661
 20
26.10369648273674
 30
0.0
 41
1.0
 10
9.862837974835484
 20
26.09577410519832
 30
0.0
 41
1.0
 10
9.862842744423087
 20
26.0878517276612
 30
0.0
 41
1.0
 10
9.862852241423473
 20
26.07210536993464
 30
0.0
 41
1.0
 10
9.86286173842386
 20
26.05635901220808
 30
0.0
 41
1.0
 10
9.862871235424244
 20
26.04061265448153
 30
0.0
 41
1.0
 10
9.862880732424632
 20
26.02486629675496
 30
0.0
 41
1.0
 10
9.862890229425016
 20
26.00911993902841
 30
0.0
 41
1.0
 10
9.86290180113711
 20
25.98993363696448
 30
0.0
 41
0.9974980170763821
 10
9.86398600390178
 20
25.97075987729654
 30
0.0
 41
0.9962470256145732
 10
9.866142794127086
 20
25.95167093697835
 30
0.0
 41
0.9962470256145732
 10
9.86936405713177
 20
25.93273863600637
 30
0.0
 41
0.9974980170763821
 10
9.87363370865921
 20
25.91403343895776
 30
0.0
 41
1.0
 10
9.922672341948537
 20
25.92362424449377
 30
0.0
 41
1.0
 10
9.971710975237864
 20
25.93321505002978
 30
0.0
 41
1.0
 10
10.02074960852719
 20
25.94280585556579
 30
0.0
 41
1.0
 10
10.06978824181652
 20
25.95239666110181
 30
0.0
 41
1.0
 10
10.11882687510584
 20
25.96198746663782
 30
0.0
 41
1.0
  0
SPLINE
  5
18D
330
1F
100
AcDbEntity
  8
2D capped arms
100
AcDbSpline
210
0.0
220
0.0
230
1.0
 70
    12
 71
     2
 72
     6
 73
     3
 74
     0
 42
0.0000000001
 43
0.0000000001
 40
0.0
 40
0.0
 40
0.0
 40
1.261611230899339
 40
1.261611230899339
 40
1.261611230899339
 10
11.43816366230726
 20
26.17515520558501
 30
0.0
 41
1.0
 10
10.80942007534429
 20
26.26376276649157
 30
0.0
 41
0.990222798549203
 10
10.18066679531256
 20
26.17522401313339
 30
0.0
 41
1.0
  0
SPLINE
  5
18E
330
1F
100
AcDbEntity
  8
2D capped arms
100
AcDbSpline
210
0.0
220
0.0
230
1.0
 70
    12
 71
     2
 72
     6
 73
     3
 74
     0
 42
0.0000000001
 43
0.0000000001
 40
0.0
 40
0.0
 40
0.0
 40
0.9240233869306351
 40
0.9240233869306351
 40
0.9240233869306351
 10
9.469954316196402
 20
18.74073288217992
 30
0.0
 41
1.0
 10
9.409748873027656
 20
18.25591314931386
 30
0.0
 41
0.999320161967275
 10
9.388087208663249
 20
17.79419978087001
 30
0.0
 41
1.0
  0
SPLINE
  5
18F
330
1F
100
AcDbEntity
  8
2D capped arms
100
AcDbSpline
210
0.0
220
0.0
230
1.0
 70
     8
 71
     2
 72
     9
 73
     6
 74
     0
 42
0.0000000001
 43
0.0000000001
 40
0.0
 40
0.0
 40
0.0
 40
1.0
 40
2.0
 40
3.0
 40
4.0
 40
4.0
 40
4.0
 10
9.849892277378101
 20
20.86906243844109
 30
0.0
 10
9.80262265068132
 20
20.60298141518528
 30
0.0
 10
9.70803420978737
 20
20.0708281211188
 30
0.0
 10
9.61368819664944
 20
19.53863138251254
 30
0.0
 10
9.517772884685494
 20
19.00671569309978
 30
0.0
 10
9.469954316196402
 20
18.74073288217992
 30
0.0
  0
SPLINE
  5
190
330
1F
100
AcDbEntity
  8
2D capped arms
100
AcDbSpline
210
0.0
220
0.0
230
1.0
 70
     8
 71
     5
 72
    12
 73
     6
 74
     0
 42
0.0000000001
 43
0.0000000001
 40
0.0
 40
0.0
 40
0.0
 40
0.0
 40
0.0
 40
0.0
 40
1.0
 40
1.0
 40
1.0
 40
1.0
 40
1.0
 40
1.0
 10
9.897400673067144
 20
21.41307353510809
 30
0.0
 10
9.890957635572141
 20
21.30404742765603
 30
0.0
 10
9.883841309417432
 20
21.19506110905987
 30
0.0
 10
9.888103811209172
 20
21.08412684283085
 30
0.0
 10
9.868998041014612
 20
20.97659464121857
 30
0.0
 10
9.849892277378101
 20
20.86906243844109
 30
0.0
  0
ARC
  5
191
330
1F
100
AcDbEntity
  8
2D capped arms
100
AcDbCircle
 10
-78.81330164633339
 20
26.55590979550342
 30
0.0
 40
88.85965040895971
100
AcDbArc
 50
356.6820985542904
 51
356.7534853230828
  0
SPLINE
  5
192
330
1F
100
AcDbEntity
  8
2D capped arms
100
AcDbSpline
210
0.0
220
0.0
230
1.0
 70
     8
 71
     2
 72
    13
 73
    10
 74
     0
 42
0.0000000001
 43
0.0000000001
 40
0.0
 40
0.0
 40
0.0
 40
1.0
 40
2.0
 40
3.0
 40
4.0
 40
5.0
 40
6.0
 40
7.0
 40
8.0
 40
8.0
 40
8.0
 10
10.12254536453911
 20
26.00305361366271
 30
0.0
 10
10.13057287160062
 20
25.72266247325958
 30
0.0
 10
10.09634343256316
 20
25.16279199425734
 30
0.0
 10
10.06940437899545
 20
24.60281074676825
 30
0.0
 10
10.04050056281625
 20
24.04288462937404
 30
0.0
 10
10.01121995210483
 20
23.4829858782598
 30
0.0
 10
9.981290144326595
 20
22.92312020886384
 30
0.0
 10
9.95075790254378
 20
22.36328711399397
 30
0.0
 10
9.919615259174408
 20
21.80348782635793
 30
0.0
 10
9.9037394516682
 20
21.52360519243823
 30
0.0
  0
ARC
  5
193
330
1F
100
AcDbEntity
  8
2D capped arms
100
AcDbCircle
 10
9.694503982049158
 20
25.99079892824142
 30
0.0
 40
0.4282167703846739
100
AcDbArc
 50
1.639911555619307
 51
17.37632321042631
  0
SPLINE
  5
194
330
1F
100
AcDbEntity
  8
2D capped arms
100
AcDbSpline
210
0.0
220
0.0
230
1.0
 70
     8
 71
     5
 72
    12
 73
     6
 74
     0
 42
0.0000000001
 43
0.0000000001
 40
0.0
 40
0.0
 40
0.0
 40
0.0
 40
0.0
 40
0.0
 40
1.0
 40
1.0
 40
1.0
 40
1.0
 40
1.0
 40
1.0
 10
-11.50261004634484
 20
25.9981304057859
 30
0.0
 10
-11.50319602680375
 20
26.03580402086701
 30
0.0
 10
-11.50371871952558
 20
26.07347862033406
 30
0.0
 10
-11.51272771574514
 20
26.16424944912296
 30
0.0
 10
-11.47547315959591
 20
26.16989725366002
 30
0.0
 10
-11.43816366230726
 20
26.17515520558501
 30
0.0
  0
SPLINE
  5
195
330
1F
100
AcDbEntity
  8
2D capped arms
100
AcDbSpline
210
0.0
220
0.0
230
1.0
 70
    12
 71
     5
 72
    32
 73
    26
 74
     0
 42
0.0000000001
 43
0.0000000001
 40
-1.45431335464366
 40
-1.45431335464366
 40
-1.45431335464366
 40
-1.45431335464366
 40
-1.45431335464366
 40
-1.45431335464366
 40
-1.174623323756281
 40
-1.174623323756281
 40
-1.174623323756281
 40
-1.174623323756281
 40
-1.174623323756281
 40
-0.1746233237562808
 40
-0.1746233237562808
 40
-0.1746233237562808
 40
-0.1746233237562808
 40
-0.1746233237562808
 40
-0.0958915208038169
 40
-0.0958915208038169
 40
-0.0958915208038169
 40
-0.0958915208038169
 40
-0.0958915208038169
 40
0.0
 40
0.0
 40
0.0
 40
0.0
 40
0.0
 40
0.2498385031232506
 40
0.2498385031232506
 40
0.2498385031232506
 40
0.2498385031232506
 40
0.2498385031232506
 40
0.2498385031232506
 10
-10.18066679531256
 20
26.17522401313339
 30
0.0
 41
1.0
 10
-10.12527527940619
 20
26.16742398103699
 30
0.0
 41
1.0
 10
-10.05486772653401
 20
26.15059276857784
 30
0.0
 41
1.0
 10
-10.00012623491524
 20
26.1390849612079
 30
0.0
 41
1.0
 10
-9.945384743296472
 20
26.12757715383797
 30
0.0
 41
1.0
 10
-9.890643251677702
 20
26.11606934646804
 30
0.0
 41
1.0
 10
-9.882890332476974
 20
26.11443952057038
 30
0.0
 41
1.0
 10
-9.875137413276246
 20
26.11280969467273
 30
0.0
 41
1.0
 10
-9.862833207407661
 20
26.10369648273674
 30
0.0
 41
1.0
 10
-9.862837974835484
 20
26.09577410519832
 30
0.0
 41
1.0
 10
-9.862842744423087
 20
26.0878517276612
 30
0.0
 41
1.0
 10
-9.862852241423473
 20
26.07210536993464
 30
0.0
 41
1.0
 10
-9.86286173842386
 20
26.05635901220808
 30
0.0
 41
1.0
 10
-9.862871235424244
 20
26.04061265448153
 30
0.0
 41
1.0
 10
-9.862880732424632
 20
26.02486629675496
 30
0.0
 41
1.0
 10
-9.862890229425016
 20
26.00911993902841
 30
0.0
 41
1.0
 10
-9.86290180113711
 20
25.98993363696448
 30
0.0
 41
0.9974980170763821
 10
-9.86398600390178
 20
25.97075987729654
 30
0.0
 41
0.9962470256145732
 10
-9.866142794127086
 20
25.95167093697835
 30
0.0
 41
0.9962470256145732
 10
-9.86936405713177
 20
25.93273863600637
 30
0.0
 41
0.9974980170763821
 10
-9.87363370865921
 20
25.91403343895776
 30
0.0
 41
1.0
 10
-9.922672341948537
 20
25.92362424449377
 30
0.0
 41
1.0
 10
-9.971710975237864
 20
25.93321505002978
 30
0.0
 41
1.0
 10
-10.02074960852719
 20
25.94280585556579
 30
0.0
 41
1.0
 10
-10.06978824181652
 20
25.95239666110181
 30
0.0
 41
1.0
 10
-10.11882687510584
 20
25.96198746663782
 30
0.0
 41
1.0
  0
SPLINE
  5
196
330
1F
100
AcDbEntity
  8
2D capped arms
100
AcDbSpline
210
0.0
220
0.0
230
1.0
 70
    12
 71
     2
 72
     6
 73
     3
 74
     0
 42
0.0000000001
 43
0.0000000001
 40
0.0
 40
0.0
 40
0.0
 40
1.261611230899339
 40
1.261611230899339
 40
1.261611230899339
 10
-11.43816366230726
 20
26.17515520558501
 30
0.0
 41
1.0
 10
-10.80942007534429
 20
26.26376276649157
 30
0.0
 41
0.990222798549203
 10
-10.18066679531256
 20
26.17522401313339
 30
0.0
 41
1.0
  0
SPLINE
  5
197
330
1F
100
AcDbEntity
  8
2D capped arms
100
AcDbSpline
210
0.0
220
0.0
230
1.0
 70
     8
 71
     5
 72
    12
 73
     6
 74
     0
 42
0.0000000001
 43
0.0000000001
 40
0.0
 40
0.0
 40
0.0
 40
0.0
 40
0.0
 40
0.0
 40
0.7134751679787072
 40
0.7134751679787072
 40
0.7134751679787072
 40
0.7134751679787072
 40
0.7134751679787072
 40
0.7134751679787072
 10
-9.82224153359484
 20
25.92949497164363
 30
0.0
 10
-9.82328471375687
 20
25.94491083913304
 30
0.0
 10
-9.824329126951497
 20
25.96032662318407
 30
0.0
 10
-9.834668544330615
 20
25.97624312827229
 30
0.0
 10
-9.848475072340014
 20
25.98873255382947
 30
0.0
 10
-9.863042090290618
 20
25.99796904415877
 30
0.0
  0
SPLINE
  5
198
330
1F
100
AcDbEntity
  8
2D capped arms
100
AcDbSpline
210
0.0
220
0.0
230
1.0
 70
     8
 71
     2
 72
     8
 73
     5
 74
     0
 42
0.0000000001
 43
0.0000000001
 40
0.0
 40
0.0
 40
0.0
 40
1.0
 40
2.0
 40
3.0
 40
3.0
 40
3.0
 10
-9.340885134055723
 20
17.79408000189264
 30
0.0
 10
-9.41944858809351
 20
19.15012207844008
 30
0.0
 10
-9.577625739690353
 20
21.86211784305268
 30
0.0
 10
-9.730553738716369
 20
24.57455461935391
 30
0.0
 10
-9.82224153359484
 20
25.92949497164363
 30
0.0
  0
SPLINE
  5
199
330
1F
100
AcDbEntity
  8
2D capped arms
100
AcDbSpline
210
0.0
220
0.0
230
1.0
 70
    12
 71
     2
 72
     6
 73
     3
 74
     0
 42
0.0000000001
 43
0.0000000001
 40
0.0
 40
0.0
 40
0.0
 40
0.9240233869306351
 40
0.9240233869306351
 40
0.9240233869306351
 10
-9.469954316196402
 20
18.74073288217992
 30
0.0
 41
1.0
 10
-9.409748873027656
 20
18.25591314931386
 30
0.0
 41
0.999320161967275
 10
-9.388087208663249
 20
17.79419978087001
 30
0.0
 41
1.0
  0
SPLINE
  5
19A
330
1F
100
AcDbEntity
  8
2D capped arms
100
AcDbSpline
210
0.0
220
0.0
230
1.0
 70
     8
 71
     2
 72
     9
 73
     6
 74
     0
 42
0.0000000001
 43
0.0000000001
 40
0.0
 40
0.0
 40
0.0
 40
1.0
 40
2.0
 40
3.0
 40
4.0
 40
4.0
 40
4.0
 10
-9.849892277378101
 20
20.86906243844109
 30
0.0
 10
-9.80262265068132
 20
20.60298141518528
 30
0.0
 10
-9.70803420978737
 20
20.0708281211188
 30
0.0
 10
-9.61368819664944
 20
19.53863138251254
 30
0.0
 10
-9.517772884685494
 20
19.00671569309978
 30
0.0
 10
-9.469954316196402
 20
18.74073288217992
 30
0.0
  0
SPLINE
  5
19B
330
1F
100
AcDbEntity
  8
2D capped arms
100
AcDbSpline
210
0.0
220
0.0
230
1.0
 70
     8
 71
     5
 72
    12
 73
     6
 74
     0
 42
0.0000000001
 43
0.0000000001
 40
0.0
 40
0.0
 40
0.0
 40
0.0
 40
0.0
 40
0.0
 40
1.0
 40
1.0
 40
1.0
 40
1.0
 40
1.0
 40
1.0
 10
-9.897400673067144
 20
21.41307353510809
 30
0.0
 10
-9.890957635572141
 20
21.30404742765603
 30
0.0
 10
-9.883841309417432
 20
21.19506110905987
 30
0.0
 10
-9.888103811209172
 20
21.08412684283085
 30
0.0
 10
-9.868998041014612
 20
20.97659464121857
 30
0.0
 10
-9.849892277378101
 20
20.86906243844109
 30
0.0
  0
ARC
  5
19C
330
1F
100
AcDbEntity
  8
2D capped arms
100
AcDbCircle
 10
78.81330164633339
 20
26.55590979550342
 30
0.0
 40
88.85965040895971
100
AcDbArc
 50
183.2465146769171
 51
183.3179014457095
  0
SPLINE
  5
19D
330
1F
100
AcDbEntity
  8
2D capped arms
100
AcDbSpline
210
0.0
220
0.0
230
1.0
 70
     8
 71
     2
 72
    13
 73
    10
 74
     0
 42
0.0000000001
 43
0.0000000001
 40
0.0
 40
0.0
 40
0.0
 40
1.0
 40
2.0
 40
3.0
 40
4.0
 40
5.0
 40
6.0
 40
7.0
 40
8.0
 40
8.0
 40
8.0
 10
-10.12254536453911
 20
26.00305361366271
 30
0.0
 10
-10.13057287160062
 20
25.72266247325958
 30
0.0
 10
-10.09634343256316
 20
25.16279199425734
 30
0.0
 10
-10.06940437899545
 20
24.60281074676825
 30
0.0
 10
-10.04050056281625
 20
24.04288462937404
 30
0.0
 10
-10.01121995210483
 20
23.4829858782598
 30
0.0
 10
-9.981290144326595
 20
22.92312020886384
 30
0.0
 10
-9.95075790254378
 20
22.36328711399397
 30
0.0
 10
-9.919615259174408
 20
21.80348782635793
 30
0.0
 10
-9.9037394516682
 20
21.52360519243823
 30
0.0
  0
ARC
  5
19E
330
1F
100
AcDbEntity
  8
2D capped arms
100
AcDbCircle
 10
-9.852696780736672
 20
25.99532793656429
 30
0.0
 40
0.2699591529598674
100
AcDbArc
 50
155.2524096826846
 51
178.3600884443807
  0
ARC
  5
19F
330
1F
100
AcDbEntity
  8
2D capped arms
100
AcDbCircle
 10
40.54860842846968
 20
21.62697509027969
 30
0.0
 40
0.1
100
AcDbArc
 50
254.9770341532365
 51
335.3164838143799
  0
POLYLINE
  5
1A0
330
1F
100
AcDbEntity
  8
2D capped arms
100
AcDb2dPolyline
 66
     1
 10
0.0
 20
0.0
 30
0.0
  0
VERTEX
  5
1A1
330
1A0
100
AcDbEntity
  8
2D capped arms
100
AcDbVertex
100
AcDb2dVertex
 10
40.45586288224916
 20
21.54832728636926
 30
0.0
  0
VERTEX
  5
1A2
330
1A0
100
AcDbEntity
  8
2D capped arms
100
AcDbVertex
100
AcDb2dVertex
 10
40.52268780886934
 20
21.53039288964451
 30
0.0
  0
SEQEND
  5
1A3
330
1A0
100
AcDbEntity
  8
2D capped arms
  0
SPLINE
  5
1A4
330
1F
100
AcDbEntity
  8
2D capped arms
100
AcDbSpline
210
0.0
220
0.0
230
1.0
 70
     8
 71
     3
 72
    11
 73
     7
 74
     0
 42
0.0000000001
 43
0.0000000001
 40
0.0
 40
0.0
 40
0.0
 40
0.0
 40
0.1504320792851677
 40
0.2478622997259575
 40
0.3209359748378571
 40
0.3212850966482477
 40
0.3212850966482477
 40
0.3212850966482477
 40
0.3212850966482477
 10
40.49574876139971
 20
21.86762917492773
 30
0.0
 10
40.48460690996671
 20
21.81647634571282
 30
0.0
 10
40.46621943619645
 20
21.73585178910409
 30
0.0
 10
40.4513512233375
 20
21.62982361502059
 30
0.0
 10
40.45161535756998
 20
21.57257136312831
 30
0.0
 10
40.45584268791386
 20
21.54844200901617
 30
0.0
 10
40.45586288224916
 20
21.54832728636926
 30
0.0
  0
SPLINE
  5
1A5
330
1F
100
AcDbEntity
  8
2D capped arms
100
AcDbSpline
210
0.0
220
0.0
230
1.0
 70
    12
 71
     2
 72
     6
 73
     3
 74
     0
 42
0.0000000001
 43
0.0000000001
 40
0.0
 40
0.0
 40
0.0
 40
3.682771500870129
 40
3.682771500870129
 40
3.682771500870129
 10
40.72880236535487
 20
25.53347000678261
 30
0.0
 41
1.0
 10
40.8872890380469
 20
23.68323607065
 30
0.0
 41
0.9889316273108649
 10
40.49574876139971
 20
21.86762917492773
 30
0.0
 41
1.0
  0
SPLINE
  5
1A6
330
1F
100
AcDbEntity
  8
2D capped arms
100
AcDbSpline
210
0.0
220
0.0
230
1.0
 70
    12
 71
     3
 72
    13
 73
     9
 74
     0
 42
0.0000000001
 43
0.0000000001
 40
0.0026243292412387
 40
0.0026243292412387
 40
0.0026243292412387
 40
0.0026243292412387
 40
0.1666666666667
 40
0.3333333333333
 40
0.5
 40
0.6666666666667
 40
0.8333333333333
 40
0.9938628225210552
 40
0.9938628225210552
 40
0.9938628225210552
 40
0.9938628225210552
 10
40.19245259070445
 20
25.95796481609563
 30
0.0
 41
1.0
 10
40.24455331397075
 20
25.95809123836495
 30
0.0
 41
1.0
 10
40.34124053385251
 20
25.9466891734927
 30
0.0
 41
1.0
 10
40.47055490803633
 20
25.89911135629864
 30
0.0
 41
1.0
 10
40.578819726483
 20
25.82549251442142
 30
0.0
 41
1.0
 10
40.66003920912588
 20
25.7339605655459
 30
0.0
 41
1.0
 10
40.7108083344273
 20
25.6341446693257
 30
0.0
 41
1.0
 10
40.72550457673509
 20
25.56814459858606
 30
0.0
 41
1.0
 10
40.72880236535487
 20
25.53347000678261
 30
0.0
 41
1.0
  0
SPLINE
  5
1A7
330
1F
100
AcDbEntity
  8
2D capped arms
100
AcDbSpline
210
0.0
220
0.0
230
1.0
 70
     8
 71
     2
 72
     8
 73
     5
 74
     0
 42
0.0000000001
 43
0.0000000001
 40
-3.0
 40
-3.0
 40
-3.0
 40
-2.0
 40
-1.0
 40
0.0
 40
0.0
 40
0.0
 10
32.23543857311637
 20
25.91182928228196
 30
0.0
 10
33.5614095620045
 20
25.91867728631294
 30
0.0
 10
36.21333859682943
 20
25.93389683719296
 30
0.0
 10
38.86526655557124
 20
25.94999747600577
 30
0.0
 10
40.19245259070445
 20
25.95796481609563
 30
0.0
  0
SPLINE
  5
1A8
330
1F
100
AcDbEntity
  8
2D capped arms
100
AcDbSpline
210
0.0
220
0.0
230
1.0
 70
    12
 71
     3
 72
    10
 73
     6
 74
     0
 42
0.0000000001
 43
0.0000000001
 40
0.1989413916992117
 40
0.1989413916992117
 40
0.1989413916992117
 40
0.1989413916992117
 40
0.5051351524986653
 40
0.5051351524986653
 40
1.0
 40
1.0
 40
1.0
 40
1.0
 10
31.82815492729604
 20
25.91723032248966
 30
0.0
 41
1.0
 10
31.87703630087628
 20
25.91316592803339
 30
0.0
 41
1.0
 10
31.92610972118525
 20
25.91341501278343
 30
0.0
 41
1.0
 10
32.05792276602719
 20
25.91112925603797
 30
0.0
 41
1.0
 10
32.15575146640595
 20
25.91141773660521
 30
0.0
 41
1.0
 10
32.23543857311637
 20
25.91182928228196
 30
0.0
 41
1.0
  0
POLYLINE
  5
1A9
330
1F
100
AcDbEntity
  8
2D capped arms
100
AcDb2dPolyline
 66
     1
 10
0.0
 20
0.0
 30
0.0
  0
VERTEX
  5
1AA
330
1A9
100
AcDbEntity
  8
2D capped arms
100
AcDbVertex
100
AcDb2dVertex
 10
31.82815492729605
 20
26.01515779579325
 30
0.0
  0
VERTEX
  5
1AB
330
1A9
100
AcDbEntity
  8
2D capped arms
100
AcDbVertex
100
AcDb2dVertex
 10
31.82815492729604
 20
25.91723032248966
 30
0.0
  0
SEQEND
  5
1AC
330
1A9
100
AcDbEntity
  8
2D capped arms
  0
ARC
  5
1AD
330
1F
100
AcDbEntity
  8
2D capped arms
100
AcDbCircle
 10
31.92815492729605
 20
26.01515779579324
 30
0.0
 40
0.1
100
AcDbArc
 50
92.91194436802635
 51
179.9999999999939
  0
SPLINE
  5
1AE
330
1F
100
AcDbEntity
  8
2D capped arms
100
AcDbSpline
210
0.0
220
0.0
230
1.0
 70
     8
 71
     2
 72
     6
 73
     3
 74
     0
 42
0.0000000001
 43
0.0000000001
 40
0.0
 40
0.0
 40
0.0
 40
0.9394750652929833
 40
0.9394750652929833
 40
0.9394750652929833
 10
33.39733392829083
 20
26.16790988001713
 30
0.0
 10
32.65978084490705
 20
26.15250256802234
 30
0.0
 10
31.92307481324093
 20
26.11502867463781
 30
0.0
  0
ARC
  5
1AF
330
1F
100
AcDbEntity
  8
2D capped arms
100
AcDbCircle
 10
35.92191067485852
 20
-121.548901107271
 30
0.0
 40
147.738382744646
100
AcDbArc
 50
90.36717959157518
 51
90.9791269574823
  0
LINE
  5
1B0
330
1F
100
AcDbEntity
  8
2D capped arms
100
AcDbLine
 10
40.19081126375183
 20
26.22126590728978
 30
0.0
 11
34.97513679043767
 21
26.18644793017264
 31
0.0
  0
ARC
  5
1B1
330
1F
100
AcDbEntity
  8
2D capped arms
100
AcDbCircle
 10
40.2135022467459
 20
25.43754946077935
 30
0.0
 40
0.7840448643031683
100
AcDbArc
 50
9.04189996807508
 51
91.65842437704717
  0
ARC
  5
1B2
330
1F
100
AcDbEntity
  8
2D capped arms
100
AcDbCircle
 10
40.44490600107105
 20
25.50270399803873
 30
0.0
 40
0.5459944472681257
100
AcDbArc
 50
3.588311898317373
 51
6.104620687163493
  0
SPLINE
  5
1B3
330
1F
100
AcDbEntity
  8
2D capped arms
100
AcDbSpline
210
0.0
220
0.0
230
1.0
 70
    12
 71
     2
 72
     6
 73
     3
 74
     0
 42
0.0000000001
 43
0.0000000001
 40
0.0
 40
0.0
 40
0.0
 40
1.059725285964413
 40
1.059725285964413
 40
1.059725285964413
 10
41.03442056271754
 20
24.46072356525123
 30
0.0
 41
1.0
 10
41.0346836098703
 20
24.99089360312286
 30
0.0
 41
0.999130335937241
 10
40.98983003532592
 20
25.53687611150888
 30
0.0
 41
1.0
  0
SPLINE
  5
1B4
330
1F
100
AcDbEntity
  8
2D capped arms
100
AcDbSpline
210
0.0
220
0.0
230
1.0
 70
     8
 71
     2
 72
     8
 73
     5
 74
     0
 42
0.0000000001
 43
0.0000000001
 40
0.0
 40
0.0
 40
0.0
 40
1.0
 40
2.0
 40
3.0
 40
3.0
 40
3.0
 10
40.73891200001881
 20
21.85665668081797
 30
0.0
 10
40.85650733502194
 20
22.27907892541623
 30
0.0
 10
40.97033680143254
 20
23.14880679836892
 30
0.0
 10
41.03420314238052
 20
24.02251411455908
 30
0.0
 10
41.03442056271754
 20
24.46072356525123
 30
0.0
  0
ARC
  5
1B5
330
1F
100
AcDbEntity
  8
2D capped arms
100
AcDbCircle
 10
38.98882432734896
 20
22.34385201388616
 30
0.0
 40
1.816635944429804
100
AcDbArc
 50
335.3164838143853
 51
344.4436807996235
  0
SPLINE
  5
1B6
330
1F
100
AcDbEntity
  8
2D capped arms
100
AcDbSpline
210
0.0
220
0.0
230
1.0
 70
     8
 71
     2
 72
     6
 73
     3
 74
     0
 42
0.0000000001
 43
0.0000000001
 40
0.0
 40
0.0
 40
0.0
 40
0.3342183165734394
 40
0.3342183165734394
 40
0.3342183165734394
 10
40.5765556882825
 20
21.37974540525745
 30
0.0
 10
40.59608715087577
 20
21.46549107780107
 30
0.0
 10
40.61423897349259
 20
21.55152556039384
 30
0.0
  0
SPLINE
  5
1B7
330
1F
100
AcDbEntity
  8
2D capped arms
100
AcDbSpline
210
0.0
220
0.0
230
1.0
 70
    12
 71
     2
 72
     6
 73
     3
 74
     0
 42
0.0000000001
 43
0.0000000001
 40
0.0
 40
0.0
 40
0.0
 40
0.8796073871403636
 40
0.8796073871403636
 40
0.8796073871403636
 10
39.98360799500149
 20
20.77514649301457
 30
0.0
 41
1.0
 10
40.44556227152839
 20
20.91792547955787
 30
0.0
 41
0.8788939342061022
 10
40.5765556882825
 20
21.37974540525745
 30
0.0
 41
1.0
  0
SPLINE
  5
1B8
330
1F
100
AcDbEntity
  8
2D capped arms
100
AcDbSpline
210
0.0
220
0.0
230
1.0
 70
     8
 71
     2
 72
    13
 73
    10
 74
     0
 42
0.0000000001
 43
0.0000000001
 40
-8.0
 40
-8.0
 40
-8.0
 40
-7.0
 40
-6.0
 40
-5.0
 40
-4.0
 40
-3.0
 40
-2.0
 40
-1.0
 40
0.0
 40
0.0
 40
0.0
 10
30.74891200427914
 20
18.62812640123416
 30
0.0
 10
31.3234121276062
 20
18.7730108186022
 30
0.0
 10
32.48321667957416
 20
19.0151527913113
 30
0.0
 10
33.64259643298793
 20
19.25920352553892
 30
0.0
 10
34.79606955227865
 20
19.52984077627918
 30
0.0
 10
35.94801507829088
 20
19.80678275704472
 30
0.0
 10
37.10022869535977
 20
20.08261893321581
 30
0.0
 10
38.25236056217439
 20
20.35878501595159
 30
0.0
 10
39.40471447020811
 20
20.6340773754356
 30
0.0
 10
39.98360799500149
 20
20.77514649301457
 30
0.0
  0
SPLINE
  5
1B9
330
1F
100
AcDbEntity
  8
2D capped arms
100
AcDbSpline
210
0.0
220
0.0
230
1.0
 70
     8
 71
     2
 72
     9
 73
     6
 74
     0
 42
0.0000000001
 43
0.0000000001
 40
-4.0
 40
-4.0
 40
-4.0
 40
-3.0
 40
-2.0
 40
-1.0
 40
0.0
 40
0.0
 40
0.0
 10
29.77733614086161
 20
17.65989549549381
 30
0.0
 10
29.82371400438545
 20
17.83454354663194
 30
0.0
 10
30.00432291540479
 20
18.14757582593857
 30
0.0
 10
30.26057985896396
 20
18.40242473638289
 30
0.0
 10
30.57430213899497
 20
18.58173796681289
 30
0.0
 10
30.74891200427914
 20
18.62812640123416
 30
0.0
  0
ARC
  5
1BA
330
1F
100
AcDbEntity
  8
2D capped arms
100
AcDbCircle
 10
13.74828904324219
 20
20.95380963699864
 30
0.0
 40
16.36399160441325
100
AcDbArc
 50
343.6523779303797
 51
348.3875727231787
  0
SPLINE
  5
1BB
330
1F
100
AcDbEntity
  8
2D capped arms
100
AcDbSpline
210
0.0
220
0.0
230
1.0
 70
     8
 71
     3
 72
    11
 73
     7
 74
     0
 42
0.0000000001
 43
0.0000000001
 40
0.0
 40
0.0
 40
0.0
 40
0.0
 40
0.0786638393364324
 40
0.1488950446331684
 40
0.3422785764926555
 40
0.9427519274702636
 40
0.9427519274702636
 40
0.9427519274702636
 40
0.9427519274702636
 10
28.97694762017956
 20
15.5685840730297
 30
0.0
 10
29.00168237956544
 20
15.57712153343336
 30
0.0
 10
29.04819319265334
 20
15.59547847392018
 30
0.0
 10
29.13987940045836
 20
15.66535433487197
 30
0.0
 10
29.30392230818711
 20
15.90517985981915
 30
0.0
 10
29.39445461573115
 20
16.15613586180609
 30
0.0
 10
29.45071197483753
 20
16.34792912328403
 30
0.0
  0
SPLINE
  5
1BC
330
1F
100
AcDbEntity
  8
2D capped arms
100
AcDbSpline
210
0.0
220
0.0
230
1.0
 70
     8
 71
     3
 72
    14
 73
    10
 74
     0
 42
0.0000000001
 43
0.0000000001
 40
-7.0
 40
-7.0
 40
-7.0
 40
-7.0
 40
-6.0
 40
-5.0
 40
-4.0
 40
-3.0
 40
-2.0
 40
-1.0
 40
0.0
 40
0.0
 40
0.0
 40
0.0
 10
25.91970735250587
 20
15.35335963968232
 30
0.0
 10
26.06397243267764
 20
15.32221845923477
 30
0.0
 10
26.35515649986863
 20
15.27192697954418
 30
0.0
 10
26.79660999572323
 20
15.23410244658461
 30
0.0
 10
27.23994022356253
 20
15.23023967377961
 30
0.0
 10
27.68110055046776
 20
15.27463128660347
 30
0.0
 10
28.11270039885238
 20
15.37590341996172
 30
0.0
 10
28.54490597283363
 20
15.47147127874992
 30
0.0
 10
28.83291691482211
 20
15.53637159430238
 30
0.0
 10
28.97694762017956
 20
15.5685840730297
 30
0.0
  0
ARC
  5
1BD
330
1F
100
AcDbEntity
  8
2D capped arms
100
AcDbCircle
 10
25.74344216115573
 20
16.83126743207004
 30
0.0
 40
1.181414126985068
100
AcDbArc
 50
278.4361422508336
 51
281.7407215111814
  0
LINE
  5
1BE
330
1F
100
AcDbEntity
  8
2D capped arms
100
AcDbLine
 10
27.23668939802035
 20
15.94718902649315
 30
0.0
 11
25.98384009021413
 21
15.6745703346654
 31
0.0
  0
SPLINE
  5
1BF
330
1F
100
AcDbEntity
  8
2D capped arms
100
AcDbSpline
210
0.0
220
0.0
230
1.0
 70
     8
 71
     2
 72
     9
 73
     6
 74
     0
 42
0.0000000001
 43
0.0000000001
 40
-4.0
 40
-4.0
 40
-4.0
 40
-3.0
 40
-2.0
 40
-1.0
 40
0.0
 40
0.0
 40
0.0
 10
27.86390455734362
 20
16.79800129806564
 30
0.0
 10
27.82793137862125
 20
16.66452185417679
 30
0.0
 10
27.72032080353124
 20
16.40962151644658
 30
0.0
 10
27.57534048852276
 20
16.17443342077695
 30
0.0
 10
27.37621027409137
 20
15.9754812844813
 30
0.0
 10
27.23668939802035
 20
15.94718902649315
 30
0.0
  0
SPLINE
  5
1C0
330
1F
100
AcDbEntity
  8
2D capped arms
100
AcDbSpline
210
0.0
220
0.0
230
1.0
 70
     8
 71
     2
 72
     9
 73
     6
 74
     0
 42
0.0000000001
 43
0.0000000001
 40
0.0
 40
0.0
 40
0.0
 40
1.0
 40
2.0
 40
3.0
 40
4.0
 40
4.0
 40
4.0
 10
30.04832811473128
 20
25.5519909211728
 30
0.0
 10
29.77277249066739
 20
24.45838743649028
 30
0.0
 10
29.2280690109176
 20
22.26952801855753
 30
0.0
 10
28.68227301847973
 20
20.08095037911568
 30
0.0
 10
28.13662418932005
 20
17.89233393780431
 30
0.0
 10
27.86390455734362
 20
16.79800129806564
 30
0.0
  0
SPLINE
  5
1C1
330
1F
100
AcDbEntity
  8
2D capped arms
100
AcDbSpline
210
0.0
220
0.0
230
1.0
 70
     8
 71
     3
 72
    11
 73
     7
 74
     0
 42
0.0000000001
 43
0.0000000001
 40
0.0
 40
0.0
 40
0.0
 40
0.0
 40
0.1009530459183112
 40
0.19118818175296
 40
0.3712512774978119
 40
0.7562575443430759
 40
0.7562575443430759
 40
0.7562575443430759
 40
0.7562575443430759
 10
30.57991239384232
 20
26.01110447668326
 30
0.0
 10
30.54637122980012
 20
26.01022605614622
 30
0.0
 10
30.48256392034558
 20
26.00211806103358
 30
0.0
 10
30.36425660130978
 20
25.96649073283776
 30
0.0
 10
30.17341226527278
 20
25.85071908166569
 30
0.0
 10
30.0817906259505
 20
25.67474354685459
 30
0.0
 10
30.04832811473128
 20
25.5519909211728
 30
0.0
  0
SPLINE
  5
1C2
330
1F
100
AcDbEntity
  8
2D capped arms
100
AcDbSpline
210
0.0
220
0.0
230
1.0
 70
     8
 71
     2
 72
     7
 73
     4
 74
     0
 42
0.0000000001
 43
0.0000000001
 40
6.966884291624159
 40
6.966884291624159
 40
6.966884291624159
 40
7.0
 40
8.0
 40
8.0
 40
8.0
 10
31.82952241390304
 20
26.03163891534797
 30
0.0
 10
31.80949796540095
 20
26.03114205557485
 30
0.0
 10
31.18478971189535
 20
26.01578118842045
 30
0.0
 10
30.57991239384232
 20
26.01110447668326
 30
0.0
  0
SPLINE
  5
1C3
330
1F
100
AcDbEntity
  8
2D capped arms
100
AcDbSpline
210
0.0
220
0.0
230
1.0
 70
    12
 71
     2
 72
    14
 73
    11
 74
     0
 42
0.0000000001
 43
0.0000000001
 40
0.0
 40
0.0
 40
0.0
 40
0.3609497472013973
 40
0.3609497472013973
 40
0.7218994944027946
 40
0.7218994944027946
 40
1.307886951959381
 40
1.307886951959381
 40
1.511153283803335
 40
1.511153283803335
 40
1.783193524728557
 40
1.783193524728557
 40
1.783193524728557
 10
25.97939754335275
 20
39.54330641997849
 30
0.0
 41
1.0
 10
25.78688081445789
 20
39.52097108694364
 30
0.0
 41
0.8999300838969511
 10
25.65811367875718
 20
39.26022607905114
 30
0.0
 41
1.0
 10
25.60053649482541
 20
39.07516818028255
 30
0.0
 41
0.8999300838969511
 10
25.71008668796269
 20
38.91529224966839
 30
0.0
 41
1.0
 10
25.87628408900714
 20
38.67286703821053
 30
0.0
 41
0.995257161757058
 10
26.08627798801109
 20
38.467211691464
 30
0.0
 41
1.0
 10
26.16403422803675
 20
38.39109730046097
 30
0.0
 41
0.9039478924574464
 10
26.27219719459912
 20
38.40293818316358
 30
0.0
 41
1.0
 10
26.40730808827232
 20
38.41863922718292
 30
0.0
 41
0.9999998941143872
 10
26.54243337445277
 20
38.4342159026103
 30
0.0
 41
1.0
  0
SPLINE
  5
1C4
330
1F
100
AcDbEntity
  8
2D capped arms
100
AcDbSpline
210
0.0
220
0.0
230
1.0
 70
    12
 71
     2
 72
    10
 73
     7
 74
     0
 42
0.0000000001
 43
0.0000000001
 40
0.0
 40
0.0
 40
0.0
 40
0.3641228485076689
 40
0.3641228485076689
 40
0.5510045773936852
 40
0.5510045773936852
 40
0.578018519990555
 40
0.578018519990555
 40
0.578018519990555
 10
26.55360663204809
 20
39.60955814819142
 30
0.0
 41
1.0
 10
26.37273254330983
 20
39.58879930864437
 30
0.0
 41
0.9999999277093499
 10
26.1918742934913
 20
39.56790292453594
 30
0.0
 41
1.0
 10
26.09905069174075
 20
39.55718031452897
 30
0.0
 41
0.9999999777134947
 10
26.00623162584866
 20
39.54641851104503
 30
0.0
 41
1.0
 10
25.99281451963754
 20
39.54486302565822
 30
0.0
 41
0.9999999991285156
 10
25.97939754335275
 20
39.54330641997849
 30
0.0
 41
1.0
  0
SPLINE
  5
1C5
330
1F
100
AcDbEntity
  8
2D capped arms
100
AcDbSpline
210
0.0
220
0.0
230
1.0
 70
    12
 71
     2
 72
     6
 73
     3
 74
     0
 42
0.0000000001
 43
0.0000000001
 40
0.0
 40
0.0
 40
0.0
 40
0.0929588428514462
 40
0.0929588428514462
 40
0.0929588428514462
 10
26.63249668151596
 20
39.56559173983177
 30
0.0
 41
1.0
 10
26.60273524111902
 20
39.60495044671641
 30
0.0
 41
0.9151465383998675
 10
26.55360663204809
 20
39.60955814819142
 30
0.0
 41
1.0
  0
SPLINE
  5
1C6
330
1F
100
AcDbEntity
  8
2D capped arms
100
AcDbSpline
210
0.0
220
0.0
230
1.0
 70
    12
 71
     3
 72
    10
 73
     6
 74
     0
 42
0.0000000001
 43
0.0000000001
 40
-0.9163870419755838
 40
-0.9163870419755838
 40
-0.9163870419755838
 40
-0.9163870419755838
 40
-0.4993694635676893
 40
-0.4993694635676893
 40
0.0
 40
0.0
 40
0.0
 40
0.0
 10
26.92721953619194
 20
38.81013333098258
 30
0.0
 41
1.0
 10
26.86891443361898
 20
38.98804673234098
 30
0.0
 41
1.0
 10
26.81872581208485
 20
39.13260508301776
 30
0.0
 41
1.0
 10
26.72164470921534
 20
39.39431078914232
 30
0.0
 41
1.0
 10
26.67727031548694
 20
39.50358173752642
 30
0.0
 41
1.0
 10
26.63249668151596
 20
39.56559173983177
 30
0.0
 41
1.0
  0
ARC
  5
1C7
330
1F
100
AcDbEntity
  8
2D capped arms
100
AcDbCircle
 10
93.04554013836103
 20
59.98303557371963
 30
0.0
 40
69.42567326739955
100
AcDbArc
 50
197.7564930727217
 51
198.4212482315125
  0
LINE
  5
1C8
330
1F
100
AcDbEntity
  8
2D capped arms
100
AcDbLine
 10
30.28326163904566
 20
28.72057912771735
 30
0.0
 11
27.17731560893398
 21
38.04445982293987
 31
0.0
  0
SPLINE
  5
1C9
330
1F
100
AcDbEntity
  8
2D capped arms
100
AcDbSpline
210
0.0
220
0.0
230
1.0
 70
     8
 71
     3
 72
     9
 73
     5
 74
     0
 42
0.0000000001
 43
0.0000000001
 40
1.198916184427209
 40
1.198916184427209
 40
1.198916184427209
 40
1.198916184427209
 40
1.542592829846058
 40
4.016827732386865
 40
4.016827732386865
 40
4.016827732386865
 40
4.016827732386865
 10
31.07018842039167
 20
26.01656951923549
 30
0.0
 10
31.04728571068403
 20
26.12883284975474
 30
0.0
 10
30.8425484049583
 20
27.04602763216488
 30
0.0
 10
30.54431215777547
 20
27.93876661689303
 30
0.0
 10
30.28326163904566
 20
28.72057912771735
 30
0.0
  0
ARC
  5
1CA
330
1F
100
AcDbEntity
  8
2D capped arms
100
AcDbCircle
 10
26.49415469064446
 20
39.43710503566101
 30
0.0
 40
0.2064649126004551
100
AcDbArc
 50
34.81864269299749
 51
51.25747542587064
  0
SPLINE
  5
1CB
330
1F
100
AcDbEntity
  8
2D capped arms
100
AcDbSpline
210
0.0
220
0.0
230
1.0
 70
     8
 71
     3
 72
    11
 73
     7
 74
     0
 42
0.0000000001
 43
0.0000000001
 40
14.11919578959064
 40
14.11919578959064
 40
14.11919578959064
 40
14.11919578959064
 40
14.70556371005929
 40
15.05962199407433
 40
15.31637980030215
 40
15.46591341759536
 40
15.46591341759536
 40
15.46591341759536
 40
15.46591341759536
 10
27.1250982331116
 20
38.29186166452136
 30
0.0
 10
27.06395383786605
 20
38.47777809511987
 30
0.0
 10
26.9700758173113
 20
38.77682727234004
 30
0.0
 10
26.83941708435641
 20
39.15403858479752
 30
0.0
 10
26.75017921078437
 20
39.39114063668086
 30
0.0
 10
26.69219220583869
 20
39.51396112835202
 30
0.0
 10
26.66365484151108
 20
39.55499252011678
 30
0.0
  0
SPLINE
  5
1CC
330
1F
100
AcDbEntity
  8
2D capped arms
100
AcDbSpline
210
0.0
220
0.0
230
1.0
 70
    12
 71
     2
 72
     6
 73
     3
 74
     0
 42
0.0000000001
 43
0.0000000001
 40
0.0
 40
0.0
 40
0.0
 40
10.07958858876169
 40
10.07958858876169
 40
10.07958858876169
 10
30.31400193073497
 20
28.72961486916196
 30
0.0
 41
1.0
 10
28.71822600594664
 20
33.51024395691126
 30
0.0
 41
0.9999999554031891
 10
27.1250982331116
 20
38.29186166452136
 30
0.0
 41
1.0
  0
SPLINE
  5
1CD
330
1F
100
AcDbEntity
  8
2D capped arms
100
AcDbSpline
210
0.0
220
0.0
230
1.0
 70
     8
 71
     3
 72
     9
 73
     5
 74
     0
 42
0.0000000001
 43
0.0000000001
 40
1.213701027524742
 40
1.213701027524742
 40
1.213701027524742
 40
1.213701027524742
 40
1.553485662426599
 40
4.039607200828957
 40
4.039607200828957
 40
4.039607200828957
 40
4.039607200828957
 10
31.10056330869551
 20
26.01701828254186
 30
0.0
 10
31.07793926414791
 20
26.12801773185701
 30
0.0
 10
30.87314549909001
 20
27.0479521303605
 30
0.0
 10
30.57539426432677
 20
27.94355395334202
 30
0.0
 10
30.31400193073497
 20
28.72961486916196
 30
0.0
  0
ARC
  5
1CE
330
1F
100
AcDbEntity
  8
2D capped arms
100
AcDbCircle
 10
26.72540099496689
 20
39.34226425254962
 30
0.0
 40
0.2754706987296339
100
AcDbArc
 50
71.11247829419024
 51
115.638721123343
  0
SPLINE
  5
1CF
330
1F
100
AcDbEntity
  8
2D capped arms
100
AcDbSpline
210
0.0
220
0.0
230
1.0
 70
     8
 71
     3
 72
    12
 73
     8
 74
     0
 42
0.0000000001
 43
0.0000000001
 40
14.41685288146131
 40
14.41685288146131
 40
14.41685288146131
 40
14.41685288146131
 40
15.06187419404755
 40
15.26738370123071
 40
15.4114568988427
 40
15.63516021303763
 40
15.82967204938244
 40
15.82967204938244
 40
15.82967204938244
 40
15.82967204938244
 10
27.46022249419326
 20
38.39073656273328
 30
0.0
 10
27.39150500602655
 20
38.59507993032285
 30
0.0
 10
27.30192159602721
 20
38.86393969956181
 30
0.0
 10
27.18084019902028
 20
39.17298667746393
 30
0.0
 10
27.10100935615397
 20
39.34622422981158
 30
0.0
 10
26.99684644617628
 20
39.50497487883998
 30
0.0
 10
26.87573564785755
 20
39.58197703926115
 30
0.0
 10
26.81457399090442
 20
39.60290247433245
 30
0.0
  0
SPLINE
  5
1D0
330
1F
100
AcDbEntity
  8
2D capped arms
100
AcDbSpline
210
0.0
220
0.0
230
1.0
 70
    12
 71
     2
 72
     6
 73
     3
 74
     0
 42
0.0000000001
 43
0.0000000001
 40
0.0
 40
0.0
 40
0.0
 40
10.07899932415277
 40
10.07899932415277
 40
10.07899932415277
 10
30.65511316028267
 20
28.83072738482306
 30
0.0
 41
1.0
 10
29.0573788472893
 20
33.61046192934126
 30
0.0
 41
0.9999999976032319
 10
27.46022249419326
 20
38.39073656273328
 30
0.0
 41
1.0
  0
SPLINE
  5
1D1
330
1F
100
AcDbEntity
  8
2D capped arms
100
AcDbSpline
210
0.0
220
0.0
230
1.0
 70
     8
 71
     3
 72
     9
 73
     5
 74
     0
 42
0.0000000001
 43
0.0000000001
 40
1.42449421706229
 40
1.42449421706229
 40
1.42449421706229
 40
1.42449421706229
 40
1.81774502910691
 40
4.337853557308534
 40
4.337853557308534
 40
4.337853557308534
 40
4.337853557308534
 10
31.41227415027021
 20
26.02236659624275
 30
0.0
 10
31.39517102811611
 20
26.15246792935199
 30
0.0
 10
31.24246598933154
 20
27.11303295790557
 30
0.0
 10
30.92177366260552
 20
28.03531535914949
 30
0.0
 10
30.65511316028267
 20
28.83072738482306
 30
0.0
  0
SPLINE
  5
1D2
330
1F
100
AcDbEntity
  8
2D capped arms
100
AcDbSpline
210
0.0
220
0.0
230
1.0
 70
     8
 71
     3
 72
    14
 73
    10
 74
     0
 42
0.0000000001
 43
0.0000000001
 40
-7.0
 40
-7.0
 40
-7.0
 40
-7.0
 40
-6.0
 40
-5.0
 40
-4.0
 40
-3.0
 40
-2.0
 40
-1.0
 40
0.0
 40
0.0
 40
0.0
 40
0.0
 10
25.91970735250587
 20
15.35335963968232
 30
0.0
 10
26.06397243267764
 20
15.32221845923477
 30
0.0
 10
26.35515649986863
 20
15.27192697954418
 30
0.0
 10
26.79660999572323
 20
15.23410244658461
 30
0.0
 10
27.23994022356253
 20
15.23023967377961
 30
0.0
 10
27.68110055046776
 20
15.27463128660347
 30
0.0
 10
28.11270039885238
 20
15.37590341996172
 30
0.0
 10
28.54490597283363
 20
15.47147127874992
 30
0.0
 10
28.83291691482211
 20
15.53637159430238
 30
0.0
 10
28.97694762017956
 20
15.5685840730297
 30
0.0
  0
SPLINE
  5
1D3
330
1F
100
AcDbEntity
  8
2D capped arms
100
AcDbSpline
210
0.0
220
0.0
230
1.0
 70
     8
 71
     3
 72
    11
 73
     7
 74
     0
 42
0.0000000001
 43
0.0000000001
 40
0.0
 40
0.0
 40
0.0
 40
0.0
 40
0.0786638393364324
 40
0.1488950446331684
 40
0.3422785764926555
 40
0.9427519274702636
 40
0.9427519274702636
 40
0.9427519274702636
 40
0.9427519274702636
 10
28.97694762017956
 20
15.5685840730297
 30
0.0
 10
29.00168237956544
 20
15.57712153343336
 30
0.0
 10
29.04819319265334
 20
15.59547847392018
 30
0.0
 10
29.13987940045836
 20
15.66535433487197
 30
0.0
 10
29.30392230818711
 20
15.90517985981915
 30
0.0
 10
29.39445461573115
 20
16.15613586180609
 30
0.0
 10
29.45071197483753
 20
16.34792912328403
 30
0.0
  0
SPLINE
  5
1D4
330
1F
100
AcDbEntity
  8
2D capped arms
100
AcDbSpline
210
0.0
220
0.0
230
1.0
 70
    12
 71
     2
 72
     6
 73
     3
 74
     0
 42
0.0000000001
 43
0.0000000001
 40
0.0
 40
0.0
 40
0.0
 40
0.0849867043004475
 40
0.0849867043004475
 40
0.0849867043004475
 10
25.91676392330541
 20
15.66263622154842
 30
0.0
 41
1.0
 10
25.87034252359364
 20
15.65529147447184
 30
0.0
 41
0.8622165554334017
 10
25.85415856487796
 20
15.6111669785415
 30
0.0
 41
1.0
  0
LINE
  5
1D5
330
1F
100
AcDbEntity
  8
2D capped arms
100
AcDbLine
 10
25.85415856487796
 20
15.6111669785415
 30
0.0
 11
25.7933905826296
 21
15.44548711394577
 31
0.0
  0
SPLINE
  5
1D6
330
1F
100
AcDbEntity
  8
2D capped arms
100
AcDbSpline
210
0.0
220
0.0
230
1.0
 70
    12
 71
     2
 72
     6
 73
     3
 74
     0
 42
0.0000000001
 43
0.0000000001
 40
0.0
 40
0.0
 40
0.0
 40
0.1135836468695663
 40
0.1135836468695663
 40
0.1135836468695663
 10
25.7933905826296
 20
15.44548711394577
 30
0.0
 41
1.0
 10
25.76964793342377
 20
15.38076682528533
 30
0.0
 41
0.7555108681098451
 10
25.83035435818388
 20
15.34809942336161
 30
0.0
 41
1.0
  0
ARC
  5
1D7
330
1F
100
AcDbEntity
  8
2D capped arms
100
AcDbCircle
 10
6.88712026005318
 20
69.87838517666466
 30
0.0
 40
4.279217582634326
100
AcDbArc
 50
55.04579412364792
 51
55.06812604180809
  0
SPLINE
  5
1D8
330
1F
100
AcDbEntity
  8
2D capped arms
100
AcDbSpline
210
0.0
220
0.0
230
1.0
 70
     8
 71
     5
 72
    12
 73
     6
 74
     0
 42
0.0000000001
 43
0.0000000001
 40
-1.0
 40
-1.0
 40
-1.0
 40
-1.0
 40
-1.0
 40
-1.0
 40
0.0
 40
0.0
 40
0.0
 40
0.0
 40
0.0
 40
0.0
 10
9.338776184062642
 20
73.38567563366934
 30
0.0
 10
9.407246720207102
 20
73.337813559622
 30
0.0
 10
9.474549281417925
 20
73.28828060374389
 30
0.0
 10
9.562362360243593
 20
73.225455141646
 30
0.0
 10
9.58376980944324
 20
73.14470420622857
 30
0.0
 10
9.605177258642886
 20
73.06395327081117
 30
0.0
  0
SPLINE
  5
1D9
330
1F
100
AcDbEntity
  8
2D capped arms
100
AcDbSpline
210
0.0
220
0.0
230
1.0
 70
     8
 71
     2
 72
    11
 73
     8
 74
     0
 42
0.0000000001
 43
0.0000000001
 40
-6.0
 40
-6.0
 40
-6.0
 40
-5.0
 40
-4.0
 40
-3.0
 40
-2.0
 40
-1.0
 40
0.0
 40
0.0
 40
0.0
 10
10.67844540631157
 20
69.01548369044687
 30
0.0
 10
10.72684595139195
 20
68.85523623094502
 30
0.0
 10
10.82304346619996
 20
68.53455949497891
 30
0.0
 10
10.9195235511044
 20
68.21396881260233
 30
0.0
 10
11.01614822125842
 20
67.89341534948522
 30
0.0
 10
11.11313542331651
 20
67.573008026918
 30
0.0
 10
11.20939364625491
 20
67.25216702232576
 30
0.0
 10
11.23796693511001
 20
67.08697250552623
 30
0.0
  0
ARC
  5
1DA
330
1F
100
AcDbEntity
  8
2D capped arms
100
AcDbCircle
 10
6.199807543994559
 20
66.13053145961827
 30
0.0
 40
5.12814094234766
100
AcDbArc
 50
2.851680402962583
 51
10.74908452471717
  0
SPLINE
  5
1DB
330
1F
100
AcDbEntity
  8
2D capped arms
100
AcDbSpline
210
0.0
220
0.0
230
1.0
 70
     8
 71
     2
 72
    11
 73
     8
 74
     0
 42
0.0000000001
 43
0.0000000001
 40
-6.0
 40
-6.0
 40
-6.0
 40
-5.0
 40
-4.0
 40
-3.0
 40
-2.0
 40
-1.0
 40
0.0
 40
0.0
 40
0.0
 10
11.32159814981287
 20
66.38565988753959
 30
0.0
 10
11.3470475043015
 20
65.87475537640381
 30
0.0
 10
11.37520927663939
 20
64.85193149280795
 30
0.0
 10
11.40719763808193
 20
63.82928383362594
 30
0.0
 10
11.43896337907902
 20
62.80659441878198
 30
0.0
 10
11.46823826849665
 20
61.78397883102158
 30
0.0
 10
11.51268087859928
 20
60.76096233648791
 30
0.0
 10
11.48999499092969
 20
60.25060174742657
 30
0.0
  0
SPLINE
  5
1DC
330
1F
100
AcDbEntity
  8
2D capped arms
100
AcDbSpline
210
0.0
220
0.0
230
1.0
 70
     8
 71
     5
 72
    12
 73
     6
 74
     0
 42
0.0000000001
 43
0.0000000001
 40
0.0
 40
0.0
 40
0.0
 40
0.0
 40
0.0
 40
0.0
 40
1.0
 40
1.0
 40
1.0
 40
1.0
 40
1.0
 40
1.0
 10
9.96948834022723
 20
60.35210711018191
 30
0.0
 10
9.9510192256879
 20
60.39835130407541
 30
0.0
 10
9.935118203017286
 20
60.44562114851826
 30
0.0
 10
9.911923528875189
 20
60.49189244769261
 30
0.0
 10
9.90429674612249
 20
60.54110637115514
 30
0.0
 10
9.897400699949802
 20
60.59042247610991
 30
0.0
  0
SPLINE
  5
1DD
330
1F
100
AcDbEntity
  8
2D capped arms
100
AcDbSpline
210
0.0
220
0.0
230
1.0
 70
    12
 71
     2
 72
     6
 73
     3
 74
     0
 42
0.0000000001
 43
0.0000000001
 40
0.0
 40
0.0
 40
0.0
 40
0.4549102002132394
 40
0.4549102002132394
 40
0.4549102002132394
 10
9.897400699949802
 20
60.59042247610991
 30
0.0
 41
1.0
 10
9.865870495694669
 20
60.81590630022497
 30
0.0
 41
0.998534479602793
 10
9.8588952512588
 20
61.043477068741
 30
0.0
 41
1.0
  0
LINE
  5
1DE
330
1F
100
AcDbEntity
  8
2D capped arms
100
AcDbLine
 10
9.8588952512588
 20
61.043477068741
 30
0.0
 11
9.49584038732904
 21
69.58176205852519
 31
0.0
  0
SPLINE
  5
1DF
330
1F
100
AcDbEntity
  8
2D capped arms
100
AcDbSpline
210
0.0
220
0.0
230
1.0
 70
     8
 71
     5
 72
    12
 73
     6
 74
     0
 42
0.0000000001
 43
0.0000000001
 40
0.0
 40
0.0
 40
0.0
 40
0.0
 40
0.0
 40
0.0
 40
1.0
 40
1.0
 40
1.0
 40
1.0
 40
1.0
 40
1.0
 10
11.38122541330256
 20
60.05825976734315
 30
0.0
 10
11.42499278190321
 20
60.06438086026509
 30
0.0
 10
11.46868573637585
 20
60.07103403309679
 30
0.0
 10
11.48586015548931
 20
60.16231160870166
 30
0.0
 10
11.48803250417236
 20
60.20645201380891
 30
0.0
 10
11.48999499092969
 20
60.25060174742657
 30
0.0
  0
LINE
  5
1E0
330
1F
100
AcDbEntity
  8
2D capped arms
100
AcDbLine
 10
9.605177258642886
 20
73.06395327081117
 30
0.0
 11
10.67844540631157
 21
69.01548369044687
 31
0.0
  0
ARC
  5
1E1
330
1F
100
AcDbEntity
  8
2D capped arms
100
AcDbCircle
 10
10.52700877470243
 20
69.19647738109897
 30
0.0
 40
0.1
100
AcDbArc
 50
14.84782995906242
 51
90.00579913823483
  0
SPLINE
  5
1E2
330
1F
100
AcDbEntity
  8
2D capped arms
100
AcDbSpline
210
0.0
220
0.0
230
1.0
 70
    12
 71
     2
 72
     6
 73
     3
 74
     0
 42
0.0000000001
 43
0.0000000001
 40
0.0
 40
0.0
 40
0.0
 40
0.536654445846369
 40
0.536654445846369
 40
0.536654445846369
 10
10.12254539142175
 20
60.79869731727526
 30
0.0
 41
1.0
 10
10.13569904947298
 20
60.53034728332236
 30
0.0
 41
0.9980750144187968
 10
10.11553038738169
 20
60.26243314686801
 30
0.0
 41
1.0
  0
SPLINE
  5
1E3
330
1F
100
AcDbEntity
  8
2D capped arms
100
AcDbSpline
210
0.0
220
0.0
230
1.0
 70
     8
 71
     2
 72
    11
 73
     8
 74
     0
 42
0.0000000001
 43
0.0000000001
 40
0.0
 40
0.0
 40
0.0
 40
1.0
 40
2.0
 40
3.0
 40
4.0
 40
5.0
 40
6.0
 40
6.0
 40
6.0
 10
9.82452232034959
 20
70.46368472323763
 30
0.0
 10
9.849545405499882
 20
69.65827484976504
 30
0.0
 10
9.899678520609967
 20
68.04745804127357
 30
0.0
 10
9.949174881186337
 20
66.43662124651647
 30
0.0
 10
9.998750095579386
 20
64.82578715755476
 30
0.0
 10
10.0483050704732
 20
63.21495222450064
 30
0.0
 10
10.09792818337733
 20
61.60411955631447
 30
0.0
 10
10.12254539142175
 20
60.79869731727526
 30
0.0
  0
SPLINE
  5
1E4
330
1F
100
AcDbEntity
  8
2D capped arms
100
AcDbSpline
210
0.0
220
0.0
230
1.0
 70
    12
 71
     2
 72
     6
 73
     3
 74
     0
 42
0.0000000001
 43
0.0000000001
 40
0.0
 40
0.0
 40
0.0
 40
0.4645464088796882
 40
0.4645464088796882
 40
0.4645464088796882
 10
9.790358219320858
 20
70.92665813885307
 30
0.0
 41
1.0
 10
9.822207645711789
 20
70.69626115694399
 30
0.0
 41
0.9979713765113566
 10
9.82452232034959
 20
70.46368472323763
 30
0.0
 41
1.0
  0
SPLINE
  5
1E5
330
1F
100
AcDbEntity
  8
2D capped arms
100
AcDbSpline
210
0.0
220
0.0
230
1.0
 70
     8
 71
     2
 72
     8
 73
     5
 74
     0
 42
0.0000000001
 43
0.0000000001
 40
0.8602684044485718
 40
0.8602684044485718
 40
0.8602684044485718
 40
1.0
 40
2.0
 40
3.0
 40
3.0
 40
3.0
 10
9.42849184494391
 20
72.48239435482026
 30
0.0
 10
9.440316232874155
 20
72.43159898669735
 30
0.0
 10
9.53675983302545
 20
72.01728195093796
 30
0.0
 10
9.706185832617955
 20
71.2902813556571
 30
0.0
 10
9.790358219320858
 20
70.92665813885307
 30
0.0
  0
SPLINE
  5
1E6
330
1F
100
AcDbEntity
  8
2D capped arms
100
AcDbSpline
210
0.0
220
0.0
230
1.0
 70
    24
 71
     2
 72
     6
 73
     3
 74
     0
 42
0.0000000001
 43
0.0000000001
 40
0.0087353139690538
 40
0.0087353139690538
 40
0.0087353139690538
 40
0.571774122717193
 40
0.571774122717193
 40
0.571774122717193
 10
10.52699865329684
 20
69.29647738058677
 30
0.0
 10
10.24547925036476
 20
69.29644888686606
 30
0.0
 10
9.96395984743267
 20
69.29642039314535
 30
0.0
  0
ARC
  5
1E7
330
1F
100
AcDbEntity
  8
2D capped arms
100
AcDbCircle
 10
9.963969968838267
 20
69.19642039365756
 30
0.0
 40
0.1
100
AcDbArc
 50
90.005799138244
 51
181.7819754935136
  0
SPLINE
  5
1E8
330
1F
100
AcDbEntity
  8
2D capped arms
100
AcDbSpline
210
0.0
220
0.0
230
1.0
 70
    12
 71
     2
 72
     6
 73
     3
 74
     0
 42
0.0000000001
 43
0.0000000001
 40
0.0
 40
0.0
 40
0.0
 40
0.536654445846369
 40
0.536654445846369
 40
0.536654445846369
 10
10.12254539142175
 20
60.79869731727526
 30
0.0
 41
1.0
 10
10.13569904947298
 20
60.53034728332236
 30
0.0
 41
0.9980750144187968
 10
10.11553038738169
 20
60.26243314686801
 30
0.0
 41
1.0
  0
SPLINE
  5
1E9
330
1F
100
AcDbEntity
  8
2D capped arms
100
AcDbSpline
210
0.0
220
0.0
230
1.0
 70
    24
 71
     2
 72
     6
 73
     3
 74
     0
 42
0.0000000001
 43
0.0000000001
 40
0.0
 40
0.0
 40
0.0
 40
0.2328430832990461
 40
0.2328430832990461
 40
0.2328430832990461
 10
9.96948834022723
 20
60.35210711018191
 30
0.0
 10
10.00380518103197
 20
60.26849697208962
 30
0.0
 10
10.03812202183671
 20
60.18488683399734
 30
0.0
  0
SPLINE
  5
1EA
330
1F
100
AcDbEntity
  8
2D capped arms
100
AcDbSpline
210
0.0
220
0.0
230
1.0
 70
     8
 71
     2
 72
     8
 73
     5
 74
     0
 42
0.0000000001
 43
0.0000000001
 40
0.0
 40
0.0
 40
0.0
 40
1.0
 40
2.0
 40
3.0
 40
3.0
 40
3.0
 10
11.38122541330256
 20
60.05825976734315
 30
0.0
 10
11.17275178410003
 20
60.02911117454425
 30
0.0
 10
10.75219939656965
 20
60.00957254819733
 30
0.0
 10
10.33164863753006
 20
60.02916931309048
 30
0.0
 10
10.16008586064791
 20
60.05270137964089
 30
0.0
  0
SPLINE
  5
1EB
330
1F
100
AcDbEntity
  8
2D capped arms
100
AcDbSpline
210
0.0
220
0.0
230
1.0
 70
     8
 71
     5
 72
    12
 73
     6
 74
     0
 42
0.0000000001
 43
0.0000000001
 40
0.0
 40
0.0
 40
0.0
 40
0.0
 40
0.0
 40
0.0
 40
1.0
 40
1.0
 40
1.0
 40
1.0
 40
1.0
 40
1.0
 10
10.03812202183671
 20
60.18488683399734
 30
0.0
 10
10.05178031120895
 20
60.15160954407969
 30
0.0
 10
10.06543860058119
 20
60.11833225416204
 30
0.0
 10
10.08887996089143
 20
60.06298176354959
 30
0.0
 10
10.12444833987525
 20
60.05758952919032
 30
0.0
 10
10.16008586064791
 20
60.05270137964089
 30
0.0
  0
SPLINE
  5
1EC
330
1F
100
AcDbEntity
  8
2D capped arms
100
AcDbSpline
210
0.0
220
0.0
230
1.0
 70
     8
 71
     2
 72
    10
 73
     7
 74
     0
 42
0.0000000001
 43
0.0000000001
 40
-3.0
 40
-3.0
 40
-3.0
 40
-2.0
 40
-1.0
 40
0.0
 40
0.0
 40
0.644725949861671
 40
0.644725949861671
 40
0.644725949861671
 10
-10.10879364728106
 20
60.39912830809576
 30
0.0
 10
-10.10190851964532
 20
60.31850991486363
 30
0.0
 10
-9.96037496681399
 20
60.51938994123393
 30
0.0
 10
-9.914556785920041
 20
60.65553196956111
 30
0.0
 10
-9.895862888534353
 20
60.72712914658268
 30
0.0
 10
-9.883810447785748
 20
60.77328970454533
 30
0.0
 10
-9.871758007037144
 20
60.81945026250798
 30
0.0
  0
SPLINE
  5
1ED
330
1F
100
AcDbEntity
  8
2D capped arms
100
AcDbSpline
210
0.0
220
0.0
230
1.0
 70
    12
 71
     2
 72
     6
 73
     3
 74
     0
 42
0.0000000001
 43
0.0000000001
 40
-0.4354083098142956
 40
-0.4354083098142956
 40
-0.4354083098142956
 40
0.0
 40
0.0
 40
0.0
 10
-10.11467266331898
 20
60.83412410122929
 30
0.0
 41
1.0
 10
-10.12735079591732
 20
60.61641513053005
 30
0.0
 41
0.9974318804283254
 10
-10.10879364728106
 20
60.39912830809576
 30
0.0
 41
1.0
  0
SPLINE
  5
1EE
330
1F
100
AcDbEntity
  8
2D capped arms
100
AcDbSpline
210
0.0
220
0.0
230
1.0
 70
     8
 71
     2
 72
     8
 73
     5
 74
     0
 42
0.0000000001
 43
0.0000000001
 40
0.0
 40
0.0
 40
0.0
 40
1.0
 40
2.0
 40
3.0
 40
3.0
 40
3.0
 10
-10.11553038738169
 20
60.26243314686801
 30
0.0
 10
-10.10951900826372
 20
60.18257988550628
 30
0.0
 10
-9.967285374601445
 20
60.36059105468534
 30
0.0
 10
-9.923065612668815
 20
60.49489465579716
 30
0.0
 10
-9.903739478550882
 20
60.56535544102449
 30
0.0
  0
SPLINE
  5
1EF
330
1F
100
AcDbEntity
  8
2D capped arms
100
AcDbSpline
210
0.0
220
0.0
230
1.0
 70
     8
 71
     5
 72
    12
 73
     6
 74
     0
 42
0.0000000001
 43
0.0000000001
 40
-1.0
 40
-1.0
 40
-1.0
 40
-1.0
 40
-1.0
 40
-1.0
 40
0.0
 40
0.0
 40
0.0
 40
0.0
 40
0.0
 40
0.0
 10
-9.338776184062642
 20
73.38567563366934
 30
0.0
 10
-9.407246720207102
 20
73.337813559622
 30
0.0
 10
-9.474549281417925
 20
73.28828060374389
 30
0.0
 10
-9.562362360243593
 20
73.225455141646
 30
0.0
 10
-9.58376980944324
 20
73.14470420622857
 30
0.0
 10
-9.605177258642886
 20
73.06395327081117
 30
0.0
  0
SPLINE
  5
1F0
330
1F
100
AcDbEntity
  8
2D capped arms
100
AcDbSpline
210
0.0
220
0.0
230
1.0
 70
     8
 71
     2
 72
    11
 73
     8
 74
     0
 42
0.0000000001
 43
0.0000000001
 40
-6.0
 40
-6.0
 40
-6.0
 40
-5.0
 40
-4.0
 40
-3.0
 40
-2.0
 40
-1.0
 40
0.0
 40
0.0
 40
0.0
 10
-10.67844540631157
 20
69.01548369044687
 30
0.0
 10
-10.72684595139195
 20
68.85523623094502
 30
0.0
 10
-10.82304346619996
 20
68.53455949497891
 30
0.0
 10
-10.9195235511044
 20
68.21396881260233
 30
0.0
 10
-11.01614822125842
 20
67.89341534948522
 30
0.0
 10
-11.11313542331651
 20
67.573008026918
 30
0.0
 10
-11.20939364625491
 20
67.25216702232576
 30
0.0
 10
-11.23796693511001
 20
67.08697250552623
 30
0.0
  0
ARC
  5
1F1
330
1F
100
AcDbEntity
  8
2D capped arms
100
AcDbCircle
 10
-6.199807543994559
 20
66.13053145961827
 30
0.0
 40
5.12814094234766
100
AcDbArc
 50
169.250915475283
 51
177.1483195970374
  0
SPLINE
  5
1F2
330
1F
100
AcDbEntity
  8
2D capped arms
100
AcDbSpline
210
0.0
220
0.0
230
1.0
 70
     8
 71
     2
 72
    11
 73
     8
 74
     0
 42
0.0000000001
 43
0.0000000001
 40
-6.0
 40
-6.0
 40
-6.0
 40
-5.0
 40
-4.0
 40
-3.0
 40
-2.0
 40
-1.0
 40
0.0
 40
0.0
 40
0.0
 10
-11.32159814981287
 20
66.38565988753959
 30
0.0
 10
-11.3470475043015
 20
65.87475537640381
 30
0.0
 10
-11.37520927663939
 20
64.85193149280795
 30
0.0
 10
-11.40719763808193
 20
63.82928383362594
 30
0.0
 10
-11.43896337907902
 20
62.80659441878198
 30
0.0
 10
-11.46823826849665
 20
61.78397883102158
 30
0.0
 10
-11.51268087859928
 20
60.76096233648791
 30
0.0
 10
-11.48999499092969
 20
60.25060174742657
 30
0.0
  0
SPLINE
  5
1F3
330
1F
100
AcDbEntity
  8
2D capped arms
100
AcDbSpline
210
0.0
220
0.0
230
1.0
 70
     8
 71
     5
 72
    12
 73
     6
 74
     0
 42
0.0000000001
 43
0.0000000001
 40
0.0
 40
0.0
 40
0.0
 40
0.0
 40
0.0
 40
0.0
 40
1.0
 40
1.0
 40
1.0
 40
1.0
 40
1.0
 40
1.0
 10
-9.96948834022723
 20
60.35210711018191
 30
0.0
 10
-9.9510192256879
 20
60.39835130407541
 30
0.0
 10
-9.935118203017286
 20
60.44562114851826
 30
0.0
 10
-9.911923528875189
 20
60.49189244769261
 30
0.0
 10
-9.90429674612249
 20
60.54110637115514
 30
0.0
 10
-9.897400699949802
 20
60.59042247610991
 30
0.0
  0
SPLINE
  5
1F4
330
1F
100
AcDbEntity
  8
2D capped arms
100
AcDbSpline
210
0.0
220
0.0
230
1.0
 70
    12
 71
     2
 72
     6
 73
     3
 74
     0
 42
0.0000000001
 43
0.0000000001
 40
0.0
 40
0.0
 40
0.0
 40
0.4549102002132394
 40
0.4549102002132394
 40
0.4549102002132394
 10
-9.897400699949802
 20
60.59042247610991
 30
0.0
 41
1.0
 10
-9.865870495694669
 20
60.81590630022497
 30
0.0
 41
0.998534479602793
 10
-9.8588952512588
 20
61.043477068741
 30
0.0
 41
1.0
  0
LINE
  5
1F5
330
1F
100
AcDbEntity
  8
2D capped arms
100
AcDbLine
 10
-9.8588952512588
 20
61.043477068741
 30
0.0
 11
-9.49584038732904
 21
69.58176205852519
 31
0.0
  0
SPLINE
  5
1F6
330
1F
100
AcDbEntity
  8
2D capped arms
100
AcDbSpline
210
0.0
220
0.0
230
1.0
 70
     8
 71
     5
 72
    12
 73
     6
 74
     0
 42
0.0000000001
 43
0.0000000001
 40
0.0
 40
0.0
 40
0.0
 40
0.0
 40
0.0
 40
0.0
 40
1.0
 40
1.0
 40
1.0
 40
1.0
 40
1.0
 40
1.0
 10
-11.38122541330256
 20
60.05825976734315
 30
0.0
 10
-11.42499278190321
 20
60.06438086026509
 30
0.0
 10
-11.46868573637585
 20
60.07103403309679
 30
0.0
 10
-11.48586015548931
 20
60.16231160870166
 30
0.0
 10
-11.48803250417236
 20
60.20645201380891
 30
0.0
 10
-11.48999499092969
 20
60.25060174742657
 30
0.0
  0
LINE
  5
1F7
330
1F
100
AcDbEntity
  8
2D capped arms
100
AcDbLine
 10
-9.605177258642886
 20
73.06395327081117
 30
0.0
 11
-10.67844540631157
 21
69.01548369044687
 31
0.0
  0
ARC
  5
1F8
330
1F
100
AcDbEntity
  8
2D capped arms
100
AcDbCircle
 10
-10.52700877470243
 20
69.19647738109897
 30
0.0
 40
0.1
100
AcDbArc
 50
89.99420086176518
 51
165.1521700409376
  0
SPLINE
  5
1F9
330
1F
100
AcDbEntity
  8
2D capped arms
100
AcDbSpline
210
0.0
220
0.0
230
1.0
 70
    12
 71
     2
 72
     6
 73
     3
 74
     0
 42
0.0000000001
 43
0.0000000001
 40
0.0
 40
0.0
 40
0.0
 40
0.536654445846369
 40
0.536654445846369
 40
0.536654445846369
 10
-10.12254539142175
 20
60.79869731727526
 30
0.0
 41
1.0
 10
-10.13569904947298
 20
60.53034728332236
 30
0.0
 41
0.9980750144187968
 10
-10.11553038738169
 20
60.26243314686801
 30
0.0
 41
1.0
  0
SPLINE
  5
1FA
330
1F
100
AcDbEntity
  8
2D capped arms
100
AcDbSpline
210
0.0
220
0.0
230
1.0
 70
     8
 71
     2
 72
    11
 73
     8
 74
     0
 42
0.0000000001
 43
0.0000000001
 40
0.0
 40
0.0
 40
0.0
 40
1.0
 40
2.0
 40
3.0
 40
4.0
 40
5.0
 40
6.0
 40
6.0
 40
6.0
 10
-9.82452232034959
 20
70.46368472323763
 30
0.0
 10
-9.849545405499882
 20
69.65827484976504
 30
0.0
 10
-9.899678520609967
 20
68.04745804127357
 30
0.0
 10
-9.949174881186337
 20
66.43662124651647
 30
0.0
 10
-9.998750095579386
 20
64.82578715755476
 30
0.0
 10
-10.0483050704732
 20
63.21495222450064
 30
0.0
 10
-10.09792818337733
 20
61.60411955631447
 30
0.0
 10
-10.12254539142175
 20
60.79869731727526
 30
0.0
  0
SPLINE
  5
1FB
330
1F
100
AcDbEntity
  8
2D capped arms
100
AcDbSpline
210
0.0
220
0.0
230
1.0
 70
    12
 71
     2
 72
     6
 73
     3
 74
     0
 42
0.0000000001
 43
0.0000000001
 40
0.0
 40
0.0
 40
0.0
 40
0.4645464088796882
 40
0.4645464088796882
 40
0.4645464088796882
 10
-9.790358219320858
 20
70.92665813885307
 30
0.0
 41
1.0
 10
-9.822207645711789
 20
70.69626115694399
 30
0.0
 41
0.9979713765113566
 10
-9.82452232034959
 20
70.46368472323763
 30
0.0
 41
1.0
  0
SPLINE
  5
1FC
330
1F
100
AcDbEntity
  8
2D capped arms
100
AcDbSpline
210
0.0
220
0.0
230
1.0
 70
     8
 71
     2
 72
     8
 73
     5
 74
     0
 42
0.0000000001
 43
0.0000000001
 40
0.8602684044485718
 40
0.8602684044485718
 40
0.8602684044485718
 40
1.0
 40
2.0
 40
3.0
 40
3.0
 40
3.0
 10
-9.42849184494391
 20
72.48239435482026
 30
0.0
 10
-9.440316232874155
 20
72.43159898669735
 30
0.0
 10
-9.53675983302545
 20
72.01728195093796
 30
0.0
 10
-9.706185832617955
 20
71.2902813556571
 30
0.0
 10
-9.790358219320858
 20
70.92665813885307
 30
0.0
  0
SPLINE
  5
1FD
330
1F
100
AcDbEntity
  8
2D capped arms
100
AcDbSpline
210
0.0
220
0.0
230
1.0
 70
    24
 71
     2
 72
     6
 73
     3
 74
     0
 42
0.0000000001
 43
0.0000000001
 40
0.0087353139690538
 40
0.0087353139690538
 40
0.0087353139690538
 40
0.571774122717193
 40
0.571774122717193
 40
0.571774122717193
 10
-10.52699865329684
 20
69.29647738058677
 30
0.0
 10
-10.24547925036476
 20
69.29644888686606
 30
0.0
 10
-9.96395984743267
 20
69.29642039314535
 30
0.0
  0
ARC
  5
1FE
330
1F
100
AcDbEntity
  8
2D capped arms
100
AcDbCircle
 10
-9.963969968838267
 20
69.19642039365756
 30
0.0
 40
0.1
100
AcDbArc
 50
358.2180245064864
 51
89.99420086175601
  0
SPLINE
  5
1FF
330
1F
100
AcDbEntity
  8
2D capped arms
100
AcDbSpline
210
0.0
220
0.0
230
1.0
 70
    12
 71
     2
 72
     6
 73
     3
 74
     0
 42
0.0000000001
 43
0.0000000001
 40
0.0
 40
0.0
 40
0.0
 40
0.536654445846369
 40
0.536654445846369
 40
0.536654445846369
 10
-10.12254539142175
 20
60.79869731727526
 30
0.0
 41
1.0
 10
-10.13569904947298
 20
60.53034728332236
 30
0.0
 41
0.9980750144187968
 10
-10.11553038738169
 20
60.26243314686801
 30
0.0
 41
1.0
  0
SPLINE
  5
200
330
1F
100
AcDbEntity
  8
2D capped arms
100
AcDbSpline
210
0.0
220
0.0
230
1.0
 70
    24
 71
     2
 72
     6
 73
     3
 74
     0
 42
0.0000000001
 43
0.0000000001
 40
0.0
 40
0.0
 40
0.0
 40
0.2328430832990461
 40
0.2328430832990461
 40
0.2328430832990461
 10
-9.96948834022723
 20
60.35210711018191
 30
0.0
 10
-10.00380518103197
 20
60.26849697208962
 30
0.0
 10
-10.03812202183671
 20
60.18488683399734
 30
0.0
  0
SPLINE
  5
201
330
1F
100
AcDbEntity
  8
2D capped arms
100
AcDbSpline
210
0.0
220
0.0
230
1.0
 70
     8
 71
     2
 72
     8
 73
     5
 74
     0
 42
0.0000000001
 43
0.0000000001
 40
0.0
 40
0.0
 40
0.0
 40
1.0
 40
2.0
 40
3.0
 40
3.0
 40
3.0
 10
-11.38122541330256
 20
60.05825976734315
 30
0.0
 10
-11.17275178410003
 20
60.02911117454425
 30
0.0
 10
-10.75219939656965
 20
60.00957254819733
 30
0.0
 10
-10.33164863753006
 20
60.02916931309048
 30
0.0
 10
-10.16008586064791
 20
60.05270137964089
 30
0.0
  0
SPLINE
  5
202
330
1F
100
AcDbEntity
  8
2D capped arms
100
AcDbSpline
210
0.0
220
0.0
230
1.0
 70
     8
 71
     5
 72
    12
 73
     6
 74
     0
 42
0.0000000001
 43
0.0000000001
 40
0.0
 40
0.0
 40
0.0
 40
0.0
 40
0.0
 40
0.0
 40
1.0
 40
1.0
 40
1.0
 40
1.0
 40
1.0
 40
1.0
 10
-10.03812202183671
 20
60.18488683399734
 30
0.0
 10
-10.05178031120895
 20
60.15160954407969
 30
0.0
 10
-10.06543860058119
 20
60.11833225416204
 30
0.0
 10
-10.08887996089143
 20
60.06298176354959
 30
0.0
 10
-10.12444833987525
 20
60.05758952919032
 30
0.0
 10
-10.16008586064791
 20
60.05270137964089
 30
0.0
  0
SPLINE
  5
204
330
1F
100
AcDbEntity
  8
Make2D visible lines - Tangent
100
AcDbSpline
210
0.0
220
0.0
230
1.0
 70
    12
 71
     2
 72
     6
 73
     3
 74
     0
 42
0.0000000001
 43
0.0000000001
 40
1.250922485175694
 40
1.250922485175694
 40
1.250922485175694
 40
1.262976630365854
 40
1.262976630365854
 40
1.262976630365854
 10
-9.76872667514796
 20
69.68053028982325
 30
0.0
 41
0.999999982132018
 10
-9.768951351392959
 20
69.674507406453
 30
0.0
 41
0.9999999820592629
 10
-9.769176021531457
 20
69.66848452285494
 30
0.0
 41
0.9999999819867647
  0
SPLINE
  5
205
330
1F
100
AcDbEntity
  8
Make2D visible lines - Tangent
100
AcDbSpline
210
0.0
220
0.0
230
1.0
 70
    12
 71
     2
 72
     6
 73
     3
 74
     0
 42
0.0000000001
 43
0.0000000001
 40
1.262976630365854
 40
1.262976630365854
 40
1.262976630365854
 40
1.270125908802269
 40
1.270125908802269
 40
1.270125908802269
 10
-9.769176021531457
 20
69.66848452285494
 30
0.0
 41
0.9999999819867647
 10
-9.769309272736859
 20
69.6649123681183
 30
0.0
 41
0.9999999819437662
 10
-9.769442521794215
 20
69.6613402133015
 30
0.0
 41
0.9999999819008581
  0
SPLINE
  5
206
330
1F
100
AcDbEntity
  8
2D SEAT & WISHBONE
100
AcDbSpline
210
0.0
220
0.0
230
1.0
 70
    12
 71
     2
 72
     6
 73
     3
 74
     0
 42
0.0000000001
 43
0.0000000001
 40
-9.327031089304736
 40
-9.327031089304736
 40
-9.327031089304736
 40
-1.270125908802269
 40
-1.270125908802269
 40
-1.270125908802269
 10
-10.11992479149431
 20
60.16321522906368
 30
0.0
 41
1.0
 10
-9.970694410778393
 20
64.18890298272379
 30
0.0
 41
0.9999999335454627
 10
-9.769442521794215
 20
69.6613402133015
 30
0.0
 41
0.9999999819008581
  0
SPLINE
  5
207
330
1F
100
AcDbEntity
  8
2D SEAT & WISHBONE
100
AcDbSpline
210
0.0
220
0.0
230
1.0
 70
     8
 71
     2
 72
     8
 73
     5
 74
     0
 42
0.0000000001
 43
0.0000000001
 40
-8.0
 40
-8.0
 40
-8.0
 40
-7.0
 40
-6.0
 40
-5.159015867030632
 40
-5.159015867030632
 40
-5.159015867030632
 10
-9.656737152437486
 20
54.85925867733367
 30
0.0
 10
-10.10926612977656
 20
55.67355252807652
 30
0.0
 10
-10.218594588602
 20
57.69933021504482
 30
0.0
 10
-10.1485836171265
 20
59.39010533797904
 30
0.0
 10
-10.11992479149431
 20
60.16321522906368
 30
0.0
  0
SPLINE
  5
208
330
1F
100
AcDbEntity
  8
2D SEAT & WISHBONE
100
AcDbSpline
210
0.0
220
0.0
230
1.0
 70
     8
 71
     2
 72
    13
 73
    10
 74
     0
 42
0.0000000001
 43
0.0000000001
 40
-8.0
 40
-8.0
 40
-8.0
 40
-7.0
 40
-6.0
 40
-5.0
 40
-4.0
 40
-3.0
 40
-2.0
 40
-1.0
 40
0.0
 40
0.0
 40
0.0
 10
0.0000000000012932
 20
53.09833092186592
 30
0.0
 10
-0.6247670307859892
 20
53.098446270489
 30
0.0
 10
-1.87418226627171
 20
53.11592583151141
 30
0.0
 10
-3.12316378407364
 20
53.15360450855103
 30
0.0
 10
-4.371221994398503
 20
53.21431556228871
 30
0.0
 10
-5.617871383103704
 20
53.30158352997402
 30
0.0
 10
-6.861577575605239
 20
53.41330715489244
 30
0.0
 10
-8.105924230808412
 20
53.57797212219236
 30
0.0
 10
-9.346536261486442
 20
54.30107413966787
 30
0.0
 10
-9.656737152437486
 20
54.85925867733367
 30
0.0
  0
SPLINE
  5
209
330
1F
100
AcDbEntity
  8
2D SEAT & WISHBONE
100
AcDbSpline
210
0.0
220
0.0
230
1.0
 70
     8
 71
     2
 72
    13
 73
    10
 74
     0
 42
0.0000000001
 43
0.0000000001
 40
0.0
 40
0.0
 40
0.0
 40
1.0
 40
2.0
 40
3.0
 40
4.0
 40
5.0
 40
6.0
 40
7.0
 40
8.0
 40
8.0
 40
8.0
 10
9.656737152440073
 20
54.85925867733367
 30
0.0
 10
9.346536261489028
 20
54.30107413966787
 30
0.0
 10
8.105924230810999
 20
53.57797212219236
 30
0.0
 10
6.861577575607825
 20
53.41330715489244
 30
0.0
 10
5.617871383106291
 20
53.30158352997402
 30
0.0
 10
4.37122199440109
 20
53.21431556228871
 30
0.0
 10
3.123163784076226
 20
53.15360450855103
 30
0.0
 10
1.874182266274296
 20
53.11592583151141
 30
0.0
 10
0.6247670307885755
 20
53.098446270489
 30
0.0
 10
0.0000000000012932
 20
53.09833092186592
 30
0.0
  0
SPLINE
  5
20A
330
1F
100
AcDbEntity
  8
2D SEAT & WISHBONE
100
AcDbSpline
210
0.0
220
0.0
230
1.0
 70
     8
 71
     2
 72
     8
 73
     5
 74
     0
 42
0.0000000001
 43
0.0000000001
 40
5.159015867031118
 40
5.159015867031118
 40
5.159015867031118
 40
6.0
 40
7.0
 40
8.0
 40
8.0
 40
8.0
 10
10.11992479149562
 20
60.16321522906323
 30
0.0
 10
10.14858361712911
 20
59.3901053379786
 30
0.0
 10
10.21859458860458
 20
57.69933021504482
 30
0.0
 10
10.10926612977914
 20
55.67355252807652
 30
0.0
 10
9.656737152440073
 20
54.85925867733367
 30
0.0
  0
SPLINE
  5
20B
330
1F
100
AcDbEntity
  8
2D SEAT & WISHBONE
100
AcDbSpline
210
0.0
220
0.0
230
1.0
 70
    12
 71
     2
 72
     6
 73
     3
 74
     0
 42
0.0000000001
 43
0.0000000001
 40
1.270125908802269
 40
1.270125908802269
 40
1.270125908802269
 40
9.327031089304736
 40
9.327031089304736
 40
9.327031089304736
 10
9.769442521794215
 20
69.6613402133015
 30
0.0
 41
0.9999999819008581
 10
9.970694410778393
 20
64.18890298272379
 30
0.0
 41
0.9999999335454627
 10
10.11992479149562
 20
60.16321522906323
 30
0.0
 41
1.0
  0
ENDSEC
  0
SECTION
  2
OBJECTS
  0
DICTIONARY
  5
C
330
0
100
AcDbDictionary
281
     1
  3
ACAD_GROUP
350
D
  3
ACAD_LAYOUT
350
1A
  3
ACAD_MLEADERSTYLE
350
20D
  3
ACAD_MLINESTYLE
350
17
  3
ACAD_PLOTSETTINGS
350
19
  3
ACAD_PLOTSTYLENAME
350
E
  3
ACAD_TABLESTYLE
350
20C
  3
ACAD_VISUALSTYLE
350
2A
  0
DICTIONARY
  5
D
102
{ACAD_REACTORS
330
C
102
}
330
C
100
AcDbDictionary
281
     1
  0
DICTIONARY
  5
1A
102
{ACAD_REACTORS
330
C
102
}
330
C
100
AcDbDictionary
281
     1
  3
Layout1
350
1E
  3
Layout2
350
26
  3
Model
350
22
  0
DICTIONARY
  5
20D
102
{ACAD_REACTORS
330
C
102
}
330
C
100
AcDbDictionary
281
     1
  0
DICTIONARY
  5
17
102
{ACAD_REACTORS
330
C
102
}
330
C
100
AcDbDictionary
281
     1
  3
Standard
350
18
  0
DICTIONARY
  5
19
102
{ACAD_REACTORS
330
C
102
}
330
C
100
AcDbDictionary
281
     1
  0
ACDBDICTIONARYWDFLT
  5
E
102
{ACAD_REACTORS
330
C
102
}
330
C
100
AcDbDictionary
281
     1
  3
Normal
350
F
100
AcDbDictionaryWithDefault
340
F
  0
DICTIONARY
  5
20C
102
{ACAD_REACTORS
330
C
102
}
330
C
100
AcDbDictionary
281
     1
  0
DICTIONARY
  5
2A
102
{ACAD_REACTORS
330
C
102
}
330
C
100
AcDbDictionary
281
     1
  3
2dWireframe
350
2F
  3
3D Hidden
350
31
  3
3dWireframe
350
30
  3
Basic
350
32
  3
Brighten
350
36
  3
ColorChange
350
3A
  3
Conceptual
350
34
  3
Dim
350
35
  3
Facepattern
350
39
  3
Flat
350
2B
  3
FlatWithEdges
350
2C
  3
Gouraud
350
2D
  3
GouraudWithEdges
350
2E
  3
Linepattern
350
38
  3
Realistic
350
33
  3
Thicken
350
37
  0
LAYOUT
  5
1E
102
{ACAD_REACTORS
330
1A
102
}
330
1A
100
AcDbPlotSettings
  1

  2
none_device
  4

  6

 40
0.0
 41
0.0
 42
0.0
 43
0.0
 44
0.0
 45
0.0
 46
0.0
 47
0.0
 48
0.0
 49
0.0
140
0.0
141
0.0
142
1.0
143
1.0
 70
   688
 72
     0
 73
     0
 74
     5
  7

 75
    16
 76
     0
 77
     2
 78
   300
147
1.0
148
0.0
149
0.0
100
AcDbLayout
  1
Layout1
 70
     1
 71
     1
 10
0.0
 20
0.0
 11
12.0
 21
9.0
 12
0.0
 22
0.0
 32
0.0
 14
1.000000000000000E+20
 24
1.000000000000000E+20
 34
1.000000000000000E+20
 15
-1.000000000000000E+20
 25
-1.000000000000000E+20
 35
-1.000000000000000E+20
146
0.0
 13
0.0
 23
0.0
 33
0.0
 16
1.0
 26
0.0
 36
0.0
 17
0.0
 27
1.0
 37
0.0
 76
     0
330
1B
  0
LAYOUT
  5
26
102
{ACAD_REACTORS
330
1A
102
}
330
1A
100
AcDbPlotSettings
  1

  2
none_device
  4

  6

 40
0.0
 41
0.0
 42
0.0
 43
0.0
 44
0.0
 45
0.0
 46
0.0
 47
0.0
 48
0.0
 49
0.0
140
0.0
141
0.0
142
1.0
143
1.0
 70
   688
 72
     0
 73
     0
 74
     5
  7

 75
    16
 76
     0
 77
     2
 78
   300
147
1.0
148
0.0
149
0.0
100
AcDbLayout
  1
Layout2
 70
     1
 71
     2
 10
0.0
 20
0.0
 11
0.0
 21
0.0
 12
0.0
 22
0.0
 32
0.0
 14
0.0
 24
0.0
 34
0.0
 15
0.0
 25
0.0
 35
0.0
146
0.0
 13
0.0
 23
0.0
 33
0.0
 16
1.0
 26
0.0
 36
0.0
 17
0.0
 27
1.0
 37
0.0
 76
     0
330
23
  0
LAYOUT
  5
22
102
{ACAD_REACTORS
330
1A
102
}
330
1A
100
AcDbPlotSettings
  1

  2
none_device
  4

  6

 40
0.0
 41
0.0
 42
0.0
 43
0.0
 44
0.0
 45
0.0
 46
0.0
 47
0.0
 48
0.0
 49
0.0
140
0.0
141
0.0
142
1.0
143
1.0
 70
  1712
 72
     0
 73
     0
 74
     0
  7

 75
     0
 76
     0
 77
     2
 78
   300
147
1.0
148
0.0
149
0.0
100
AcDbLayout
  1
Model
 70
     1
 71
     0
 10
0.0
 20
0.0
 11
12.0
 21
9.0
 12
0.0
 22
0.0
 32
0.0
 14
-11.50356293150633
 24
-0.0000000000000017
 34
0.0
 15
47.9505607703143
 25
75.4088374195329
 35
0.0
146
0.0
 13
0.0
 23
0.0
 33
0.0
 16
1.0
 26
0.0
 36
0.0
 17
0.0
 27
1.0
 37
0.0
 76
     0
330
1F
331
29
  0
MLINESTYLE
  5
18
102
{ACAD_REACTORS
330
17
102
}
330
17
100
AcDbMlineStyle
  2
Standard
 70
     0
  3

 62
   256
 51
90.0
 52
90.0
 71
     2
 49
0.5
 62
   256
  6
BYLAYER
 49
-0.5
 62
   256
  6
BYLAYER
  0
ACDBPLACEHOLDER
  5
F
102
{ACAD_REACTORS
330
E
102
}
330
E
  0
VISUALSTYLE
  5
2F
102
{ACAD_REACTORS
330
2A
102
}
330
2A
100
AcDbVisualStyle
  2
2dWireframe
 70
     4
 71
     0
 72
     2
 73
     0
 90
        0
 40
-0.6
 41
-30.0
 62
     5
 63
     7
421
 16777215
 74
     1
 91
        4
 64
     7
 65
   257
 75
     1
175
     1
 42
1.0
 92
        0
 66
   257
 43
1.0
 76
     1
 77
     6
 78
     2
 67
     7
 79
     5
170
     0
171
     0
290
     0
174
     0
 93
        1
 44
0.0
173
     0
291
     0
 45
0.0
1001
ACAD
1000
AcDbSavedByObjectVersion
1070
     0
  0
VISUALSTYLE
  5
31
102
{ACAD_REACTORS
330
2A
102
}
330
2A
100
AcDbVisualStyle
  2
3D Hidden
 70
     6
 71
     1
 72
     2
 73
     2
 90
        0
 40
-0.6
 41
-30.0
 62
     5
 63
     7
421
 16777215
 74
     2
 91
        2
 64
     7
 65
   257
 75
     2
175
     1
 42
40.0
 92
        0
 66
   257
 43
1.0
 76
     1
 77
     6
 78
     2
 67
     7
 79
     3
170
     0
171
     0
290
     0
174
     0
 93
        1
 44
0.0
173
     0
291
     0
 45
0.0
1001
ACAD
1000
AcDbSavedByObjectVersion
1070
     0
  0
VISUALSTYLE
  5
30
102
{ACAD_REACTORS
330
2A
102
}
330
2A
100
AcDbVisualStyle
  2
3dWireframe
 70
     5
 71
     0
 72
     2
 73
     0
 90
        0
 40
-0.6
 41
-30.0
 62
     5
 63
     7
421
 16777215
 74
     1
 91
        4
 64
     7
 65
   257
 75
     1
175
     1
 42
1.0
 92
        0
 66
   257
 43
1.0
 76
     1
 77
     6
 78
     2
 67
     7
 79
     5
170
     0
171
     0
290
     0
174
     0
 93
        1
 44
0.0
173
     0
291
     0
 45
0.0
1001
ACAD
1000
AcDbSavedByObjectVersion
1070
     0
  0
VISUALSTYLE
  5
32
102
{ACAD_REACTORS
330
2A
102
}
330
2A
100
AcDbVisualStyle
  2
Basic
 70
     7
 71
     1
 72
     0
 73
     1
 90
        0
 40
-0.6
 41
-30.0
 62
     5
 63
     7
421
 16777215
 74
     0
 91
        4
 64
     7
 65
   257
 75
     1
175
     1
 42
1.0
 92
        8
 66
     7
 43
1.0
 76
     1
 77
     6
 78
     2
 67
     7
 79
     5
170
     0
171
     0
290
     0
174
     0
 93
        1
 44
0.0
173
     0
291
     1
 45
0.0
1001
ACAD
1000
AcDbSavedByObjectVersion
1070
     0
  0
VISUALSTYLE
  5
36
102
{ACAD_REACTORS
330
2A
102
}
330
2A
100
AcDbVisualStyle
  2
Brighten
 70
    12
 71
     2
 72
     2
 73
     0
 90
        0
 40
-0.6
 41
-30.0
 62
     5
 63
     7
421
 16777215
 74
     1
 91
        4
 64
     7
 65
   257
 75
     1
175
     1
 42
1.0
 92
        8
 66
     7
 43
1.0
 76
     1
 77
     6
 78
     2
 67
     7
 79
     5
170
     0
171
     0
290
     0
174
     0
 93
        1
 44
50.0
173
     0
291
     1
 45
0.0
1001
ACAD
1000
AcDbSavedByObjectVersion
1070
     0
  0
VISUALSTYLE
  5
3A
102
{ACAD_REACTORS
330
2A
102
}
330
2A
100
AcDbVisualStyle
  2
ColorChange
 70
    16
 71
     2
 72
     2
 73
     3
 90
        0
 40
-0.6
 41
-30.0
 62
     5
 63
     8
421
  8421504
 74
     1
 91
        4
 64
     7
 65
   257
 75
     1
175
     1
 42
1.0
 92
        8
 66
     8
424
  8421504
 43
1.0
 76
     1
 77
     6
 78
     2
 67
     7
 79
     5
170
     0
171
     0
290
     0
174
     0
 93
        1
 44
0.0
173
     0
291
     1
 45
0.0
1001
ACAD
1000
AcDbSavedByObjectVersion
1070
     0
  0
VISUALSTYLE
  5
34
102
{ACAD_REACTORS
330
2A
102
}
330
2A
100
AcDbVisualStyle
  2
Conceptual
 70
     9
 71
     3
 72
     2
 73
     0
 90
        0
 40
-0.6
 41
-30.0
 62
     5
 63
     7
421
 16777215
 74
     2
 91
        2
 64
     7
 65
   257
 75
     1
175
     1
 42
40.0
 92
        8
 66
     7
 43
1.0
 76
     1
 77
     6
 78
     2
 67
     7
 79
     3
170
     0
171
     0
290
     0
174
     0
 93
        1
 44
0.0
173
     0
291
     0
 45
0.0
1001
ACAD
1000
AcDbSavedByObjectVersion
1070
     0
  0
VISUALSTYLE
  5
35
102
{ACAD_REACTORS
330
2A
102
}
330
2A
100
AcDbVisualStyle
  2
Dim
 70
    11
 71
     2
 72
     2
 73
     0
 90
        0
 40
-0.6
 41
-30.0
 62
     5
 63
     7
421
 16777215
 74
     1
 91
        4
 64
     7
 65
   257
 75
     1
175
     1
 42
1.0
 92
        8
 66
     7
 43
1.0
 76
     1
 77
     6
 78
     2
 67
     7
 79
     5
170
     0
171
     0
290
     0
174
     0
 93
        1
 44
-50.0
173
     0
291
     1
 45
0.0
1001
ACAD
1000
AcDbSavedByObjectVersion
1070
     0
  0
VISUALSTYLE
  5
39
102
{ACAD_REACTORS
330
2A
102
}
330
2A
100
AcDbVisualStyle
  2
Facepattern
 70
    15
 71
     2
 72
     2
 73
     0
 90
        0
 40
-0.6
 41
-30.0
 62
     5
 63
     7
421
 16777215
 74
     1
 91
        4
 64
     7
 65
   257
 75
     1
175
     1
 42
1.0
 92
        8
 66
     7
 43
1.0
 76
     1
 77
     6
 78
     2
 67
     7
 79
     5
170
     0
171
     0
290
     0
174
     0
 93
        1
 44
0.0
173
     0
291
     1
 45
0.0
1001
ACAD
1000
AcDbSavedByObjectVersion
1070
     0
  0
VISUALSTYLE
  5
2B
102
{ACAD_REACTORS
330
2A
102
}
330
2A
100
AcDbVisualStyle
  2
Flat
 70
     0
 71
     2
 72
     1
 73
     1
 90
        2
 40
-0.6
 41
30.0
 62
     5
 63
     7
421
 16777215
 74
     0
 91
        4
 64
     7
 65
   257
 75
     1
175
     1
 42
1.0
 92
        8
 66
     7
 43
1.0
 76
     1
 77
     6
 78
     2
 67
     7
 79
     5
170
     0
171
     0
290
     0
174
     0
 93
       13
 44
0.0
173
     0
291
     1
 45
0.0
1001
ACAD
1000
AcDbSavedByObjectVersion
1070
     0
  0
VISUALSTYLE
  5
2C
102
{ACAD_REACTORS
330
2A
102
}
330
2A
100
AcDbVisualStyle
  2
FlatWithEdges
 70
     1
 71
     2
 72
     1
 73
     1
 90
        2
 40
-0.6
 41
30.0
 62
     5
 63
     7
421
 16777215
 74
     1
 91
        4
 64
     7
 65
   257
 75
     1
175
     1
 42
1.0
 92
        0
 66
   257
 43
1.0
 76
     1
 77
     6
 78
     2
 67
     7
 79
     5
170
     0
171
     0
290
     0
174
     0
 93
       13
 44
0.0
173
     0
291
     1
 45
0.0
1001
ACAD
1000
AcDbSavedByObjectVersion
1070
     0
  0
VISUALSTYLE
  5
2D
102
{ACAD_REACTORS
330
2A
102
}
330
2A
100
AcDbVisualStyle
  2
Gouraud
 70
     2
 71
     2
 72
     2
 73
     1
 90
        2
 40
-0.6
 41
30.0
 62
     5
 63
     7
421
 16777215
 74
     0
 91
        4
 64
     7
 65
   257
 75
     1
175
     1
 42
1.0
 92
        0
 66
     7
 43
1.0
 76
     1
 77
     6
 78
     2
 67
     7
 79
     5
170
     0
171
     0
290
     0
174
     0
 93
       13
 44
0.0
173
     0
291
     1
 45
0.0
1001
ACAD
1000
AcDbSavedByObjectVersion
1070
     0
  0
VISUALSTYLE
  5
2E
102
{ACAD_REACTORS
330
2A
102
}
330
2A
100
AcDbVisualStyle
  2
GouraudWithEdges
 70
     3
 71
     2
 72
     2
 73
     1
 90
        2
 40
-0.6
 41
30.0
 62
     5
 63
     7
421
 16777215
 74
     1
 91
        4
 64
     7
 65
   257
 75
     1
175
     1
 42
1.0
 92
        0
 66
   257
 43
1.0
 76
     1
 77
     6
 78
     2
 67
     7
 79
     5
170
     0
171
     0
290
     0
174
     0
 93
       13
 44
0.0
173
     0
291
     1
 45
0.0
1001
ACAD
1000
AcDbSavedByObjectVersion
1070
     0
  0
VISUALSTYLE
  5
38
102
{ACAD_REACTORS
330
2A
102
}
330
2A
100
AcDbVisualStyle
  2
Linepattern
 70
    14
 71
     2
 72
     2
 73
     0
 90
        0
 40
-0.6
 41
-30.0
 62
     5
 63
     7
421
 16777215
 74
     1
 91
        4
 64
     7
 65
   257
 75
     7
175
     7
 42
1.0
 92
        8
 66
     7
 43
1.0
 76
     1
 77
     6
 78
     2
 67
     7
 79
     5
170
     0
171
     0
290
     0
174
     0
 93
        1
 44
0.0
173
     0
291
     1
 45
0.0
1001
ACAD
1000
AcDbSavedByObjectVersion
1070
     0
  0
VISUALSTYLE
  5
33
102
{ACAD_REACTORS
330
2A
102
}
330
2A
100
AcDbVisualStyle
  2
Realistic
 70
     8
 71
     2
 72
     2
 73
     0
 90
        0
 40
-0.6
 41
-30.0
 62
     5
 63
     7
421
 16777215
 74
     1
 91
        0
 64
     7
 65
   257
 75
     1
175
     1
 42
1.0
 92
        8
 66
     8
424
  7895160
 43
1.0
 76
     1
 77
     6
 78
     2
 67
     7
 79
     5
170
     0
171
     0
290
     0
174
     0
 93
       13
 44
0.0
173
     0
291
     0
 45
0.0
1001
ACAD
1000
AcDbSavedByObjectVersion
1070
     0
  0
VISUALSTYLE
  5
37
102
{ACAD_REACTORS
330
2A
102
}
330
2A
100
AcDbVisualStyle
  2
Thicken
 70
    13
 71
     2
 72
     2
 73
     0
 90
        0
 40
-0.6
 41
-30.0
 62
     5
 63
     7
421
 16777215
 74
     1
 91
        4
 64
     7
 65
   257
 75
     1
175
     1
 42
1.0
 92
       12
 66
     7
 43
1.0
 76
     1
 77
     6
 78
     2
 67
     7
 79
     5
170
     0
171
     0
290
     0
174
     0
 93
        1
 44
0.0
173
     0
291
     1
 45
0.0
1001
ACAD
1000
AcDbSavedByObjectVersion
1070
     0
  0
ENDSEC
  0
EOF
