  0
SECTION
  2
HEADER
  9
$ACADVER
  1
AC1018
  9
$ACADMAINTVER
 70
     0
  9
$DWGCODEPAGE
  3
ANSI_1252
  9
$INSBASE
 10
0.0
 20
0.0
 30
0.0
  9
$EXTMIN
 10
-10.19768541503932
 20
-0.0000000000000017
 30
0.0
  9
$EXTMAX
 10
47.9505607703143
 20
75.46488827118316
 30
0.0
  9
$LIMMIN
 10
0.0
 20
0.0
  9
$LIMMAX
 10
12.0
 20
9.0
  9
$ORTHOMODE
 70
     0
  9
$REGENMODE
 70
     1
  9
$FILLMODE
 70
     1
  9
$QTEXTMODE
 70
     0
  9
$MIRRTEXT
 70
     1
  9
$LTSCALE
 40
0.0393700787401575
  9
$ATTMODE
 70
     1
  9
$TEXTSIZE
 40
0.2
  9
$TRACEWID
 40
0.05
  9
$TEXTSTYLE
  7
Standard
  9
$CLAYER
  8
Default
  9
$CELTYPE
  6
ByLayer
  9
$CECOLOR
 62
   256
  9
$CELTSCALE
 40
1.0
  9
$DISPSILH
 70
     0
  9
$DIMSCALE
 40
1.0
  9
$DIMASZ
 40
0.18
  9
$DIMEXO
 40
0.0625
  9
$DIMDLI
 40
0.38
  9
$DIMRND
 40
0.0
  9
$DIMDLE
 40
0.0
  9
$DIMEXE
 40
0.18
  9
$DIMTP
 40
0.0
  9
$DIMTM
 40
0.0
  9
$DIMTXT
 40
0.18
  9
$DIMCEN
 40
0.09
  9
$DIMTSZ
 40
0.0
  9
$DIMTOL
 70
     0
  9
$DIMLIM
 70
     0
  9
$DIMTIH
 70
     1
  9
$DIMTOH
 70
     1
  9
$DIMSE1
 70
     0
  9
$DIMSE2
 70
     0
  9
$DIMTAD
 70
     0
  9
$DIMZIN
 70
     0
  9
$DIMBLK
  1

  9
$DIMASO
 70
     1
  9
$DIMSHO
 70
     1
  9
$DIMPOST
  1

  9
$DIMAPOST
  1

  9
$DIMALT
 70
     0
  9
$DIMALTD
 70
     2
  9
$DIMALTF
 40
25.4
  9
$DIMLFAC
 40
1.0
  9
$DIMTOFL
 70
     0
  9
$DIMTVP
 40
0.0
  9
$DIMTIX
 70
     0
  9
$DIMSOXD
 70
     0
  9
$DIMSAH
 70
     0
  9
$DIMBLK1
  1

  9
$DIMBLK2
  1

  9
$DIMSTYLE
  2
Standard
  9
$DIMCLRD
 70
     0
  9
$DIMCLRE
 70
     0
  9
$DIMCLRT
 70
     0
  9
$DIMTFAC
 40
1.0
  9
$DIMGAP
 40
0.09
  9
$DIMJUST
 70
     0
  9
$DIMSD1
 70
     0
  9
$DIMSD2
 70
     0
  9
$DIMTOLJ
 70
     1
  9
$DIMTZIN
 70
     0
  9
$DIMALTZ
 70
     0
  9
$DIMALTTZ
 70
     0
  9
$DIMUPT
 70
     0
  9
$DIMDEC
 70
     4
  9
$DIMTDEC
 70
     4
  9
$DIMALTU
 70
     2
  9
$DIMALTTD
 70
     2
  9
$DIMTXSTY
  7
Standard
  9
$DIMAUNIT
 70
     0
  9
$DIMADEC
 70
     0
  9
$DIMALTRND
 40
0.0
  9
$DIMAZIN
 70
     0
  9
$DIMDSEP
 70
    46
  9
$DIMATFIT
 70
     3
  9
$DIMFRAC
 70
     0
  9
$DIMLDRBLK
  1

  9
$DIMLUNIT
 70
     2
  9
$DIMLWD
 70
    -2
  9
$DIMLWE
 70
    -2
  9
$DIMTMOVE
 70
     2
  9
$LUNITS
 70
     2
  9
$LUPREC
 70
     3
  9
$SKETCHINC
 40
0.1
  9
$FILLETRAD
 40
0.5
  9
$AUNITS
 70
     0
  9
$AUPREC
 70
     0
  9
$MENU
  1
.
  9
$ELEVATION
 40
0.0
  9
$PELEVATION
 40
0.0
  9
$THICKNESS
 40
0.0
  9
$LIMCHECK
 70
     0
  9
$CHAMFERA
 40
0.5
  9
$CHAMFERB
 40
0.5
  9
$CHAMFERC
 40
1.0
  9
$CHAMFERD
 40
0.0
  9
$SKPOLY
 70
     0
  9
$TDCREATE
 40
2456750.687208334
  9
$TDUCREATE
 40
2456750.853875
  9
$TDUPDATE
 40
2456750.687208345
  9
$TDUUPDATE
 40
2456750.853875012
  9
$TDINDWG
 40
0.0000000116
  9
$TDUSRTIMER
 40
0.0000000116
  9
$USRTIMER
 70
     1
  9
$ANGBASE
 50
0.0
  9
$ANGDIR
 70
     0
  9
$PDMODE
 70
     0
  9
$PDSIZE
 40
0.0
  9
$PLINEWID
 40
0.0
  9
$SPLFRAME
 70
     0
  9
$SPLINETYPE
 70
     6
  9
$SPLINESEGS
 70
     8
  9
$HANDSEED
  5
18F
  9
$SURFTAB1
 70
     6
  9
$SURFTAB2
 70
     6
  9
$SURFTYPE
 70
     6
  9
$SURFU
 70
     6
  9
$SURFV
 70
     6
  9
$UCSBASE
  2

  9
$UCSNAME
  2

  9
$UCSORG
 10
0.0
 20
0.0
 30
0.0
  9
$UCSXDIR
 10
1.0
 20
0.0
 30
0.0
  9
$UCSYDIR
 10
0.0
 20
1.0
 30
0.0
  9
$UCSORTHOREF
  2

  9
$UCSORTHOVIEW
 70
     0
  9
$UCSORGTOP
 10
0.0
 20
0.0
 30
0.0
  9
$UCSORGBOTTOM
 10
0.0
 20
0.0
 30
0.0
  9
$UCSORGLEFT
 10
0.0
 20
0.0
 30
0.0
  9
$UCSORGRIGHT
 10
0.0
 20
0.0
 30
0.0
  9
$UCSORGFRONT
 10
0.0
 20
0.0
 30
0.0
  9
$UCSORGBACK
 10
0.0
 20
0.0
 30
0.0
  9
$PUCSBASE
  2

  9
$PUCSNAME
  2

  9
$PUCSORG
 10
0.0
 20
0.0
 30
0.0
  9
$PUCSXDIR
 10
1.0
 20
0.0
 30
0.0
  9
$PUCSYDIR
 10
0.0
 20
1.0
 30
0.0
  9
$PUCSORTHOREF
  2

  9
$PUCSORTHOVIEW
 70
     0
  9
$PUCSORGTOP
 10
0.0
 20
0.0
 30
0.0
  9
$PUCSORGBOTTOM
 10
0.0
 20
0.0
 30
0.0
  9
$PUCSORGLEFT
 10
0.0
 20
0.0
 30
0.0
  9
$PUCSORGRIGHT
 10
0.0
 20
0.0
 30
0.0
  9
$PUCSORGFRONT
 10
0.0
 20
0.0
 30
0.0
  9
$PUCSORGBACK
 10
0.0
 20
0.0
 30
0.0
  9
$USERI1
 70
     0
  9
$USERI2
 70
     0
  9
$USERI3
 70
     0
  9
$USERI4
 70
     0
  9
$USERI5
 70
     0
  9
$USERR1
 40
0.0
  9
$USERR2
 40
0.0
  9
$USERR3
 40
0.0
  9
$USERR4
 40
0.0
  9
$USERR5
 40
0.0
  9
$WORLDVIEW
 70
     1
  9
$SHADEDGE
 70
     3
  9
$SHADEDIF
 70
    70
  9
$TILEMODE
 70
     1
  9
$MAXACTVP
 70
    64
  9
$PINSBASE
 10
0.0
 20
0.0
 30
0.0
  9
$PLIMCHECK
 70
     0
  9
$PEXTMIN
 10
1.000000000000000E+20
 20
1.000000000000000E+20
 30
1.000000000000000E+20
  9
$PEXTMAX
 10
-1.000000000000000E+20
 20
-1.000000000000000E+20
 30
-1.000000000000000E+20
  9
$PLIMMIN
 10
0.0
 20
0.0
  9
$PLIMMAX
 10
12.0
 20
9.0
  9
$UNITMODE
 70
     0
  9
$VISRETAIN
 70
     1
  9
$PLINEGEN
 70
     0
  9
$PSLTSCALE
 70
     1
  9
$TREEDEPTH
 70
  3020
  9
$CMLSTYLE
  2
Standard
  9
$CMLJUST
 70
     0
  9
$CMLSCALE
 40
1.0
  9
$PROXYGRAPHICS
 70
     1
  9
$MEASUREMENT
 70
     0
  9
$CELWEIGHT
370
    -1
  9
$ENDCAPS
280
     0
  9
$JOINSTYLE
280
     0
  9
$LWDISPLAY
290
     0
  9
$INSUNITS
 70
     1
  9
$HYPERLINKBASE
  1

  9
$STYLESHEET
  1

  9
$XEDIT
290
     1
  9
$CEPSNTYPE
380
     0
  9
$PSTYLEMODE
290
     1
  9
$FINGERPRINTGUID
  2
{19282538-C580-4FCE-B4FF-583E198EE640}
  9
$VERSIONGUID
  2
{FAEB1C32-E019-11D5-929B-00C0DF256EC4}
  9
$EXTNAMES
290
     1
  9
$PSVPSCALE
 40
0.0
  9
$OLESTARTUP
290
     0
  9
$SORTENTS
280
   127
  9
$INDEXCTL
280
     0
  9
$HIDETEXT
280
     1
  9
$XCLIPFRAME
290
     0
  9
$HALOGAP
280
     0
  9
$OBSCOLOR
 70
   257
  9
$OBSLTYPE
280
     0
  9
$INTERSECTIONDISPLAY
280
     0
  9
$INTERSECTIONCOLOR
 70
   257
  9
$DIMASSOC
280
     2
  9
$PROJECTNAME
  1

  0
ENDSEC
  0
SECTION
  2
CLASSES
  0
CLASS
  1
ACDBDICTIONARYWDFLT
  2
AcDbDictionaryWithDefault
  3
ObjectDBX Classes
 90
        0
 91
        4
280
     0
281
     0
  0
CLASS
  1
VISUALSTYLE
  2
AcDbVisualStyle
  3
ObjectDBX Classes
 90
     4095
 91
        4
280
     0
281
     0
  0
ENDSEC
  0
SECTION
  2
TABLES
  0
TABLE
  2
VPORT
  5
8
330
0
100
AcDbSymbolTable
 70
     1
  0
VPORT
  5
29
330
8
100
AcDbSymbolTableRecord
100
AcDbViewportTableRecord
  2
*Active
 70
     0
 10
0.0
 20
0.0
 11
1.0
 21
1.0
 12
18.87643767763749
 22
37.73244413559158
 13
0.0
 23
0.0
 14
0.5
 24
0.5
 15
0.5
 25
0.5
 16
0.0
 26
0.0
 36
1.0
 17
0.0
 27
0.0
 37
0.0
 40
76.97418603660682
 41
0.7705337875330555
 42
50.0
 43
0.0
 44
0.0
 50
0.0
 51
0.0
 71
     0
 72
   100
 73
     1
 74
     3
 75
     0
 76
     0
 77
     0
 78
     0
281
     0
 65
     1
110
0.0
120
0.0
130
0.0
111
1.0
121
0.0
131
0.0
112
0.0
122
1.0
132
0.0
 79
     0
146
0.0
  0
ENDTAB
  0
TABLE
  2
LTYPE
  5
5
330
0
100
AcDbSymbolTable
 70
     1
  0
LTYPE
  5
14
330
5
100
AcDbSymbolTableRecord
100
AcDbLinetypeTableRecord
  2
ByBlock
 70
     0
  3

 72
    65
 73
     0
 40
0.0
  0
LTYPE
  5
15
330
5
100
AcDbSymbolTableRecord
100
AcDbLinetypeTableRecord
  2
ByLayer
 70
     0
  3

 72
    65
 73
     0
 40
0.0
  0
LTYPE
  5
16
330
5
100
AcDbSymbolTableRecord
100
AcDbLinetypeTableRecord
  2
Continuous
 70
     0
  3
Solid line
 72
    65
 73
     0
 40
0.0
  0
ENDTAB
  0
TABLE
  2
LAYER
  5
2
330
0
100
AcDbSymbolTable
 70
     7
  0
LAYER
  5
10
330
2
100
AcDbSymbolTableRecord
100
AcDbLayerTableRecord
  2
0
 70
     0
 62
     7
  6
Continuous
370
    -3
390
F
  0
LAYER
  5
3B
330
2
100
AcDbSymbolTableRecord
100
AcDbLayerTableRecord
  2
2D armless mesh back
 70
     0
 62
     7
  6
Continuous
370
    -3
390
F
  0
LAYER
  5
42
330
2
100
AcDbSymbolTableRecord
100
AcDbLayerTableRecord
  2
Default
 70
     0
 62
     7
  6
Continuous
370
    -3
390
F
  0
LAYER
  5
53
330
2
100
AcDbSymbolTableRecord
100
AcDbLayerTableRecord
  2
Make2D visible lines
 70
     0
 62
     7
  6
Continuous
370
    -3
390
F
  0
LAYER
  5
65
330
2
100
AcDbSymbolTableRecord
100
AcDbLayerTableRecord
  2
2D SEAT & WISHBONE
 70
     0
 62
     7
  6
Continuous
370
    -3
390
F
  0
LAYER
  5
6C
330
2
100
AcDbSymbolTableRecord
100
AcDbLayerTableRecord
  2
Make2D visible lines - Tangent
 70
     0
 62
     7
  6
Continuous
370
    -3
390
F
  0
LAYER
  5
7F
330
2
100
AcDbSymbolTableRecord
100
AcDbLayerTableRecord
  2
2D jury base
 70
     0
 62
     7
  6
Continuous
370
    -3
390
F
  0
ENDTAB
  0
TABLE
  2
STYLE
  5
3
330
0
100
AcDbSymbolTable
 70
     1
  0
STYLE
  5
11
330
3
100
AcDbSymbolTableRecord
100
AcDbTextStyleTableRecord
  2
Standard
 70
     0
 40
0.0
 41
1.0
 50
0.0
 71
     0
 42
0.2
  3
txt
  4

  0
ENDTAB
  0
TABLE
  2
VIEW
  5
6
330
0
100
AcDbSymbolTable
 70
     0
  0
ENDTAB
  0
TABLE
  2
UCS
  5
7
330
0
100
AcDbSymbolTable
 70
     0
  0
ENDTAB
  0
TABLE
  2
APPID
  5
9
330
0
100
AcDbSymbolTable
 70
     1
  0
APPID
  5
12
330
9
100
AcDbSymbolTableRecord
100
AcDbRegAppTableRecord
  2
ACAD
 70
     0
  0
ENDTAB
  0
TABLE
  2
DIMSTYLE
  5
A
330
0
100
AcDbSymbolTable
 70
     1
100
AcDbDimStyleTable
  0
DIMSTYLE
105
27
330
A
100
AcDbSymbolTableRecord
100
AcDbDimStyleTableRecord
  2
Standard
 70
     0
340
11
  0
ENDTAB
  0
TABLE
  2
BLOCK_RECORD
  5
1
330
0
100
AcDbSymbolTable
 70
     1
  0
BLOCK_RECORD
  5
1F
330
1
100
AcDbSymbolTableRecord
100
AcDbBlockTableRecord
  2
*Model_Space
340
22
  0
BLOCK_RECORD
  5
1B
330
1
100
AcDbSymbolTableRecord
100
AcDbBlockTableRecord
  2
*Paper_Space
340
1E
  0
BLOCK_RECORD
  5
23
330
1
100
AcDbSymbolTableRecord
100
AcDbBlockTableRecord
  2
*Paper_Space0
340
26
  0
ENDTAB
  0
ENDSEC
  0
SECTION
  2
BLOCKS
  0
BLOCK
  5
20
330
1F
100
AcDbEntity
  8
0
100
AcDbBlockBegin
  2
*Model_Space
 70
     0
 10
0.0
 20
0.0
 30
0.0
  3
*Model_Space
  1

  0
ENDBLK
  5
21
330
1F
100
AcDbEntity
  8
0
100
AcDbBlockEnd
  0
BLOCK
  5
1C
330
1B
100
AcDbEntity
 67
     1
  8
0
100
AcDbBlockBegin
  2
*Paper_Space
 70
     0
 10
0.0
 20
0.0
 30
0.0
  3
*Paper_Space
  1

  0
ENDBLK
  5
1D
330
1B
100
AcDbEntity
 67
     1
  8
0
100
AcDbBlockEnd
  0
BLOCK
  5
24
330
23
100
AcDbEntity
  8
0
100
AcDbBlockBegin
  2
*Paper_Space0
 70
     0
 10
0.0
 20
0.0
 30
0.0
  3
*Paper_Space0
  1

  0
ENDBLK
  5
25
330
23
100
AcDbEntity
  8
0
100
AcDbBlockEnd
  0
ENDSEC
  0
SECTION
  2
ENTITIES
  0
SPLINE
  5
3C
330
1F
100
AcDbEntity
  8
2D armless mesh back
100
AcDbSpline
210
0.0
220
0.0
230
1.0
 70
    24
 71
     2
 72
     6
 73
     3
 74
     0
 42
0.0000000001
 43
0.0000000001
 40
0.1555950031430048
 40
0.1555950031430048
 40
0.1555950031430048
 40
0.3147620934241697
 40
0.3147620934241697
 40
0.3147620934241697
 10
-9.733351078771552
 20
69.83250780715862
 30
0.0
 10
-9.751393302607292
 20
69.75499639628123
 30
0.0
 10
-9.769435526443033
 20
69.67748498540384
 30
0.0
  0
SPLINE
  5
3D
330
1F
100
AcDbEntity
  8
2D armless mesh back
100
AcDbSpline
210
0.0
220
0.0
230
1.0
 70
    24
 71
     2
 72
     6
 73
     3
 74
     0
 42
0.0000000001
 43
0.0000000001
 40
0.0
 40
0.0
 40
0.0
 40
0.124274758378462
 40
0.124274758378462
 40
0.124274758378462
 10
-9.743588703905715
 20
71.12912438457488
 30
0.0
 10
-9.72950177299109
 20
71.18964390431779
 30
0.0
 10
-9.715414842076466
 20
71.2501634240607
 30
0.0
  0
SPLINE
  5
3E
330
1F
100
AcDbEntity
  8
2D armless mesh back
100
AcDbSpline
210
0.0
220
0.0
230
1.0
 70
    12
 71
     2
 72
     6
 73
     3
 74
     0
 42
0.0000000001
 43
0.0000000001
 40
0.1416750495559431
 40
0.1416750495559431
 40
0.1416750495559431
 40
0.3772675981882566
 40
0.3772675981882566
 40
0.3772675981882566
 10
-9.453485765467171
 20
73.29204620901531
 30
0.0
 41
0.9869959421245922
 10
-9.537503065895605
 20
73.2081089244031
 30
0.0
 41
0.9826856962579746
 10
-9.593482187931201
 20
73.10336775572775
 30
0.0
 41
1.0
  0
SPLINE
  5
3F
330
1F
100
AcDbEntity
  8
2D armless mesh back
100
AcDbSpline
210
0.0
220
0.0
230
1.0
 70
    24
 71
     2
 72
     6
 73
     3
 74
     0
 42
0.0000000001
 43
0.0000000001
 40
0.1555950031428888
 40
0.1555950031428888
 40
0.1555950031428888
 40
0.3147620934241697
 40
0.3147620934241697
 40
0.3147620934241697
 10
9.733351078774113
 20
69.83250780715873
 30
0.0
 10
9.751393302609866
 20
69.75499639628129
 30
0.0
 10
9.76943552644562
 20
69.67748498540384
 30
0.0
  0
SPLINE
  5
40
330
1F
100
AcDbEntity
  8
2D armless mesh back
100
AcDbSpline
210
0.0
220
0.0
230
1.0
 70
    24
 71
     2
 72
     6
 73
     3
 74
     0
 42
0.0000000001
 43
0.0000000001
 40
0.0
 40
0.0
 40
0.0
 40
0.1242747583786664
 40
0.1242747583786664
 40
0.1242747583786664
 10
9.743588703908301
 20
71.12912438457488
 30
0.0
 10
9.729501772993654
 20
71.18964390431789
 30
0.0
 10
9.715414842079007
 20
71.2501634240609
 30
0.0
  0
SPLINE
  5
41
330
1F
100
AcDbEntity
  8
2D armless mesh back
100
AcDbSpline
210
0.0
220
0.0
230
1.0
 70
    12
 71
     2
 72
     6
 73
     3
 74
     0
 42
0.0000000001
 43
0.0000000001
 40
0.141675049555896
 40
0.141675049555896
 40
0.141675049555896
 40
0.3772675981882566
 40
0.3772675981882566
 40
0.3772675981882566
 10
9.453485765469724
 20
73.29204620901534
 30
0.0
 41
0.9869959421245939
 10
9.53750306589818
 20
73.2081089244031
 30
0.0
 41
0.9826856962579711
 10
9.593482187933787
 20
73.10336775572775
 30
0.0
 41
1.0
  0
SPLINE
  5
43
330
1F
100
AcDbEntity
  8
Default
100
AcDbSpline
210
0.0
220
0.0
230
1.0
 70
     8
 71
     2
 72
     8
 73
     5
 74
     0
 42
0.0000000001
 43
0.0000000001
 40
-2.003868443233939
 40
-2.003868443233939
 40
-2.003868443233939
 40
-1.999969645972493
 40
-0.9999392919449871
 40
0.0
 40
0.0
 40
0.0
 10
31.45349015047323
 20
24.5026010536173
 30
0.0
 10
31.45363290435168
 20
24.50388824515849
 30
0.0
 10
31.49023187695629
 20
24.83536438633882
 30
0.0
 10
31.47789680591013
 20
25.49936994014912
 30
0.0
 10
31.43953517245058
 20
25.82914060270112
 30
0.0
  0
SPLINE
  5
44
330
1F
100
AcDbEntity
  8
Default
100
AcDbSpline
210
0.0
220
0.0
230
1.0
 70
     8
 71
     2
 72
    13
 73
    10
 74
     0
 42
0.0000000001
 43
0.0000000001
 40
0.0
 40
0.0
 40
0.0
 40
0.9999972121073305
 40
1.999997650366222
 40
2.999998088625115
 40
3.999998526884006
 40
4.999998965142899
 40
5.999999403401791
 40
6.999999841660682
 40
8.0
 40
8.0
 40
8.0
 10
31.43953517245058
 20
25.82914060270112
 30
0.0
 10
31.35630595991352
 20
26.68068956110993
 30
0.0
 10
30.92051399779242
 20
28.33353274585321
 30
0.0
 10
30.39205608412632
 20
29.9569777402893
 30
0.0
 10
29.86099230269861
 20
31.57957223852723
 30
0.0
 10
29.33031704180752
 20
33.20229359094856
 30
0.0
 10
28.79957293845008
 20
34.82499278977627
 30
0.0
 10
28.26851010934534
 20
36.44758549592593
 30
0.0
 10
27.73908511318986
 20
38.07072703346171
 30
0.0
 10
27.46942528206483
 20
38.88064029816783
 30
0.0
  0
SPLINE
  5
45
330
1F
100
AcDbEntity
  8
Default
100
AcDbSpline
210
0.0
220
0.0
230
1.0
 70
     8
 71
     3
 72
    12
 73
     8
 74
     0
 42
0.0000000001
 43
0.0000000001
 40
0.0
 40
0.0
 40
0.0
 40
0.0
 40
0.2220281076526817
 40
0.3807998730719381
 40
0.6237689941419203
 40
0.8374521829551241
 40
1.072297137181762
 40
1.072297137181762
 40
1.072297137181762
 40
1.072297137181762
 10
27.46942528206483
 20
38.88064029816783
 30
0.0
 10
27.44457366466352
 20
38.95015634807346
 30
0.0
 10
27.40086548427291
 20
39.06991645732171
 30
0.0
 10
27.31809751868868
 20
39.25993852473921
 30
0.0
 10
27.20936288114662
 20
39.43732734114425
 30
0.0
 10
27.01258824867391
 20
39.56962852781839
 30
0.0
 10
26.85850950713941
 20
39.58175685467851
 30
0.0
 10
26.78105241552901
 20
39.5781264301239
 30
0.0
  0
SPLINE
  5
46
330
1F
100
AcDbEntity
  8
Default
100
AcDbSpline
210
0.0
220
0.0
230
1.0
 70
     8
 71
     2
 72
     8
 73
     5
 74
     0
 42
0.0000000001
 43
0.0000000001
 40
0.0
 40
0.0
 40
0.0
 40
1.000000000837003
 40
2.000000001674005
 40
3.0
 40
3.0
 40
3.0
 10
26.78105241552901
 20
39.5781264301239
 30
0.0
 10
26.63720641963452
 20
39.57138434847947
 30
0.0
 10
26.28928330955736
 20
39.53675145346416
 30
0.0
 10
26.00188353984235
 20
39.50309161702564
 30
0.0
 10
25.86923195840613
 20
39.44523945968668
 30
0.0
  0
SPLINE
  5
47
330
1F
100
AcDbEntity
  8
Default
100
AcDbSpline
210
0.0
220
0.0
230
1.0
 70
     8
 71
     2
 72
     8
 73
     5
 74
     0
 42
0.0000000001
 43
0.0000000001
 40
0.0
 40
0.0
 40
0.0
 40
0.999999999618627
 40
1.999999999809313
 40
3.0
 40
3.0
 40
3.0
 10
25.86923195840613
 20
39.44523945968668
 30
0.0
 10
25.73967507399557
 20
39.37278162749443
 30
0.0
 10
25.60575032934879
 20
39.11366051221169
 30
0.0
 10
25.57466897638548
 20
38.82542960568696
 30
0.0
 10
25.59395264504969
 20
38.68261440883157
 30
0.0
  0
SPLINE
  5
48
330
1F
100
AcDbEntity
  8
Default
100
AcDbSpline
210
0.0
220
0.0
230
1.0
 70
     8
 71
     2
 72
    13
 73
    10
 74
     0
 42
0.0000000001
 43
0.0000000001
 40
0.0
 40
0.0
 40
0.0
 40
1.0
 40
2.0
 40
3.0
 40
4.0
 40
5.0
 40
6.0
 40
7.0
 40
8.0
 40
8.0
 40
8.0
 10
25.59395264504969
 20
38.68261440883157
 30
0.0
 10
25.91213974154324
 20
37.26146385431318
 30
0.0
 10
26.70543213613785
 20
34.45660191578317
 30
0.0
 10
27.35084843090803
 20
31.61432484070165
 30
0.0
 10
27.8148245037921
 20
28.73631433460147
 30
0.0
 10
28.01643892831162
 20
25.82611264236629
 30
0.0
 10
27.82026848068182
 20
22.91367604696221
 30
0.0
 10
27.19476971329922
 20
20.06451910522324
 30
0.0
 10
26.425615440372
 20
17.25326819120333
 30
0.0
 10
25.92172715961348
 20
15.88509795043948
 30
0.0
  0
SPLINE
  5
49
330
1F
100
AcDbEntity
  8
Default
100
AcDbSpline
210
0.0
220
0.0
230
1.0
 70
     8
 71
     5
 72
    12
 73
     6
 74
     0
 42
0.0000000001
 43
0.0000000001
 40
0.0
 40
0.0
 40
0.0
 40
0.0
 40
0.0
 40
0.0
 40
1.0
 40
1.0
 40
1.0
 40
1.0
 40
1.0
 40
1.0
 10
25.92172715961348
 20
15.88509795043948
 30
0.0
 10
25.91027601674894
 20
15.85400551688176
 30
0.0
 10
25.89878704139211
 20
15.82292701678709
 30
0.0
 10
25.95274356845824
 20
15.74677371443098
 30
0.0
 10
25.98581317986335
 20
15.7488398458305
 30
0.0
 10
26.01888279126846
 20
15.75090597723002
 30
0.0
  0
POLYLINE
  5
4A
330
1F
100
AcDbEntity
  8
Default
100
AcDb2dPolyline
 66
     1
 10
0.0
 20
0.0
 30
0.0
  0
VERTEX
  5
4B
330
4A
100
AcDbEntity
  8
Default
100
AcDbVertex
100
AcDb2dVertex
 10
26.01888279126846
 20
15.75090597723002
 30
0.0
  0
VERTEX
  5
4C
330
4A
100
AcDbEntity
  8
Default
100
AcDbVertex
100
AcDb2dVertex
 10
26.06864305670396
 20
15.75401491145984
 30
0.0
  0
VERTEX
  5
4D
330
4A
100
AcDbEntity
  8
Default
100
AcDbVertex
100
AcDb2dVertex
 10
26.4437774189141
 20
15.77459701895308
 30
0.0
  0
SEQEND
  5
4E
330
4A
100
AcDbEntity
  8
Default
  0
SPLINE
  5
4F
330
1F
100
AcDbEntity
  8
Default
100
AcDbSpline
210
0.0
220
0.0
230
1.0
 70
     8
 71
     2
 72
     6
 73
     3
 74
     0
 42
0.0000000001
 43
0.0000000001
 40
0.0
 40
0.0
 40
0.0
 40
1.0
 40
1.0
 40
1.0
 10
25.92172715961348
 20
15.88509795043948
 30
0.0
 10
26.59489228183947
 20
16.00528315792056
 30
0.0
 10
27.27823255318668
 20
16.16532022309831
 30
0.0
  0
SPLINE
  5
50
330
1F
100
AcDbEntity
  8
Default
100
AcDbSpline
210
0.0
220
0.0
230
1.0
 70
     8
 71
     2
 72
     9
 73
     6
 74
     0
 42
0.0000000001
 43
0.0000000001
 40
0.0
 40
0.0
 40
0.0
 40
1.0
 40
2.0
 40
3.0
 40
4.0
 40
4.0
 40
4.0
 10
27.27823255318668
 20
16.16532022309831
 30
0.0
 10
27.39115565699466
 20
16.19595338151411
 30
0.0
 10
27.56264462922578
 20
16.35375842375928
 30
0.0
 10
27.6871208271461
 20
16.5477064912707
 30
0.0
 10
27.77297815062546
 20
16.7614460919571
 30
0.0
 10
27.80073364715931
 20
16.87310636746391
 30
0.0
  0
SPLINE
  5
51
330
1F
100
AcDbEntity
  8
Default
100
AcDbSpline
210
0.0
220
0.0
230
1.0
 70
     8
 71
     2
 72
     6
 73
     3
 74
     0
 42
0.0000000001
 43
0.0000000001
 40
0.0
 40
0.0
 40
0.0
 40
1.0
 40
1.0
 40
1.0
 10
27.80073364715931
 20
16.87310636746391
 30
0.0
 10
28.72733273268943
 20
20.57335779246998
 30
0.0
 10
29.6484845393629
 20
24.2749692124356
 30
0.0
  0
SPLINE
  5
52
330
1F
100
AcDbEntity
  8
Default
100
AcDbSpline
210
0.0
220
0.0
230
1.0
 70
     8
 71
     2
 72
     9
 73
     6
 74
     0
 42
0.0000000001
 43
0.0000000001
 40
0.0
 40
0.0
 40
0.0
 40
1.0
 40
2.0
 40
3.0
 40
4.0
 40
4.0
 40
4.0
 10
29.6484845393629
 20
24.2749692124356
 30
0.0
 10
29.76851611455405
 20
24.93252916970572
 30
0.0
 10
29.78367026756388
 20
26.26929426153837
 30
0.0
 10
29.6651839115361
 20
27.59897065469312
 30
0.0
 10
29.43110804198155
 20
28.91388999686976
 30
0.0
 10
29.24004996454209
 20
29.55379263796023
 30
0.0
  0
SPLINE
  5
54
330
1F
100
AcDbEntity
  8
Make2D visible lines
100
AcDbSpline
210
0.0
220
0.0
230
1.0
 70
    12
 71
     2
 72
     6
 73
     3
 74
     0
 42
0.0000000001
 43
0.0000000001
 40
0.0
 40
0.0
 40
0.0
 40
1.021758881688503
 40
1.021758881688503
 40
1.021758881688503
 10
-9.727571403238613
 20
69.68230600167746
 30
0.0
 41
1.0
 10
-9.774622196074095
 20
70.82486139865237
 30
0.0
 41
0.9975365531329
 10
-9.705472997713258
 20
71.33188823965804
 30
0.0
 41
1.0
  0
SPLINE
  5
55
330
1F
100
AcDbEntity
  8
Make2D visible lines
100
AcDbSpline
210
0.0
220
0.0
230
1.0
 70
    12
 71
     2
 72
     6
 73
     3
 74
     0
 42
0.0000000001
 43
0.0000000001
 40
0.0
 40
0.0
 40
0.0
 40
2.726115023456513
 40
2.726115023456513
 40
2.726115023456513
 10
-9.705472997713258
 20
71.33188823965804
 30
0.0
 41
1.0
 10
-9.521275004379282
 20
72.68249430442201
 30
0.0
 41
0.9999435449534269
 10
-9.364934736551959
 20
74.04368533612822
 30
0.0
 41
1.0
  0
SPLINE
  5
56
330
1F
100
AcDbEntity
  8
Make2D visible lines
100
AcDbSpline
210
0.0
220
0.0
230
1.0
 70
     8
 71
     3
 72
    12
 73
     8
 74
     0
 42
0.0000000001
 43
0.0000000001
 40
0.0
 40
0.0
 40
0.0
 40
0.0
 40
0.1554720785432704
 40
0.3009782944209934
 40
0.59509600398107
 40
0.9245005407873459
 40
1.47816597539212
 40
1.47816597539212
 40
1.47816597539212
 40
1.47816597539212
 10
-9.364934736551959
 20
74.04368533612822
 30
0.0
 10
-9.357849772988033
 20
74.10228153593124
 30
0.0
 10
-9.33522014893721
 20
74.20009355058829
 30
0.0
 10
-9.254614541103507
 20
74.38308295180352
 30
0.0
 10
-9.06639159235975
 20
74.5683477863318
 30
0.0
 10
-8.694576028332719
 20
74.70614595239114
 30
0.0
 10
-8.405971349477994
 20
74.7603190935665
 30
0.0
 10
-8.219259755049805
 20
74.79754807904945
 30
0.0
  0
SPLINE
  5
57
330
1F
100
AcDbEntity
  8
Make2D visible lines
100
AcDbSpline
210
0.0
220
0.0
230
1.0
 70
     8
 71
     3
 72
    11
 73
     7
 74
     0
 42
0.0000000001
 43
0.0000000001
 40
0.0
 40
0.0
 40
0.0
 40
0.0
 40
0.8439398168709766
 40
1.750652606699119
 40
3.838328185162833
 40
8.250922835833775
 40
8.250922835833775
 40
8.250922835833775
 40
8.250922835833775
 10
-8.219259755049805
 20
74.79754807904945
 30
0.0
 10
-7.937446798357286
 20
74.85123968667203
 30
0.0
 10
-7.362224932523773
 20
74.94949662002819
 30
0.0
 10
-6.094663770461821
 20
75.12539767894256
 30
0.0
 10
-3.637140061715726
 20
75.36693182132058
 30
0.0
 10
-1.470934682675605
 20
75.46337180006456
 30
0.0
 10
0.000000000001279
 20
75.46488827118316
 30
0.0
  0
SPLINE
  5
58
330
1F
100
AcDbEntity
  8
Make2D visible lines
100
AcDbSpline
210
0.0
220
0.0
230
1.0
 70
     8
 71
     3
 72
    11
 73
     7
 74
     0
 42
0.0000000001
 43
0.0000000001
 40
-8.250922835833775
 40
-8.250922835833775
 40
-8.250922835833775
 40
-8.250922835833775
 40
-3.838328185162833
 40
-1.750652606699119
 40
-0.8439398168709766
 40
0.0
 40
0.0
 40
0.0
 40
0.0
 10
0.000000000001279
 20
75.46488827118316
 30
0.0
 10
1.470934682678163
 20
75.46337180006456
 30
0.0
 10
3.637140061718284
 20
75.36693182132058
 30
0.0
 10
6.094663770464379
 20
75.12539767894256
 30
0.0
 10
7.362224932526331
 20
74.94949662002819
 30
0.0
 10
7.937446798359844
 20
74.85123968667203
 30
0.0
 10
8.219259755052363
 20
74.79754807904945
 30
0.0
  0
SPLINE
  5
59
330
1F
100
AcDbEntity
  8
Make2D visible lines
100
AcDbSpline
210
0.0
220
0.0
230
1.0
 70
     8
 71
     3
 72
    12
 73
     8
 74
     0
 42
0.0000000001
 43
0.0000000001
 40
-1.47816597539212
 40
-1.47816597539212
 40
-1.47816597539212
 40
-1.47816597539212
 40
-0.9245005407873459
 40
-0.59509600398107
 40
-0.3009782944209934
 40
-0.1554720785432704
 40
0.0
 40
0.0
 40
0.0
 40
0.0
 10
8.219259755052363
 20
74.79754807904945
 30
0.0
 10
8.405971349480552
 20
74.7603190935665
 30
0.0
 10
8.694576028335277
 20
74.70614595239114
 30
0.0
 10
9.066391592362308
 20
74.5683477863318
 30
0.0
 10
9.254614541106065
 20
74.38308295180352
 30
0.0
 10
9.335220148939769
 20
74.20009355058829
 30
0.0
 10
9.35784977299059
 20
74.10228153593124
 30
0.0
 10
9.364934736554517
 20
74.04368533612822
 30
0.0
  0
SPLINE
  5
5A
330
1F
100
AcDbEntity
  8
Make2D visible lines
100
AcDbSpline
210
0.0
220
0.0
230
1.0
 70
    12
 71
     2
 72
     6
 73
     3
 74
     0
 42
0.0000000001
 43
0.0000000001
 40
-2.726115023456513
 40
-2.726115023456513
 40
-2.726115023456513
 40
0.0
 40
0.0
 40
0.0
 10
9.364934736554517
 20
74.04368533612822
 30
0.0
 41
1.0
 10
9.521275004381833
 20
72.68249430442201
 30
0.0
 41
0.9999435449534269
 10
9.705472997715816
 20
71.33188823965804
 30
0.0
 41
1.0
  0
SPLINE
  5
5B
330
1F
100
AcDbEntity
  8
Make2D visible lines
100
AcDbSpline
210
0.0
220
0.0
230
1.0
 70
    12
 71
     2
 72
     6
 73
     3
 74
     0
 42
0.0000000001
 43
0.0000000001
 40
-1.021758881688503
 40
-1.021758881688503
 40
-1.021758881688503
 40
0.0
 40
0.0
 40
0.0
 10
9.705472997715816
 20
71.33188823965804
 30
0.0
 41
1.0
 10
9.774622196076649
 20
70.82486139865237
 30
0.0
 41
0.9975365531329
 10
9.727571403241171
 20
69.68230600167746
 30
0.0
 41
1.0
  0
SPLINE
  5
5C
330
1F
100
AcDbEntity
  8
Make2D visible lines
100
AcDbSpline
210
0.0
220
0.0
230
1.0
 70
    12
 71
     2
 72
     6
 73
     3
 74
     0
 42
0.0000000001
 43
0.0000000001
 40
-0.1897097393459297
 40
-0.1897097393459297
 40
-0.1897097393459297
 40
0.0
 40
0.0
 40
0.0
 10
9.727571403241171
 20
69.68230600167746
 30
0.0
 41
1.0
 10
9.724319363178342
 20
69.56178297911657
 30
0.0
 41
0.708770818959867
 10
9.600373265691118
 20
69.56461620077354
 30
0.0
 41
1.0
  0
SPLINE
  5
5D
330
1F
100
AcDbEntity
  8
Make2D visible lines
100
AcDbSpline
210
0.0
220
0.0
230
1.0
 70
     8
 71
     2
 72
    23
 73
    20
 74
     0
 42
0.0000000001
 43
0.0000000001
 40
0.0
 40
0.0
 40
0.0
 40
1.0
 40
2.0
 40
3.0
 40
4.0
 40
5.0
 40
6.0
 40
7.0
 40
8.0
 40
9.0
 40
10.0
 40
11.0
 40
12.0
 40
13.0
 40
14.0
 40
15.0
 40
16.0
 40
17.0
 40
18.0
 40
18.0
 40
18.0
 10
9.600373265691118
 20
69.56461620077354
 30
0.0
 10
9.058589536159573
 20
69.59552228952494
 30
0.0
 10
7.995686207055996
 20
69.77778647488704
 30
0.0
 10
6.935603003570691
 20
69.97037508556883
 30
0.0
 10
5.877549347225141
 20
70.17473477282945
 30
0.0
 10
4.818366079553655
 20
70.37303797554068
 30
0.0
 10
3.755482635978382
 20
70.55071940722769
 30
0.0
 10
2.687741280079578
 20
70.6967410249232
 30
0.0
 10
1.615199003089643
 20
70.8023348676129
 30
0.0
 10
0.5389175130073909
 20
70.85957291954519
 30
0.0
 10
-0.5389095014580221
 20
70.8594049995664
 30
0.0
 10
-1.615201599586626
 20
70.80236654211126
 30
0.0
 10
-2.687747669063725
 20
70.6968000894951
 30
0.0
 10
-3.755472277900807
 20
70.5506557098649
 30
0.0
 10
-4.818358799353362
 20
70.37299686714297
 30
0.0
 10
-5.877560254412771
 20
70.17479122142296
 30
0.0
 10
-6.93562903495534
 20
69.97051110836941
 30
0.0
 10
-7.995680467611479
 20
69.77774472525141
 30
0.0
 10
-9.058590189821999
 20
69.59553241270015
 30
0.0
 10
-9.600373258114658
 20
69.56461620719102
 30
0.0
  0
SPLINE
  5
5E
330
1F
100
AcDbEntity
  8
Make2D visible lines
100
AcDbSpline
210
0.0
220
0.0
230
1.0
 70
    12
 71
     2
 72
     6
 73
     3
 74
     0
 42
0.0000000001
 43
0.0000000001
 40
0.0
 40
0.0
 40
0.0
 40
0.1897097393459297
 40
0.1897097393459297
 40
0.1897097393459297
 10
-9.600373258114658
 20
69.56461620719102
 30
0.0
 41
1.0
 10
-9.724319363175777
 20
69.56178297911657
 30
0.0
 41
0.708770818959867
 10
-9.727571403238613
 20
69.68230600167746
 30
0.0
 41
1.0
  0
SPLINE
  5
5F
330
1F
100
AcDbEntity
  8
Default
100
AcDbSpline
210
0.0
220
0.0
230
1.0
 70
    12
 71
     5
 72
    27
 73
    21
 74
     0
 42
0.0000000001
 43
0.0000000001
 40
-10.92202853588332
 40
-10.92202853588332
 40
-10.92202853588332
 40
-10.92202853588332
 40
-10.92202853588332
 40
-10.92202853588332
 40
-4.869933478810042
 40
-4.869933478810042
 40
-4.869933478810042
 40
-4.869933478810042
 40
-4.869933478810042
 40
-3.869933478810042
 40
-3.869933478810042
 40
-3.869933478810042
 40
-3.869933478810042
 40
-3.869933478810042
 40
0.0
 40
0.0
 40
0.0
 40
0.0
 40
0.0
 40
8.827351255019671
 40
8.827351255019671
 40
8.827351255019671
 40
8.827351255019671
 40
8.827351255019671
 40
8.827351255019671
 10
9.347618779755308
 20
17.79409713738934
 30
0.0
 41
1.0
 10
9.418005489012184
 20
19.00246789843974
 30
0.0
 41
0.9999999962987903
 10
9.488310006674485
 20
20.21084344596826
 30
0.0
 41
0.9999999944481853
 10
9.558532332351335
 20
21.41922377326627
 30
0.0
 41
0.9999999944481852
 10
9.628672465652894
 20
22.62760887362506
 30
0.0
 41
0.9999999962987902
 10
9.698730406190236
 20
23.83599874033587
 30
0.0
 41
1.0
 10
9.721183153787635
 20
24.22327350845521
 30
0.0
 41
1.0
 10
9.743627459135482
 20
24.61054876602471
 30
0.0
 41
1.0
 10
9.726292635839783
 20
24.99945383129735
 30
0.0
 41
1.0
 10
9.734103994052575
 20
25.38730594324189
 30
0.0
 41
1.0
 10
9.739816494257965
 20
25.77518896586336
 30
0.0
 41
1.0
 10
9.751214230405282
 20
26.54910374729093
 30
0.0
 41
0.9999068951623663
 10
9.75425877789073
 20
27.32326604097658
 30
0.0
 41
0.9998603427435494
 10
9.748948544715324
 20
28.09756774900854
 30
0.0
 41
0.9998603427435496
 10
9.73528427256082
 20
28.87190072446563
 30
0.0
 41
0.9999068951623663
 10
9.71326903644406
 20
29.64615682176215
 30
0.0
 41
1.0
 10
9.642095903147213
 20
31.41076275856265
 30
0.0
 41
0.9999997121762807
 10
9.571984896092374
 20
33.175268707013
 30
0.0
 41
0.9999995682644209
 10
9.50293604600748
 20
34.93967390526971
 30
0.0
 41
0.9999995682644209
 10
9.429183920651013
 20
36.72143126028265
 30
0.0
 41
0.9999997121762807
 10
9.367359701670082
 20
38.48581876651964
 30
0.0
 41
1.0
  0
SPLINE
  5
60
330
1F
100
AcDbEntity
  8
Default
100
AcDbSpline
210
0.0
220
0.0
230
1.0
 70
     8
 71
     3
 72
    12
 73
     8
 74
     0
 42
0.0000000001
 43
0.0000000001
 40
0.0
 40
0.0
 40
0.0
 40
0.0
 40
0.2925364892734191
 40
0.5266753524719185
 40
0.8954007830462865
 40
1.272514060535867
 40
1.819688632225438
 40
1.819688632225438
 40
1.819688632225438
 40
1.819688632225438
 10
9.367359701670082
 20
38.48581876651964
 30
0.0
 10
9.363970338115024
 20
38.58254705212038
 30
0.0
 10
9.347684288972388
 20
38.7597417346964
 30
0.0
 10
9.291856672869272
 20
39.0497488349141
 30
0.0
 10
9.130419341705064
 20
39.35322829463965
 30
0.0
 10
8.719474895439447
 20
39.53114566223595
 30
0.0
 10
8.41046750555499
 20
39.5370445568655
 30
0.0
 10
8.227408642257984
 20
39.53847900717165
 30
0.0
  0
SPLINE
  5
61
330
1F
100
AcDbEntity
  8
Default
100
AcDbSpline
210
0.0
220
0.0
230
1.0
 70
     8
 71
     3
 72
    10
 73
     6
 74
     0
 42
0.0000000001
 43
0.0000000001
 40
0.0
 40
0.0
 40
0.0
 40
0.0
 40
1.378338139666584
 40
6.134350255697862
 40
8.227329765075336
 40
8.227329765075336
 40
8.227329765075336
 40
8.227329765075336
 10
8.227408642257984
 20
39.53847900717165
 30
0.0
 10
7.76751786287754
 20
39.53627826176195
 30
0.0
 10
5.722810612338918
 20
39.51830331687603
 30
0.0
 10
2.980622543059084
 20
39.47969564175266
 30
0.0
 10
0.6976652888439787
 20
39.46412412875001
 30
0.0
 10
0.0000000000012932
 20
39.46445653176973
 30
0.0
  0
SPLINE
  5
62
330
1F
100
AcDbEntity
  8
Default
100
AcDbSpline
210
0.0
220
0.0
230
1.0
 70
     8
 71
     3
 72
    10
 73
     6
 74
     0
 42
0.0000000001
 43
0.0000000001
 40
-8.227329765075336
 40
-8.227329765075336
 40
-8.227329765075336
 40
-8.227329765075336
 40
-6.134350255697862
 40
-1.378338139666584
 40
0.0
 40
0.0
 40
0.0
 40
0.0
 10
0.0000000000012932
 20
39.46445653176973
 30
0.0
 10
-0.6976652888413923
 20
39.46412412875001
 30
0.0
 10
-2.980622543056498
 20
39.47969564175266
 30
0.0
 10
-5.722810612336332
 20
39.51830331687603
 30
0.0
 10
-7.767517862874953
 20
39.53627826176195
 30
0.0
 10
-8.227408642255398
 20
39.53847900717165
 30
0.0
  0
SPLINE
  5
63
330
1F
100
AcDbEntity
  8
Default
100
AcDbSpline
210
0.0
220
0.0
230
1.0
 70
     8
 71
     3
 72
    12
 73
     8
 74
     0
 42
0.0000000001
 43
0.0000000001
 40
-1.819688632225438
 40
-1.819688632225438
 40
-1.819688632225438
 40
-1.819688632225438
 40
-1.272514060535867
 40
-0.8954007830462865
 40
-0.5266753524719185
 40
-0.2925364892734191
 40
0.0
 40
0.0
 40
0.0
 40
0.0
 10
-8.227408642255398
 20
39.53847900717165
 30
0.0
 10
-8.410467505552404
 20
39.5370445568655
 30
0.0
 10
-8.71947489543686
 20
39.53114566223595
 30
0.0
 10
-9.130419341702478
 20
39.35322829463965
 30
0.0
 10
-9.291856672866686
 20
39.0497488349141
 30
0.0
 10
-9.347684288969802
 20
38.7597417346964
 30
0.0
 10
-9.363970338112438
 20
38.58254705212038
 30
0.0
 10
-9.367359701667496
 20
38.48581876651964
 30
0.0
  0
SPLINE
  5
64
330
1F
100
AcDbEntity
  8
Default
100
AcDbSpline
210
0.0
220
0.0
230
1.0
 70
    12
 71
     5
 72
    27
 73
    21
 74
     0
 42
0.0000000001
 43
0.0000000001
 40
-8.827351255019671
 40
-8.827351255019671
 40
-8.827351255019671
 40
-8.827351255019671
 40
-8.827351255019671
 40
-8.827351255019671
 40
0.0
 40
0.0
 40
0.0
 40
0.0
 40
0.0
 40
3.869933478810042
 40
3.869933478810042
 40
3.869933478810042
 40
3.869933478810042
 40
3.869933478810042
 40
4.869933478810042
 40
4.869933478810042
 40
4.869933478810042
 40
4.869933478810042
 40
4.869933478810042
 40
10.92202853588332
 40
10.92202853588332
 40
10.92202853588332
 40
10.92202853588332
 40
10.92202853588332
 40
10.92202853588332
 10
-9.367359701667496
 20
38.48581876651964
 30
0.0
 41
1.0
 10
-9.429183920648544
 20
36.72143126028265
 30
0.0
 41
0.9999997121762807
 10
-9.502936046004884
 20
34.93967390526971
 30
0.0
 41
0.9999995682644209
 10
-9.571984896089777
 20
33.175268707013
 30
0.0
 41
0.9999995682644209
 10
-9.642095903144645
 20
31.41076275856265
 30
0.0
 41
0.9999997121762807
 10
-9.71326903644146
 20
29.64615682176215
 30
0.0
 41
1.0
 10
-9.735284272558198
 20
28.87190072446563
 30
0.0
 41
0.9999068951623663
 10
-9.74894854471275
 20
28.09756774900854
 30
0.0
 41
0.9998603427435496
 10
-9.754258777888108
 20
27.32326604097658
 30
0.0
 41
0.9998603427435494
 10
-9.751214230402688
 20
26.54910374729093
 30
0.0
 41
0.9999068951623663
 10
-9.739816494255379
 20
25.77518896586336
 30
0.0
 41
1.0
 10
-9.734103994049988
 20
25.38730594324189
 30
0.0
 41
1.0
 10
-9.726292635837197
 20
24.99945383129735
 30
0.0
 41
1.0
 10
-9.743627459132895
 20
24.61054876602471
 30
0.0
 41
1.0
 10
-9.721183153785049
 20
24.22327350845521
 30
0.0
 41
1.0
 10
-9.69873040618765
 20
23.83599874033587
 30
0.0
 41
1.0
 10
-9.628672465650308
 20
22.62760887362506
 30
0.0
 41
0.9999999962987902
 10
-9.55853233234871
 20
21.41922377326627
 30
0.0
 41
0.9999999944481852
 10
-9.488310006671885
 20
20.21084344596826
 30
0.0
 41
0.9999999944481853
 10
-9.418005489009637
 20
19.00246789843974
 30
0.0
 41
0.9999999962987903
 10
-9.347618779752722
 20
17.79409713738934
 30
0.0
 41
1.0
  0
SPLINE
  5
66
330
1F
100
AcDbEntity
  8
2D SEAT & WISHBONE
100
AcDbSpline
210
0.0
220
0.0
230
1.0
 70
    12
 71
     2
 72
     6
 73
     3
 74
     0
 42
0.0000000001
 43
0.0000000001
 40
1.270125908802269
 40
1.270125908802269
 40
1.270125908802269
 40
9.327031089304736
 40
9.327031089304736
 40
9.327031089304736
 10
9.769442521794215
 20
69.6613402133015
 30
0.0
 41
0.9999999819008581
 10
9.97069441077839
 20
64.18890298272377
 30
0.0
 41
0.9999999335454627
 10
10.11992479149562
 20
60.16321522906323
 30
0.0
 41
1.0
  0
SPLINE
  5
67
330
1F
100
AcDbEntity
  8
2D SEAT & WISHBONE
100
AcDbSpline
210
0.0
220
0.0
230
1.0
 70
     8
 71
     2
 72
     8
 73
     5
 74
     0
 42
0.0000000001
 43
0.0000000001
 40
5.159015867031118
 40
5.159015867031118
 40
5.159015867031118
 40
6.0
 40
7.0
 40
8.0
 40
8.0
 40
8.0
 10
10.11992479149562
 20
60.16321522906323
 30
0.0
 10
10.14858361712911
 20
59.3901053379786
 30
0.0
 10
10.21859458860458
 20
57.69933021504482
 30
0.0
 10
10.10926612977914
 20
55.67355252807652
 30
0.0
 10
9.656737152440073
 20
54.85925867733367
 30
0.0
  0
SPLINE
  5
68
330
1F
100
AcDbEntity
  8
2D SEAT & WISHBONE
100
AcDbSpline
210
0.0
220
0.0
230
1.0
 70
     8
 71
     2
 72
    13
 73
    10
 74
     0
 42
0.0000000001
 43
0.0000000001
 40
0.0
 40
0.0
 40
0.0
 40
1.0
 40
2.0
 40
3.0
 40
4.0
 40
5.0
 40
6.0
 40
7.0
 40
8.0
 40
8.0
 40
8.0
 10
9.656737152440073
 20
54.85925867733367
 30
0.0
 10
9.346536261489028
 20
54.30107413966787
 30
0.0
 10
8.105924230810999
 20
53.57797212219236
 30
0.0
 10
6.861577575607825
 20
53.41330715489244
 30
0.0
 10
5.617871383106291
 20
53.30158352997402
 30
0.0
 10
4.37122199440109
 20
53.21431556228871
 30
0.0
 10
3.123163784076226
 20
53.15360450855103
 30
0.0
 10
1.874182266274296
 20
53.11592583151141
 30
0.0
 10
0.6247670307885755
 20
53.098446270489
 30
0.0
 10
0.0000000000012932
 20
53.09833092186592
 30
0.0
  0
SPLINE
  5
69
330
1F
100
AcDbEntity
  8
2D SEAT & WISHBONE
100
AcDbSpline
210
0.0
220
0.0
230
1.0
 70
     8
 71
     2
 72
    13
 73
    10
 74
     0
 42
0.0000000001
 43
0.0000000001
 40
-8.0
 40
-8.0
 40
-8.0
 40
-7.0
 40
-6.0
 40
-5.0
 40
-4.0
 40
-3.0
 40
-2.0
 40
-1.0
 40
0.0
 40
0.0
 40
0.0
 10
0.0000000000012932
 20
53.09833092186592
 30
0.0
 10
-0.6247670307859892
 20
53.098446270489
 30
0.0
 10
-1.87418226627171
 20
53.11592583151141
 30
0.0
 10
-3.12316378407364
 20
53.15360450855103
 30
0.0
 10
-4.371221994398503
 20
53.21431556228871
 30
0.0
 10
-5.617871383103704
 20
53.30158352997402
 30
0.0
 10
-6.861577575605239
 20
53.41330715489244
 30
0.0
 10
-8.105924230808412
 20
53.57797212219236
 30
0.0
 10
-9.346536261486442
 20
54.30107413966787
 30
0.0
 10
-9.656737152437486
 20
54.85925867733367
 30
0.0
  0
SPLINE
  5
6A
330
1F
100
AcDbEntity
  8
2D SEAT & WISHBONE
100
AcDbSpline
210
0.0
220
0.0
230
1.0
 70
     8
 71
     2
 72
     8
 73
     5
 74
     0
 42
0.0000000001
 43
0.0000000001
 40
-8.0
 40
-8.0
 40
-8.0
 40
-7.0
 40
-6.0
 40
-5.159015867030632
 40
-5.159015867030632
 40
-5.159015867030632
 10
-9.656737152437486
 20
54.85925867733367
 30
0.0
 10
-10.10926612977656
 20
55.67355252807652
 30
0.0
 10
-10.218594588602
 20
57.69933021504482
 30
0.0
 10
-10.1485836171265
 20
59.39010533797904
 30
0.0
 10
-10.11992479149431
 20
60.16321522906368
 30
0.0
  0
SPLINE
  5
6B
330
1F
100
AcDbEntity
  8
2D SEAT & WISHBONE
100
AcDbSpline
210
0.0
220
0.0
230
1.0
 70
    12
 71
     2
 72
     6
 73
     3
 74
     0
 42
0.0000000001
 43
0.0000000001
 40
-9.327031089304736
 40
-9.327031089304736
 40
-9.327031089304736
 40
-1.270125908802269
 40
-1.270125908802269
 40
-1.270125908802269
 10
-10.11992479149431
 20
60.16321522906368
 30
0.0
 41
1.0
 10
-9.97069441077839
 20
64.18890298272377
 30
0.0
 41
0.9999999335454627
 10
-9.769442521794215
 20
69.6613402133015
 30
0.0
 41
0.9999999819008581
  0
SPLINE
  5
6D
330
1F
100
AcDbEntity
  8
Make2D visible lines - Tangent
100
AcDbSpline
210
0.0
220
0.0
230
1.0
 70
    12
 71
     2
 72
     6
 73
     3
 74
     0
 42
0.0000000001
 43
0.0000000001
 40
1.262976630365854
 40
1.262976630365854
 40
1.262976630365854
 40
1.270125908802269
 40
1.270125908802269
 40
1.270125908802269
 10
-9.769176021531456
 20
69.66848452285492
 30
0.0
 41
0.9999999819867647
 10
-9.769309272736857
 20
69.6649123681183
 30
0.0
 41
0.9999999819437662
 10
-9.769442521794215
 20
69.6613402133015
 30
0.0
 41
0.9999999819008581
  0
SPLINE
  5
6E
330
1F
100
AcDbEntity
  8
Make2D visible lines - Tangent
100
AcDbSpline
210
0.0
220
0.0
230
1.0
 70
    12
 71
     2
 72
     6
 73
     3
 74
     0
 42
0.0000000001
 43
0.0000000001
 40
1.250922485175694
 40
1.250922485175694
 40
1.250922485175694
 40
1.262976630365854
 40
1.262976630365854
 40
1.262976630365854
 10
-9.768726675147958
 20
69.68053028982325
 30
0.0
 41
0.999999982132018
 10
-9.768951351392957
 20
69.674507406453
 30
0.0
 41
0.9999999820592629
 10
-9.769176021531456
 20
69.66848452285492
 30
0.0
 41
0.9999999819867647
  0
SPLINE
  5
6F
330
1F
100
AcDbEntity
  8
2D SEAT & WISHBONE
100
AcDbSpline
210
0.0
220
0.0
230
1.0
 70
    12
 71
     2
 72
     6
 73
     3
 74
     0
 42
0.0000000001
 43
0.0000000001
 40
0.0
 40
0.0
 40
0.0
 40
0.1637644495588675
 40
0.1637644495588675
 40
0.1637644495588675
 10
-8.976850780372096
 20
15.42627985538699
 30
0.0
 41
1.0
 10
-9.069168471713837
 20
15.43510161790906
 30
0.0
 41
0.8333131685789318
 10
-9.114674774789364
 20
15.34854565704207
 30
0.0
 41
1.0
  0
SPLINE
  5
70
330
1F
100
AcDbEntity
  8
2D SEAT & WISHBONE
100
AcDbSpline
210
0.0
220
0.0
230
1.0
 70
    24
 71
     2
 72
     6
 73
     3
 74
     0
 42
0.0000000001
 43
0.0000000001
 40
0.0
 40
0.0
 40
0.0
 40
0.3123357786636093
 40
0.3123357786636093
 40
0.3123357786636093
 10
-9.114674774789364
 20
15.34854565704207
 30
0.0
 10
-9.151246682315083
 20
15.19130662047187
 30
0.0
 10
-9.187818589840802
 20
15.03406758390166
 30
0.0
  0
SPLINE
  5
71
330
1F
100
AcDbEntity
  8
2D SEAT & WISHBONE
100
AcDbSpline
210
0.0
220
0.0
230
1.0
 70
    12
 71
     2
 72
     6
 73
     3
 74
     0
 42
0.0000000001
 43
0.0000000001
 40
0.0
 40
0.0
 40
0.0
 40
0.1422474348555807
 40
0.1422474348555807
 40
0.1422474348555807
 10
-9.187818589840802
 20
15.03406758390166
 30
0.0
 41
1.0
 10
-9.199916124055246
 20
14.94867581276657
 30
0.0
 41
0.8286531362622334
 10
-9.129637843078484
 20
14.90866465388087
 30
0.0
 41
1.0
  0
SPLINE
  5
72
330
1F
100
AcDbEntity
  8
2D SEAT & WISHBONE
100
AcDbSpline
210
0.0
220
0.0
230
1.0
 70
     8
 71
     2
 72
    18
 73
    15
 74
     0
 42
0.0000000001
 43
0.0000000001
 40
0.0
 40
0.0
 40
0.0
 40
1.0
 40
2.0
 40
3.0
 40
4.0
 40
5.0
 40
6.0
 40
7.0
 40
8.0
 40
9.0
 40
10.0
 40
11.0
 40
12.0
 40
13.0
 40
13.0
 40
13.0
 10
-9.129637843078484
 20
14.90866465388087
 30
0.0
 10
-8.82970357748598
 20
14.76602202241808
 30
0.0
 10
-8.219507062202801
 20
14.50202047815842
 30
0.0
 10
-7.609255177261545
 20
14.23856431135061
 30
0.0
 10
-7.000319470917105
 20
13.97200626895553
 30
0.0
 10
-6.392475072190514
 20
13.70298229563497
 30
0.0
 10
-5.785785524608123
 20
13.43136154549606
 30
0.0
 10
-5.180180935953324
 20
13.15733142791023
 30
0.0
 10
-4.576104898572453
 20
12.87993763795525
 30
0.0
 10
-3.968959101786496
 20
12.60932831162649
 30
0.0
 10
-3.358439862491331
 20
12.3463786685069
 30
0.0
 10
-2.74377298275401
 20
12.09340373379551
 30
0.0
 10
-2.129318845490495
 20
11.8396099696755
 30
0.0
 10
-1.492533048198126
 20
11.64723788969346
 30
0.0
 10
-1.147089217859239
 20
11.55371587643287
 30
0.0
  0
SPLINE
  5
73
330
1F
100
AcDbEntity
  8
2D SEAT & WISHBONE
100
AcDbSpline
210
0.0
220
0.0
230
1.0
 70
    12
 71
     2
 72
     6
 73
     3
 74
     0
 42
0.0000000001
 43
0.0000000001
 40
0.0
 40
0.0
 40
0.0
 40
0.5136567142276746
 40
0.5136567142276746
 40
0.5136567142276746
 10
-1.147089217859239
 20
11.55371587643287
 30
0.0
 41
1.0
 10
-0.8712083655352079
 20
11.46786715840234
 30
0.0
 41
0.8413809746725338
 10
-0.8345589147421464
 20
11.1812715115005
 30
0.0
 41
1.0
  0
SPLINE
  5
74
330
1F
100
AcDbEntity
  8
2D SEAT & WISHBONE
100
AcDbSpline
210
0.0
220
0.0
230
1.0
 70
    24
 71
     2
 72
     6
 73
     3
 74
     0
 42
0.0000000001
 43
0.0000000001
 40
0.0
 40
0.0
 40
0.0
 40
0.1695342608272357
 40
0.1695342608272357
 40
0.1695342608272357
 10
-0.8345589147421464
 20
11.1812715115005
 30
0.0
 10
-0.8237766911750697
 20
11.09719291699805
 30
0.0
 10
-0.812994467607993
 20
11.01311432249559
 30
0.0
  0
SPLINE
  5
75
330
1F
100
AcDbEntity
  8
2D SEAT & WISHBONE
100
AcDbSpline
210
0.0
220
0.0
230
1.0
 70
    12
 71
     2
 72
     6
 73
     3
 74
     0
 42
0.0000000001
 43
0.0000000001
 40
-0.173131761589951
 40
-0.173131761589951
 40
-0.173131761589951
 40
0.0
 40
0.0
 40
0.0
 10
-0.812994467607993
 20
11.01311432249559
 30
0.0
 41
1.0
 10
-0.7995931983129506
 20
10.90840945689523
 30
0.0
 41
0.750724645280054
 10
-0.69388386905419
 20
10.908386072036
 30
0.0
 41
1.0
  0
SPLINE
  5
76
330
1F
100
AcDbEntity
  8
2D SEAT & WISHBONE
100
AcDbSpline
210
0.0
220
0.0
230
1.0
 70
    24
 71
     2
 72
     6
 73
     3
 74
     0
 42
0.0000000001
 43
0.0000000001
 40
-0.6937335123029733
 40
-0.6937335123029733
 40
-0.6937335123029733
 40
0.0
 40
0.0
 40
0.0
 10
-0.69388386905419
 20
10.908386072036
 30
0.0
 10
-0.346941934527095
 20
10.908386072036
 30
0.0
 10
0.0
 20
10.908386072036
 30
0.0
  0
SPLINE
  5
77
330
1F
100
AcDbEntity
  8
2D SEAT & WISHBONE
100
AcDbSpline
210
0.0
220
0.0
230
1.0
 70
    24
 71
     2
 72
     6
 73
     3
 74
     0
 42
0.0000000001
 43
0.0000000001
 40
0.0
 40
0.0
 40
0.0
 40
0.6937335123029733
 40
0.6937335123029733
 40
0.6937335123029733
 10
0.0
 20
10.908386072036
 30
0.0
 10
0.346941934527095
 20
10.908386072036
 30
0.0
 10
0.69388386905419
 20
10.908386072036
 30
0.0
  0
SPLINE
  5
78
330
1F
100
AcDbEntity
  8
2D SEAT & WISHBONE
100
AcDbSpline
210
0.0
220
0.0
230
1.0
 70
    12
 71
     2
 72
     6
 73
     3
 74
     0
 42
0.0000000001
 43
0.0000000001
 40
0.0
 40
0.0
 40
0.0
 40
0.173131761589951
 40
0.173131761589951
 40
0.173131761589951
 10
0.69388386905419
 20
10.908386072036
 30
0.0
 41
1.0
 10
0.7995931983129533
 20
10.90840945689523
 30
0.0
 41
0.750724645280054
 10
0.812994467607993
 20
11.01311432249559
 30
0.0
 41
1.0
  0
SPLINE
  5
79
330
1F
100
AcDbEntity
  8
2D SEAT & WISHBONE
100
AcDbSpline
210
0.0
220
0.0
230
1.0
 70
    24
 71
     2
 72
     6
 73
     3
 74
     0
 42
0.0000000001
 43
0.0000000001
 40
-0.1695342608272357
 40
-0.1695342608272357
 40
-0.1695342608272357
 40
0.0
 40
0.0
 40
0.0
 10
0.812994467607993
 20
11.01311432249559
 30
0.0
 10
0.8237766911750697
 20
11.09719291699805
 30
0.0
 10
0.8345589147421464
 20
11.1812715115005
 30
0.0
  0
SPLINE
  5
7A
330
1F
100
AcDbEntity
  8
2D SEAT & WISHBONE
100
AcDbSpline
210
0.0
220
0.0
230
1.0
 70
    12
 71
     2
 72
     6
 73
     3
 74
     0
 42
0.0000000001
 43
0.0000000001
 40
-0.5136567142276746
 40
-0.5136567142276746
 40
-0.5136567142276746
 40
0.0
 40
0.0
 40
0.0
 10
0.8345589147421464
 20
11.1812715115005
 30
0.0
 41
1.0
 10
0.8712083655352068
 20
11.46786715840234
 30
0.0
 41
0.8413809746725338
 10
1.147089217859239
 20
11.55371587643287
 30
0.0
 41
1.0
  0
SPLINE
  5
7B
330
1F
100
AcDbEntity
  8
2D SEAT & WISHBONE
100
AcDbSpline
210
0.0
220
0.0
230
1.0
 70
     8
 71
     2
 72
    18
 73
    15
 74
     0
 42
0.0000000001
 43
0.0000000001
 40
-13.0
 40
-13.0
 40
-13.0
 40
-12.0
 40
-11.0
 40
-10.0
 40
-9.0
 40
-8.0
 40
-7.0
 40
-6.0
 40
-5.0
 40
-4.0
 40
-3.0
 40
-2.0
 40
-1.0
 40
0.0
 40
0.0
 40
0.0
 10
1.147089217859239
 20
11.55371587643287
 30
0.0
 10
1.492533048198126
 20
11.64723788969346
 30
0.0
 10
2.129318845490495
 20
11.8396099696755
 30
0.0
 10
2.74377298275401
 20
12.09340373379551
 30
0.0
 10
3.358439862491331
 20
12.3463786685069
 30
0.0
 10
3.968959101786496
 20
12.60932831162649
 30
0.0
 10
4.576104898572453
 20
12.87993763795525
 30
0.0
 10
5.180180935953324
 20
13.15733142791023
 30
0.0
 10
5.785785524608123
 20
13.43136154549606
 30
0.0
 10
6.392475072190514
 20
13.70298229563497
 30
0.0
 10
7.000319470917105
 20
13.97200626895553
 30
0.0
 10
7.609255177261545
 20
14.23856431135061
 30
0.0
 10
8.219507062202801
 20
14.50202047815842
 30
0.0
 10
8.82970357748598
 20
14.76602202241808
 30
0.0
 10
9.129637843078484
 20
14.90866465388087
 30
0.0
  0
SPLINE
  5
7C
330
1F
100
AcDbEntity
  8
2D SEAT & WISHBONE
100
AcDbSpline
210
0.0
220
0.0
230
1.0
 70
    12
 71
     2
 72
     6
 73
     3
 74
     0
 42
0.0000000001
 43
0.0000000001
 40
-0.1422474348555807
 40
-0.1422474348555807
 40
-0.1422474348555807
 40
0.0
 40
0.0
 40
0.0
 10
9.129637843078484
 20
14.90866465388087
 30
0.0
 41
1.0
 10
9.19991612405525
 20
14.94867581276657
 30
0.0
 41
0.8286531362622334
 10
9.187818589840802
 20
15.03406758390166
 30
0.0
 41
1.0
  0
SPLINE
  5
7D
330
1F
100
AcDbEntity
  8
2D SEAT & WISHBONE
100
AcDbSpline
210
0.0
220
0.0
230
1.0
 70
    24
 71
     2
 72
     6
 73
     3
 74
     0
 42
0.0000000001
 43
0.0000000001
 40
-0.3123357786636093
 40
-0.3123357786636093
 40
-0.3123357786636093
 40
0.0
 40
0.0
 40
0.0
 10
9.187818589840802
 20
15.03406758390166
 30
0.0
 10
9.151246682315083
 20
15.19130662047187
 30
0.0
 10
9.114674774789364
 20
15.34854565704207
 30
0.0
  0
SPLINE
  5
7E
330
1F
100
AcDbEntity
  8
2D SEAT & WISHBONE
100
AcDbSpline
210
0.0
220
0.0
230
1.0
 70
    12
 71
     2
 72
     6
 73
     3
 74
     0
 42
0.0000000001
 43
0.0000000001
 40
-0.1637644495588675
 40
-0.1637644495588675
 40
-0.1637644495588675
 40
0.0
 40
0.0
 40
0.0
 10
9.114674774789364
 20
15.34854565704207
 30
0.0
 41
1.0
 10
9.069168471713835
 20
15.43510161790906
 30
0.0
 41
0.8333131685789318
 10
8.976850780372096
 20
15.42627985538699
 30
0.0
 41
1.0
  0
LINE
  5
80
330
1F
100
AcDbEntity
  8
2D jury base
100
AcDbLine
 10
0.5389669059164883
 20
10.908386072036
 30
0.0
 11
0.5511188976364849
 21
10.423965860396
 31
0.0
  0
LINE
  5
81
330
1F
100
AcDbEntity
  8
2D jury base
100
AcDbLine
 10
-0.5511811023634863
 20
10.423965860396
 30
0.0
 11
-0.5390291106434897
 21
10.908386072036
 31
0.0
  0
LINE
  5
82
330
1F
100
AcDbEntity
  8
2D jury base
100
AcDbLine
 10
35.54531821716667
 20
10.908386072036
 30
0.0
 11
35.55747020888666
 21
10.423965860396
 31
0.0
  0
LINE
  5
83
330
1F
100
AcDbEntity
  8
2D jury base
100
AcDbLine
 10
34.45517020888668
 20
10.423965860396
 30
0.0
 11
34.46732220060667
 21
10.908386072036
 31
0.0
  0
SPLINE
  5
84
330
1F
100
AcDbEntity
  8
2D jury base
100
AcDbSpline
210
0.0
220
0.0
230
1.0
 70
    24
 71
     2
 72
     6
 73
     3
 74
     0
 42
0.0000000001
 43
0.0000000001
 40
0.0
 40
0.0
 40
0.0
 40
10.0
 40
10.0
 40
10.0
 10
30.00632020888667
 20
-0.0000000000000017
 30
0.0
 10
35.00632020888667
 20
-0.0000000000000017
 30
0.0
 10
40.00632020888667
 20
-0.0000000000000017
 30
0.0
  0
SPLINE
  5
85
330
1F
100
AcDbEntity
  8
2D jury base
100
AcDbSpline
210
0.0
220
0.0
230
1.0
 70
    24
 71
     2
 72
     6
 73
     3
 74
     0
 42
0.0000000001
 43
0.0000000001
 40
0.0
 40
0.0
 40
0.0
 40
0.25
 40
0.25
 40
0.25
 10
30.00632020888667
 20
-0.0000000000000017
 30
0.0
 10
30.00632020888667
 20
0.1249999999999983
 30
0.0
 10
30.00632020888667
 20
0.2499999999999983
 30
0.0
  0
SPLINE
  5
86
330
1F
100
AcDbEntity
  8
2D jury base
100
AcDbSpline
210
0.0
220
0.0
230
1.0
 70
    24
 71
     2
 72
     6
 73
     3
 74
     0
 42
0.0000000001
 43
0.0000000001
 40
0.0
 40
0.0
 40
0.0
 40
0.25
 40
0.25
 40
0.25
 10
40.00632020888667
 20
0.2499999999999983
 30
0.0
 10
40.00632020888667
 20
0.1249999999999983
 30
0.0
 10
40.00632020888667
 20
-0.0000000000000017
 30
0.0
  0
SPLINE
  5
87
330
1F
100
AcDbEntity
  8
2D jury base
100
AcDbSpline
210
0.0
220
0.0
230
1.0
 70
    24
 71
     2
 72
     6
 73
     3
 74
     0
 42
0.0000000001
 43
0.0000000001
 40
0.0
 40
0.0
 40
0.0
 40
10.0
 40
10.0
 40
10.0
 10
40.00632020888667
 20
0.2499999999999983
 30
0.0
 10
35.00632020888667
 20
0.2499999999999983
 30
0.0
 10
30.00632020888667
 20
0.2499999999999983
 30
0.0
  0
SPLINE
  5
88
330
1F
100
AcDbEntity
  8
2D jury base
100
AcDbSpline
210
0.0
220
0.0
230
1.0
 70
    24
 71
     2
 72
     6
 73
     3
 74
     0
 42
0.0000000001
 43
0.0000000001
 40
0.0
 40
0.0
 40
0.0
 40
2.625
 40
2.625
 40
2.625
 10
33.75632020888667
 20
0.2499999999999983
 30
0.0
 10
33.75632020888667
 20
1.562499999999998
 30
0.0
 10
33.75632020888667
 20
2.874999999999998
 30
0.0
  0
SPLINE
  5
89
330
1F
100
AcDbEntity
  8
2D jury base
100
AcDbSpline
210
0.0
220
0.0
230
1.0
 70
    24
 71
     2
 72
     6
 73
     3
 74
     0
 42
0.0000000001
 43
0.0000000001
 40
0.0
 40
0.0
 40
0.0
 40
2.625
 40
2.625
 40
2.625
 10
36.25632020888667
 20
2.874999999999998
 30
0.0
 10
36.25632020888667
 20
1.562499999999998
 30
0.0
 10
36.25632020888667
 20
0.2499999999999983
 30
0.0
  0
SPLINE
  5
8A
330
1F
100
AcDbEntity
  8
2D jury base
100
AcDbSpline
210
0.0
220
0.0
230
1.0
 70
    24
 71
     2
 72
     6
 73
     3
 74
     0
 42
0.0000000001
 43
0.0000000001
 40
0.0
 40
0.0
 40
0.0
 40
2.494943635768455
 40
2.494943635768455
 40
2.494943635768455
 10
36.25126384465513
 20
2.874999999999998
 30
0.0
 10
35.0037920267709
 20
2.874999999999998
 30
0.0
 10
33.75632020888667
 20
2.874999999999998
 30
0.0
  0
SPLINE
  5
8B
330
1F
100
AcDbEntity
  8
2D jury base
100
AcDbSpline
210
0.0
220
0.0
230
1.0
 70
    24
 71
     2
 72
     6
 73
     3
 74
     0
 42
0.0000000001
 43
0.0000000001
 40
0.0
 40
0.0
 40
0.0
 40
0.0099689956080192
 40
0.0099689956080192
 40
0.0099689956080192
 10
35.99032020888644
 20
2.874999999999998
 30
0.0
 10
35.99044520888654
 20
2.879982930197999
 30
0.0
 10
35.99057020888665
 20
2.884965860395999
 30
0.0
  0
SPLINE
  5
8C
330
1F
100
AcDbEntity
  8
2D jury base
100
AcDbSpline
210
0.0
220
0.0
230
1.0
 70
    24
 71
     2
 72
     6
 73
     3
 74
     0
 42
0.0000000001
 43
0.0000000001
 40
0.0
 40
0.0
 40
0.0
 40
0.0098691515174568
 40
0.0098691515174568
 40
0.0098691515174568
 10
34.02207271275203
 20
2.884866047706032
 30
0.0
 10
34.02219646081947
 20
2.879933023853015
 30
0.0
 10
34.0223202088869
 20
2.874999999999998
 30
0.0
  0
SPLINE
  5
8D
330
1F
100
AcDbEntity
  8
2D jury base
100
AcDbSpline
210
0.0
220
0.0
230
1.0
 70
    24
 71
     2
 72
     6
 73
     3
 74
     0
 42
0.0000000001
 43
0.0000000001
 40
0.0
 40
0.0
 40
0.0
 40
6.6536
 40
6.6536
 40
6.6536
 10
35.99057020888667
 20
9.538565860395996
 30
0.0
 10
35.99057020888667
 20
6.211765860395998
 30
0.0
 10
35.99057020888665
 20
2.884965860395999
 30
0.0
  0
SPLINE
  5
8E
330
1F
100
AcDbEntity
  8
2D jury base
100
AcDbSpline
210
0.0
220
0.0
230
1.0
 70
    24
 71
     2
 72
     6
 73
     3
 74
     0
 42
0.0000000001
 43
0.0000000001
 40
0.0
 40
0.0
 40
0.0
 40
6.6536
 40
6.6536
 40
6.6536
 10
34.02207020888668
 20
2.884965860395999
 30
0.0
 10
34.02207020888667
 20
6.211765860395998
 30
0.0
 10
34.02207020888667
 20
9.538565860395996
 30
0.0
  0
SPLINE
  5
8F
330
1F
100
AcDbEntity
  8
2D jury base
100
AcDbSpline
210
0.0
220
0.0
230
1.0
 70
    24
 71
     2
 72
     6
 73
     3
 74
     0
 42
0.0000000001
 43
0.0000000001
 40
0.0
 40
0.0
 40
0.0
 40
1.9685
 40
1.9685
 40
1.9685
 10
35.99057020888667
 20
9.538565860395996
 30
0.0
 10
35.00632020888667
 20
9.538565860395996
 30
0.0
 10
34.02207020888667
 20
9.538565860395996
 30
0.0
  0
SPLINE
  5
90
330
1F
100
AcDbEntity
  8
2D jury base
100
AcDbSpline
210
0.0
220
0.0
230
1.0
 70
    24
 71
     2
 72
     6
 73
     3
 74
     0
 42
0.0000000001
 43
0.0000000001
 40
0.0
 40
0.0
 40
0.0
 40
0.8854000000000006
 40
0.8854000000000006
 40
0.8854000000000006
 10
35.55747020888667
 20
9.538565860395996
 30
0.0
 10
35.55747020888666
 20
9.981265860395999
 30
0.0
 10
35.55747020888666
 20
10.423965860396
 30
0.0
  0
SPLINE
  5
91
330
1F
100
AcDbEntity
  8
2D jury base
100
AcDbSpline
210
0.0
220
0.0
230
1.0
 70
    24
 71
     2
 72
     6
 73
     3
 74
     0
 42
0.0000000001
 43
0.0000000001
 40
0.0
 40
0.0
 40
0.0
 40
0.8854000000000006
 40
0.8854000000000006
 40
0.8854000000000006
 10
34.45517020888668
 20
10.423965860396
 30
0.0
 10
34.45517020888668
 20
9.981265860395999
 30
0.0
 10
34.45517020888667
 20
9.538565860395996
 30
0.0
  0
SPLINE
  5
92
330
1F
100
AcDbEntity
  8
2D jury base
100
AcDbSpline
210
0.0
220
0.0
230
1.0
 70
    24
 71
     2
 72
     6
 73
     3
 74
     0
 42
0.0000000001
 43
0.0000000001
 40
0.0
 40
0.0
 40
0.0
 40
10.0
 40
10.0
 40
10.0
 10
-5.000031102363501
 20
0.0
 30
0.0
 10
-0.0000311023635007
 20
0.0
 30
0.0
 10
4.999968897636499
 20
0.0
 30
0.0
  0
SPLINE
  5
93
330
1F
100
AcDbEntity
  8
2D jury base
100
AcDbSpline
210
0.0
220
0.0
230
1.0
 70
    24
 71
     2
 72
     6
 73
     3
 74
     0
 42
0.0000000001
 43
0.0000000001
 40
0.0
 40
0.0
 40
0.0
 40
0.25
 40
0.25
 40
0.25
 10
-5.000031102363501
 20
0.0
 30
0.0
 10
-5.000031102363501
 20
0.125
 30
0.0
 10
-5.000031102363501
 20
0.25
 30
0.0
  0
SPLINE
  5
94
330
1F
100
AcDbEntity
  8
2D jury base
100
AcDbSpline
210
0.0
220
0.0
230
1.0
 70
    24
 71
     2
 72
     6
 73
     3
 74
     0
 42
0.0000000001
 43
0.0000000001
 40
0.0
 40
0.0
 40
0.0
 40
0.25
 40
0.25
 40
0.25
 10
4.999968897636499
 20
0.25
 30
0.0
 10
4.999968897636499
 20
0.125
 30
0.0
 10
4.999968897636499
 20
0.0
 30
0.0
  0
SPLINE
  5
95
330
1F
100
AcDbEntity
  8
2D jury base
100
AcDbSpline
210
0.0
220
0.0
230
1.0
 70
    24
 71
     2
 72
     6
 73
     3
 74
     0
 42
0.0000000001
 43
0.0000000001
 40
0.0
 40
0.0
 40
0.0
 40
10.0
 40
10.0
 40
10.0
 10
4.999968897636499
 20
0.25
 30
0.0
 10
-0.0000311023635007
 20
0.25
 30
0.0
 10
-5.000031102363501
 20
0.25
 30
0.0
  0
SPLINE
  5
96
330
1F
100
AcDbEntity
  8
2D jury base
100
AcDbSpline
210
0.0
220
0.0
230
1.0
 70
    24
 71
     2
 72
     6
 73
     3
 74
     0
 42
0.0000000001
 43
0.0000000001
 40
0.0
 40
0.0
 40
0.0
 40
2.625
 40
2.625
 40
2.625
 10
-1.250031102363501
 20
0.25
 30
0.0
 10
-1.250031102363501
 20
1.5625
 30
0.0
 10
-1.250031102363501
 20
2.875
 30
0.0
  0
SPLINE
  5
97
330
1F
100
AcDbEntity
  8
2D jury base
100
AcDbSpline
210
0.0
220
0.0
230
1.0
 70
    24
 71
     2
 72
     6
 73
     3
 74
     0
 42
0.0000000001
 43
0.0000000001
 40
0.0
 40
0.0
 40
0.0
 40
2.625
 40
2.625
 40
2.625
 10
1.249968897636499
 20
2.875
 30
0.0
 10
1.249968897636499
 20
1.5625
 30
0.0
 10
1.249968897636499
 20
0.25
 30
0.0
  0
SPLINE
  5
98
330
1F
100
AcDbEntity
  8
2D jury base
100
AcDbSpline
210
0.0
220
0.0
230
1.0
 70
    24
 71
     2
 72
     6
 73
     3
 74
     0
 42
0.0000000001
 43
0.0000000001
 40
0.0
 40
0.0
 40
0.0
 40
2.494943635768455
 40
2.494943635768455
 40
2.494943635768455
 10
1.244912533404957
 20
2.875
 30
0.0
 10
-0.0025592844792719
 20
2.875
 30
0.0
 10
-1.250031102363501
 20
2.875
 30
0.0
  0
SPLINE
  5
99
330
1F
100
AcDbEntity
  8
2D jury base
100
AcDbSpline
210
0.0
220
0.0
230
1.0
 70
    24
 71
     2
 72
     6
 73
     3
 74
     0
 42
0.0000000001
 43
0.0000000001
 40
0.0
 40
0.0
 40
0.0
 40
0.0099689956080192
 40
0.0099689956080192
 40
0.0099689956080192
 10
0.9839688976362666
 20
2.875
 30
0.0
 10
0.9840938976363738
 20
2.879982930198
 30
0.0
 10
0.984218897636481
 20
2.884965860396001
 30
0.0
  0
SPLINE
  5
9A
330
1F
100
AcDbEntity
  8
2D jury base
100
AcDbSpline
210
0.0
220
0.0
230
1.0
 70
    24
 71
     2
 72
     6
 73
     3
 74
     0
 42
0.0000000001
 43
0.0000000001
 40
0.0
 40
0.0
 40
0.0
 40
0.0098691515174568
 40
0.0098691515174568
 40
0.0098691515174568
 10
-0.9842785984981361
 20
2.884866047706033
 30
0.0
 10
-0.984154850430702
 20
2.879933023853017
 30
0.0
 10
-0.984031102363268
 20
2.875
 30
0.0
  0
SPLINE
  5
9B
330
1F
100
AcDbEntity
  8
2D jury base
100
AcDbSpline
210
0.0
220
0.0
230
1.0
 70
    24
 71
     2
 72
     6
 73
     3
 74
     0
 42
0.0000000001
 43
0.0000000001
 40
0.0
 40
0.0
 40
0.0
 40
6.6536
 40
6.6536
 40
6.6536
 10
0.9842188976365023
 20
9.538565860395998
 30
0.0
 10
0.9842188976364916
 20
6.211765860396
 30
0.0
 10
0.984218897636481
 20
2.884965860396001
 30
0.0
  0
SPLINE
  5
9C
330
1F
100
AcDbEntity
  8
2D jury base
100
AcDbSpline
210
0.0
220
0.0
230
1.0
 70
    24
 71
     2
 72
     6
 73
     3
 74
     0
 42
0.0000000001
 43
0.0000000001
 40
0.0
 40
0.0
 40
0.0
 40
6.6536
 40
6.6536
 40
6.6536
 10
-0.9842811023634894
 20
2.884965860396001
 30
0.0
 10
-0.9842811023634965
 20
6.211765860396
 30
0.0
 10
-0.9842811023635036
 20
9.538565860395998
 30
0.0
  0
SPLINE
  5
9D
330
1F
100
AcDbEntity
  8
2D jury base
100
AcDbSpline
210
0.0
220
0.0
230
1.0
 70
    24
 71
     2
 72
     6
 73
     3
 74
     0
 42
0.0000000001
 43
0.0000000001
 40
0.0
 40
0.0
 40
0.0
 40
1.9685
 40
1.9685
 40
1.9685
 10
0.9842188976365023
 20
9.538565860395998
 30
0.0
 10
-0.0000311023635007
 20
9.538565860395998
 30
0.0
 10
-0.9842811023635036
 20
9.538565860395998
 30
0.0
  0
SPLINE
  5
9E
330
1F
100
AcDbEntity
  8
2D jury base
100
AcDbSpline
210
0.0
220
0.0
230
1.0
 70
    24
 71
     2
 72
     6
 73
     3
 74
     0
 42
0.0000000001
 43
0.0000000001
 40
0.0
 40
0.0
 40
0.0
 40
0.8854000000000006
 40
0.8854000000000006
 40
0.8854000000000006
 10
0.5511188976364991
 20
9.538565860395998
 30
0.0
 10
0.551118897636492
 20
9.981265860396
 30
0.0
 10
0.5511188976364849
 20
10.423965860396
 30
0.0
  0
SPLINE
  5
9F
330
1F
100
AcDbEntity
  8
2D jury base
100
AcDbSpline
210
0.0
220
0.0
230
1.0
 70
    24
 71
     2
 72
     6
 73
     3
 74
     0
 42
0.0000000001
 43
0.0000000001
 40
0.0
 40
0.0
 40
0.0
 40
0.8854000000000006
 40
0.8854000000000006
 40
0.8854000000000006
 10
-0.5511811023634863
 20
10.423965860396
 30
0.0
 10
-0.5511811023634934
 20
9.981265860396
 30
0.0
 10
-0.5511811023635005
 20
9.538565860395998
 30
0.0
  0
SPLINE
  5
A0
330
1F
100
AcDbEntity
  8
2D SEAT & WISHBONE
100
AcDbSpline
210
0.0
220
0.0
230
1.0
 70
    12
 71
     2
 72
     6
 73
     3
 74
     0
 42
0.0000000001
 43
0.0000000001
 40
0.0
 40
0.0
 40
0.0
 40
2.077377954523681
 40
2.077377954523681
 40
2.077377954523681
 10
1.817169795344356
 20
14.96460537533312
 30
0.0
 41
1.0
 10
1.866713130862341
 20
13.92709862865275
 30
0.0
 41
0.9999999999904212
 10
1.9162473841211
 20
12.88959144831699
 30
0.0
 41
1.0
  0
SPLINE
  5
A1
330
1F
100
AcDbEntity
  8
2D SEAT & WISHBONE
100
AcDbSpline
210
0.0
220
0.0
230
1.0
 70
    12
 71
     2
 72
     6
 73
     3
 74
     0
 42
0.0000000001
 43
0.0000000001
 40
0.0
 40
0.0
 40
0.0
 40
0.1109088946832377
 40
0.1109088946832377
 40
0.1109088946832377
 10
0.8222892282676639
 20
13.02893226796118
 30
0.0
 41
1.0
 10
0.8920858835233961
 20
13.02959942825457
 30
0.0
 41
0.7184002901755238
 10
0.8950000073865283
 20
12.95986044296044
 30
0.0
 41
1.0
  0
ARC
  5
A2
330
1F
100
AcDbEntity
  8
2D SEAT & WISHBONE
100
AcDbCircle
 10
6.494414214529932
 20
22.56533172883303
 30
0.0
 40
6.04913851413884
100
AcDbArc
 50
295.9438570211784
 51
307.4737501437704
  0
ARC
  5
A3
330
1F
100
AcDbEntity
  8
2D SEAT & WISHBONE
100
AcDbCircle
 10
3.317800147743135
 20
29.09458606590005
 30
0.0
 40
13.31013287630552
100
AcDbArc
 50
289.4506061097555
 51
295.9438570211784
  0
ARC
  5
A4
330
1F
100
AcDbEntity
  8
2D armless mesh back
100
AcDbCircle
 10
8.743909314805649
 20
24.62221170078787
 30
0.0
 40
1.393277925264879
100
AcDbArc
 50
8.893811339580914
 51
11.32414342896941
  0
SPLINE
  5
A5
330
1F
100
AcDbEntity
  8
2D armless mesh back
100
AcDbSpline
210
0.0
220
0.0
230
1.0
 70
     8
 71
     2
 72
     9
 73
     6
 74
     0
 42
0.0000000001
 43
0.0000000001
 40
0.0
 40
0.0
 40
0.0
 40
1.0
 40
2.0
 40
3.0
 40
4.0
 40
4.0
 40
4.0
 10
10.12043526138782
 20
24.83761758607531
 30
0.0
 10
10.14651956831363
 20
24.67092889400881
 30
0.0
 10
10.116192993264
 20
24.33613429450375
 30
0.0
 10
10.09801586823785
 20
24.00143173108033
 30
0.0
 10
10.07836795365554
 20
23.66667599503427
 30
0.0
 10
10.06869107597591
 20
23.49930345557569
 30
0.0
  0
SPLINE
  5
A6
330
1F
100
AcDbEntity
  8
2D armless mesh back
100
AcDbSpline
210
0.0
220
0.0
230
1.0
 70
    24
 71
     2
 72
     6
 73
     3
 74
     0
 42
0.0000000001
 43
0.0000000001
 40
0.0
 40
0.0
 40
0.0
 40
5.713596923182535
 40
5.713596923182535
 40
5.713596923182535
 10
10.06869107597591
 20
23.49930345557569
 30
0.0
 10
9.903174524079951
 20
20.64730385508506
 30
0.0
 10
9.737657972183996
 20
17.79530425459443
 30
0.0
  0
ARC
  5
A7
330
1F
100
AcDbEntity
  8
2D armless mesh back
100
AcDbCircle
 10
12.89187692963311
 20
24.54647977725244
 30
0.0
 40
3.153585631060159
100
AcDbArc
 50
172.0578018627109
 51
176.6785499064015
  0
LINE
  5
A8
330
1F
100
AcDbEntity
  8
2D armless mesh back
100
AcDbLine
 10
9.743588703908294
 20
24.72919151795778
 30
0.0
 11
9.341107703853169
 21
17.79408056854754
 31
0.0
  0
SPLINE
  5
A9
330
1F
100
AcDbEntity
  8
2D armless mesh back
100
AcDbSpline
210
0.0
220
0.0
230
1.0
 70
    24
 71
     2
 72
     6
 73
     3
 74
     0
 42
0.0000000001
 43
0.0000000001
 40
0.0
 40
0.0
 40
0.0
 40
6.575623905021351
 40
6.575623905021351
 40
6.575623905021351
 10
9.388139509394833
 20
17.79419991306427
 30
0.0
 10
9.578730156645754
 20
21.07823578001174
 30
0.0
 10
9.769320803896676
 20
24.36227164695921
 30
0.0
  0
SPLINE
  5
AA
330
1F
100
AcDbEntity
  8
2D armless mesh back
100
AcDbSpline
210
0.0
220
0.0
230
1.0
 70
    12
 71
     2
 72
     6
 73
     3
 74
     0
 42
0.0000000001
 43
0.0000000001
 40
0.0
 40
0.0
 40
0.0
 40
0.4015361043467825
 40
0.4015361043467825
 40
0.4015361043467825
 10
9.769320803896676
 20
24.36227164695921
 30
0.0
 41
1.0
 10
9.782560302521823
 20
24.56617142083347
 30
0.0
 41
0.9995397491553148
 10
9.783419494197297
 20
24.76699926496072
 30
0.0
 41
1.0
  0
SPLINE
  5
AB
330
1F
100
AcDbEntity
  8
2D armless mesh back
100
AcDbSpline
210
0.0
220
0.0
230
1.0
 70
    12
 71
     2
 72
     6
 73
     3
 74
     0
 42
0.0000000001
 43
0.0000000001
 40
0.0
 40
0.0
 40
0.0
 40
0.215886833850022
 40
0.215886833850022
 40
0.215886833850022
 10
9.783419494197297
 20
24.76699926496072
 30
0.0
 41
1.0
 10
9.782916226549949
 20
24.87509082881348
 30
0.0
 41
0.9979291984691315
 10
9.768540595415487
 20
24.98222336674638
 30
0.0
 41
1.0
  0
SPLINE
  5
AC
330
1F
100
AcDbEntity
  8
2D armless mesh back
100
AcDbSpline
210
0.0
220
0.0
230
1.0
 70
    12
 71
     2
 72
     8
 73
     5
 74
     0
 42
0.0000000001
 43
0.0000000001
 40
0.0
 40
0.0
 40
0.0
 40
0.063471611756392
 40
0.063471611756392
 40
0.126943223512784
 40
0.126943223512784
 40
0.126943223512784
 10
9.768540595415487
 20
24.98222336674638
 30
0.0
 41
1.0
 10
9.770512848948872
 20
25.01567536593376
 30
0.0
 41
0.9224382809881588
 10
9.795727784018695
 20
25.03774645750298
 30
0.0
 41
1.0
 10
9.820942719088501
 20
25.0598175490722
 30
0.0
 41
0.9224382809881588
 10
9.857397428484774
 20
25.05695810868918
 30
0.0
 41
1.0
  0
SPLINE
  5
AD
330
1F
100
AcDbEntity
  8
2D armless mesh back
100
AcDbSpline
210
0.0
220
0.0
230
1.0
 70
    12
 71
     2
 72
     6
 73
     3
 74
     0
 42
0.0000000001
 43
0.0000000001
 40
-0.1661941784252624
 40
-0.1661941784252624
 40
-0.1661941784252624
 40
0.0
 40
0.0
 40
0.0
 10
9.857397428484774
 20
25.05695810868918
 30
0.0
 41
1.0
 10
9.942867525967372
 20
25.04609555738172
 30
0.0
 41
0.999998965875393
 10
10.02558554826933
 20
25.03536060363737
 30
0.0
 41
1.0
  0
SPLINE
  5
AE
330
1F
100
AcDbEntity
  8
2D armless mesh back
100
AcDbSpline
210
0.0
220
0.0
230
1.0
 70
    12
 71
     2
 72
     6
 73
     3
 74
     0
 42
0.0000000001
 43
0.0000000001
 40
0.0
 40
0.0
 40
0.0
 40
0.0821708267240554
 40
0.0821708267240554
 40
0.0821708267240554
 10
10.02558554826933
 20
25.03536060363737
 30
0.0
 41
1.0
 10
10.07103011698607
 20
25.03226835669442
 30
0.0
 41
0.8679259156311036
 10
10.09243983081582
 20
24.98915092074718
 30
0.0
 41
1.0
  0
SPLINE
  5
AF
330
1F
100
AcDbEntity
  8
2D armless mesh back
100
AcDbSpline
210
0.0
220
0.0
230
1.0
 70
    12
 71
     2
 72
     6
 73
     3
 74
     0
 42
0.0000000001
 43
0.0000000001
 40
0.0
 40
0.0
 40
0.0
 40
0.0427709877946941
 40
0.0427709877946941
 40
0.0427709877946941
 10
10.09243983081582
 20
24.98915092074718
 30
0.0
 41
1.0
 10
10.10149210823485
 20
24.96650938761844
 30
0.0
 41
0.9934703940770927
 10
10.10494606540964
 20
24.9444817620597
 30
0.0
 41
1.0
  0
SPLINE
  5
B0
330
1F
100
AcDbEntity
  8
2D armless mesh back
100
AcDbSpline
210
0.0
220
0.0
230
1.0
 70
    12
 71
     2
 72
     6
 73
     3
 74
     0
 42
0.0000000001
 43
0.0000000001
 40
-0.1764381699864054
 40
-0.1764381699864054
 40
-0.1764381699864054
 40
0.0
 40
0.0
 40
0.0
 10
10.10494606540964
 20
24.9444817620597
 30
0.0
 41
1.0
 10
10.11618023273856
 20
24.85598351312428
 30
0.0
 41
0.9969904876861068
 10
10.1133902081151
 20
24.76763095521098
 30
0.0
 41
1.0
  0
SPLINE
  5
B1
330
1F
100
AcDbEntity
  8
2D armless mesh back
100
AcDbSpline
210
0.0
220
0.0
230
1.0
 70
    12
 71
     2
 72
     6
 73
     3
 74
     0
 42
0.0000000001
 43
0.0000000001
 40
-0.4167111181301656
 40
-0.4167111181301656
 40
-0.4167111181301656
 40
0.0
 40
0.0
 40
0.0
 10
10.1133902081151
 20
24.76763095521098
 30
0.0
 41
1.0
 10
10.1049575357184
 20
24.55944509308183
 30
0.0
 41
0.9999926721333915
 10
10.09478315527351
 20
24.34801639914292
 30
0.0
 41
1.0
  0
SPLINE
  5
B2
330
1F
100
AcDbEntity
  8
2D armless mesh back
100
AcDbSpline
210
0.0
220
0.0
230
1.0
 70
    12
 71
     2
 72
     6
 73
     3
 74
     0
 42
0.0000000001
 43
0.0000000001
 40
0.0
 40
0.0
 40
0.0
 40
0.9265632542687359
 40
0.9265632542687359
 40
0.9265632542687359
 10
10.09478315527351
 20
24.34801639914292
 30
0.0
 41
1.0
 10
10.06822513370268
 20
23.88217459747059
 30
0.0
 41
0.9999998071151026
 10
10.04124055855523
 20
23.41967945809842
 30
0.0
 41
1.0
  0
SPLINE
  5
B3
330
1F
100
AcDbEntity
  8
2D armless mesh back
100
AcDbSpline
210
0.0
220
0.0
230
1.0
 70
    24
 71
     2
 72
     6
 73
     3
 74
     0
 42
0.0000000001
 43
0.0000000001
 40
0.0
 40
0.0
 40
0.0
 40
5.634012970503487
 40
5.634012970503487
 40
5.634012970503487
 10
10.04124055855523
 20
23.41967945809842
 30
0.0
 10
9.878029462371945
 20
20.60740499140193
 30
0.0
 10
9.71481836618866
 20
17.79513052470544
 30
0.0
  0
LINE
  5
B4
330
1F
100
AcDbEntity
  8
2D SEAT & WISHBONE
100
AcDbLine
 10
0.9550000000012844
 20
13.01865718353895
 30
0.0
 11
0.9550000000012844
 21
12.71930716576269
 31
0.0
  0
SPLINE
  5
B5
330
1F
100
AcDbEntity
  8
2D SEAT & WISHBONE
100
AcDbSpline
210
0.0
220
0.0
230
1.0
 70
    12
 71
     2
 72
     6
 73
     3
 74
     0
 42
0.0000000001
 43
0.0000000001
 40
0.0
 40
0.0
 40
0.0
 40
0.2391171221126788
 40
0.2391171221126788
 40
0.2391171221126788
 10
0.8950000073859457
 20
12.95986044296044
 30
0.0
 41
1.0
 10
0.8949826698296238
 20
12.84030188316014
 30
0.0
 41
0.9999999999869073
 10
0.8949641035159317
 20
12.72071017383767
 30
0.0
 41
1.0
  0
SPLINE
  5
B6
330
1F
100
AcDbEntity
  8
2D SEAT & WISHBONE
100
AcDbSpline
210
0.0
220
0.0
230
1.0
 70
    12
 71
     2
 72
     6
 73
     3
 74
     0
 42
0.0000000001
 43
0.0000000001
 40
0.0730764861925065
 40
0.0730764861925065
 40
0.0730764861925065
 40
0.6290236661937546
 40
0.6290236661937546
 40
0.6290236661937546
 10
0.8949641035159291
 20
12.72071017383767
 30
0.0
 41
0.999999999881127
 10
1.172862552082964
 20
12.71421500442674
 30
0.0
 41
0.9999999994871971
 10
1.450760620308587
 20
12.70773512578805
 30
0.0
 41
0.9999999999795354
  0
LINE
  5
B7
330
1F
100
AcDbEntity
  8
2D SEAT & WISHBONE
100
AcDbLine
 10
0.0300000929532445
 20
14.92461765362421
 30
0.0
 11
0.0299395158053173
 21
13.13397704062025
 31
0.0
  0
ARC
  5
B8
330
1F
100
AcDbEntity
  8
2D SEAT & WISHBONE
100
AcDbCircle
 10
-22983.1596811488
 20
14.80681577779633
 30
0.0
 40
22983.18968154365
100
AcDbArc
 50
359.995598798676
 51
359.9958297085453
  0
SPLINE
  5
B9
330
1F
100
AcDbEntity
  8
2D SEAT & WISHBONE
100
AcDbSpline
210
0.0
220
0.0
230
1.0
 70
    12
 71
     2
 72
     6
 73
     3
 74
     0
 42
0.0000000001
 43
0.0000000001
 40
0.0
 40
0.0
 40
0.0
 40
2.077377954523681
 40
2.077377954523681
 40
2.077377954523681
 10
-1.817169795344356
 20
14.96460537533312
 30
0.0
 41
1.0
 10
-1.866713130862339
 20
13.92709862865275
 30
0.0
 41
0.9999999999904212
 10
-1.9162473841211
 20
12.88959144831699
 30
0.0
 41
1.0
  0
SPLINE
  5
BA
330
1F
100
AcDbEntity
  8
2D SEAT & WISHBONE
100
AcDbSpline
210
0.0
220
0.0
230
1.0
 70
    12
 71
     2
 72
     6
 73
     3
 74
     0
 42
0.0000000001
 43
0.0000000001
 40
0.0
 40
0.0
 40
0.0
 40
0.1109088946832377
 40
0.1109088946832377
 40
0.1109088946832377
 10
-0.8222892282676639
 20
13.02893226796118
 30
0.0
 41
1.0
 10
-0.8920858835233992
 20
13.02959942825457
 30
0.0
 41
0.7184002901755238
 10
-0.8950000073865283
 20
12.95986044296044
 30
0.0
 41
1.0
  0
ARC
  5
BB
330
1F
100
AcDbEntity
  8
2D SEAT & WISHBONE
100
AcDbCircle
 10
-6.494414214529932
 20
22.56533172883303
 30
0.0
 40
6.04913851413884
100
AcDbArc
 50
232.5262498562293
 51
244.0561429788216
  0
ARC
  5
BC
330
1F
100
AcDbEntity
  8
2D SEAT & WISHBONE
100
AcDbCircle
 10
-3.317800147743135
 20
29.09458606590005
 30
0.0
 40
13.31013287630552
100
AcDbArc
 50
244.0561429788216
 51
250.5493938902445
  0
ARC
  5
BD
330
1F
100
AcDbEntity
  8
2D armless mesh back
100
AcDbCircle
 10
-8.743909314805649
 20
24.62221170078787
 30
0.0
 40
1.393277925264879
100
AcDbArc
 50
168.6758565710306
 51
171.1061886604191
  0
SPLINE
  5
BE
330
1F
100
AcDbEntity
  8
2D armless mesh back
100
AcDbSpline
210
0.0
220
0.0
230
1.0
 70
     8
 71
     2
 72
     9
 73
     6
 74
     0
 42
0.0000000001
 43
0.0000000001
 40
0.0
 40
0.0
 40
0.0
 40
1.0
 40
2.0
 40
3.0
 40
4.0
 40
4.0
 40
4.0
 10
-10.12043526138782
 20
24.83761758607531
 30
0.0
 10
-10.14651956831363
 20
24.67092889400881
 30
0.0
 10
-10.116192993264
 20
24.33613429450375
 30
0.0
 10
-10.09801586823785
 20
24.00143173108033
 30
0.0
 10
-10.07836795365554
 20
23.66667599503427
 30
0.0
 10
-10.06869107597591
 20
23.49930345557569
 30
0.0
  0
SPLINE
  5
BF
330
1F
100
AcDbEntity
  8
2D armless mesh back
100
AcDbSpline
210
0.0
220
0.0
230
1.0
 70
    24
 71
     2
 72
     6
 73
     3
 74
     0
 42
0.0000000001
 43
0.0000000001
 40
0.0
 40
0.0
 40
0.0
 40
5.713596923182535
 40
5.713596923182535
 40
5.713596923182535
 10
-10.06869107597591
 20
23.49930345557569
 30
0.0
 10
-9.903174524079951
 20
20.64730385508506
 30
0.0
 10
-9.737657972183996
 20
17.79530425459443
 30
0.0
  0
ARC
  5
C0
330
1F
100
AcDbEntity
  8
2D armless mesh back
100
AcDbCircle
 10
-12.89187692963311
 20
24.54647977725244
 30
0.0
 40
3.153585631060159
100
AcDbArc
 50
3.321450093598479
 51
7.942198137289089
  0
LINE
  5
C1
330
1F
100
AcDbEntity
  8
2D armless mesh back
100
AcDbLine
 10
-9.743588703908294
 20
24.72919151795778
 30
0.0
 11
-9.341107703853169
 21
17.79408056854754
 31
0.0
  0
SPLINE
  5
C2
330
1F
100
AcDbEntity
  8
2D armless mesh back
100
AcDbSpline
210
0.0
220
0.0
230
1.0
 70
    24
 71
     2
 72
     6
 73
     3
 74
     0
 42
0.0000000001
 43
0.0000000001
 40
0.0
 40
0.0
 40
0.0
 40
6.575623905021351
 40
6.575623905021351
 40
6.575623905021351
 10
-9.388139509394833
 20
17.79419991306427
 30
0.0
 10
-9.578730156645754
 20
21.07823578001174
 30
0.0
 10
-9.769320803896676
 20
24.36227164695921
 30
0.0
  0
SPLINE
  5
C3
330
1F
100
AcDbEntity
  8
2D armless mesh back
100
AcDbSpline
210
0.0
220
0.0
230
1.0
 70
    12
 71
     2
 72
     6
 73
     3
 74
     0
 42
0.0000000001
 43
0.0000000001
 40
0.0
 40
0.0
 40
0.0
 40
0.4015361043467825
 40
0.4015361043467825
 40
0.4015361043467825
 10
-9.769320803896676
 20
24.36227164695921
 30
0.0
 41
1.0
 10
-9.782560302521823
 20
24.56617142083347
 30
0.0
 41
0.9995397491553148
 10
-9.783419494197297
 20
24.76699926496072
 30
0.0
 41
1.0
  0
SPLINE
  5
C4
330
1F
100
AcDbEntity
  8
2D armless mesh back
100
AcDbSpline
210
0.0
220
0.0
230
1.0
 70
    12
 71
     2
 72
     6
 73
     3
 74
     0
 42
0.0000000001
 43
0.0000000001
 40
0.0
 40
0.0
 40
0.0
 40
0.215886833850022
 40
0.215886833850022
 40
0.215886833850022
 10
-9.783419494197297
 20
24.76699926496072
 30
0.0
 41
1.0
 10
-9.782916226549945
 20
24.87509082881348
 30
0.0
 41
0.9979291984691315
 10
-9.768540595415487
 20
24.98222336674638
 30
0.0
 41
1.0
  0
SPLINE
  5
C5
330
1F
100
AcDbEntity
  8
2D armless mesh back
100
AcDbSpline
210
0.0
220
0.0
230
1.0
 70
    12
 71
     2
 72
     8
 73
     5
 74
     0
 42
0.0000000001
 43
0.0000000001
 40
0.0
 40
0.0
 40
0.0
 40
0.063471611756392
 40
0.063471611756392
 40
0.126943223512784
 40
0.126943223512784
 40
0.126943223512784
 10
-9.768540595415487
 20
24.98222336674638
 30
0.0
 41
1.0
 10
-9.770512848948881
 20
25.01567536593376
 30
0.0
 41
0.9224382809881588
 10
-9.795727784018695
 20
25.03774645750298
 30
0.0
 41
1.0
 10
-9.820942719088503
 20
25.0598175490722
 30
0.0
 41
0.9224382809881588
 10
-9.857397428484774
 20
25.05695810868918
 30
0.0
 41
1.0
  0
SPLINE
  5
C6
330
1F
100
AcDbEntity
  8
2D armless mesh back
100
AcDbSpline
210
0.0
220
0.0
230
1.0
 70
    12
 71
     2
 72
     6
 73
     3
 74
     0
 42
0.0000000001
 43
0.0000000001
 40
-0.1661941784252624
 40
-0.1661941784252624
 40
-0.1661941784252624
 40
0.0
 40
0.0
 40
0.0
 10
-9.857397428484774
 20
25.05695810868918
 30
0.0
 41
1.0
 10
-9.942867525967372
 20
25.04609555738172
 30
0.0
 41
0.999998965875393
 10
-10.02558554826933
 20
25.03536060363737
 30
0.0
 41
1.0
  0
SPLINE
  5
C7
330
1F
100
AcDbEntity
  8
2D armless mesh back
100
AcDbSpline
210
0.0
220
0.0
230
1.0
 70
    12
 71
     2
 72
     6
 73
     3
 74
     0
 42
0.0000000001
 43
0.0000000001
 40
0.0
 40
0.0
 40
0.0
 40
0.0821708267240554
 40
0.0821708267240554
 40
0.0821708267240554
 10
-10.02558554826933
 20
25.03536060363737
 30
0.0
 41
1.0
 10
-10.07103011698607
 20
25.03226835669442
 30
0.0
 41
0.8679259156311036
 10
-10.09243983081582
 20
24.98915092074718
 30
0.0
 41
1.0
  0
SPLINE
  5
C8
330
1F
100
AcDbEntity
  8
2D armless mesh back
100
AcDbSpline
210
0.0
220
0.0
230
1.0
 70
    12
 71
     2
 72
     6
 73
     3
 74
     0
 42
0.0000000001
 43
0.0000000001
 40
0.0
 40
0.0
 40
0.0
 40
0.0427709877946941
 40
0.0427709877946941
 40
0.0427709877946941
 10
-10.09243983081582
 20
24.98915092074718
 30
0.0
 41
1.0
 10
-10.10149210823485
 20
24.96650938761844
 30
0.0
 41
0.9934703940770927
 10
-10.10494606540964
 20
24.9444817620597
 30
0.0
 41
1.0
  0
SPLINE
  5
C9
330
1F
100
AcDbEntity
  8
2D armless mesh back
100
AcDbSpline
210
0.0
220
0.0
230
1.0
 70
    12
 71
     2
 72
     6
 73
     3
 74
     0
 42
0.0000000001
 43
0.0000000001
 40
-0.1764381699864054
 40
-0.1764381699864054
 40
-0.1764381699864054
 40
0.0
 40
0.0
 40
0.0
 10
-10.10494606540964
 20
24.9444817620597
 30
0.0
 41
1.0
 10
-10.11618023273856
 20
24.85598351312428
 30
0.0
 41
0.9969904876861068
 10
-10.1133902081151
 20
24.76763095521098
 30
0.0
 41
1.0
  0
SPLINE
  5
CA
330
1F
100
AcDbEntity
  8
2D armless mesh back
100
AcDbSpline
210
0.0
220
0.0
230
1.0
 70
    12
 71
     2
 72
     6
 73
     3
 74
     0
 42
0.0000000001
 43
0.0000000001
 40
-0.4167111181301656
 40
-0.4167111181301656
 40
-0.4167111181301656
 40
0.0
 40
0.0
 40
0.0
 10
-10.1133902081151
 20
24.76763095521098
 30
0.0
 41
1.0
 10
-10.10495753571841
 20
24.55944509308183
 30
0.0
 41
0.9999926721333915
 10
-10.09478315527351
 20
24.34801639914292
 30
0.0
 41
1.0
  0
SPLINE
  5
CB
330
1F
100
AcDbEntity
  8
2D armless mesh back
100
AcDbSpline
210
0.0
220
0.0
230
1.0
 70
    12
 71
     2
 72
     6
 73
     3
 74
     0
 42
0.0000000001
 43
0.0000000001
 40
0.0
 40
0.0
 40
0.0
 40
0.9265632542687359
 40
0.9265632542687359
 40
0.9265632542687359
 10
-10.09478315527351
 20
24.34801639914292
 30
0.0
 41
1.0
 10
-10.06822513370269
 20
23.88217459747059
 30
0.0
 41
0.9999998071151026
 10
-10.04124055855523
 20
23.41967945809842
 30
0.0
 41
1.0
  0
SPLINE
  5
CC
330
1F
100
AcDbEntity
  8
2D armless mesh back
100
AcDbSpline
210
0.0
220
0.0
230
1.0
 70
    24
 71
     2
 72
     6
 73
     3
 74
     0
 42
0.0000000001
 43
0.0000000001
 40
0.0
 40
0.0
 40
0.0
 40
5.634012970503487
 40
5.634012970503487
 40
5.634012970503487
 10
-10.04124055855523
 20
23.41967945809842
 30
0.0
 10
-9.878029462371945
 20
20.60740499140193
 30
0.0
 10
-9.71481836618866
 20
17.79513052470544
 30
0.0
  0
LINE
  5
CD
330
1F
100
AcDbEntity
  8
2D SEAT & WISHBONE
100
AcDbLine
 10
-0.9550000000012844
 20
13.01865718353895
 30
0.0
 11
-0.9550000000012844
 21
12.71930716576269
 31
0.0
  0
SPLINE
  5
CE
330
1F
100
AcDbEntity
  8
2D SEAT & WISHBONE
100
AcDbSpline
210
0.0
220
0.0
230
1.0
 70
    12
 71
     2
 72
     6
 73
     3
 74
     0
 42
0.0000000001
 43
0.0000000001
 40
0.0
 40
0.0
 40
0.0
 40
0.2391171221126788
 40
0.2391171221126788
 40
0.2391171221126788
 10
-0.8950000073859457
 20
12.95986044296044
 30
0.0
 41
1.0
 10
-0.8949826698296249
 20
12.84030188316014
 30
0.0
 41
0.9999999999869073
 10
-0.8949641035159317
 20
12.72071017383767
 30
0.0
 41
1.0
  0
SPLINE
  5
CF
330
1F
100
AcDbEntity
  8
2D SEAT & WISHBONE
100
AcDbSpline
210
0.0
220
0.0
230
1.0
 70
    12
 71
     2
 72
     6
 73
     3
 74
     0
 42
0.0000000001
 43
0.0000000001
 40
0.0730764861925065
 40
0.0730764861925065
 40
0.0730764861925065
 40
0.6290236661937546
 40
0.6290236661937546
 40
0.6290236661937546
 10
-0.8949641035159287
 20
12.72071017383767
 30
0.0
 41
0.999999999881127
 10
-1.172862552082967
 20
12.71421500442674
 30
0.0
 41
0.9999999994871971
 10
-1.450760620308589
 20
12.70773512578805
 30
0.0
 41
0.9999999999795354
  0
LINE
  5
D0
330
1F
100
AcDbEntity
  8
2D SEAT & WISHBONE
100
AcDbLine
 10
-0.0300000929532445
 20
14.92461765362421
 30
0.0
 11
-0.0299395158053173
 21
13.13397704062025
 31
0.0
  0
ARC
  5
D1
330
1F
100
AcDbEntity
  8
2D SEAT & WISHBONE
100
AcDbCircle
 10
22983.1596811488
 20
14.80681577779633
 30
0.0
 40
22983.18968154365
100
AcDbArc
 50
180.0041702914547
 51
180.0044012013239
  0
POLYLINE
  5
D2
330
1F
100
AcDbEntity
  8
2D SEAT & WISHBONE
100
AcDb2dPolyline
 66
     1
 10
0.0
 20
0.0
 30
0.0
  0
VERTEX
  5
D3
330
D2
100
AcDbEntity
  8
2D SEAT & WISHBONE
100
AcDbVertex
100
AcDb2dVertex
 10
-0.8222892282676639
 20
13.02893226796118
 30
0.0
  0
VERTEX
  5
D4
330
D2
100
AcDbEntity
  8
2D SEAT & WISHBONE
100
AcDbVertex
100
AcDb2dVertex
 10
0.0
 20
13.02893226796118
 30
0.0
  0
SEQEND
  5
D5
330
D2
100
AcDbEntity
  8
2D SEAT & WISHBONE
  0
POLYLINE
  5
D6
330
1F
100
AcDbEntity
  8
2D SEAT & WISHBONE
100
AcDb2dPolyline
 66
     1
 10
0.0
 20
0.0
 30
0.0
  0
VERTEX
  5
D7
330
D6
100
AcDbEntity
  8
2D SEAT & WISHBONE
100
AcDbVertex
100
AcDb2dVertex
 10
0.0
 20
13.02893226796118
 30
0.0
  0
VERTEX
  5
D8
330
D6
100
AcDbEntity
  8
2D SEAT & WISHBONE
100
AcDbVertex
100
AcDb2dVertex
 10
0.8222892282676639
 20
13.02893226796118
 30
0.0
  0
SEQEND
  5
D9
330
D6
100
AcDbEntity
  8
2D SEAT & WISHBONE
  0
SPLINE
  5
DA
330
1F
100
AcDbEntity
  8
2D SEAT & WISHBONE
100
AcDbSpline
210
0.0
220
0.0
230
1.0
 70
    12
 71
     2
 72
    14
 73
    11
 74
     0
 42
0.0000000001
 43
0.0000000001
 40
0.0
 40
0.0
 40
0.0
 40
0.0074983184778639
 40
0.0074983184778639
 40
0.0174431654792866
 40
0.0174431654792866
 40
0.0307729959271478
 40
0.0307729959271478
 40
0.0478472977139558
 40
0.0478472977139558
 40
0.0673767226427244
 40
0.0673767226427244
 40
0.0673767226427244
 10
-0.9550000000012844
 20
13.01865718353895
 30
0.0
 41
1.0
 10
-0.9547064853104674
 20
13.02260487858765
 30
0.0
 41
0.9224982877625536
 10
-0.9516890028417535
 20
13.02516715230882
 30
0.0
 41
1.0
 10
-0.9480115420495147
 20
13.02857272078591
 30
0.0
 41
0.988154208492988
 10
-0.9434744152548689
 20
13.03070253180568
 30
0.0
 41
1.0
 10
-0.9374639356879616
 20
13.03361961205803
 30
0.0
 41
0.9964016174282261
 10
-0.931047103573853
 20
13.03547958180029
 30
0.0
 41
1.0
 10
-0.9228454788560938
 20
13.03788956811782
 30
0.0
 41
0.9980319860234819
 10
-0.9144067035536025
 20
13.03925402898415
 30
0.0
 41
1.0
 10
-0.9047606430470388
 20
13.04083287148719
 30
0.0
 41
0.9985113951233835
 10
-0.8950000016610815
 20
13.04135162641993
 30
0.0
 41
1.0
  0
POLYLINE
  5
DB
330
1F
100
AcDbEntity
  8
2D SEAT & WISHBONE
100
AcDb2dPolyline
 66
     1
 10
0.0
 20
0.0
 30
0.0
  0
VERTEX
  5
DC
330
DB
100
AcDbEntity
  8
2D SEAT & WISHBONE
100
AcDbVertex
100
AcDb2dVertex
 10
-0.8950000016610815
 20
13.04135162641993
 30
0.0
  0
VERTEX
  5
DD
330
DB
100
AcDbEntity
  8
2D SEAT & WISHBONE
100
AcDbVertex
100
AcDb2dVertex
 10
0.0
 20
13.04135162641993
 30
0.0
  0
SEQEND
  5
DE
330
DB
100
AcDbEntity
  8
2D SEAT & WISHBONE
  0
POLYLINE
  5
DF
330
1F
100
AcDbEntity
  8
2D SEAT & WISHBONE
100
AcDb2dPolyline
 66
     1
 10
0.0
 20
0.0
 30
0.0
  0
VERTEX
  5
E0
330
DF
100
AcDbEntity
  8
2D SEAT & WISHBONE
100
AcDbVertex
100
AcDb2dVertex
 10
0.0
 20
13.04135162641993
 30
0.0
  0
VERTEX
  5
E1
330
DF
100
AcDbEntity
  8
2D SEAT & WISHBONE
100
AcDbVertex
100
AcDb2dVertex
 10
0.8950000016610815
 20
13.04135162641993
 30
0.0
  0
SEQEND
  5
E2
330
DF
100
AcDbEntity
  8
2D SEAT & WISHBONE
  0
SPLINE
  5
E3
330
1F
100
AcDbEntity
  8
2D SEAT & WISHBONE
100
AcDbSpline
210
0.0
220
0.0
230
1.0
 70
    12
 71
     2
 72
    14
 73
    11
 74
     0
 42
0.0000000001
 43
0.0000000001
 40
-0.0673767226427244
 40
-0.0673767226427244
 40
-0.0673767226427244
 40
-0.0478472977139558
 40
-0.0478472977139558
 40
-0.0307729959271478
 40
-0.0307729959271478
 40
-0.0174431654792866
 40
-0.0174431654792866
 40
-0.0074983184778639
 40
-0.0074983184778639
 40
0.0
 40
0.0
 40
0.0
 10
0.8950000016610815
 20
13.04135162641993
 30
0.0
 41
1.0
 10
0.9047606430470404
 20
13.04083287148719
 30
0.0
 41
0.9985113951233835
 10
0.9144067035536025
 20
13.03925402898415
 30
0.0
 41
1.0
 10
0.9228454788560907
 20
13.03788956811782
 30
0.0
 41
0.9980319860234819
 10
0.931047103573853
 20
13.03547958180029
 30
0.0
 41
1.0
 10
0.937463935687964
 20
13.03361961205803
 30
0.0
 41
0.9964016174282261
 10
0.9434744152548689
 20
13.03070253180568
 30
0.0
 41
1.0
 10
0.9480115420495118
 20
13.02857272078591
 30
0.0
 41
0.988154208492988
 10
0.9516890028417535
 20
13.02516715230882
 30
0.0
 41
1.0
 10
0.954706485310467
 20
13.02260487858765
 30
0.0
 41
0.9224982877625536
 10
0.9550000000012844
 20
13.01865718353895
 30
0.0
 41
1.0
  0
SPLINE
  5
E4
330
1F
100
AcDbEntity
  8
2D SEAT & WISHBONE
100
AcDbSpline
210
0.0
220
0.0
230
1.0
 70
    12
 71
     2
 72
     6
 73
     3
 74
     0
 42
0.0000000001
 43
0.0000000001
 40
0.0
 40
0.0
 40
0.0
 40
2.618100006982349
 40
2.618100006982349
 40
2.618100006982349
 10
-2.615865095875179
 20
15.01518543755757
 30
0.0
 41
1.0
 10
-1.309704500046523
 20
14.91872284581014
 30
0.0
 41
0.999235437675937
 10
0.0
 20
14.92460980285929
 30
0.0
 41
1.0
  0
SPLINE
  5
E5
330
1F
100
AcDbEntity
  8
2D SEAT & WISHBONE
100
AcDbSpline
210
0.0
220
0.0
230
1.0
 70
    12
 71
     2
 72
     6
 73
     3
 74
     0
 42
0.0000000001
 43
0.0000000001
 40
-2.618100006982349
 40
-2.618100006982349
 40
-2.618100006982349
 40
0.0
 40
0.0
 40
0.0
 10
0.0
 20
14.92460980285929
 30
0.0
 41
1.0
 10
1.309704500046523
 20
14.91872284581014
 30
0.0
 41
0.999235437675937
 10
2.615865095875179
 20
15.01518543755757
 30
0.0
 41
1.0
  0
SPLINE
  5
E6
330
1F
100
AcDbEntity
  8
2D SEAT & WISHBONE
100
AcDbSpline
210
0.0
220
0.0
230
1.0
 70
     8
 71
     3
 72
     8
 73
     4
 74
     0
 42
0.0000000001
 43
0.0000000001
 40
-1.0
 40
-1.0
 40
-1.0
 40
-1.0
 40
0.0
 40
0.0
 40
0.0
 40
0.0
 10
7.749995829117267
 20
16.54407696758386
 30
0.0
 10
5.29313933121432
 20
15.67644134623505
 30
0.0
 10
2.605558562521274
 20
15.52526223802004
 30
0.0
 10
0.0
 20
15.52526223802004
 30
0.0
  0
SPLINE
  5
E7
330
1F
100
AcDbEntity
  8
2D SEAT & WISHBONE
100
AcDbSpline
210
0.0
220
0.0
230
1.0
 70
     8
 71
     3
 72
     8
 73
     4
 74
     0
 42
0.0000000001
 43
0.0000000001
 40
0.0
 40
0.0
 40
0.0
 40
0.0
 40
1.0
 40
1.0
 40
1.0
 40
1.0
 10
0.0
 20
15.52526223802004
 30
0.0
 10
-2.605558562521274
 20
15.52526223802004
 30
0.0
 10
-5.29313933121432
 20
15.67644134623505
 30
0.0
 10
-7.749995829117267
 20
16.54407696758386
 30
0.0
  0
SPLINE
  5
E8
330
1F
100
AcDbEntity
  8
2D SEAT & WISHBONE
100
AcDbSpline
210
0.0
220
0.0
230
1.0
 70
     8
 71
     2
 72
    18
 73
    15
 74
     0
 42
0.0000000001
 43
0.0000000001
 40
0.0
 40
0.0
 40
0.0
 40
1.000000026361394
 40
2.000000052722788
 40
3.000000079084182
 40
4.000000105445576
 40
5.00000013180697
 40
6.000000158168364
 40
7.000000184529757
 40
8.000000210891152
 40
9.000000237252545
 40
10.00000026361394
 40
11.00000028997533
 40
12.00000031633673
 40
13.0
 40
13.0
 40
13.0
 10
-7.564351329660568
 20
15.16838259570005
 30
0.0
 10
-7.275544919016646
 20
15.05308049490183
 30
0.0
 10
-6.698088487861838
 20
14.8220856292924
 30
0.0
 10
-6.120728354975689
 20
14.59084960618856
 30
0.0
 10
-5.543462649403423
 20
14.35937838476661
 30
0.0
 10
-4.966285055380951
 20
14.12768727015794
 30
0.0
 10
-4.389235205388758
 20
13.89567981627446
 30
0.0
 10
-3.812081234390938
 20
13.66392063481034
 30
0.0
 10
-3.236175955033403
 20
13.42912040025203
 30
0.0
 10
-2.661656683996085
 20
13.19089095376563
 30
0.0
 10
-2.084830217534751
 20
12.95837079308706
 30
0.0
 10
-1.508339750796367
 20
12.72469443967035
 30
0.0
 10
-0.9201414050791996
 20
12.52216174279144
 30
0.0
 10
-0.3123252968490107
 20
12.38233831584304
 30
0.0
 10
0.0
 20
12.38098276137737
 30
0.0
  0
SPLINE
  5
E9
330
1F
100
AcDbEntity
  8
2D SEAT & WISHBONE
100
AcDbSpline
210
0.0
220
0.0
230
1.0
 70
     8
 71
     2
 72
    18
 73
    15
 74
     0
 42
0.0000000001
 43
0.0000000001
 40
-13.0
 40
-13.0
 40
-13.0
 40
-12.00000031633673
 40
-11.00000028997533
 40
-10.00000026361394
 40
-9.000000237252545
 40
-8.000000210891152
 40
-7.000000184529757
 40
-6.000000158168364
 40
-5.00000013180697
 40
-4.000000105445576
 40
-3.000000079084182
 40
-2.000000052722788
 40
-1.000000026361394
 40
0.0
 40
0.0
 40
0.0
 10
0.0
 20
12.38098276137737
 30
0.0
 10
0.3123252968490107
 20
12.38233831584304
 30
0.0
 10
0.9201414050791996
 20
12.52216174279144
 30
0.0
 10
1.508339750796367
 20
12.72469443967035
 30
0.0
 10
2.084830217534751
 20
12.95837079308706
 30
0.0
 10
2.661656683996085
 20
13.19089095376563
 30
0.0
 10
3.236175955033403
 20
13.42912040025203
 30
0.0
 10
3.812081234390938
 20
13.66392063481034
 30
0.0
 10
4.389235205388758
 20
13.89567981627446
 30
0.0
 10
4.966285055380951
 20
14.12768727015794
 30
0.0
 10
5.543462649403423
 20
14.35937838476661
 30
0.0
 10
6.120728354975689
 20
14.59084960618856
 30
0.0
 10
6.698088487861838
 20
14.8220856292924
 30
0.0
 10
7.275544919016646
 20
15.05308049490183
 30
0.0
 10
7.564351329660568
 20
15.16838259570005
 30
0.0
  0
SPLINE
  5
EA
330
1F
100
AcDbEntity
  8
2D SEAT & WISHBONE
100
AcDbSpline
210
0.0
220
0.0
230
1.0
 70
    12
 71
     3
 72
    10
 73
     6
 74
     0
 42
0.0000000001
 43
0.0000000001
 40
0.5514703589813611
 40
0.5514703589813611
 40
0.5514703589813611
 40
0.5514703589813611
 40
0.7500589360920537
 40
0.7500589360920537
 40
1.0
 40
1.0
 40
1.0
 40
1.0
 10
-9.189025811037311
 20
15.02880719509534
 30
0.0
 41
1.0
 10
-9.186865333692374
 20
15.03831158878122
 30
0.0
 41
1.0
 10
-9.177631954896029
 20
15.04613373911014
 30
0.0
 41
1.0
 10
-9.141655545680301
 20
15.05905192462579
 30
0.0
 41
1.0
 10
-9.110928026039218
 20
15.0629052455052
 30
0.0
 41
1.0
 10
-9.072012407659024
 20
15.06303696801697
 30
0.0
 41
1.0
  0
SPLINE
  5
EB
330
1F
100
AcDbEntity
  8
2D SEAT & WISHBONE
100
AcDbSpline
210
0.0
220
0.0
230
1.0
 70
    12
 71
     2
 72
    10
 73
     7
 74
     0
 42
0.0000000001
 43
0.0000000001
 40
0.0
 40
0.0
 40
0.0
 40
0.1591351643457946
 40
0.1591351643457946
 40
0.3173409042585785
 40
0.3173409042585785
 40
0.4746180042488886
 40
0.4746180042488886
 40
0.4746180042488886
 10
-9.072012407659024
 20
15.06303696801697
 30
0.0
 41
1.0
 10
-8.992444877538166
 20
15.06294125646837
 30
0.0
 41
0.9999998960597791
 10
-8.9128772932211
 20
15.06291810084259
 30
0.0
 41
1.0
 10
-8.833774421161296
 20
15.06289504822257
 30
0.0
 41
0.9999998964169878
 10
-8.754671560891325
 20
15.06294400372959
 30
0.0
 41
1.0
 10
-8.6760330204662
 20
15.06299263957195
 30
0.0
 41
0.9999998956627083
 10
-8.597394557295388
 20
15.06311312099149
 30
0.0
 41
1.0
  0
SPLINE
  5
EC
330
1F
100
AcDbEntity
  8
2D SEAT & WISHBONE
100
AcDbSpline
210
0.0
220
0.0
230
1.0
 70
    12
 71
     2
 72
     6
 73
     3
 74
     0
 42
0.0000000001
 43
0.0000000001
 40
0.0
 40
0.0
 40
0.0
 40
0.6244842084228673
 40
0.6244842084228673
 40
0.6244842084228673
 10
-8.597394557295388
 20
15.06311312099149
 30
0.0
 41
1.0
 10
-8.282891490417104
 20
15.04477021911464
 30
0.0
 41
0.9867430574526554
 10
-7.990830095500414
 20
14.92666525425535
 30
0.0
 41
1.0
  0
SPLINE
  5
ED
330
1F
100
AcDbEntity
  8
2D SEAT & WISHBONE
100
AcDbSpline
210
0.0
220
0.0
230
1.0
 70
     8
 71
     2
 72
    18
 73
    15
 74
     0
 42
0.0000000001
 43
0.0000000001
 40
0.0
 40
0.0
 40
0.0
 40
1.0
 40
2.0
 40
3.0
 40
4.0
 40
5.0
 40
6.0
 40
7.0
 40
8.0
 40
9.0
 40
10.0
 40
11.0
 40
12.0
 40
13.0
 40
13.0
 40
13.0
 10
-7.990830095500414
 20
14.92666525425535
 30
0.0
 10
-7.686198940297466
 20
14.79825569159779
 30
0.0
 10
-7.076629616614923
 20
14.54216557649308
 30
0.0
 10
-6.466939876307848
 20
14.28636262003753
 30
0.0
 10
-5.857220804952881
 20
14.03062898066027
 30
0.0
 10
-5.24747789202533
 20
13.77495292760756
 30
0.0
 10
-4.63771377466815
 20
13.51932716003968
 30
0.0
 10
-4.027968483049229
 20
13.26365684706491
 30
0.0
 10
-3.418294193688673
 20
13.00781467359055
 30
0.0
 10
-2.80882459448172
 20
12.75149996375876
 30
0.0
 10
-2.199483140393504
 20
12.49479544506917
 30
0.0
 10
-1.590546344146745
 20
12.2376297635616
 30
0.0
 10
-0.9795398972619083
 20
11.98246586201432
 30
0.0
 10
-0.3319936406187409
 20
11.83903306817276
 30
0.0
 10
0.0
 20
11.83875231213578
 30
0.0
  0
SPLINE
  5
EE
330
1F
100
AcDbEntity
  8
2D SEAT & WISHBONE
100
AcDbSpline
210
0.0
220
0.0
230
1.0
 70
     8
 71
     2
 72
    18
 73
    15
 74
     0
 42
0.0000000001
 43
0.0000000001
 40
-13.0
 40
-13.0
 40
-13.0
 40
-12.0
 40
-11.0
 40
-10.0
 40
-9.0
 40
-8.0
 40
-7.0
 40
-6.0
 40
-5.0
 40
-4.0
 40
-3.0
 40
-2.0
 40
-1.0
 40
0.0
 40
0.0
 40
0.0
 10
0.0
 20
11.83875231213578
 30
0.0
 10
0.3319936406187409
 20
11.83903306817276
 30
0.0
 10
0.9795398972619083
 20
11.98246586201432
 30
0.0
 10
1.590546344146745
 20
12.2376297635616
 30
0.0
 10
2.199483140393504
 20
12.49479544506917
 30
0.0
 10
2.80882459448172
 20
12.75149996375876
 30
0.0
 10
3.418294193688673
 20
13.00781467359055
 30
0.0
 10
4.027968483049229
 20
13.26365684706491
 30
0.0
 10
4.63771377466815
 20
13.51932716003968
 30
0.0
 10
5.24747789202533
 20
13.77495292760756
 30
0.0
 10
5.857220804952881
 20
14.03062898066027
 30
0.0
 10
6.466939876307848
 20
14.28636262003753
 30
0.0
 10
7.076629616614923
 20
14.54216557649308
 30
0.0
 10
7.686198940297466
 20
14.79825569159779
 30
0.0
 10
7.990830095500414
 20
14.92666525425535
 30
0.0
  0
SPLINE
  5
EF
330
1F
100
AcDbEntity
  8
2D SEAT & WISHBONE
100
AcDbSpline
210
0.0
220
0.0
230
1.0
 70
    12
 71
     2
 72
     6
 73
     3
 74
     0
 42
0.0000000001
 43
0.0000000001
 40
-0.6244842084228673
 40
-0.6244842084228673
 40
-0.6244842084228673
 40
0.0
 40
0.0
 40
0.0
 10
7.990830095500414
 20
14.92666525425535
 30
0.0
 41
1.0
 10
8.282891490417104
 20
15.04477021911464
 30
0.0
 41
0.9867430574526554
 10
8.597394557295388
 20
15.06311312099149
 30
0.0
 41
1.0
  0
SPLINE
  5
F0
330
1F
100
AcDbEntity
  8
2D SEAT & WISHBONE
100
AcDbSpline
210
0.0
220
0.0
230
1.0
 70
    12
 71
     2
 72
    10
 73
     7
 74
     0
 42
0.0000000001
 43
0.0000000001
 40
-0.4746180042488886
 40
-0.4746180042488886
 40
-0.4746180042488886
 40
-0.3173409042585785
 40
-0.3173409042585785
 40
-0.1591351643457946
 40
-0.1591351643457946
 40
0.0
 40
0.0
 40
0.0
 10
8.597394557295388
 20
15.06311312099149
 30
0.0
 41
1.0
 10
8.676033020466203
 20
15.06299263957195
 30
0.0
 41
0.9999998956627083
 10
8.754671560891325
 20
15.06294400372959
 30
0.0
 41
1.0
 10
8.8337744211613
 20
15.06289504822257
 30
0.0
 41
0.9999998964169878
 10
8.9128772932211
 20
15.06291810084259
 30
0.0
 41
1.0
 10
8.992444877538162
 20
15.06294125646837
 30
0.0
 41
0.9999998960597791
 10
9.072012407659024
 20
15.06303696801697
 30
0.0
 41
1.0
  0
SPLINE
  5
F1
330
1F
100
AcDbEntity
  8
2D SEAT & WISHBONE
100
AcDbSpline
210
0.0
220
0.0
230
1.0
 70
    12
 71
     3
 72
    10
 73
     6
 74
     0
 42
0.0000000001
 43
0.0000000001
 40
-1.0
 40
-1.0
 40
-1.0
 40
-1.0
 40
-0.7500589360920537
 40
-0.7500589360920537
 40
-0.5514703589813611
 40
-0.5514703589813611
 40
-0.5514703589813611
 40
-0.5514703589813611
 10
9.072012407659024
 20
15.06303696801697
 30
0.0
 41
1.0
 10
9.110928026039218
 20
15.0629052455052
 30
0.0
 41
1.0
 10
9.141655545680301
 20
15.05905192462579
 30
0.0
 41
1.0
 10
9.177631954896029
 20
15.04613373911014
 30
0.0
 41
1.0
 10
9.186865333692374
 20
15.03831158878122
 30
0.0
 41
1.0
 10
9.189025811037311
 20
15.02880719509534
 30
0.0
 41
1.0
  0
POLYLINE
  5
F2
330
1F
100
AcDbEntity
  8
2D SEAT & WISHBONE
100
AcDb2dPolyline
 66
     1
 10
0.0
 20
0.0
 30
0.0
  0
VERTEX
  5
F3
330
F2
100
AcDbEntity
  8
2D SEAT & WISHBONE
100
AcDbVertex
100
AcDb2dVertex
 10
-6.348962394176823
 20
14.87641124040934
 30
0.0
  0
VERTEX
  5
F4
330
F2
100
AcDbEntity
  8
2D SEAT & WISHBONE
100
AcDbVertex
100
AcDb2dVertex
 10
-6.833919796810086
 20
14.87641124040934
 30
0.0
  0
SEQEND
  5
F5
330
F2
100
AcDbEntity
  8
2D SEAT & WISHBONE
  0
SPLINE
  5
F6
330
1F
100
AcDbEntity
  8
2D SEAT & WISHBONE
100
AcDbSpline
210
0.0
220
0.0
230
1.0
 70
     8
 71
     3
 72
     8
 73
     4
 74
     0
 42
0.0000000001
 43
0.0000000001
 40
0.0
 40
0.0
 40
0.0
 40
0.0
 40
1.0
 40
1.0
 40
1.0
 40
1.0
 10
-6.348962394176823
 20
14.87641124040934
 30
0.0
 10
-6.287390109048509
 20
14.87602859749445
 30
0.0
 10
-6.154774438108575
 20
14.88377599567287
 30
0.0
 10
-6.171667125154372
 20
14.82456510279077
 30
0.0
  0
LINE
  5
F7
330
1F
100
AcDbEntity
  8
2D SEAT & WISHBONE
100
AcDbLine
 10
-6.171667125154372
 20
14.82456510279077
 30
0.0
 11
-6.226287814860655
 21
14.63311303844019
 31
0.0
  0
SPLINE
  5
F8
330
1F
100
AcDbEntity
  8
2D SEAT & WISHBONE
100
AcDbSpline
210
0.0
220
0.0
230
1.0
 70
    12
 71
     2
 72
     6
 73
     3
 74
     0
 42
0.0000000001
 43
0.0000000001
 40
-0.0250209661673179
 40
-0.0250209661673179
 40
-0.0250209661673179
 40
0.0
 40
0.0
 40
0.0
 10
-7.650054038176449
 20
14.25345357488953
 30
0.0
 41
1.0
 10
-7.660146375938107
 20
14.24536280276649
 30
0.0
 41
0.9514834584249582
 10
-7.673065483719313
 20
14.24467766892773
 30
0.0
 41
1.0
  0
LINE
  5
F9
330
1F
100
AcDbEntity
  8
2D SEAT & WISHBONE
100
AcDbLine
 10
-7.673065483719313
 20
14.24467766892773
 30
0.0
 11
-7.785843024157003
 21
14.24573058859339
 31
0.0
  0
SPLINE
  5
FA
330
1F
100
AcDbEntity
  8
2D SEAT & WISHBONE
100
AcDbSpline
210
0.0
220
0.0
230
1.0
 70
     8
 71
     3
 72
     8
 73
     4
 74
     0
 42
0.0000000001
 43
0.0000000001
 40
0.0
 40
0.0
 40
0.0
 40
0.0
 40
1.0
 40
1.0
 40
1.0
 40
1.0
 10
-7.785843024157003
 20
14.24573058859339
 30
0.0
 10
-7.794738028275525
 20
14.24581646738948
 30
0.0
 10
-7.800598786708719
 20
14.25769641015461
 30
0.0
 10
-7.802838211745389
 20
14.26630532698202
 30
0.0
  0
LINE
  5
FB
330
1F
100
AcDbEntity
  8
2D SEAT & WISHBONE
100
AcDbLine
 10
-7.802838211745389
 20
14.26630532698202
 30
0.0
 11
-7.818627660155684
 21
14.32700396430591
 31
0.0
  0
ARC
  5
FC
330
1F
100
AcDbEntity
  8
2D SEAT & WISHBONE
100
AcDbCircle
 10
-8.726290452566673
 20
14.09089495977841
 30
0.0
 40
0.9378695041135955
100
AcDbArc
 50
14.58111489036043
 51
14.71673090844974
  0
SPLINE
  5
FD
330
1F
100
AcDbEntity
  8
2D SEAT & WISHBONE
100
AcDbSpline
210
0.0
220
0.0
230
1.0
 70
    24
 71
     2
 72
     6
 73
     3
 74
     0
 42
0.0000000001
 43
0.0000000001
 40
-0.1630131667630006
 40
-0.1630131667630006
 40
-0.1630131667630006
 40
0.0
 40
0.0
 40
0.0
 10
40.02667893201732
 20
14.58602043191972
 30
0.0
 10
39.9451733882075
 20
14.58643209050619
 30
0.0
 10
39.86366784439768
 20
14.58684374909265
 30
0.0
  0
SPLINE
  5
FE
330
1F
100
AcDbEntity
  8
2D SEAT & WISHBONE
100
AcDbSpline
210
0.0
220
0.0
230
1.0
 70
     8
 71
     3
 72
     8
 73
     4
 74
     0
 42
0.0000000001
 43
0.0000000001
 40
0.0
 40
0.0
 40
0.0
 40
0.0
 40
1.0
 40
1.0
 40
1.0
 40
1.0
 10
39.86366784439768
 20
14.58684374909265
 30
0.0
 10
39.81997166505489
 20
14.58706444460097
 30
0.0
 10
39.77538115567809
 20
14.58644640697878
 30
0.0
 10
39.73306514547394
 20
14.57554869730809
 30
0.0
  0
POLYLINE
  5
FF
330
1F
100
AcDbEntity
  8
2D SEAT & WISHBONE
100
AcDb2dPolyline
 66
     1
 10
0.0
 20
0.0
 30
0.0
  0
VERTEX
  5
100
330
FF
100
AcDbEntity
  8
2D SEAT & WISHBONE
100
AcDbVertex
100
AcDb2dVertex
 10
39.73306514547394
 20
14.57554869730809
 30
0.0
  0
VERTEX
  5
101
330
FF
100
AcDbEntity
  8
2D SEAT & WISHBONE
100
AcDbVertex
100
AcDb2dVertex
 10
38.5572767444761
 20
14.27274603310556
 30
0.0
  0
SEQEND
  5
102
330
FF
100
AcDbEntity
  8
2D SEAT & WISHBONE
  0
SPLINE
  5
103
330
1F
100
AcDbEntity
  8
2D SEAT & WISHBONE
100
AcDbSpline
210
0.0
220
0.0
230
1.0
 70
     8
 71
     3
 72
     8
 73
     4
 74
     0
 42
0.0000000001
 43
0.0000000001
 40
0.0
 40
0.0
 40
0.0
 40
0.0
 40
1.0
 40
1.0
 40
1.0
 40
1.0
 10
38.5572767444761
 20
14.27274603310556
 30
0.0
 10
38.49292139343619
 20
14.25617249680087
 30
0.0
 10
38.42646270282418
 20
14.24390605752623
 30
0.0
 10
38.36000750518521
 20
14.24391051598504
 30
0.0
  0
POLYLINE
  5
104
330
1F
100
AcDbEntity
  8
2D SEAT & WISHBONE
100
AcDb2dPolyline
 66
     1
 10
0.0
 20
0.0
 30
0.0
  0
VERTEX
  5
105
330
104
100
AcDbEntity
  8
2D SEAT & WISHBONE
100
AcDbVertex
100
AcDb2dVertex
 10
38.36000750518521
 20
14.24391051598504
 30
0.0
  0
VERTEX
  5
106
330
104
100
AcDbEntity
  8
2D SEAT & WISHBONE
100
AcDbVertex
100
AcDb2dVertex
 10
37.94209533434345
 20
14.24393855358432
 30
0.0
  0
SEQEND
  5
107
330
104
100
AcDbEntity
  8
2D SEAT & WISHBONE
  0
SPLINE
  5
108
330
1F
100
AcDbEntity
  8
2D SEAT & WISHBONE
100
AcDbSpline
210
0.0
220
0.0
230
1.0
 70
    12
 71
     2
 72
     6
 73
     3
 74
     0
 42
0.0000000001
 43
0.0000000001
 40
-0.1296812134731248
 40
-0.1296812134731248
 40
-0.1296812134731248
 40
0.0
 40
0.0
 40
0.0
 10
37.94209533434345
 20
14.24393855358432
 30
0.0
 41
1.0
 10
37.86592280381469
 20
14.24705537747648
 30
0.0
 41
0.7901513580637403
 10
37.84999925795574
 20
14.32161012035449
 30
0.0
 41
1.0
  0
SPLINE
  5
109
330
1F
100
AcDbEntity
  8
2D SEAT & WISHBONE
100
AcDbSpline
210
0.0
220
0.0
230
1.0
 70
    24
 71
     2
 72
     6
 73
     3
 74
     0
 42
0.0000000001
 43
0.0000000001
 40
0.0
 40
0.0
 40
0.0
 40
0.4484089199002907
 40
0.4484089199002907
 40
0.4484089199002907
 10
37.84999925795574
 20
14.32161012035449
 30
0.0
 10
37.80487630748955
 20
14.54122696670914
 30
0.0
 10
37.75975335702336
 20
14.76084381306379
 30
0.0
  0
SPLINE
  5
10A
330
1F
100
AcDbEntity
  8
2D SEAT & WISHBONE
100
AcDbSpline
210
0.0
220
0.0
230
1.0
 70
    12
 71
     2
 72
     8
 73
     5
 74
     0
 42
0.0000000001
 43
0.0000000001
 40
0.0
 40
0.0
 40
0.0
 40
0.0899716330427267
 40
0.0899716330427267
 40
0.1799432660854534
 40
0.1799432660854534
 40
0.1799432660854534
 10
37.75975335702336
 20
14.76084381306379
 30
0.0
 41
1.0
 10
37.74998665007606
 20
14.80802928132694
 30
0.0
 41
0.9033031893651716
 10
37.78038551996116
 20
14.84541598604287
 30
0.0
 41
1.0
 10
37.81078438984623
 20
14.8828026907588
 30
0.0
 41
0.9033031893651716
 10
37.85896999739737
 20
14.88286753468872
 30
0.0
 41
1.0
  0
POLYLINE
  5
10B
330
1F
100
AcDbEntity
  8
2D SEAT & WISHBONE
100
AcDb2dPolyline
 66
     1
 10
0.0
 20
0.0
 30
0.0
  0
VERTEX
  5
10C
330
10B
100
AcDbEntity
  8
2D SEAT & WISHBONE
100
AcDbVertex
100
AcDb2dVertex
 10
37.85896999739737
 20
14.88286753468872
 30
0.0
  0
VERTEX
  5
10D
330
10B
100
AcDbEntity
  8
2D SEAT & WISHBONE
100
AcDbVertex
100
AcDb2dVertex
 10
40.66536051552509
 20
14.87706684041804
 30
0.0
  0
SEQEND
  5
10E
330
10B
100
AcDbEntity
  8
2D SEAT & WISHBONE
  0
LINE
  5
10F
330
1F
100
AcDbEntity
  8
2D SEAT & WISHBONE
100
AcDbLine
 10
41.55162789118557
 20
15.69039391923322
 30
0.0
 11
41.40996438213772
 21
15.21643218814867
 31
0.0
  0
SPLINE
  5
110
330
1F
100
AcDbEntity
  8
2D SEAT & WISHBONE
100
AcDbSpline
210
0.0
220
0.0
230
1.0
 70
    12
 71
     2
 72
     6
 73
     3
 74
     0
 42
0.0000000001
 43
0.0000000001
 40
-0.0404807022423484
 40
-0.0404807022423484
 40
-0.0404807022423484
 40
0.0
 40
0.0
 40
0.0
 10
32.61324214448197
 20
12.1813791396319
 30
0.0
 41
1.0
 10
32.61065279434445
 20
12.16130510792113
 30
0.0
 41
1.0
 10
32.60806347425824
 20
12.14123107233404
 30
0.0
 41
1.0
  0
SPLINE
  5
111
330
1F
100
AcDbEntity
  8
2D SEAT & WISHBONE
100
AcDbSpline
210
0.0
220
0.0
230
1.0
 70
    12
 71
     2
 72
     6
 73
     3
 74
     0
 42
0.0000000001
 43
0.0000000001
 40
0.0
 40
0.0
 40
0.0
 40
0.0898061690698103
 40
0.0898061690698103
 40
0.0898061690698103
 10
32.60806347425824
 20
12.14123107233404
 30
0.0
 41
0.9999999328525018
 10
32.60151737301327
 20
12.09048294139275
 30
0.0
 41
0.8260533388662387
 10
32.6470487412485
 20
12.06552075341815
 30
0.0
 41
1.0
  0
SPLINE
  5
112
330
1F
100
AcDbEntity
  8
2D SEAT & WISHBONE
100
AcDbSpline
210
0.0
220
0.0
230
1.0
 70
    12
 71
     3
 72
    10
 73
     6
 74
     0
 42
0.0000000001
 43
0.0000000001
 40
0.0
 40
0.0
 40
0.0
 40
0.0
 40
0.5
 40
0.5
 40
1.0
 40
1.0
 40
1.0
 40
1.0
 10
32.6470487412485
 20
12.06552075341815
 30
0.0
 41
1.0
 10
32.83556000314002
 20
11.96701542051549
 30
0.0
 41
1.0
 10
33.02401843685037
 20
11.86406832010093
 30
0.0
 41
1.0
 10
33.41966571871947
 20
11.69273328035402
 30
0.0
 41
1.0
 10
33.62596089819343
 20
11.61987013542686
 30
0.0
 41
1.0
 10
33.84245844841224
 20
11.56111215984924
 30
0.0
 41
1.0
  0
SPLINE
  5
113
330
1F
100
AcDbEntity
  8
2D SEAT & WISHBONE
100
AcDbSpline
210
0.0
220
0.0
230
1.0
 70
    12
 71
     2
 72
     6
 73
     3
 74
     0
 42
0.0000000001
 43
0.0000000001
 40
0.0
 40
0.0
 40
0.0
 40
0.5301893265109335
 40
0.5301893265109335
 40
0.5301893265109335
 10
33.84245844841224
 20
11.56111215984924
 30
0.0
 41
1.0
 10
34.13267912743959
 20
11.48236902944845
 30
0.0
 41
0.8314414279315625
 10
34.1709623454397
 20
11.18410250712327
 30
0.0
 41
1.0
  0
SPLINE
  5
114
330
1F
100
AcDbEntity
  8
2D SEAT & WISHBONE
100
AcDbSpline
210
0.0
220
0.0
230
1.0
 70
    24
 71
     2
 72
     6
 73
     3
 74
     0
 42
0.0000000001
 43
0.0000000001
 40
-0.1723961963319146
 40
-0.1723961963319146
 40
-0.1723961963319146
 40
0.0
 40
0.0
 40
0.0
 10
34.1709623454397
 20
11.18410250712327
 30
0.0
 10
34.18193608567488
 20
11.09860578699508
 30
0.0
 10
34.19290982591006
 20
11.01310906686688
 30
0.0
  0
SPLINE
  5
115
330
1F
100
AcDbEntity
  8
2D SEAT & WISHBONE
100
AcDbSpline
210
0.0
220
0.0
230
1.0
 70
    12
 71
     2
 72
     6
 73
     3
 74
     0
 42
0.0000000001
 43
0.0000000001
 40
-0.1731769833218032
 40
-0.1731769833218032
 40
-0.1731769833218032
 40
0.0
 40
0.0
 40
0.0
 10
34.19290982591006
 20
11.01310906686688
 30
0.0
 41
1.0
 10
34.20635131124239
 20
10.90838607204162
 30
0.0
 41
0.7507690645319871
 10
34.3119334080823
 20
10.908386072036
 30
0.0
 41
1.0
  0
POLYLINE
  5
116
330
1F
100
AcDbEntity
  8
2D SEAT & WISHBONE
100
AcDb2dPolyline
 66
     1
 10
0.0
 20
0.0
 30
0.0
  0
VERTEX
  5
117
330
116
100
AcDbEntity
  8
2D SEAT & WISHBONE
100
AcDbVertex
100
AcDb2dVertex
 10
34.3119334080823
 20
10.908386072036
 30
0.0
  0
VERTEX
  5
118
330
116
100
AcDbEntity
  8
2D SEAT & WISHBONE
100
AcDbVertex
100
AcDb2dVertex
 10
35.70050421167946
 20
10.908386072036
 30
0.0
  0
SEQEND
  5
119
330
116
100
AcDbEntity
  8
2D SEAT & WISHBONE
  0
SPLINE
  5
11A
330
1F
100
AcDbEntity
  8
2D SEAT & WISHBONE
100
AcDbSpline
210
0.0
220
0.0
230
1.0
 70
    12
 71
     2
 72
     6
 73
     3
 74
     0
 42
0.0000000001
 43
0.0000000001
 40
-0.1734753961625848
 40
-0.1734753961625848
 40
-0.1734753961625848
 40
0.0
 40
0.0
 40
0.0
 10
35.70050421167946
 20
10.908386072036
 30
0.0
 41
1.0
 10
35.80635131129413
 20
10.90838607198273
 30
0.0
 41
0.7499471465673857
 10
35.81956541624257
 20
11.01340509848391
 30
0.0
 41
1.0
  0
SPLINE
  5
11B
330
1F
100
AcDbEntity
  8
2D SEAT & WISHBONE
100
AcDbSpline
210
0.0
220
0.0
230
1.0
 70
    24
 71
     2
 72
     6
 73
     3
 74
     0
 42
0.0000000001
 43
0.0000000001
 40
-0.1859156470225043
 40
-0.1859156470225043
 40
-0.1859156470225043
 40
0.0
 40
0.0
 40
0.0
 10
35.81956541624257
 20
11.01340509848391
 30
0.0
 10
35.8311704043345
 20
11.10563568561928
 30
0.0
 10
35.84277539242643
 20
11.19786627275465
 30
0.0
  0
SPLINE
  5
11C
330
1F
100
AcDbEntity
  8
2D SEAT & WISHBONE
100
AcDbSpline
210
0.0
220
0.0
230
1.0
 70
    12
 71
     2
 72
     6
 73
     3
 74
     0
 42
0.0000000001
 43
0.0000000001
 40
-0.503549713502026
 40
-0.503549713502026
 40
-0.503549713502026
 40
0.0
 40
0.0
 40
0.0
 10
35.84277539242643
 20
11.19786627275465
 30
0.0
 41
1.0
 10
35.87795666217054
 20
11.47749093321772
 30
0.0
 41
0.8474541879723547
 10
36.14490712845264
 20
11.56785199248375
 30
0.0
 41
1.0
  0
SPLINE
  5
11D
330
1F
100
AcDbEntity
  8
2D SEAT & WISHBONE
100
AcDbSpline
210
0.0
220
0.0
230
1.0
 70
     8
 71
     2
 72
    15
 73
    12
 74
     0
 42
0.0000000001
 43
0.0000000001
 40
4.217080235518739
 40
4.217080235518739
 40
4.217080235518739
 40
5.217080235518739
 40
6.217080235518739
 40
7.217080235518739
 40
8.21708023551874
 40
9.21708023551874
 40
10.21708023551874
 40
11.21708023551874
 40
12.21708023551874
 40
13.21708023551874
 40
14.21708023551874
 40
14.21708023551874
 40
14.21708023551874
 10
36.14490712845264
 20
11.56785199248375
 30
0.0
 10
36.62959376038711
 20
11.71177642251771
 30
0.0
 10
37.30237378416784
 20
12.00534901204479
 30
0.0
 10
37.95343125548351
 20
12.34395327252965
 30
0.0
 10
38.60594292295065
 20
12.67933299848262
 30
0.0
 10
39.25834393235287
 20
13.01499614749122
 30
0.0
 10
39.91125653049194
 20
13.34965139114307
 30
0.0
 10
40.5640935067313
 20
13.68445600665109
 30
0.0
 10
41.21695235945143
 20
14.01921756876393
 30
0.0
 10
41.86983491200499
 20
14.35393314818242
 30
0.0
 10
42.52263328482978
 20
14.68881303253155
 30
0.0
 10
42.84869676737739
 20
14.8569057972922
 30
0.0
  0
LINE
  5
11E
330
1F
100
AcDbEntity
  8
2D SEAT & WISHBONE
100
AcDbLine
 10
42.84869676737739
 20
14.8569057972922
 30
0.0
 11
42.90658192444917
 21
14.88674684546717
 31
0.0
  0
SPLINE
  5
11F
330
1F
100
AcDbEntity
  8
2D armless mesh back
100
AcDbSpline
210
0.0
220
0.0
230
1.0
 70
     8
 71
     3
 72
    11
 73
     7
 74
     0
 42
0.0000000001
 43
0.0000000001
 40
0.0
 40
0.0
 40
0.0
 40
0.0
 40
1.0
 40
2.0
 40
3.0
 40
4.0
 40
4.0
 40
4.0
 40
4.0
 10
25.83183189302321
 20
15.34730621760542
 30
0.0
 10
26.3788841303124
 20
15.07692442315012
 30
0.0
 10
27.48445015885636
 20
14.55966916721411
 30
0.0
 10
29.13162930063996
 20
13.76062652190247
 30
0.0
 10
30.7818363891222
 20
12.96786285349015
 30
0.0
 10
31.88134369630968
 20
12.43804558712178
 30
0.0
 10
32.43122357545005
 20
12.17339854855939
 30
0.0
  0
SPLINE
  5
120
330
1F
100
AcDbEntity
  8
2D armless mesh back
100
AcDbSpline
210
0.0
220
0.0
230
1.0
 70
    12
 71
     2
 72
     6
 73
     3
 74
     0
 42
0.0000000001
 43
0.0000000001
 40
0.0
 40
0.0
 40
0.0
 40
0.0722825569271646
 40
0.0722825569271646
 40
0.0722825569271646
 10
32.43122357545005
 20
12.17339854855939
 30
0.0
 41
1.0
 10
32.44721392670071
 20
12.20581019106835
 30
0.0
 41
0.9999920221599621
 10
32.46294483649103
 20
12.23834854352227
 30
0.0
 41
1.0
  0
SPLINE
  5
121
330
1F
100
AcDbEntity
  8
2D armless mesh back
100
AcDbSpline
210
0.0
220
0.0
230
1.0
 70
    12
 71
     2
 72
     6
 73
     3
 74
     0
 42
0.0000000001
 43
0.0000000001
 40
-0.0923766455965594
 40
-0.0923766455965594
 40
-0.0923766455965594
 40
0.0
 40
0.0
 40
0.0
 10
32.46294483649103
 20
12.23834854352227
 30
0.0
 41
1.0
 10
32.51008935830419
 20
12.23700873537687
 30
0.0
 41
0.969270125316243
 10
32.55088901277122
 20
12.21334887024144
 30
0.0
 41
1.0
  0
SPLINE
  5
122
330
1F
100
AcDbEntity
  8
2D armless mesh back
100
AcDbSpline
210
0.0
220
0.0
230
1.0
 70
    12
 71
     2
 72
     6
 73
     3
 74
     0
 42
0.0000000001
 43
0.0000000001
 40
-0.4474293187033804
 40
-0.4474293187033804
 40
-0.4474293187033804
 40
0.0
 40
0.0
 40
0.0
 10
32.55088901277122
 20
12.21334887024144
 30
0.0
 41
1.0
 10
32.75335856257752
 20
12.11819462431978
 30
0.0
 41
0.9999999954026586
 10
32.95580986018717
 20
12.02300155098061
 30
0.0
 41
1.0
  0
SPLINE
  5
123
330
1F
100
AcDbEntity
  8
2D armless mesh back
100
AcDbSpline
210
0.0
220
0.0
230
1.0
 70
    12
 71
     2
 72
     6
 73
     3
 74
     0
 42
0.0000000001
 43
0.0000000001
 40
0.0
 40
0.0
 40
0.0
 40
0.3511314193796798
 40
0.3511314193796798
 40
0.3511314193796798
 10
32.95580986018717
 20
12.02300155098061
 30
0.0
 41
1.0
 10
33.1393575205671
 20
11.9373689205176
 30
0.0
 41
0.8116924086006584
 10
33.27886504313159
 20
12.08420332445247
 30
0.0
 41
1.0
  0
SPLINE
  5
124
330
1F
100
AcDbEntity
  8
2D armless mesh back
100
AcDbSpline
210
0.0
220
0.0
230
1.0
 70
    12
 71
     2
 72
     6
 73
     3
 74
     0
 42
0.0000000001
 43
0.0000000001
 40
0.0
 40
0.0
 40
0.0
 40
0.2026761038332088
 40
0.2026761038332088
 40
0.2026761038332088
 10
33.27886504313159
 20
12.08420332445247
 30
0.0
 41
1.0
 10
33.33959771014996
 20
12.16532634298888
 30
0.0
 41
0.9999999844168006
 10
33.40035901631015
 20
12.24642791296959
 30
0.0
 41
1.0
  0
ARC
  5
125
330
1F
100
AcDbEntity
  8
2D SEAT & WISHBONE
100
AcDbCircle
 10
42.61329224726582
 20
15.6249179695033
 30
0.0
 40
0.2200618413254457
100
AcDbArc
 50
205.2057469261395
 51
244.6479390101923
  0
ARC
  5
126
330
1F
100
AcDbEntity
  8
2D SEAT & WISHBONE
100
AcDbCircle
 10
42.63581755332093
 20
15.63552033372711
 30
0.0
 40
0.2449576148625512
100
AcDbArc
 50
180.6960646255145
 51
205.2057469261392
  0
SPLINE
  5
127
330
1F
100
AcDbEntity
  8
2D SEAT & WISHBONE
100
AcDbSpline
210
0.0
220
0.0
230
1.0
 70
    24
 71
     2
 72
     6
 73
     3
 74
     0
 42
0.0000000001
 43
0.0000000001
 40
-0.0674175882177268
 40
-0.0674175882177268
 40
-0.0674175882177268
 40
0.0
 40
0.0
 40
0.0
 10
42.39087801475542
 20
15.6325445100662
 30
0.0
 10
42.39048501959018
 20
15.66625101322311
 30
0.0
 10
42.39009202442494
 20
15.69995751638002
 30
0.0
  0
SPLINE
  5
128
330
1F
100
AcDbEntity
  8
2D SEAT & WISHBONE
100
AcDbSpline
210
0.0
220
0.0
230
1.0
 70
    24
 71
     2
 72
     6
 73
     3
 74
     0
 42
0.0000000001
 43
0.0000000001
 40
0.0
 40
0.0
 40
0.0
 40
0.3109280453855756
 40
0.3109280453855756
 40
0.3109280453855756
 10
42.98328752439471
 20
15.01862338864443
 30
0.0
 10
42.95360847739673
 20
15.17481568533398
 30
0.0
 10
42.92392943039874
 20
15.33100798202353
 30
0.0
  0
SPLINE
  5
129
330
1F
100
AcDbEntity
  8
2D SEAT & WISHBONE
100
AcDbSpline
210
0.0
220
0.0
230
1.0
 70
     8
 71
     3
 72
    11
 73
     7
 74
     0
 42
0.0000000001
 43
0.0000000001
 40
0.0
 40
0.0
 40
0.0
 40
0.0
 40
0.0456291807026746
 40
0.095092866401613
 40
0.15455884769835
 40
0.2334015155375486
 40
0.2334015155375486
 40
0.2334015155375486
 40
0.2334015155375486
 10
42.92392943039874
 20
15.33100798202353
 30
0.0
 10
42.9194467776411
 20
15.34868768964525
 30
0.0
 10
42.90389538228592
 20
15.37757039507566
 30
0.0
 10
42.86036292865705
 20
15.40715037098466
 30
0.0
 10
42.7990888595827
 20
15.42247902611358
 30
0.0
 10
42.75306797811686
 20
15.42519442704138
 30
0.0
 10
42.72374334804915
 20
15.42547289248755
 30
0.0
  0
SPLINE
  5
12A
330
1F
100
AcDbEntity
  8
2D SEAT & WISHBONE
100
AcDbSpline
210
0.0
220
0.0
230
1.0
 70
    12
 71
     2
 72
     6
 73
     3
 74
     0
 42
0.0000000001
 43
0.0000000001
 40
0.0
 40
0.0
 40
0.0
 40
0.5267639210453275
 40
0.5267639210453275
 40
0.5267639210453275
 10
42.72374334804915
 20
15.42547289248755
 30
0.0
 41
1.0
 10
42.45736242804072
 20
15.42621986594324
 30
0.0
 41
0.9999999999999954
 10
42.19398147198157
 20
15.4269472682173
 30
0.0
 41
1.0
  0
SPLINE
  5
12B
330
1F
100
AcDbEntity
  8
2D SEAT & WISHBONE
100
AcDbSpline
210
0.0
220
0.0
230
1.0
 70
    12
 71
     2
 72
     8
 73
     5
 74
     0
 42
0.0000000001
 43
0.0000000001
 40
-6.743690181710589
 40
-6.743690181710589
 40
-6.743690181710589
 40
-6.179052111949003
 40
-6.179052111949003
 40
0.0
 40
0.0
 40
0.0
 10
42.19398147198157
 20
15.4269472682173
 30
0.0
 41
1.0
 10
41.90849960605357
 20
15.42773570851149
 30
0.0
 41
0.9834585678144311
 10
41.6213234442432
 20
15.31261166404575
 30
0.0
 41
1.0
 10
38.80925990444992
 20
14.03297503643984
 30
0.0
 41
1.0
 10
35.99719636465663
 20
12.75333840883394
 30
0.0
 41
1.0
  0
SPLINE
  5
12C
330
1F
100
AcDbEntity
  8
2D SEAT & WISHBONE
100
AcDbSpline
210
0.0
220
0.0
230
1.0
 70
     8
 71
     3
 72
    11
 73
     7
 74
     0
 42
0.0000000001
 43
0.0000000001
 40
0.0
 40
0.0
 40
0.0
 40
0.0
 40
0.2394082475363763
 40
0.4683749390519508
 40
0.9569435828480347
 40
1.984928384227763
 40
1.984928384227763
 40
1.984928384227763
 40
1.984928384227763
 10
35.99719636465663
 20
12.75333840883394
 30
0.0
 10
35.92341674570336
 20
12.72324691030295
 30
0.0
 10
35.7767415238101
 20
12.6685882837521
 30
0.0
 10
35.46926807238822
 20
12.58405305811118
 30
0.0
 10
34.89152704180401
 20
12.4948522527021
 30
0.0
 10
34.38267393896925
 20
12.55789368771758
 30
0.0
 10
34.04938911685478
 20
12.63359789195942
 30
0.0
  0
SPLINE
  5
12D
330
1F
100
AcDbEntity
  8
2D SEAT & WISHBONE
100
AcDbSpline
210
0.0
220
0.0
230
1.0
 70
    12
 71
     2
 72
     6
 73
     3
 74
     0
 42
0.0000000001
 43
0.0000000001
 40
-0.2602301514168993
 40
-0.2602301514168993
 40
-0.2602301514168993
 40
0.0
 40
0.0
 40
0.0
 10
34.04938911685478
 20
12.63359789195942
 30
0.0
 41
1.0
 10
33.92262892746051
 20
12.66330132096629
 30
0.0
 41
0.9995767171005313
 10
33.79802073049692
 20
12.70088177206401
 30
0.0
 41
1.0
  0
SPLINE
  5
12E
330
1F
100
AcDbEntity
  8
2D SEAT & WISHBONE
100
AcDbSpline
210
0.0
220
0.0
230
1.0
 70
    12
 71
     2
 72
     6
 73
     3
 74
     0
 42
0.0000000001
 43
0.0000000001
 40
-0.1055348260773938
 40
-0.1055348260773938
 40
-0.1055348260773938
 40
0.0
 40
0.0
 40
0.0
 10
33.79802073049692
 20
12.70088177206401
 30
0.0
 41
1.0
 10
33.7370508943008
 20
12.71910122872127
 30
0.0
 41
0.7624776950869869
 10
33.70915183113073
 20
12.66190934292525
 30
0.0
 41
1.0
  0
SPLINE
  5
12F
330
1F
100
AcDbEntity
  8
2D SEAT & WISHBONE
100
AcDbSpline
210
0.0
220
0.0
230
1.0
 70
    24
 71
     2
 72
     6
 73
     3
 74
     0
 42
0.0000000001
 43
0.0000000001
 40
-0.5626271926147017
 40
-0.5626271926147017
 40
-0.5626271926147017
 40
0.0
 40
0.0
 40
0.0
 10
33.70915183113073
 20
12.66190934292525
 30
0.0
 10
33.5858320699537
 20
12.40906635613183
 30
0.0
 10
33.46251230877668
 20
12.15622336933841
 30
0.0
  0
SPLINE
  5
130
330
1F
100
AcDbEntity
  8
2D SEAT & WISHBONE
100
AcDbSpline
210
0.0
220
0.0
230
1.0
 70
    12
 71
     2
 72
     6
 73
     3
 74
     0
 42
0.0000000001
 43
0.0000000001
 40
0.0
 40
0.0
 40
0.0
 40
0.0729156398802028
 40
0.0729156398802028
 40
0.0729156398802028
 10
33.46251230877668
 20
12.15622336933841
 30
0.0
 41
1.0
 10
33.49769520087165
 20
12.14596786431025
 30
0.0
 41
0.9922698250792436
 10
33.52926869593443
 20
12.12736341083614
 30
0.0
 41
1.0
  0
SPLINE
  5
131
330
1F
100
AcDbEntity
  8
2D SEAT & WISHBONE
100
AcDbSpline
210
0.0
220
0.0
230
1.0
 70
    12
 71
     2
 72
   102
 73
    99
 74
     0
 42
0.0000000001
 43
0.0000000001
 40
0.0
 40
0.0
 40
0.0
 40
0.0933351830226139
 40
0.0933351830226139
 40
0.1939711206841363
 40
0.1939711206841363
 40
0.2847065029894014
 40
0.2847065029894014
 40
0.3667430087822864
 40
0.3667430087822864
 40
0.4431800229206312
 40
0.4431800229206312
 40
0.5194013920464431
 40
0.5194013920464431
 40
0.6012353772974584
 40
0.6012353772974584
 40
0.6904605495300046
 40
0.6904605495300046
 40
0.7830969336759221
 40
0.7830969336759221
 40
0.872847587174429
 40
0.872847587174429
 40
0.9550537306345233
 40
0.9550537306345233
 40
1.028676250081603
 40
1.028676250081603
 40
1.094843889484695
 40
1.094843889484695
 40
1.154832135376147
 40
1.154832135376147
 40
1.209489883143524
 40
1.209489883143524
 40
1.259204360847046
 40
1.259204360847046
 40
1.304024463866833
 40
1.304024463866833
 40
1.344243534224346
 40
1.344243534224346
 40
1.380884602823216
 40
1.380884602823216
 40
1.415483007750777
 40
1.415483007750777
 40
1.449435144395946
 40
1.449435144395946
 40
1.483437119884856
 40
1.483437119884856
 40
1.517348802335681
 40
1.517348802335681
 40
1.550549043538512
 40
1.550549043538512
 40
1.582700602911135
 40
1.582700602911135
 40
1.614243481555567
 40
1.614243481555567
 40
1.646330602547831
 40
1.646330602547831
 40
1.680464346225045
 40
1.680464346225045
 40
1.718131584493278
 40
1.718131584493278
 40
1.759304354175828
 40
1.759304354175828
 40
1.801396952195233
 40
1.801396952195233
 40
1.84181640916083
 40
1.84181640916083
 40
1.880116937464281
 40
1.880116937464281
 40
1.917159169118948
 40
1.917159169118948
 40
1.954458510826637
 40
1.954458510826637
 40
1.99420740600048
 40
1.99420740600048
 40
2.038638105558231
 40
2.038638105558231
 40
2.088543045575526
 40
2.088543045575526
 40
2.143496980453198
 40
2.143496980453198
 40
2.20355386073793
 40
2.20355386073793
 40
2.267576960040648
 40
2.267576960040648
 40
2.331341361601939
 40
2.331341361601939
 40
2.390794943137434
 40
2.390794943137434
 40
2.444329955005614
 40
2.444329955005614
 40
2.491804458650944
 40
2.491804458650944
 40
2.533625319057933
 40
2.533625319057933
 40
2.570625269080765
 40
2.570625269080765
 40
2.606499719970548
 40
2.606499719970548
 40
2.644761876763658
 40
2.644761876763658
 40
2.644761876763658
 10
33.52926869593443
 20
12.12736341083614
 30
0.0
 41
1.0
 10
33.5735396768501
 20
12.11259627539732
 30
0.0
 41
0.9999573196645634
 10
33.61807595497405
 20
12.09864966393902
 30
0.0
 41
1.0
 10
33.66609542709422
 20
12.08360913037392
 30
0.0
 41
0.9999439101925117
 10
33.71442270682414
 20
12.06958909519107
 30
0.0
 41
1.0
 10
33.7579969941867
 20
12.05695406973778
 30
0.0
 41
0.9999508151258677
 10
33.80181332578532
 20
12.04518582974201
 30
0.0
 41
1.0
 10
33.84142795004824
 20
12.03454281453908
 30
0.0
 41
0.9999575843931744
 10
33.88123189550622
 20
12.02463129830386
 30
0.0
 41
1.0
 10
33.91831847282321
 20
12.01539426102728
 30
0.0
 41
0.9999574911901401
 10
33.95556907540194
 20
12.00684267156915
 30
0.0
 41
1.0
 10
33.9927160790218
 20
11.9983214087049
 30
0.0
 41
0.9999548087939242
 10
34.03001838149063
 20
11.9905079568904
 30
0.0
 41
1.0
 10
34.07006693943976
 20
11.98211563326244
 30
0.0
 41
0.9999472302904482
 10
34.11027946551101
 20
11.9745478834879
 30
0.0
 41
1.0
 10
34.15412429283398
 20
11.96629607512931
 30
0.0
 41
0.9999327852069422
 10
34.19814866555231
 20
11.95906310679493
 30
0.0
 41
1.0
 10
34.24385669259145
 20
11.95155514058029
 30
0.0
 41
0.9999236658197845
 10
34.28973628153867
 20
11.94517888693671
 30
0.0
 41
1.0
 10
34.3341864048808
 20
11.93899951796538
 30
0.0
 41
0.9999243610211629
 10
34.37877507213867
 20
11.93391534466141
 30
0.0
 41
1.0
 10
34.41961515765583
 20
11.92925602222268
 30
0.0
 41
0.9999292598972663
 10
34.46055451869597
 20
11.92556948071903
 30
0.0
 41
1.0
 10
34.49721938993525
 20
11.92227311875017
 30
0.0
 41
0.9999391539623624
 10
34.53394805932741
 20
11.9197864281973
 30
0.0
 41
1.0
 10
34.56695747534579
 20
11.91755328881078
 30
0.0
 41
0.9999524957125815
 10
34.60000415043825
 20
11.91596403655641
 30
0.0
 41
1.0
 10
34.62996434830202
 20
11.91452232064042
 30
0.0
 41
0.9999628292870184
 10
34.65994495190009
 20
11.91359743755892
 30
0.0
 41
1.0
 10
34.68726137259382
 20
11.91275464250303
 30
0.0
 41
0.9999700809179024
 10
34.71458756262443
 20
11.91233454556784
 30
0.0
 41
1.0
 10
34.73944226176903
 20
11.91195215579036
 30
0.0
 41
0.999975762924432
 10
34.7642998758144
 20
11.91191588623435
 30
0.0
 41
1.0
 10
34.78671019242618
 20
11.9118833396348
 30
0.0
 41
0.999980674056881
 10
34.80911918133148
 20
11.91212944157023
 30
0.0
 41
1.0
 10
34.82922770277511
 20
11.9123504584491
 30
0.0
 41
0.9999850185882634
 10
34.84933259963887
 20
11.91279159924845
 30
0.0
 41
1.0
 10
34.86764887388031
 20
11.91319335267995
 30
0.0
 41
0.9999880881843305
 10
34.88596035359157
 20
11.91377388578836
 30
0.0
 41
1.0
 10
34.90325099120744
 20
11.91432194732416
 30
0.0
 41
0.9999896879664619
 10
34.92053593778107
 20
11.9150270306926
 30
0.0
 41
1.0
 10
34.93749802639802
 20
11.91571860738283
 30
0.0
 41
0.9999900251565701
 10
34.95445326045412
 20
11.91656167717343
 30
0.0
 41
1.0
 10
34.97143335325342
 20
11.91740656389214
 30
0.0
 41
0.9999901377248477
 10
34.98840527162167
 20
11.91840224051764
 30
0.0
 41
1.0
 10
35.00533210002675
 20
11.91939547023006
 30
0.0
 41
0.999990938937504
 10
35.02224985865467
 20
11.92053277763068
 30
0.0
 41
1.0
 10
35.03881270900709
 20
11.92164587096865
 30
0.0
 41
0.999991876940235
 10
35.05536604831495
 20
11.92289244480795
 30
0.0
 41
1.0
 10
35.07139641502916
 20
11.9241008588732
 30
0.0
 41
0.9999935311372087
 10
35.08741767392084
 20
11.9254245601502
 30
0.0
 41
1.0
 10
35.10313569472896
 20
11.92672217826729
 30
0.0
 41
0.999994896456773
 10
35.11884510332175
 20
11.92812020278956
 30
0.0
 41
1.0
 10
35.13482566509165
 20
11.92954124462327
 30
0.0
 41
0.9999945192343729
 10
35.15079646695574
 20
11.9310680721161
 30
0.0
 41
1.0
 10
35.16778609944559
 20
11.9326909345194
 30
0.0
 41
0.9999918116128762
 10
35.18476204072846
 20
11.934451250423
 30
0.0
 41
1.0
 10
35.20349527675872
 20
11.93639476341098
 30
0.0
 41
0.9999869643005583
 10
35.22220768909881
 20
11.93852947634613
 30
0.0
 41
1.0
 10
35.24266204146949
 20
11.94085984999251
 30
0.0
 41
0.9999788855072608
 10
35.26308437980231
 20
11.94345586024961
 30
0.0
 41
1.0
 10
35.28396242752058
 20
11.94611473297515
 30
0.0
 41
0.9999732843534985
 10
35.30479937451381
 20
11.94907853470582
 30
0.0
 41
1.0
 10
35.32480807318469
 20
11.95192430950839
 30
0.0
 41
0.9999755205526091
 10
35.34477498975774
 20
11.95504980135667
 30
0.0
 41
1.0
 10
35.36369503085308
 20
11.95801208448306
 30
0.0
 41
0.9999786104433316
 10
35.38257470417027
 20
11.96122160341965
 30
0.0
 41
1.0
 10
35.40083403764768
 20
11.9643259480551
 30
0.0
 41
0.999981452967248
 10
35.41905420343008
 20
11.96765247379782
 30
0.0
 41
1.0
 10
35.43740097247827
 20
11.97100129090046
 30
0.0
 41
0.9999821295965002
 10
35.45570639009705
 20
11.974569230964
 30
0.0
 41
1.0
 10
35.47521407927954
 20
11.97837114288375
 30
0.0
 41
0.9999794851525621
 10
35.49467146308125
 20
11.98242264718212
 30
0.0
 41
1.0
 10
35.51642057970052
 20
11.98695195522727
 30
0.0
 41
0.9999742583968652
 10
35.53810246181162
 20
11.991792894517
 30
0.0
 41
1.0
 10
35.5624560783294
 20
11.99722929353956
 30
0.0
 41
0.9999671016731949
 10
35.58671829890409
 20
12.00306005031839
 30
0.0
 41
1.0
 10
35.61343464034267
 20
12.00948344958933
 30
0.0
 41
0.9999610424373001
 10
35.64003342606429
 20
12.01637747281172
 30
0.0
 41
1.0
 10
35.66910250497214
 20
12.02391060082575
 30
0.0
 41
0.9999566273549962
 10
35.69802622556855
 20
12.03198387482628
 30
0.0
 41
1.0
 10
35.72886103104238
 20
12.04058750508869
 30
0.0
 41
0.9999499628069172
 10
35.75951753929613
 20
12.04980630023711
 30
0.0
 41
1.0
 10
35.79004927137558
 20
12.0589908790329
 30
0.0
 41
0.9999495164615372
 10
35.82039027220057
 20
12.06878714466673
 30
0.0
 41
1.0
 10
35.84867827003556
 20
12.07792581962282
 30
0.0
 41
0.9999625629201657
 10
35.87680388562521
 20
12.08755265446969
 30
0.0
 41
1.0
 10
35.90213007922932
 20
12.09621900937396
 30
0.0
 41
0.9999765367722229
 10
35.92733516534014
 20
12.10523152422525
 30
0.0
 41
1.0
 10
35.94968645418361
 20
12.11322448180438
 30
0.0
 41
0.9999862107340203
 10
35.97195256119191
 20
12.1214517512493
 30
0.0
 41
1.0
 10
35.99156756193629
 20
12.128697603076
 30
0.0
 41
0.9999922271070064
 10
36.01112481527809
 20
12.13609790473352
 30
0.0
 41
1.0
 10
36.02842841869528
 20
12.14264290498745
 30
0.0
 41
0.9999942057535486
 10
36.04568706057421
 20
12.14930556211795
 30
0.0
 41
1.0
 10
36.0624214896424
 20
12.15576359938739
 30
0.0
 41
0.9999922960874301
 10
36.07910470430602
 20
12.16235281103211
 30
0.0
 41
1.0
 10
36.09689616444303
 20
12.1693860631891
 30
0.0
 41
0.9999907191312188
 10
36.11462636161357
 20
12.17657235555756
 30
0.0
 41
1.0
  0
SPLINE
  5
132
330
1F
100
AcDbEntity
  8
2D SEAT & WISHBONE
100
AcDbSpline
210
0.0
220
0.0
230
1.0
 70
     8
 71
     2
 72
    11
 73
     8
 74
     0
 42
0.0000000001
 43
0.0000000001
 40
0.0
 40
0.0
 40
0.0
 40
1.0
 40
2.0
 40
3.0
 40
4.0
 40
5.0
 40
6.0
 40
6.0
 40
6.0
 10
36.11462636161357
 20
12.17657235555756
 30
0.0
 10
36.58502287430679
 20
12.3898118277776
 30
0.0
 10
37.51329397963001
 20
12.84313947118578
 30
0.0
 10
38.42935584872012
 20
13.3205314062712
 30
0.0
 10
39.35328574867518
 20
13.78246511534445
 30
0.0
 10
40.28002998687288
 20
14.23869824969412
 30
0.0
 10
41.20751021748447
 20
14.69343324633052
 30
0.0
 10
41.67100258192629
 20
14.92238895253138
 30
0.0
  0
SPLINE
  5
133
330
1F
100
AcDbEntity
  8
2D SEAT & WISHBONE
100
AcDbSpline
210
0.0
220
0.0
230
1.0
 70
    12
 71
     2
 72
     6
 73
     3
 74
     0
 42
0.0000000001
 43
0.0000000001
 40
0.0
 40
0.0
 40
0.0
 40
0.6381112656837131
 40
0.6381112656837131
 40
0.6381112656837131
 10
41.67100258192629
 20
14.92238895253138
 30
0.0
 41
1.0
 10
41.96731742449103
 20
15.05188431534939
 30
0.0
 41
0.982249583780618
 10
42.29002192269279
 20
15.06303696801698
 30
0.0
 41
1.0
  0
SPLINE
  5
134
330
1F
100
AcDbEntity
  8
2D SEAT & WISHBONE
100
AcDbSpline
210
0.0
220
0.0
230
1.0
 70
    12
 71
     2
 72
    10
 73
     7
 74
     0
 42
0.0000000001
 43
0.0000000001
 40
0.0
 40
0.0
 40
0.0
 40
0.1800293119344438
 40
0.1800293119344438
 40
0.3589362672071544
 40
0.3589362672071544
 40
0.5367224863957822
 40
0.5367224863957822
 40
0.5367224863957822
 10
42.29002192269279
 20
15.06303696801698
 30
0.0
 41
1.0
 10
42.38003653265847
 20
15.06294126825019
 30
0.0
 41
0.9999999188390115
 10
42.47005119051482
 20
15.06291810084258
 30
0.0
 41
1.0
 10
42.55950467001121
 20
15.06289504565718
 30
0.0
 41
0.9999999189896606
 10
42.64895813908126
 20
15.06294400372959
 30
0.0
 41
1.0
 10
42.73785124022326
 20
15.06299262274842
 30
0.0
 41
0.9999999182701049
 10
42.82674427299088
 20
15.06311312099148
 30
0.0
 41
1.0
  0
SPLINE
  5
135
330
1F
100
AcDbEntity
  8
2D SEAT & WISHBONE
100
AcDbSpline
210
0.0
220
0.0
230
1.0
 70
    12
 71
     3
 72
    12
 73
     8
 74
     0
 42
0.0000000001
 43
0.0000000001
 40
0.0
 40
0.0
 40
0.0
 40
0.0
 40
0.3023941545116698
 40
0.3023941545116698
 40
0.5189717390803334
 40
0.5189717390803334
 40
0.5394434577951862
 40
0.5394434577951862
 40
0.5394434577951862
 40
0.5394434577951862
 10
42.82674427299088
 20
15.06311312099148
 30
0.0
 41
1.0
 10
42.85282554702336
 20
15.06295831033963
 30
0.0
 41
1.0
 10
42.89821723937131
 20
15.06116822155117
 30
0.0
 41
1.0
 10
42.95728811178331
 20
15.04558228439705
 30
0.0
 41
1.0
 10
42.97570856152836
 20
15.03536200861871
 30
0.0
 41
1.0
 10
42.98238837662655
 20
15.02112900776441
 30
0.0
 41
1.0
 10
42.98285435681049
 20
15.01987621073821
 30
0.0
 41
1.0
 10
42.98328752439471
 20
15.01862338864443
 30
0.0
 41
1.0
  0
SPLINE
  5
136
330
1F
100
AcDbEntity
  8
2D SEAT & WISHBONE
100
AcDbSpline
210
0.0
220
0.0
230
1.0
 70
     8
 71
     3
 72
     8
 73
     4
 74
     0
 42
0.0000000001
 43
0.0000000001
 40
0.0
 40
0.0
 40
0.0
 40
0.0
 40
1.0
 40
1.0
 40
1.0
 40
1.0
 10
42.90658192444917
 20
14.88674684546717
 30
0.0
 10
42.95268282577082
 20
14.9105128553882
 30
0.0
 10
42.99228037086712
 20
14.97155292954813
 30
0.0
 10
42.98260609631245
 20
15.02250903558142
 30
0.0
  0
LINE
  5
137
330
1F
100
AcDbEntity
  8
2D armless mesh back
100
AcDbLine
 10
27.55192541134096
 20
15.26453336350761
 30
0.0
 11
32.82536948981667
 21
13.13402821668205
 31
0.0
  0
ARC
  5
138
330
1F
100
AcDbEntity
  8
2D armless mesh back
100
AcDbCircle
 10
29.37408177249969
 20
4.555883233085419
 30
0.0
 40
9.246402449996816
100
AcDbArc
 50
64.41552894033417
 51
68.0833524105865
  0
SPLINE
  5
139
330
1F
100
AcDbEntity
  8
2D armless mesh back
100
AcDbSpline
210
0.0
220
0.0
230
1.0
 70
    12
 71
     2
 72
     6
 73
     3
 74
     0
 42
0.0000000001
 43
0.0000000001
 40
-0.4861752922532782
 40
-0.4861752922532782
 40
-0.4861752922532782
 40
0.0
 40
0.0
 40
0.0
 10
33.36706030300924
 20
12.89567224253865
 30
0.0
 41
1.0
 10
33.651656450579
 20
12.77914308244892
 30
0.0
 41
0.7133848486816444
 10
33.54022185108269
 20
12.49251380551116
 30
0.0
 41
1.0
  0
POLYLINE
  5
13A
330
1F
100
AcDbEntity
  8
2D armless mesh back
100
AcDb2dPolyline
 66
     1
 10
0.0
 20
0.0
 30
0.0
  0
VERTEX
  5
13B
330
13A
100
AcDbEntity
  8
2D armless mesh back
100
AcDbVertex
100
AcDb2dVertex
 10
33.54022185108269
 20
12.49251380551116
 30
0.0
  0
VERTEX
  5
13C
330
13A
100
AcDbEntity
  8
2D armless mesh back
100
AcDbVertex
100
AcDb2dVertex
 10
33.4369574779748
 20
12.29152333956611
 30
0.0
  0
SEQEND
  5
13D
330
13A
100
AcDbEntity
  8
2D armless mesh back
  0
SPLINE
  5
13E
330
1F
100
AcDbEntity
  8
2D armless mesh back
100
AcDbSpline
210
0.0
220
0.0
230
1.0
 70
    12
 71
     2
 72
     6
 73
     3
 74
     0
 42
0.0000000001
 43
0.0000000001
 40
-0.3620652350043809
 40
-0.3620652350043809
 40
-0.3620652350043809
 40
0.0
 40
0.0
 40
0.0
 10
33.4369574779748
 20
12.29152333956611
 30
0.0
 41
1.0
 10
33.31070975013867
 20
12.11895912542003
 30
0.0
 41
0.7851161078609683
 10
33.11349508964517
 20
12.20156223961062
 30
0.0
 41
1.0
  0
SPLINE
  5
13F
330
1F
100
AcDbEntity
  8
2D armless mesh back
100
AcDbSpline
210
0.0
220
0.0
230
1.0
 70
     8
 71
     2
 72
     6
 73
     3
 74
     0
 42
0.0000000001
 43
0.0000000001
 40
-1.0
 40
-1.0
 40
-1.0
 40
0.0
 40
0.0
 40
0.0
 10
33.11349508964517
 20
12.20156223961062
 30
0.0
 10
29.49654611258782
 20
13.76372987184931
 30
0.0
 10
25.89375302824706
 20
15.35793794522183
 30
0.0
  0
SPLINE
  5
140
330
1F
100
AcDbEntity
  8
2D armless mesh back
100
AcDbSpline
210
0.0
220
0.0
230
1.0
 70
     8
 71
     3
 72
    14
 73
    10
 74
     0
 42
0.0000000001
 43
0.0000000001
 40
-7.0
 40
-7.0
 40
-7.0
 40
-7.0
 40
-6.0
 40
-5.0
 40
-4.0
 40
-3.0
 40
-2.0
 40
-1.0
 40
0.0
 40
0.0
 40
0.0
 40
0.0
 10
25.91970735250587
 20
15.35335963968232
 30
0.0
 10
26.06397243267764
 20
15.32221845923477
 30
0.0
 10
26.35515649986863
 20
15.27192697954418
 30
0.0
 10
26.79660999572323
 20
15.23410244658461
 30
0.0
 10
27.23994022356253
 20
15.23023967377961
 30
0.0
 10
27.68110055046776
 20
15.27463128660347
 30
0.0
 10
28.11270039885238
 20
15.37590341996172
 30
0.0
 10
28.54490597283363
 20
15.47147127874992
 30
0.0
 10
28.83291691482211
 20
15.53637159430238
 30
0.0
 10
28.97694762017956
 20
15.5685840730297
 30
0.0
  0
SPLINE
  5
141
330
1F
100
AcDbEntity
  8
2D armless mesh back
100
AcDbSpline
210
0.0
220
0.0
230
1.0
 70
     8
 71
     3
 72
    11
 73
     7
 74
     0
 42
0.0000000001
 43
0.0000000001
 40
0.0
 40
0.0
 40
0.0
 40
0.0
 40
0.0786638393364324
 40
0.1488950446331684
 40
0.3422785764926555
 40
0.9427519274702636
 40
0.9427519274702636
 40
0.9427519274702636
 40
0.9427519274702636
 10
28.97694762017956
 20
15.5685840730297
 30
0.0
 10
29.00168237956544
 20
15.57712153343336
 30
0.0
 10
29.04819319265334
 20
15.59547847392018
 30
0.0
 10
29.13987940045836
 20
15.66535433487197
 30
0.0
 10
29.30392230818711
 20
15.90517985981915
 30
0.0
 10
29.39445461573115
 20
16.15613586180609
 30
0.0
 10
29.45071197483753
 20
16.34792912328403
 30
0.0
  0
SPLINE
  5
142
330
1F
100
AcDbEntity
  8
2D armless mesh back
100
AcDbSpline
210
0.0
220
0.0
230
1.0
 70
    12
 71
     3
 72
    32
 73
    28
 74
     0
 42
0.0000000001
 43
0.0000000001
 40
0.0
 40
0.0
 40
0.0
 40
0.0
 40
1.0
 40
1.0
 40
1.0
 40
1.612107031955414
 40
1.612107031955414
 40
1.612107031955414
 40
2.242446671684511
 40
2.242446671684511
 40
2.242446671684511
 40
2.872786311413609
 40
2.872786311413609
 40
2.872786311413609
 40
11.04956682619374
 40
11.04956682619374
 40
11.04956682619374
 40
12.04956682619374
 40
13.04956682619374
 40
14.04956682619374
 40
15.04956682619374
 40
15.04956682619374
 40
15.04956682619374
 40
16.32897970711783
 40
16.32897970711783
 40
16.32897970711783
 40
16.40010008100762
 40
16.40010008100762
 40
16.40010008100762
 40
16.40010008100762
 10
29.45071197483753
 20
16.34792912328403
 30
0.0
 41
1.0
 10
30.14466031044212
 20
19.11908875135285
 30
0.0
 41
1.0
 10
30.79517212751688
 20
21.72814914431558
 30
0.0
 41
1.0
 10
31.44568429927472
 20
24.33721095983412
 30
0.0
 41
1.0
 10
31.49988491883983
 20
24.55483314950554
 30
0.0
 41
0.8319188346738996
 10
31.39634631738891
 20
24.75459300077395
 30
0.0
 41
0.8319128471966769
 10
31.18727340582846
 20
24.83576436591475
 30
0.0
 41
0.9999820375683324
 10
30.93901038927958
 20
24.93961236702806
 30
0.0
 41
0.8326664322346877
 10
30.59471966259373
 20
25.02831355911913
 30
0.0
 41
0.8326664322346877
 10
30.32721996405428
 20
25.05734386148161
 30
0.0
 41
0.9999820375683324
 10
30.09878734247345
 20
25.09064461618455
 30
0.0
 41
0.8326664322346877
 10
29.90562301469028
 20
24.96424071854629
 30
0.0
 41
0.8326664322346877
 10
29.84468694163714
 20
24.74158134221794
 30
0.0
 41
0.9999820375683324
 10
29.18530619429094
 20
22.09694961282199
 30
0.0
 41
0.9999820375683324
 10
28.52592544694473
 20
19.45231788342603
 30
0.0
 41
0.9999820375683324
 10
27.86654469959853
 20
16.80768615403007
 30
0.0
 41
0.9999820375683324
 10
27.84381068580765
 20
16.71764049507273
 30
0.0
 41
0.9999820375683324
 10
27.78380396839083
 20
16.54151916546019
 30
0.0
 41
0.9999820375683324
 10
27.65644048992964
 20
16.29257906272245
 30
0.0
 41
0.9999820375683324
 10
27.48795543014983
 20
16.07006489002733
 30
0.0
 41
0.9999820375683324
 10
27.33092511292037
 20
15.95975919017068
 30
0.0
 41
0.9999820375683324
 10
27.23689262963885
 20
15.94723360445157
 30
0.0
 41
0.9999820375683324
 10
26.82018509476472
 20
15.85652929693183
 30
0.0
 41
0.9999820375683324
 10
26.4034775598906
 20
15.76582498941209
 30
0.0
 41
0.9999820375683324
 10
25.98677002501647
 20
15.67512068189235
 30
0.0
 41
0.9999820375683324
 10
25.9635574461108
 20
15.67028924248882
 30
0.0
 41
0.9997069173226447
 10
25.94021565695967
 20
15.66612661046259
 30
0.0
 41
0.9997069173226447
 10
25.91676392330542
 20
15.66263622154842
 30
0.0
 41
0.9999820375683324
  0
SPLINE
  5
143
330
1F
100
AcDbEntity
  8
2D armless mesh back
100
AcDbSpline
210
0.0
220
0.0
230
1.0
 70
    12
 71
     2
 72
     6
 73
     3
 74
     0
 42
0.0000000001
 43
0.0000000001
 40
0.0
 40
0.0
 40
0.0
 40
0.0849867043004475
 40
0.0849867043004475
 40
0.0849867043004475
 10
25.91676392330541
 20
15.66263622154842
 30
0.0
 41
1.0
 10
25.87034252359364
 20
15.65529147447184
 30
0.0
 41
0.8622165554334017
 10
25.85415856487796
 20
15.6111669785415
 30
0.0
 41
1.0
  0
POLYLINE
  5
144
330
1F
100
AcDbEntity
  8
2D armless mesh back
100
AcDb2dPolyline
 66
     1
 10
0.0
 20
0.0
 30
0.0
  0
VERTEX
  5
145
330
144
100
AcDbEntity
  8
2D armless mesh back
100
AcDbVertex
100
AcDb2dVertex
 10
25.85415856487796
 20
15.6111669785415
 30
0.0
  0
VERTEX
  5
146
330
144
100
AcDbEntity
  8
2D armless mesh back
100
AcDbVertex
100
AcDb2dVertex
 10
25.7933905826296
 20
15.44548711394577
 30
0.0
  0
SEQEND
  5
147
330
144
100
AcDbEntity
  8
2D armless mesh back
  0
SPLINE
  5
148
330
1F
100
AcDbEntity
  8
2D armless mesh back
100
AcDbSpline
210
0.0
220
0.0
230
1.0
 70
    12
 71
     2
 72
     6
 73
     3
 74
     0
 42
0.0000000001
 43
0.0000000001
 40
0.0
 40
0.0
 40
0.0
 40
0.1135836468695663
 40
0.1135836468695663
 40
0.1135836468695663
 10
25.7933905826296
 20
15.44548711394577
 30
0.0
 41
1.0
 10
25.76964793342377
 20
15.38076682528533
 30
0.0
 41
0.7555108681098451
 10
25.83035435818388
 20
15.34809942336161
 30
0.0
 41
1.0
  0
SPLINE
  5
149
330
1F
100
AcDbEntity
  8
2D SEAT & WISHBONE
100
AcDbSpline
210
0.0
220
0.0
230
1.0
 70
     8
 71
     3
 72
    15
 73
    11
 74
     0
 42
0.0000000001
 43
0.0000000001
 40
0.0
 40
0.0
 40
0.0
 40
0.0
 40
1.0
 40
2.0
 40
3.0
 40
4.0
 40
5.0
 40
6.0
 40
7.0
 40
7.493002866437419
 40
7.493002866437419
 40
7.493002866437419
 40
7.493002866437419
 10
42.98079653796212
 20
14.96860335203024
 30
0.0
 10
43.17458519293861
 20
14.97852729400008
 30
0.0
 10
43.5620679361847
 20
15.0001310522981
 30
0.0
 10
44.14325101779438
 20
15.03326332094565
 30
0.0
 10
44.72467168709075
 20
15.06209756903423
 30
0.0
 10
45.30648871595166
 20
15.08189291264877
 30
0.0
 10
45.88863868453173
 20
15.08792944073556
 30
0.0
 10
46.47072590455642
 20
15.07534960827889
 30
0.0
 10
46.95365028774147
 20
15.04517032965492
 30
0.0
 10
47.24195045057471
 20
15.016274215955
 30
0.0
 10
47.33715929930885
 20
15.01715145464157
 30
0.0
  0
ARC
  5
14A
330
1F
100
AcDbEntity
  8
2D SEAT & WISHBONE
100
AcDbCircle
 10
46.93244290591427
 20
15.7751599632675
 30
0.0
 40
0.5872669374621858
100
AcDbArc
 50
253.8761713401878
 51
269.6200870870968
  0
SPLINE
  5
14B
330
1F
100
AcDbEntity
  8
2D SEAT & WISHBONE
100
AcDbSpline
210
0.0
220
0.0
230
1.0
 70
     8
 71
     3
 72
    14
 73
    10
 74
     0
 42
0.0000000001
 43
0.0000000001
 40
-0.0000000000000001
 40
-0.0000000000000001
 40
-0.0000000000000001
 40
-0.0000000000000001
 40
0.9999999999999998
 40
2.0
 40
3.0
 40
4.0
 40
4.999999999999999
 40
5.999999999999999
 40
6.999999999999999
 40
6.999999999999999
 40
6.999999999999999
 40
6.999999999999999
 10
46.92854892524305
 20
15.18790593582219
 30
0.0
 10
47.01519924350795
 20
15.18733137243274
 30
0.0
 10
47.19496856894868
 20
15.22449723939477
 30
0.0
 10
47.37728248709944
 20
15.42590140309084
 30
0.0
 10
47.46473039472274
 20
15.67553418872455
 30
0.0
 10
47.50294214333995
 20
15.93520913752729
 30
0.0
 10
47.51377166558413
 20
16.19741441387116
 30
0.0
 10
47.49515914864983
 20
16.45943329208103
 30
0.0
 10
47.44878384549521
 20
16.62901506571486
 30
0.0
 10
47.41540152766844
 20
16.70977008128045
 30
0.0
  0
SPLINE
  5
14C
330
1F
100
AcDbEntity
  8
2D SEAT & WISHBONE
100
AcDbSpline
210
0.0
220
0.0
230
1.0
 70
    12
 71
     3
 72
    12
 73
     8
 74
     0
 42
0.0000000001
 43
0.0000000001
 40
-1.0
 40
-1.0
 40
-1.0
 40
-1.0
 40
-0.75
 40
-0.75
 40
-0.5
 40
-0.5
 40
-0.3904321599967359
 40
-0.3904321599967359
 40
-0.3904321599967359
 40
-0.3904321599967359
 10
47.41540152766844
 20
16.70977008128045
 30
0.0
 41
1.0
 10
47.33020937192366
 20
16.91667468868994
 30
0.0
 41
1.0
 10
47.19388140509261
 20
17.06992255787844
 30
0.0
 41
1.0
 10
46.85975762573509
 20
17.31142740056629
 30
0.0
 41
1.0
 10
46.66269560668599
 20
17.40043595746734
 30
0.0
 41
1.0
 10
46.3542204915817
 20
17.50171969731016
 30
0.0
 41
1.0
 10
46.25700963747563
 20
17.52914868956233
 30
0.0
 41
1.0
 10
46.15678682635263
 20
17.55315916088118
 30
0.0
 41
1.0
  0
SPLINE
  5
14D
330
1F
100
AcDbEntity
  8
2D SEAT & WISHBONE
100
AcDbSpline
210
0.0
220
0.0
230
1.0
 70
    12
 71
     2
 72
     6
 73
     3
 74
     0
 42
0.0000000001
 43
0.0000000001
 40
0.0
 40
0.0
 40
0.0
 40
0.8571435018575718
 40
0.8571435018575718
 40
0.8571435018575718
 10
46.15678682635263
 20
17.55315916088118
 30
0.0
 41
1.0
 10
45.73998201742582
 20
17.65692938925381
 30
0.0
 41
0.997130337852066
 10
45.00364807961554
 20
17.72014129225368
 30
0.0
 41
1.0
  0
SPLINE
  5
14E
330
1F
100
AcDbEntity
  8
2D SEAT & WISHBONE
100
AcDbSpline
210
0.0
220
0.0
230
1.0
 70
     8
 71
     3
 72
    14
 73
    10
 74
     0
 42
0.0000000001
 43
0.0000000001
 40
-7.0
 40
-7.0
 40
-7.0
 40
-7.0
 40
-6.0
 40
-5.0
 40
-4.0
 40
-3.0
 40
-2.0
 40
-1.0
 40
0.0
 40
0.0
 40
0.0
 40
0.0
 10
45.00364807961554
 20
17.72014129225368
 30
0.0
 10
44.2963874178263
 20
17.78429044903529
 30
0.0
 10
42.8762852137705
 20
17.80529277657177
 30
0.0
 10
40.74735491340785
 20
17.77929097475668
 30
0.0
 10
38.61809876377528
 20
17.76669852162249
 30
0.0
 10
36.48893009116898
 20
17.75055120628246
 30
0.0
 10
34.35973749706635
 20
17.73538082896644
 30
0.0
 10
32.2305515984345
 20
17.71996916864732
 30
0.0
 10
30.81109223173125
 20
17.70976126823758
 30
0.0
 10
30.10136322071864
 20
17.70464959277888
 30
0.0
  0
SPLINE
  5
14F
330
1F
100
AcDbEntity
  8
2D SEAT & WISHBONE
100
AcDbSpline
210
0.0
220
0.0
230
1.0
 70
     8
 71
     3
 72
    18
 73
    14
 74
     0
 42
0.0000000001
 43
0.0000000001
 40
0.0
 40
0.0
 40
0.0
 40
0.0
 40
1.0
 40
2.0
 40
3.0
 40
4.0
 40
5.0
 40
6.0
 40
7.0
 40
8.0
 40
9.0
 40
10.0
 40
11.0
 40
11.0
 40
11.0
 40
11.0
 10
29.15795075338747
 20
15.55660401324199
 30
0.0
 10
29.69337917550412
 20
15.55158279345225
 30
0.0
 10
30.76413469930534
 20
15.56885839529068
 30
0.0
 10
32.37029630092941
 20
15.58515533559919
 30
0.0
 10
33.97644935560255
 20
15.60404050813019
 30
0.0
 10
35.58260515456125
 20
15.62218917852512
 30
0.0
 10
37.18876113630461
 20
15.64069565506375
 30
0.0
 10
38.79491235032336
 20
15.65850739441462
 30
0.0
 10
40.40108279674013
 20
15.67874028030213
 30
0.0
 10
42.00718052606437
 20
15.68998591601579
 30
0.0
 10
43.61355027160019
 20
15.7347613595074
 30
0.0
 10
45.21890645675516
 20
15.65437937634542
 30
0.0
 10
46.27260069297323
 20
15.42266994754595
 30
0.0
 10
46.765956625348
 20
15.21243880871834
 30
0.0
  0
ARC
  5
150
330
1F
100
AcDbEntity
  8
2D SEAT & WISHBONE
100
AcDbCircle
 10
48.94402144275003
 20
20.32377105357296
 30
0.0
 40
5.556049285787077
100
AcDbArc
 50
246.9199493284665
 51
251.8677664571852
  0
SPLINE
  5
151
330
1F
100
AcDbEntity
  8
2D SEAT & WISHBONE
100
AcDbSpline
210
0.0
220
0.0
230
1.0
 70
    12
 71
     3
 72
    11
 73
     7
 74
     0
 42
0.0000000001
 43
0.0000000001
 40
-0.4999999999998321
 40
-0.4999999999998321
 40
-0.4999999999998321
 40
-0.4999999999998321
 40
-0.3749999999999275
 40
-0.2499999999999018
 40
-0.1249999999998762
 40
0.0
 40
0.0
 40
0.0
 40
0.0
 10
45.72294095861599
 20
17.64282566692429
 30
0.0
 41
1.0
 10
46.00256828356703
 20
17.60354619402284
 30
0.0
 41
1.0
 10
46.5388982862779
 20
17.50174610823542
 30
0.0
 41
1.0
 10
47.23797345462998
 20
17.24276729718323
 30
0.0
 41
1.0
 10
47.77239295945172
 20
16.81715038694728
 30
0.0
 41
1.0
 10
47.94690193871605
 20
16.34781699320225
 30
0.0
 41
1.0
 10
47.9505607703143
 20
16.02689276591895
 30
0.0
 41
1.0
  0
SPLINE
  5
152
330
1F
100
AcDbEntity
  8
2D SEAT & WISHBONE
100
AcDbSpline
210
0.0
220
0.0
230
1.0
 70
     8
 71
     3
 72
    14
 73
    10
 74
     0
 42
0.0000000001
 43
0.0000000001
 40
0.0
 40
0.0
 40
0.0
 40
0.0
 40
1.0
 40
2.0
 40
3.0
 40
4.0
 40
5.0
 40
6.0
 40
7.0
 40
7.0
 40
7.0
 40
7.0
 10
47.9505607703143
 20
16.02689276591895
 30
0.0
 10
47.95135550122728
 20
15.95685204418201
 30
0.0
 10
47.9490361233008
 20
15.81673943766534
 30
0.0
 10
47.92794580994281
 20
15.60727084215224
 30
0.0
 10
47.87882177948347
 20
15.40263251343748
 30
0.0
 10
47.7889330283582
 20
15.20956894728369
 30
0.0
 10
47.62916514861082
 20
15.06591354817849
 30
0.0
 10
47.42264630196833
 20
15.00683129951773
 30
0.0
 10
47.28045093599061
 20
15.0172637596786
 30
0.0
 10
47.21491710530762
 20
15.0436307281334
 30
0.0
  0
SPLINE
  5
153
330
1F
100
AcDbEntity
  8
2D SEAT & WISHBONE
100
AcDbSpline
210
0.0
220
0.0
230
1.0
 70
    12
 71
     2
 72
     6
 73
     3
 74
     0
 42
0.0000000001
 43
0.0000000001
 40
0.0
 40
0.0
 40
0.0
 40
0.3199464223860296
 40
0.3199464223860296
 40
0.3199464223860296
 10
29.7835311019377
 20
17.67067860722596
 30
0.0
 41
1.0
 10
29.94116206870781
 20
17.69968741059268
 30
0.0
 41
0.9971501437526084
 10
30.10136322071867
 20
17.704649592779
 30
0.0
 41
1.0
  0
SPLINE
  5
154
330
1F
100
AcDbEntity
  8
2D armless mesh back
100
AcDbSpline
210
0.0
220
0.0
230
1.0
 70
    12
 71
     2
 72
     6
 73
     3
 74
     0
 42
0.0000000001
 43
0.0000000001
 40
0.0
 40
0.0
 40
0.0
 40
0.0641577844066522
 40
0.0641577844066522
 40
0.0641577844066522
 10
25.89375302824706
 20
15.35793794522182
 30
0.0
 41
1.0
 10
25.86207797218547
 20
15.35286223249649
 30
0.0
 41
0.9999878206848596
 10
25.83035435818388
 20
15.34809942336162
 30
0.0
 41
1.0
  0
SPLINE
  5
155
330
1F
100
AcDbEntity
  8
2D SEAT & WISHBONE
100
AcDbSpline
210
0.0
220
0.0
230
1.0
 70
     8
 71
     3
 72
    14
 73
    10
 74
     0
 42
0.0000000001
 43
0.0000000001
 40
0.0
 40
0.0
 40
0.0
 40
0.0
 40
1.0
 40
2.0
 40
3.0
 40
4.0
 40
5.0
 40
6.0
 40
7.0
 40
7.0
 40
7.0
 40
7.0
 10
27.70483063213314
 20
15.19982127333814
 30
0.0
 10
28.32721623815793
 20
15.19013529778892
 30
0.0
 10
29.56801748499166
 20
15.0790014617338
 30
0.0
 10
31.43362676242953
 20
14.99409080840837
 30
0.0
 10
33.30024854805821
 20
14.93489557340177
 30
0.0
 10
35.1677577656575
 20
14.92405839985985
 30
0.0
 10
37.03520118646387
 20
14.92635941386456
 30
0.0
 10
38.90266242790365
 20
14.92509752955737
 30
0.0
 10
40.14763278330356
 20
14.92499854385822
 30
0.0
 10
40.77011894599002
 20
14.92480059684968
 30
0.0
  0
SPLINE
  5
156
330
1F
100
AcDbEntity
  8
2D SEAT & WISHBONE
100
AcDbSpline
210
0.0
220
0.0
230
1.0
 70
     8
 71
     3
 72
    10
 73
     6
 74
     0
 42
0.0000000001
 43
0.0000000001
 40
0.0
 40
0.0
 40
0.0
 40
0.0
 40
0.0089242210583067
 40
0.0343247094377102
 40
0.0871624794657592
 40
0.0871624794657592
 40
0.0871624794657592
 40
0.0871624794657592
 10
30.10136322071867
 20
17.704649592779
 30
0.0
 10
30.10512739039714
 20
17.70581463515078
 30
0.0
 10
30.11309361935274
 20
17.6972301275616
 30
0.0
 10
30.12119560483774
 20
17.66872901259375
 30
0.0
 10
30.11922855406854
 20
17.64226806664877
 30
0.0
 10
30.11396970475961
 20
17.6253815316864
 30
0.0
  0
SPLINE
  5
157
330
1F
100
AcDbEntity
  8
2D SEAT & WISHBONE
100
AcDbSpline
210
0.0
220
0.0
230
1.0
 70
    24
 71
     2
 72
     6
 73
     3
 74
     0
 42
0.0000000001
 43
0.0000000001
 40
0.0
 40
0.0
 40
0.0
 40
1.266725327321706
 40
1.266725327321706
 40
1.266725327321706
 10
30.11396970475961
 20
17.6253815316864
 30
0.0
 10
29.92137014089213
 20
17.02201292816313
 30
0.0
 10
29.72877057702465
 20
16.41864432463985
 30
0.0
  0
SPLINE
  5
158
330
1F
100
AcDbEntity
  8
2D SEAT & WISHBONE
100
AcDbSpline
210
0.0
220
0.0
230
1.0
 70
     8
 71
     3
 72
    12
 73
     8
 74
     0
 42
0.0000000001
 43
0.0000000001
 40
0.0
 40
0.0
 40
0.0
 40
0.0
 40
0.1693245796659945
 40
0.3228146590128647
 40
0.6179776245970131
 40
0.8556878131679443
 40
0.9926236370015206
 40
0.9926236370015206
 40
0.9926236370015206
 40
0.9926236370015206
 10
29.72877057702465
 20
16.41864432463985
 30
0.0
 10
29.71164425181112
 20
16.36484406045676
 30
0.0
 10
29.6768158127679
 20
16.26305394290774
 30
0.0
 10
29.60116112864955
 20
16.07132710989454
 30
0.0
 10
29.50224311243693
 20
15.86476470914948
 30
0.0
 10
29.3782256853206
 20
15.67793234958021
 30
0.0
 10
29.28295045490781
 20
15.59430127401463
 30
0.0
 10
29.23817728083745
 20
15.58075183502409
 30
0.0
  0
SPLINE
  5
159
330
1F
100
AcDbEntity
  8
2D SEAT & WISHBONE
100
AcDbSpline
210
0.0
220
0.0
230
1.0
 70
     8
 71
     3
 72
    14
 73
    10
 74
     0
 42
0.0000000001
 43
0.0000000001
 40
0.0
 40
0.0
 40
0.0
 40
0.0
 40
1.0
 40
2.0
 40
3.0
 40
4.0
 40
5.0
 40
6.0
 40
7.0
 40
7.0
 40
7.0
 40
7.0
 10
29.23817728083745
 20
15.58075183502409
 30
0.0
 10
29.20522773768624
 20
15.57042005390727
 30
0.0
 10
29.13898012097955
 20
15.5508955022999
 30
0.0
 10
29.0390480808999
 20
15.52359291447934
 30
0.0
 10
28.93888700553353
 20
15.49714969201125
 30
0.0
 10
28.83815548266024
 20
15.47295319717056
 30
0.0
 10
28.73731670018334
 20
15.44923520828824
 30
0.0
 10
28.63625529567516
 20
15.42647321629583
 30
0.0
 10
28.56876035632821
 20
15.41184816598432
 30
0.0
 10
28.53498144482995
 20
15.40468281512192
 30
0.0
  0
SPLINE
  5
15A
330
1F
100
AcDbEntity
  8
2D SEAT & WISHBONE
100
AcDbSpline
210
0.0
220
0.0
230
1.0
 70
    12
 71
     2
 72
     6
 73
     3
 74
     0
 42
0.0000000001
 43
0.0000000001
 40
0.0
 40
0.0
 40
0.0
 40
0.0683225080108007
 40
0.0683225080108007
 40
0.0683225080108007
 10
28.53498144482995
 20
15.40468281512192
 30
0.0
 41
1.0
 10
28.54206935948219
 20
15.43810066660725
 30
0.0
 41
0.9999999635012696
 10
28.54913921540199
 20
15.47152234324512
 30
0.0
 41
1.0
  0
SPLINE
  5
15B
330
1F
100
AcDbEntity
  8
2D armless mesh back
100
AcDbSpline
210
0.0
220
0.0
230
1.0
 70
     8
 71
     3
 72
    12
 73
     8
 74
     0
 42
0.0000000001
 43
0.0000000001
 40
0.0
 40
0.0
 40
0.0
 40
0.0
 40
0.2417752198941064
 40
0.4538960773241859
 40
0.8508813973326683
 40
1.158119201160014
 40
1.425381389695539
 40
1.425381389695539
 40
1.425381389695539
 40
1.425381389695539
 10
27.98464552690449
 20
16.75618593485667
 30
0.0
 10
27.96471232188787
 20
16.67825939495673
 30
0.0
 10
27.9247360360211
 20
16.53182496430853
 30
0.0
 10
27.82278266380128
 20
16.26724284479867
 30
0.0
 10
27.67717358190085
 20
15.99696658387893
 30
0.0
 10
27.46511626565365
 20
15.74895462540791
 30
0.0
 10
27.29155153359346
 20
15.65626306108945
 30
0.0
 10
27.2008252890549
 20
15.63460025567345
 30
0.0
  0
SPLINE
  5
15C
330
1F
100
AcDbEntity
  8
2D armless mesh back
100
AcDbSpline
210
0.0
220
0.0
230
1.0
 70
    12
 71
     2
 72
     6
 73
     3
 74
     0
 42
0.0000000001
 43
0.0000000001
 40
-1.306531290276886
 40
-1.306531290276886
 40
-1.306531290276886
 40
0.0
 40
0.0
 40
0.0
 10
27.2008252890549
 20
15.63460025567345
 30
0.0
 41
1.0
 10
26.55831441744216
 20
15.49420896320319
 30
0.0
 41
0.9999998877082102
 10
25.92021964424353
 20
15.3542406545414
 30
0.0
 41
1.0
  0
ARC
  5
15D
330
1F
100
AcDbEntity
  8
2D SEAT & WISHBONE
100
AcDbCircle
 10
27.71609598730596
 20
19.72068549887261
 30
0.0
 40
4.37345727848227
100
AcDbArc
 50
274.3251132562723
 51
280.8503789372069
  0
SPLINE
  5
15E
330
1F
100
AcDbEntity
  8
2D SEAT & WISHBONE
100
AcDbSpline
210
0.0
220
0.0
230
1.0
 70
    12
 71
     2
 72
     6
 73
     3
 74
     0
 42
0.0000000001
 43
0.0000000001
 40
0.0
 40
0.0
 40
0.0
 40
0.0338601055579185
 40
0.0338601055579185
 40
0.0338601055579185
 10
28.3092809374144
 20
15.38770923775011
 30
0.0
 41
1.0
 10
28.30574667920651
 20
15.37115219371716
 30
0.0
 41
0.9999999971467219
 10
28.30220991954279
 20
15.35459568384129
 30
0.0
 41
1.0
  0
SPLINE
  5
15F
330
1F
100
AcDbEntity
  8
2D SEAT & WISHBONE
100
AcDbSpline
210
0.0
220
0.0
230
1.0
 70
    12
 71
     2
 72
     6
 73
     3
 74
     0
 42
0.0000000001
 43
0.0000000001
 40
0.0
 40
0.0
 40
0.0
 40
0.6507937955218512
 40
0.6507937955218512
 40
0.6507937955218512
 10
28.30220991954279
 20
15.35459568384129
 30
0.0
 41
1.0
 10
27.98328786682855
 20
15.28989134181343
 30
0.0
 41
0.9998952772430454
 10
27.66637198811475
 20
15.21598428258516
 30
0.0
 41
1.0
  0
SPLINE
  5
160
330
1F
100
AcDbEntity
  8
2D armless mesh back
100
AcDbSpline
210
0.0
220
0.0
230
1.0
 70
    24
 71
     2
 72
     6
 73
     3
 74
     0
 42
0.0000000001
 43
0.0000000001
 40
0.0
 40
0.0
 40
0.0
 40
0.0006662040534671
 40
0.0006662040534671
 40
0.0006662040534671
 10
10.06885271557379
 20
71.06625758042352
 30
0.0
 10
10.06889843028302
 20
71.06592763023701
 30
0.0
 10
10.06894414499224
 20
71.06559768005052
 30
0.0
  0
SPLINE
  5
161
330
1F
100
AcDbEntity
  8
2D armless mesh back
100
AcDbSpline
210
0.0
220
0.0
230
1.0
 70
    12
 71
     2
 72
     6
 73
     3
 74
     0
 42
0.0000000001
 43
0.0000000001
 40
0.0
 40
0.0
 40
0.0
 40
0.1630251075438914
 40
0.1630251075438914
 40
0.1630251075438914
 10
10.01972256880181
 20
69.59069276093443
 30
0.0
 41
1.0
 10
9.938212621810973
 20
69.59004069316659
 30
0.0
 41
0.9999999742186023
 10
9.856702387090081
 20
69.58942564311369
 30
0.0
 41
1.0
  0
SPLINE
  5
162
330
1F
100
AcDbEntity
  8
2D armless mesh back
100
AcDbSpline
210
0.0
220
0.0
230
1.0
 70
    12
 71
     2
 72
     6
 73
     3
 74
     0
 42
0.0000000001
 43
0.0000000001
 40
0.0
 40
0.0
 40
0.0
 40
0.1193028500386877
 40
0.1193028500386877
 40
0.1193028500386877
 10
9.8544814983821
 20
69.5894120979646
 30
0.0
 41
1.0
 10
9.78284603879284
 20
69.5906594313095
 30
0.0
 41
0.7667945486891875
 10
9.771469814483495
 20
69.66139680779112
 30
0.0
 41
1.0
  0
SPLINE
  5
163
330
1F
100
AcDbEntity
  8
2D armless mesh back
100
AcDbSpline
210
0.0
220
0.0
230
1.0
 70
    12
 71
     3
 72
    13
 73
     9
 74
     0
 42
0.0000000001
 43
0.0000000001
 40
0.0091302583152926
 40
0.0091302583152926
 40
0.0091302583152926
 40
0.0091302583152926
 40
0.0854528446595586
 40
0.1208617753932337
 40
0.1410607605458096
 40
0.1737672622149848
 40
0.1951254257194246
 40
0.2457863809216682
 40
0.2457863809216682
 40
0.2457863809216682
 40
0.2457863809216682
 10
10.10606475627766
 20
69.70098840200826
 30
0.0
 41
1.0
 10
10.10494036821299
 20
69.6884737484664
 30
0.0
 41
1.0
 10
10.10315256109254
 20
69.67322834914901
 30
0.0
 41
1.0
 10
10.09977788553005
 20
69.65636760556121
 30
0.0
 41
1.0
 10
10.09492300887718
 20
69.6410606214344
 30
0.0
 41
1.0
 10
10.08523272353769
 20
69.622672941201
 30
0.0
 41
1.0
 10
10.06139356342382
 20
69.5996044305539
 30
0.0
 41
1.0
 10
10.03825952335481
 20
69.59128590065816
 30
0.0
 41
1.0
 10
10.02171372705234
 20
69.59073414071486
 30
0.0
 41
1.0
  0
SPLINE
  5
164
330
1F
100
AcDbEntity
  8
2D armless mesh back
100
AcDbSpline
210
0.0
220
0.0
230
1.0
 70
    12
 71
     2
 72
     6
 73
     3
 74
     0
 42
0.0000000001
 43
0.0000000001
 40
0.0
 40
0.0
 40
0.0
 40
0.0827170683285768
 40
0.0827170683285768
 40
0.0827170683285768
 10
10.0664090329636
 20
71.08189333699589
 30
0.0
 41
1.0
 10
10.05957225164517
 20
71.12722519755593
 30
0.0
 41
0.85948244376648
 10
10.01647625545429
 20
71.14286023106878
 30
0.0
 41
1.0
  0
SPLINE
  5
165
330
1F
100
AcDbEntity
  8
2D armless mesh back
100
AcDbSpline
210
0.0
220
0.0
230
1.0
 70
    12
 71
     2
 72
     6
 73
     3
 74
     0
 42
0.0000000001
 43
0.0000000001
 40
0.0
 40
0.0
 40
0.0
 40
0.0158261879341385
 40
0.0158261879341385
 40
0.0158261879341385
 10
10.06882051855597
 20
71.06625307804168
 30
0.0
 41
1.0
 10
10.06777551529281
 20
71.07409799106415
 30
0.0
 41
0.9997888213865792
 10
10.0664090329636
 20
71.08189333699588
 30
0.0
 41
1.0
  0
SPLINE
  5
166
330
1F
100
AcDbEntity
  8
2D armless mesh back
100
AcDbSpline
210
0.0
220
0.0
230
1.0
 70
    12
 71
     2
 72
     6
 73
     3
 74
     0
 42
0.0000000001
 43
0.0000000001
 40
0.0
 40
0.0
 40
0.0
 40
0.1749281713566201
 40
0.1749281713566201
 40
0.1749281713566201
 10
9.852657103335488
 20
71.20420475054307
 30
0.0
 41
1.0
 10
9.93456013951389
 20
71.17351502620156
 30
0.0
 41
0.9999999772690212
 10
10.01647625545426
 20
71.14286023106875
 30
0.0
 41
1.0
  0
SPLINE
  5
167
330
1F
100
AcDbEntity
  8
2D armless mesh back
100
AcDbSpline
210
0.0
220
0.0
230
1.0
 70
    12
 71
     2
 72
     6
 73
     3
 74
     0
 42
0.0000000001
 43
0.0000000001
 40
0.0
 40
0.0
 40
0.0
 40
0.0072259443187668
 40
0.0072259443187668
 40
0.0072259443187668
 10
9.770169200393383
 20
69.66852157116053
 30
0.0
 41
1.0
 10
9.770646248979595
 20
69.6649374170183
 30
0.0
 41
0.9988429536800926
 10
9.77146542393254
 20
69.66141567190184
 30
0.0
 41
1.0
  0
SPLINE
  5
168
330
1F
100
AcDbEntity
  8
2D armless mesh back
100
AcDbSpline
210
0.0
220
0.0
230
1.0
 70
    12
 71
     2
 72
     8
 73
     5
 74
     0
 42
0.0000000001
 43
0.0000000001
 40
0.0
 40
0.0
 40
0.0
 40
0.0782877390267074
 40
0.0782877390267074
 40
0.155382406958311
 40
0.155382406958311
 40
0.155382406958311
 10
9.852657103335503
 20
71.2042047505431
 30
0.0
 41
1.0
 10
9.812825632836585
 20
71.21873236628483
 30
0.0
 41
0.8887474124406275
 10
9.777896496799961
 20
71.19470003146314
 30
0.0
 41
1.0
 10
9.743122642070283
 20
71.17113059789767
 30
0.0
 41
0.8808635705467236
 10
9.743588703908308
 20
71.12912438457488
 30
0.0
 41
1.0
  0
ARC
  5
169
330
1F
100
AcDbEntity
  8
2D armless mesh back
100
AcDbCircle
 10
5.297380337277673
 20
70.24606236783076
 30
0.0
 40
4.837183428245079
100
AcDbArc
 50
354.1275480147919
 51
7.893066409757686
  0
SPLINE
  5
16A
330
1F
100
AcDbEntity
  8
2D armless mesh back
100
AcDbSpline
210
0.0
220
0.0
230
1.0
 70
    12
 71
     2
 72
     6
 73
     3
 74
     0
 42
0.0000000001
 43
0.0000000001
 40
-0.0028497697570865
 40
-0.0028497697570865
 40
-0.0028497697570865
 40
0.0
 40
0.0
 40
0.0
 10
10.10646966265318
 20
69.70559962982993
 30
0.0
 41
1.0
 10
10.10659035271028
 20
69.70701939418682
 30
0.0
 41
0.9999999993314223
 10
10.1067041937951
 20
69.7084400547296
 30
0.0
 41
1.0
  0
SPLINE
  5
16B
330
1F
100
AcDbEntity
  8
2D armless mesh back
100
AcDbSpline
210
0.0
220
0.0
230
1.0
 70
    12
 71
     2
 72
     6
 73
     3
 74
     0
 42
0.0000000001
 43
0.0000000001
 40
0.0
 40
0.0
 40
0.0
 40
0.1798596204140882
 40
0.1798596204140882
 40
0.1798596204140882
 10
10.1067041937951
 20
69.7084400547296
 30
0.0
 41
1.0
 10
10.11249803767345
 20
69.79820588863895
 30
0.0
 41
0.9996272198311836
 10
10.11339020811511
 20
69.88815363176398
 30
0.0
 41
1.0
  0
SPLINE
  5
16C
330
1F
100
AcDbEntity
  8
2D armless mesh back
100
AcDbSpline
210
0.0
220
0.0
230
1.0
 70
    12
 71
     2
 72
     6
 73
     3
 74
     0
 42
0.0000000001
 43
0.0000000001
 40
0.0
 40
0.0
 40
0.0
 40
0.7779621239063368
 40
0.7779621239063368
 40
0.7779621239063368
 10
10.11339020811511
 20
69.88815363176398
 30
0.0
 41
1.0
 10
10.11473010492224
 20
70.27719635709259
 30
0.0
 41
0.999753373040393
 10
10.09879325802948
 20
70.66591483409837
 30
0.0
 41
1.0
  0
SPLINE
  5
16D
330
1F
100
AcDbEntity
  8
2D armless mesh back
100
AcDbSpline
210
0.0
220
0.0
230
1.0
 70
    12
 71
     2
 72
     6
 73
     3
 74
     0
 42
0.0000000001
 43
0.0000000001
 40
0.0
 40
0.0
 40
0.0
 40
0.4008463026983176
 40
0.4008463026983176
 40
0.4008463026983176
 10
10.09879325802948
 20
70.66591483409837
 30
0.0
 41
1.0
 10
10.08946095339096
 20
70.86617327010207
 30
0.0
 41
0.9996063666139346
 10
10.06891105661212
 20
71.06559301547072
 30
0.0
 41
1.0
  0
LINE
  5
16E
330
1F
100
AcDbEntity
  8
2D armless mesh back
100
AcDbLine
 10
9.605477240292899
 20
73.06328205577152
 30
0.0
 11
10.01237276793179
 21
71.31520168062332
 31
0.0
  0
ARC
  5
16F
330
1F
100
AcDbEntity
  8
2D armless mesh back
100
AcDbCircle
 10
-1156.632151207354
 20
-200.2412129456362
 30
0.0
 40
1197.832347052871
100
AcDbArc
 50
13.09208399807594
 51
13.10324856734896
  0
SPLINE
  5
170
330
1F
100
AcDbEntity
  8
2D armless mesh back
100
AcDbSpline
210
0.0
220
0.0
230
1.0
 70
     8
 71
     2
 72
     9
 73
     6
 74
     0
 42
0.0000000001
 43
0.0000000001
 40
0.0
 40
0.0
 40
0.0
 40
1.0
 40
2.0
 40
3.0
 40
4.0
 40
4.0
 40
4.0
 10
9.769523561041375
 20
69.67710677893744
 30
0.0
 10
9.790480536042168
 20
69.82919438252169
 30
0.0
 10
9.778290992434492
 20
70.20931885549551
 30
0.0
 10
9.772099177133633
 20
70.57632756693123
 30
0.0
 10
9.765516870329236
 20
70.94579706114605
 30
0.0
 10
9.743588703908301
 20
71.12912438457488
 30
0.0
  0
SPLINE
  5
171
330
1F
100
AcDbEntity
  8
2D armless mesh back
100
AcDbSpline
210
0.0
220
0.0
230
1.0
 70
    24
 71
     2
 72
     6
 73
     3
 74
     0
 42
0.0000000001
 43
0.0000000001
 40
0.0
 40
0.0
 40
0.0
 40
0.0006662040534671
 40
0.0006662040534671
 40
0.0006662040534671
 10
-10.0688527155712
 20
71.06625758042352
 30
0.0
 10
-10.06889843028043
 20
71.06592763023701
 30
0.0
 10
-10.06894414498966
 20
71.06559768005052
 30
0.0
  0
SPLINE
  5
172
330
1F
100
AcDbEntity
  8
2D armless mesh back
100
AcDbSpline
210
0.0
220
0.0
230
1.0
 70
    12
 71
     2
 72
     6
 73
     3
 74
     0
 42
0.0000000001
 43
0.0000000001
 40
0.0
 40
0.0
 40
0.0
 40
0.1630251075438914
 40
0.1630251075438914
 40
0.1630251075438914
 10
-10.01972256879922
 20
69.59069276093443
 30
0.0
 41
1.0
 10
-9.93821262180839
 20
69.59004069316659
 30
0.0
 41
0.9999999742186023
 10
-9.856702387087495
 20
69.58942564311369
 30
0.0
 41
1.0
  0
SPLINE
  5
173
330
1F
100
AcDbEntity
  8
2D armless mesh back
100
AcDbSpline
210
0.0
220
0.0
230
1.0
 70
    12
 71
     2
 72
     6
 73
     3
 74
     0
 42
0.0000000001
 43
0.0000000001
 40
0.0
 40
0.0
 40
0.0
 40
0.1193028500386877
 40
0.1193028500386877
 40
0.1193028500386877
 10
-9.854481498379513
 20
69.5894120979646
 30
0.0
 41
1.0
 10
-9.782846038790256
 20
69.5906594313095
 30
0.0
 41
0.7667945486891875
 10
-9.77146981448091
 20
69.66139680779112
 30
0.0
 41
1.0
  0
SPLINE
  5
174
330
1F
100
AcDbEntity
  8
2D armless mesh back
100
AcDbSpline
210
0.0
220
0.0
230
1.0
 70
    12
 71
     3
 72
    13
 73
     9
 74
     0
 42
0.0000000001
 43
0.0000000001
 40
0.0091302583152926
 40
0.0091302583152926
 40
0.0091302583152926
 40
0.0091302583152926
 40
0.0854528446595586
 40
0.1208617753932337
 40
0.1410607605458096
 40
0.1737672622149848
 40
0.1951254257194246
 40
0.2457863809216682
 40
0.2457863809216682
 40
0.2457863809216682
 40
0.2457863809216682
 10
-10.10606475627507
 20
69.70098840200826
 30
0.0
 41
1.0
 10
-10.10494036821041
 20
69.6884737484664
 30
0.0
 41
1.0
 10
-10.10315256108995
 20
69.67322834914901
 30
0.0
 41
1.0
 10
-10.09977788552746
 20
69.65636760556121
 30
0.0
 41
1.0
 10
-10.09492300887459
 20
69.6410606214344
 30
0.0
 41
1.0
 10
-10.0852327235351
 20
69.622672941201
 30
0.0
 41
1.0
 10
-10.06139356342123
 20
69.5996044305539
 30
0.0
 41
1.0
 10
-10.03825952335222
 20
69.59128590065816
 30
0.0
 41
1.0
 10
-10.02171372704976
 20
69.59073414071486
 30
0.0
 41
1.0
  0
SPLINE
  5
175
330
1F
100
AcDbEntity
  8
2D armless mesh back
100
AcDbSpline
210
0.0
220
0.0
230
1.0
 70
    12
 71
     2
 72
     6
 73
     3
 74
     0
 42
0.0000000001
 43
0.0000000001
 40
0.0
 40
0.0
 40
0.0
 40
0.0827170683285768
 40
0.0827170683285768
 40
0.0827170683285768
 10
-10.06640903296101
 20
71.08189333699589
 30
0.0
 41
1.0
 10
-10.05957225164259
 20
71.12722519755593
 30
0.0
 41
0.85948244376648
 10
-10.0164762554517
 20
71.14286023106878
 30
0.0
 41
1.0
  0
SPLINE
  5
176
330
1F
100
AcDbEntity
  8
2D armless mesh back
100
AcDbSpline
210
0.0
220
0.0
230
1.0
 70
    12
 71
     2
 72
     6
 73
     3
 74
     0
 42
0.0000000001
 43
0.0000000001
 40
0.0
 40
0.0
 40
0.0
 40
0.0158261879341385
 40
0.0158261879341385
 40
0.0158261879341385
 10
-10.06882051855339
 20
71.06625307804168
 30
0.0
 41
1.0
 10
-10.06777551529022
 20
71.07409799106415
 30
0.0
 41
0.9997888213865792
 10
-10.06640903296101
 20
71.08189333699588
 30
0.0
 41
1.0
  0
SPLINE
  5
177
330
1F
100
AcDbEntity
  8
2D armless mesh back
100
AcDbSpline
210
0.0
220
0.0
230
1.0
 70
    12
 71
     2
 72
     6
 73
     3
 74
     0
 42
0.0000000001
 43
0.0000000001
 40
0.0
 40
0.0
 40
0.0
 40
0.1749281713566201
 40
0.1749281713566201
 40
0.1749281713566201
 10
-9.852657103332902
 20
71.20420475054307
 30
0.0
 41
1.0
 10
-9.9345601395113
 20
71.17351502620156
 30
0.0
 41
0.9999999772690212
 10
-10.01647625545168
 20
71.14286023106875
 30
0.0
 41
1.0
  0
SPLINE
  5
178
330
1F
100
AcDbEntity
  8
2D armless mesh back
100
AcDbSpline
210
0.0
220
0.0
230
1.0
 70
    12
 71
     2
 72
     6
 73
     3
 74
     0
 42
0.0000000001
 43
0.0000000001
 40
0.0
 40
0.0
 40
0.0
 40
0.0072259443187668
 40
0.0072259443187668
 40
0.0072259443187668
 10
-9.770169200390797
 20
69.66852157116053
 30
0.0
 41
1.0
 10
-9.770646248977002
 20
69.6649374170183
 30
0.0
 41
0.9988429536800926
 10
-9.771465423929953
 20
69.66141567190184
 30
0.0
 41
1.0
  0
SPLINE
  5
179
330
1F
100
AcDbEntity
  8
2D armless mesh back
100
AcDbSpline
210
0.0
220
0.0
230
1.0
 70
    12
 71
     2
 72
     8
 73
     5
 74
     0
 42
0.0000000001
 43
0.0000000001
 40
0.0
 40
0.0
 40
0.0
 40
0.0782877390267074
 40
0.0782877390267074
 40
0.155382406958311
 40
0.155382406958311
 40
0.155382406958311
 10
-9.852657103332916
 20
71.2042047505431
 30
0.0
 41
1.0
 10
-9.812825632834002
 20
71.21873236628483
 30
0.0
 41
0.8887474124406275
 10
-9.777896496797375
 20
71.19470003146314
 30
0.0
 41
1.0
 10
-9.743122642067698
 20
71.17113059789767
 30
0.0
 41
0.8808635705467236
 10
-9.743588703905722
 20
71.12912438457488
 30
0.0
 41
1.0
  0
ARC
  5
17A
330
1F
100
AcDbEntity
  8
2D armless mesh back
100
AcDbCircle
 10
-5.297380337275087
 20
70.24606236783076
 30
0.0
 40
4.837183428245079
100
AcDbArc
 50
172.1069335902423
 51
185.8724519852081
  0
SPLINE
  5
17B
330
1F
100
AcDbEntity
  8
2D armless mesh back
100
AcDbSpline
210
0.0
220
0.0
230
1.0
 70
    12
 71
     2
 72
     6
 73
     3
 74
     0
 42
0.0000000001
 43
0.0000000001
 40
-0.0028497697570865
 40
-0.0028497697570865
 40
-0.0028497697570865
 40
0.0
 40
0.0
 40
0.0
 10
-10.10646966265059
 20
69.70559962982993
 30
0.0
 41
1.0
 10
-10.10659035270769
 20
69.70701939418682
 30
0.0
 41
0.9999999993314223
 10
-10.10670419379252
 20
69.7084400547296
 30
0.0
 41
1.0
  0
SPLINE
  5
17C
330
1F
100
AcDbEntity
  8
2D armless mesh back
100
AcDbSpline
210
0.0
220
0.0
230
1.0
 70
    12
 71
     2
 72
     6
 73
     3
 74
     0
 42
0.0000000001
 43
0.0000000001
 40
0.0
 40
0.0
 40
0.0
 40
0.1798596204140882
 40
0.1798596204140882
 40
0.1798596204140882
 10
-10.10670419379252
 20
69.7084400547296
 30
0.0
 41
1.0
 10
-10.11249803767086
 20
69.79820588863895
 30
0.0
 41
0.9996272198311836
 10
-10.11339020811252
 20
69.88815363176398
 30
0.0
 41
1.0
  0
SPLINE
  5
17D
330
1F
100
AcDbEntity
  8
2D armless mesh back
100
AcDbSpline
210
0.0
220
0.0
230
1.0
 70
    12
 71
     2
 72
     6
 73
     3
 74
     0
 42
0.0000000001
 43
0.0000000001
 40
0.0
 40
0.0
 40
0.0
 40
0.7779621239063368
 40
0.7779621239063368
 40
0.7779621239063368
 10
-10.11339020811252
 20
69.88815363176398
 30
0.0
 41
1.0
 10
-10.11473010491965
 20
70.27719635709259
 30
0.0
 41
0.999753373040393
 10
-10.09879325802689
 20
70.66591483409837
 30
0.0
 41
1.0
  0
SPLINE
  5
17E
330
1F
100
AcDbEntity
  8
2D armless mesh back
100
AcDbSpline
210
0.0
220
0.0
230
1.0
 70
    12
 71
     2
 72
     6
 73
     3
 74
     0
 42
0.0000000001
 43
0.0000000001
 40
0.0
 40
0.0
 40
0.0
 40
0.4008463026983176
 40
0.4008463026983176
 40
0.4008463026983176
 10
-10.09879325802689
 20
70.66591483409837
 30
0.0
 41
1.0
 10
-10.08946095338838
 20
70.86617327010207
 30
0.0
 41
0.9996063666139346
 10
-10.06891105660953
 20
71.06559301547072
 30
0.0
 41
1.0
  0
LINE
  5
17F
330
1F
100
AcDbEntity
  8
2D armless mesh back
100
AcDbLine
 10
-9.605477240290313
 20
73.06328205577152
 30
0.0
 11
-10.0123727679292
 21
71.31520168062332
 31
0.0
  0
ARC
  5
180
330
1F
100
AcDbEntity
  8
2D armless mesh back
100
AcDbCircle
 10
1156.632151207356
 20
-200.2412129456362
 30
0.0
 40
1197.832347052871
100
AcDbArc
 50
166.896751432651
 51
166.9079160019241
  0
SPLINE
  5
181
330
1F
100
AcDbEntity
  8
2D armless mesh back
100
AcDbSpline
210
0.0
220
0.0
230
1.0
 70
     8
 71
     2
 72
     9
 73
     6
 74
     0
 42
0.0000000001
 43
0.0000000001
 40
0.0
 40
0.0
 40
0.0
 40
1.0
 40
2.0
 40
3.0
 40
4.0
 40
4.0
 40
4.0
 10
-9.769523561038788
 20
69.67710677893744
 30
0.0
 10
-9.790480536039581
 20
69.82919438252169
 30
0.0
 10
-9.778290992431906
 20
70.20931885549551
 30
0.0
 10
-9.772099177131047
 20
70.57632756693123
 30
0.0
 10
-9.76551687032665
 20
70.94579706114605
 30
0.0
 10
-9.743588703905715
 20
71.12912438457488
 30
0.0
  0
LINE
  5
182
330
1F
100
AcDbEntity
  8
2D SEAT & WISHBONE
100
AcDbLine
 10
33.70922201769924
 20
12.66205283434556
 30
0.0
 11
33.52517587652714
 21
12.75231915127672
 31
0.0
  0
SPLINE
  5
183
330
1F
100
AcDbEntity
  8
2D SEAT & WISHBONE
100
AcDbSpline
210
0.0
220
0.0
230
1.0
 70
     8
 71
     3
 72
     8
 73
     4
 74
     0
 42
0.0000000001
 43
0.0000000001
 40
-1.0
 40
-1.0
 40
-1.0
 40
-1.0
 40
0.0
 40
0.0
 40
0.0
 40
0.0
 10
-10.19768541503932
 20
17.70406111927264
 30
0.0
 10
-10.20021208240998
 20
17.74450804059817
 30
0.0
 10
-10.15870719163723
 20
17.7961251196796
 30
0.0
 10
-10.11818151710298
 20
17.79604028891105
 30
0.0
  0
SPLINE
  5
184
330
1F
100
AcDbEntity
  8
2D SEAT & WISHBONE
100
AcDbSpline
210
0.0
220
0.0
230
1.0
 70
     8
 71
     3
 72
     8
 73
     4
 74
     0
 42
0.0000000001
 43
0.0000000001
 40
0.0
 40
0.0
 40
0.0
 40
0.0
 40
1.0
 40
1.0
 40
1.0
 40
1.0
 10
10.11818151710298
 20
17.79604028891105
 30
0.0
 10
10.15870719163723
 20
17.7961251196796
 30
0.0
 10
10.20021208240998
 20
17.74450804059817
 30
0.0
 10
10.19768541503932
 20
17.70406111927264
 30
0.0
  0
SPLINE
  5
185
330
1F
100
AcDbEntity
  8
2D SEAT & WISHBONE
100
AcDbSpline
210
0.0
220
0.0
230
1.0
 70
    12
 71
     2
 72
     6
 73
     3
 74
     0
 42
0.0000000001
 43
0.0000000001
 40
0.0
 40
0.0
 40
0.0
 40
2.368192032391631
 40
2.368192032391631
 40
2.368192032391631
 10
7.749995639061581
 20
17.78882803241358
 30
0.0
 41
1.0
 10
8.93408774045578
 20
17.79356167291619
 30
0.0
 41
0.9999995507432407
 10
10.11818151710298
 20
17.79604028891105
 30
0.0
 41
1.0
  0
SPLINE
  5
186
330
1F
100
AcDbEntity
  8
2D SEAT & WISHBONE
100
AcDbSpline
210
0.0
220
0.0
230
1.0
 70
    12
 71
     2
 72
     6
 73
     3
 74
     0
 42
0.0000000001
 43
0.0000000001
 40
0.0
 40
0.0
 40
0.0
 40
7.750035457345537
 40
7.750035457345537
 40
7.750035457345537
 10
0.0
 20
17.76542269539641
 30
0.0
 41
1.0
 10
3.875027230331843
 20
17.76652420525994
 30
0.0
 41
0.9999962613668913
 10
7.749995639061581
 20
17.78882803241358
 30
0.0
 41
1.0
  0
SPLINE
  5
187
330
1F
100
AcDbEntity
  8
2D SEAT & WISHBONE
100
AcDbSpline
210
0.0
220
0.0
230
1.0
 70
    12
 71
     2
 72
     6
 73
     3
 74
     0
 42
0.0000000001
 43
0.0000000001
 40
-7.750035457345537
 40
-7.750035457345537
 40
-7.750035457345537
 40
0.0
 40
0.0
 40
0.0
 10
-7.749995639061581
 20
17.78882803241358
 30
0.0
 41
1.0
 10
-3.875027230331846
 20
17.76652420525994
 30
0.0
 41
0.9999962613668913
 10
0.0
 20
17.76542269539641
 30
0.0
 41
1.0
  0
SPLINE
  5
188
330
1F
100
AcDbEntity
  8
2D SEAT & WISHBONE
100
AcDbSpline
210
0.0
220
0.0
230
1.0
 70
    12
 71
     2
 72
     6
 73
     3
 74
     0
 42
0.0000000001
 43
0.0000000001
 40
-2.368192032391631
 40
-2.368192032391631
 40
-2.368192032391631
 40
0.0
 40
0.0
 40
0.0
 10
-10.11818151710298
 20
17.79604028891105
 30
0.0
 41
1.0
 10
-8.934087740455784
 20
17.79356167291619
 30
0.0
 41
0.9999995507432407
 10
-7.749995639061581
 20
17.78882803241358
 30
0.0
 41
1.0
  0
SPLINE
  5
189
330
1F
100
AcDbEntity
  8
2D SEAT & WISHBONE
100
AcDbSpline
210
0.0
220
0.0
230
1.0
 70
     8
 71
     2
 72
    13
 73
    10
 74
     0
 42
0.0000000001
 43
0.0000000001
 40
-8.0
 40
-8.0
 40
-8.0
 40
-7.0
 40
-6.0
 40
-5.0
 40
-4.0
 40
-3.0
 40
-2.0
 40
-1.0
 40
0.0
 40
0.0
 40
0.0
 10
-9.695709443825962
 20
15.71572812088699
 30
0.0
 10
-9.815336817028609
 20
15.77892736065318
 30
0.0
 10
-10.00159047124827
 20
16.00706456090303
 30
0.0
 10
-10.07826911173949
 20
16.26079734441238
 30
0.0
 10
-10.12113217411939
 20
16.52085023262666
 30
0.0
 10
-10.14074949942508
 20
16.78368272953237
 30
0.0
 10
-10.156583176711
 20
17.04666555818994
 30
0.0
 10
-10.17307846287665
 20
17.30962181815777
 30
0.0
 10
-10.18947207582328
 20
17.57258188740087
 30
0.0
 10
-10.19768541503932
 20
17.70406111927264
 30
0.0
  0
SPLINE
  5
18A
330
1F
100
AcDbEntity
  8
2D SEAT & WISHBONE
100
AcDbSpline
210
0.0
220
0.0
230
1.0
 70
     8
 71
     2
 72
    18
 73
    15
 74
     0
 42
0.0000000001
 43
0.0000000001
 40
0.0
 40
0.0
 40
0.0
 40
1.0
 40
2.0
 40
3.0
 40
4.0
 40
5.0
 40
6.0
 40
7.0
 40
8.0
 40
9.0
 40
10.0
 40
11.0
 40
12.0
 40
13.0
 40
13.0
 40
13.0
 10
0.0
 20
15.02034564591049
 30
0.0
 10
-0.3762098939824199
 20
15.02027868260876
 30
0.0
 10
-1.128627238563489
 20
15.0184466080611
 30
0.0
 10
-1.881044379254462
 20
15.01651771005793
 30
0.0
 10
-2.63346447287649
 20
15.01608892020917
 30
0.0
 10
-3.385880701438261
 20
15.01876464326445
 30
0.0
 10
-4.138267707079926
 20
15.026140883906
 30
0.0
 10
-4.890566443975572
 20
15.03990085279441
 30
0.0
 10
-5.642690414035656
 20
15.06130050937205
 30
0.0
 10
-6.394443180968011
 20
15.09331512634108
 30
0.0
 10
-7.145726147457616
 20
15.13442853277704
 30
0.0
 10
-7.895888428888995
 20
15.19687558034073
 30
0.0
 10
-8.636020768408954
 20
15.33429617622023
 30
0.0
 10
-9.362102211699558
 20
15.53948314545669
 30
0.0
 10
-9.695709443825962
 20
15.71572812088699
 30
0.0
  0
SPLINE
  5
18B
330
1F
100
AcDbEntity
  8
2D SEAT & WISHBONE
100
AcDbSpline
210
0.0
220
0.0
230
1.0
 70
     8
 71
     2
 72
    18
 73
    15
 74
     0
 42
0.0000000001
 43
0.0000000001
 40
-13.0
 40
-13.0
 40
-13.0
 40
-12.0
 40
-11.0
 40
-10.0
 40
-9.0
 40
-8.0
 40
-7.0
 40
-6.0
 40
-5.0
 40
-4.0
 40
-3.0
 40
-2.0
 40
-1.0
 40
0.0
 40
0.0
 40
0.0
 10
9.695709443825962
 20
15.71572812088699
 30
0.0
 10
9.362102211699558
 20
15.53948314545669
 30
0.0
 10
8.636020768408954
 20
15.33429617622023
 30
0.0
 10
7.895888428888995
 20
15.19687558034073
 30
0.0
 10
7.145726147457616
 20
15.13442853277704
 30
0.0
 10
6.394443180968011
 20
15.09331512634108
 30
0.0
 10
5.642690414035656
 20
15.06130050937205
 30
0.0
 10
4.890566443975572
 20
15.03990085279441
 30
0.0
 10
4.138267707079926
 20
15.026140883906
 30
0.0
 10
3.385880701438261
 20
15.01876464326445
 30
0.0
 10
2.63346447287649
 20
15.01608892020917
 30
0.0
 10
1.881044379254462
 20
15.01651771005793
 30
0.0
 10
1.128627238563489
 20
15.0184466080611
 30
0.0
 10
0.3762098939824199
 20
15.02027868260876
 30
0.0
 10
0.0
 20
15.02034564591049
 30
0.0
  0
SPLINE
  5
18C
330
1F
100
AcDbEntity
  8
2D SEAT & WISHBONE
100
AcDbSpline
210
0.0
220
0.0
230
1.0
 70
     8
 71
     2
 72
    13
 73
    10
 74
     0
 42
0.0000000001
 43
0.0000000001
 40
0.0
 40
0.0
 40
0.0
 40
1.0
 40
2.0
 40
3.0
 40
4.0
 40
5.0
 40
6.0
 40
7.0
 40
8.0
 40
8.0
 40
8.0
 10
10.19768541503932
 20
17.70406111927264
 30
0.0
 10
10.18947207582328
 20
17.57258188740087
 30
0.0
 10
10.17307846287665
 20
17.30962181815777
 30
0.0
 10
10.156583176711
 20
17.04666555818994
 30
0.0
 10
10.14074949942508
 20
16.78368272953237
 30
0.0
 10
10.12113217411939
 20
16.52085023262666
 30
0.0
 10
10.07826911173949
 20
16.26079734441238
 30
0.0
 10
10.00159047124827
 20
16.00706456090303
 30
0.0
 10
9.815336817028609
 20
15.77892736065318
 30
0.0
 10
9.695709443825962
 20
15.71572812088699
 30
0.0
  0
ENDSEC
  0
SECTION
  2
OBJECTS
  0
DICTIONARY
  5
C
330
0
100
AcDbDictionary
281
     1
  3
ACAD_GROUP
350
D
  3
ACAD_LAYOUT
350
1A
  3
ACAD_MLEADERSTYLE
350
18E
  3
ACAD_MLINESTYLE
350
17
  3
ACAD_PLOTSETTINGS
350
19
  3
ACAD_PLOTSTYLENAME
350
E
  3
ACAD_TABLESTYLE
350
18D
  3
ACAD_VISUALSTYLE
350
2A
  0
DICTIONARY
  5
D
102
{ACAD_REACTORS
330
C
102
}
330
C
100
AcDbDictionary
281
     1
  0
DICTIONARY
  5
1A
102
{ACAD_REACTORS
330
C
102
}
330
C
100
AcDbDictionary
281
     1
  3
Layout1
350
1E
  3
Layout2
350
26
  3
Model
350
22
  0
DICTIONARY
  5
18E
102
{ACAD_REACTORS
330
C
102
}
330
C
100
AcDbDictionary
281
     1
  0
DICTIONARY
  5
17
102
{ACAD_REACTORS
330
C
102
}
330
C
100
AcDbDictionary
281
     1
  3
Standard
350
18
  0
DICTIONARY
  5
19
102
{ACAD_REACTORS
330
C
102
}
330
C
100
AcDbDictionary
281
     1
  0
ACDBDICTIONARYWDFLT
  5
E
102
{ACAD_REACTORS
330
C
102
}
330
C
100
AcDbDictionary
281
     1
  3
Normal
350
F
100
AcDbDictionaryWithDefault
340
F
  0
DICTIONARY
  5
18D
102
{ACAD_REACTORS
330
C
102
}
330
C
100
AcDbDictionary
281
     1
  0
DICTIONARY
  5
2A
102
{ACAD_REACTORS
330
C
102
}
330
C
100
AcDbDictionary
281
     1
  3
2dWireframe
350
2F
  3
3D Hidden
350
31
  3
3dWireframe
350
30
  3
Basic
350
32
  3
Brighten
350
36
  3
ColorChange
350
3A
  3
Conceptual
350
34
  3
Dim
350
35
  3
Facepattern
350
39
  3
Flat
350
2B
  3
FlatWithEdges
350
2C
  3
Gouraud
350
2D
  3
GouraudWithEdges
350
2E
  3
Linepattern
350
38
  3
Realistic
350
33
  3
Thicken
350
37
  0
LAYOUT
  5
1E
102
{ACAD_REACTORS
330
1A
102
}
330
1A
100
AcDbPlotSettings
  1

  2
none_device
  4

  6

 40
0.0
 41
0.0
 42
0.0
 43
0.0
 44
0.0
 45
0.0
 46
0.0
 47
0.0
 48
0.0
 49
0.0
140
0.0
141
0.0
142
1.0
143
1.0
 70
   688
 72
     0
 73
     0
 74
     5
  7

 75
    16
 76
     0
 77
     2
 78
   300
147
1.0
148
0.0
149
0.0
100
AcDbLayout
  1
Layout1
 70
     1
 71
     1
 10
0.0
 20
0.0
 11
12.0
 21
9.0
 12
0.0
 22
0.0
 32
0.0
 14
1.000000000000000E+20
 24
1.000000000000000E+20
 34
1.000000000000000E+20
 15
-1.000000000000000E+20
 25
-1.000000000000000E+20
 35
-1.000000000000000E+20
146
0.0
 13
0.0
 23
0.0
 33
0.0
 16
1.0
 26
0.0
 36
0.0
 17
0.0
 27
1.0
 37
0.0
 76
     0
330
1B
  0
LAYOUT
  5
26
102
{ACAD_REACTORS
330
1A
102
}
330
1A
100
AcDbPlotSettings
  1

  2
none_device
  4

  6

 40
0.0
 41
0.0
 42
0.0
 43
0.0
 44
0.0
 45
0.0
 46
0.0
 47
0.0
 48
0.0
 49
0.0
140
0.0
141
0.0
142
1.0
143
1.0
 70
   688
 72
     0
 73
     0
 74
     5
  7

 75
    16
 76
     0
 77
     2
 78
   300
147
1.0
148
0.0
149
0.0
100
AcDbLayout
  1
Layout2
 70
     1
 71
     2
 10
0.0
 20
0.0
 11
0.0
 21
0.0
 12
0.0
 22
0.0
 32
0.0
 14
0.0
 24
0.0
 34
0.0
 15
0.0
 25
0.0
 35
0.0
146
0.0
 13
0.0
 23
0.0
 33
0.0
 16
1.0
 26
0.0
 36
0.0
 17
0.0
 27
1.0
 37
0.0
 76
     0
330
23
  0
LAYOUT
  5
22
102
{ACAD_REACTORS
330
1A
102
}
330
1A
100
AcDbPlotSettings
  1

  2
none_device
  4

  6

 40
0.0
 41
0.0
 42
0.0
 43
0.0
 44
0.0
 45
0.0
 46
0.0
 47
0.0
 48
0.0
 49
0.0
140
0.0
141
0.0
142
1.0
143
1.0
 70
  1712
 72
     0
 73
     0
 74
     0
  7

 75
     0
 76
     0
 77
     2
 78
   300
147
1.0
148
0.0
149
0.0
100
AcDbLayout
  1
Model
 70
     1
 71
     0
 10
0.0
 20
0.0
 11
12.0
 21
9.0
 12
0.0
 22
0.0
 32
0.0
 14
-10.19768541503932
 24
-0.0000000000000017
 34
0.0
 15
47.9505607703143
 25
75.46488827118316
 35
0.0
146
0.0
 13
0.0
 23
0.0
 33
0.0
 16
1.0
 26
0.0
 36
0.0
 17
0.0
 27
1.0
 37
0.0
 76
     0
330
1F
331
29
  0
MLINESTYLE
  5
18
102
{ACAD_REACTORS
330
17
102
}
330
17
100
AcDbMlineStyle
  2
Standard
 70
     0
  3

 62
   256
 51
90.0
 52
90.0
 71
     2
 49
0.5
 62
   256
  6
BYLAYER
 49
-0.5
 62
   256
  6
BYLAYER
  0
ACDBPLACEHOLDER
  5
F
102
{ACAD_REACTORS
330
E
102
}
330
E
  0
VISUALSTYLE
  5
2F
102
{ACAD_REACTORS
330
2A
102
}
330
2A
100
AcDbVisualStyle
  2
2dWireframe
 70
     4
 71
     0
 72
     2
 73
     0
 90
        0
 40
-0.6
 41
-30.0
 62
     5
 63
     7
421
 16777215
 74
     1
 91
        4
 64
     7
 65
   257
 75
     1
175
     1
 42
1.0
 92
        0
 66
   257
 43
1.0
 76
     1
 77
     6
 78
     2
 67
     7
 79
     5
170
     0
171
     0
290
     0
174
     0
 93
        1
 44
0.0
173
     0
291
     0
 45
0.0
1001
ACAD
1000
AcDbSavedByObjectVersion
1070
     0
  0
VISUALSTYLE
  5
31
102
{ACAD_REACTORS
330
2A
102
}
330
2A
100
AcDbVisualStyle
  2
3D Hidden
 70
     6
 71
     1
 72
     2
 73
     2
 90
        0
 40
-0.6
 41
-30.0
 62
     5
 63
     7
421
 16777215
 74
     2
 91
        2
 64
     7
 65
   257
 75
     2
175
     1
 42
40.0
 92
        0
 66
   257
 43
1.0
 76
     1
 77
     6
 78
     2
 67
     7
 79
     3
170
     0
171
     0
290
     0
174
     0
 93
        1
 44
0.0
173
     0
291
     0
 45
0.0
1001
ACAD
1000
AcDbSavedByObjectVersion
1070
     0
  0
VISUALSTYLE
  5
30
102
{ACAD_REACTORS
330
2A
102
}
330
2A
100
AcDbVisualStyle
  2
3dWireframe
 70
     5
 71
     0
 72
     2
 73
     0
 90
        0
 40
-0.6
 41
-30.0
 62
     5
 63
     7
421
 16777215
 74
     1
 91
        4
 64
     7
 65
   257
 75
     1
175
     1
 42
1.0
 92
        0
 66
   257
 43
1.0
 76
     1
 77
     6
 78
     2
 67
     7
 79
     5
170
     0
171
     0
290
     0
174
     0
 93
        1
 44
0.0
173
     0
291
     0
 45
0.0
1001
ACAD
1000
AcDbSavedByObjectVersion
1070
     0
  0
VISUALSTYLE
  5
32
102
{ACAD_REACTORS
330
2A
102
}
330
2A
100
AcDbVisualStyle
  2
Basic
 70
     7
 71
     1
 72
     0
 73
     1
 90
        0
 40
-0.6
 41
-30.0
 62
     5
 63
     7
421
 16777215
 74
     0
 91
        4
 64
     7
 65
   257
 75
     1
175
     1
 42
1.0
 92
        8
 66
     7
 43
1.0
 76
     1
 77
     6
 78
     2
 67
     7
 79
     5
170
     0
171
     0
290
     0
174
     0
 93
        1
 44
0.0
173
     0
291
     1
 45
0.0
1001
ACAD
1000
AcDbSavedByObjectVersion
1070
     0
  0
VISUALSTYLE
  5
36
102
{ACAD_REACTORS
330
2A
102
}
330
2A
100
AcDbVisualStyle
  2
Brighten
 70
    12
 71
     2
 72
     2
 73
     0
 90
        0
 40
-0.6
 41
-30.0
 62
     5
 63
     7
421
 16777215
 74
     1
 91
        4
 64
     7
 65
   257
 75
     1
175
     1
 42
1.0
 92
        8
 66
     7
 43
1.0
 76
     1
 77
     6
 78
     2
 67
     7
 79
     5
170
     0
171
     0
290
     0
174
     0
 93
        1
 44
50.0
173
     0
291
     1
 45
0.0
1001
ACAD
1000
AcDbSavedByObjectVersion
1070
     0
  0
VISUALSTYLE
  5
3A
102
{ACAD_REACTORS
330
2A
102
}
330
2A
100
AcDbVisualStyle
  2
ColorChange
 70
    16
 71
     2
 72
     2
 73
     3
 90
        0
 40
-0.6
 41
-30.0
 62
     5
 63
     8
421
  8421504
 74
     1
 91
        4
 64
     7
 65
   257
 75
     1
175
     1
 42
1.0
 92
        8
 66
     8
424
  8421504
 43
1.0
 76
     1
 77
     6
 78
     2
 67
     7
 79
     5
170
     0
171
     0
290
     0
174
     0
 93
        1
 44
0.0
173
     0
291
     1
 45
0.0
1001
ACAD
1000
AcDbSavedByObjectVersion
1070
     0
  0
VISUALSTYLE
  5
34
102
{ACAD_REACTORS
330
2A
102
}
330
2A
100
AcDbVisualStyle
  2
Conceptual
 70
     9
 71
     3
 72
     2
 73
     0
 90
        0
 40
-0.6
 41
-30.0
 62
     5
 63
     7
421
 16777215
 74
     2
 91
        2
 64
     7
 65
   257
 75
     1
175
     1
 42
40.0
 92
        8
 66
     7
 43
1.0
 76
     1
 77
     6
 78
     2
 67
     7
 79
     3
170
     0
171
     0
290
     0
174
     0
 93
        1
 44
0.0
173
     0
291
     0
 45
0.0
1001
ACAD
1000
AcDbSavedByObjectVersion
1070
     0
  0
VISUALSTYLE
  5
35
102
{ACAD_REACTORS
330
2A
102
}
330
2A
100
AcDbVisualStyle
  2
Dim
 70
    11
 71
     2
 72
     2
 73
     0
 90
        0
 40
-0.6
 41
-30.0
 62
     5
 63
     7
421
 16777215
 74
     1
 91
        4
 64
     7
 65
   257
 75
     1
175
     1
 42
1.0
 92
        8
 66
     7
 43
1.0
 76
     1
 77
     6
 78
     2
 67
     7
 79
     5
170
     0
171
     0
290
     0
174
     0
 93
        1
 44
-50.0
173
     0
291
     1
 45
0.0
1001
ACAD
1000
AcDbSavedByObjectVersion
1070
     0
  0
VISUALSTYLE
  5
39
102
{ACAD_REACTORS
330
2A
102
}
330
2A
100
AcDbVisualStyle
  2
Facepattern
 70
    15
 71
     2
 72
     2
 73
     0
 90
        0
 40
-0.6
 41
-30.0
 62
     5
 63
     7
421
 16777215
 74
     1
 91
        4
 64
     7
 65
   257
 75
     1
175
     1
 42
1.0
 92
        8
 66
     7
 43
1.0
 76
     1
 77
     6
 78
     2
 67
     7
 79
     5
170
     0
171
     0
290
     0
174
     0
 93
        1
 44
0.0
173
     0
291
     1
 45
0.0
1001
ACAD
1000
AcDbSavedByObjectVersion
1070
     0
  0
VISUALSTYLE
  5
2B
102
{ACAD_REACTORS
330
2A
102
}
330
2A
100
AcDbVisualStyle
  2
Flat
 70
     0
 71
     2
 72
     1
 73
     1
 90
        2
 40
-0.6
 41
30.0
 62
     5
 63
     7
421
 16777215
 74
     0
 91
        4
 64
     7
 65
   257
 75
     1
175
     1
 42
1.0
 92
        8
 66
     7
 43
1.0
 76
     1
 77
     6
 78
     2
 67
     7
 79
     5
170
     0
171
     0
290
     0
174
     0
 93
       13
 44
0.0
173
     0
291
     1
 45
0.0
1001
ACAD
1000
AcDbSavedByObjectVersion
1070
     0
  0
VISUALSTYLE
  5
2C
102
{ACAD_REACTORS
330
2A
102
}
330
2A
100
AcDbVisualStyle
  2
FlatWithEdges
 70
     1
 71
     2
 72
     1
 73
     1
 90
        2
 40
-0.6
 41
30.0
 62
     5
 63
     7
421
 16777215
 74
     1
 91
        4
 64
     7
 65
   257
 75
     1
175
     1
 42
1.0
 92
        0
 66
   257
 43
1.0
 76
     1
 77
     6
 78
     2
 67
     7
 79
     5
170
     0
171
     0
290
     0
174
     0
 93
       13
 44
0.0
173
     0
291
     1
 45
0.0
1001
ACAD
1000
AcDbSavedByObjectVersion
1070
     0
  0
VISUALSTYLE
  5
2D
102
{ACAD_REACTORS
330
2A
102
}
330
2A
100
AcDbVisualStyle
  2
Gouraud
 70
     2
 71
     2
 72
     2
 73
     1
 90
        2
 40
-0.6
 41
30.0
 62
     5
 63
     7
421
 16777215
 74
     0
 91
        4
 64
     7
 65
   257
 75
     1
175
     1
 42
1.0
 92
        0
 66
     7
 43
1.0
 76
     1
 77
     6
 78
     2
 67
     7
 79
     5
170
     0
171
     0
290
     0
174
     0
 93
       13
 44
0.0
173
     0
291
     1
 45
0.0
1001
ACAD
1000
AcDbSavedByObjectVersion
1070
     0
  0
VISUALSTYLE
  5
2E
102
{ACAD_REACTORS
330
2A
102
}
330
2A
100
AcDbVisualStyle
  2
GouraudWithEdges
 70
     3
 71
     2
 72
     2
 73
     1
 90
        2
 40
-0.6
 41
30.0
 62
     5
 63
     7
421
 16777215
 74
     1
 91
        4
 64
     7
 65
   257
 75
     1
175
     1
 42
1.0
 92
        0
 66
   257
 43
1.0
 76
     1
 77
     6
 78
     2
 67
     7
 79
     5
170
     0
171
     0
290
     0
174
     0
 93
       13
 44
0.0
173
     0
291
     1
 45
0.0
1001
ACAD
1000
AcDbSavedByObjectVersion
1070
     0
  0
VISUALSTYLE
  5
38
102
{ACAD_REACTORS
330
2A
102
}
330
2A
100
AcDbVisualStyle
  2
Linepattern
 70
    14
 71
     2
 72
     2
 73
     0
 90
        0
 40
-0.6
 41
-30.0
 62
     5
 63
     7
421
 16777215
 74
     1
 91
        4
 64
     7
 65
   257
 75
     7
175
     7
 42
1.0
 92
        8
 66
     7
 43
1.0
 76
     1
 77
     6
 78
     2
 67
     7
 79
     5
170
     0
171
     0
290
     0
174
     0
 93
        1
 44
0.0
173
     0
291
     1
 45
0.0
1001
ACAD
1000
AcDbSavedByObjectVersion
1070
     0
  0
VISUALSTYLE
  5
33
102
{ACAD_REACTORS
330
2A
102
}
330
2A
100
AcDbVisualStyle
  2
Realistic
 70
     8
 71
     2
 72
     2
 73
     0
 90
        0
 40
-0.6
 41
-30.0
 62
     5
 63
     7
421
 16777215
 74
     1
 91
        0
 64
     7
 65
   257
 75
     1
175
     1
 42
1.0
 92
        8
 66
     8
424
  7895160
 43
1.0
 76
     1
 77
     6
 78
     2
 67
     7
 79
     5
170
     0
171
     0
290
     0
174
     0
 93
       13
 44
0.0
173
     0
291
     0
 45
0.0
1001
ACAD
1000
AcDbSavedByObjectVersion
1070
     0
  0
VISUALSTYLE
  5
37
102
{ACAD_REACTORS
330
2A
102
}
330
2A
100
AcDbVisualStyle
  2
Thicken
 70
    13
 71
     2
 72
     2
 73
     0
 90
        0
 40
-0.6
 41
-30.0
 62
     5
 63
     7
421
 16777215
 74
     1
 91
        4
 64
     7
 65
   257
 75
     1
175
     1
 42
1.0
 92
       12
 66
     7
 43
1.0
 76
     1
 77
     6
 78
     2
 67
     7
 79
     5
170
     0
171
     0
290
     0
174
     0
 93
        1
 44
0.0
173
     0
291
     1
 45
0.0
1001
ACAD
1000
AcDbSavedByObjectVersion
1070
     0
  0
ENDSEC
  0
EOF
