  0
SECTION
  2
HEADER
  9
$ACADVER
  1
AC1014
  9
$ACADMAINTVER
 70
     9
  9
$DWGCODEPAGE
  3
ANSI_1252
  9
$INSBASE
 10
0.0
 20
0.0
 30
0.0
  9
$EXTMIN
 10
1.000000000000000E+20
 20
1.000000000000000E+20
 30
1.000000000000000E+20
  9
$EXTMAX
 10
-1.000000000000000E+20
 20
-1.000000000000000E+20
 30
-1.000000000000000E+20
  9
$LIMMIN
 10
0.0
 20
0.0
  9
$LIMMAX
 10
12.0
 20
9.0
  9
$ORTHOMODE
 70
     0
  9
$REGENMODE
 70
     1
  9
$FILLMODE
 70
     1
  9
$QTEXTMODE
 70
     0
  9
$MIRRTEXT
 70
     1
  9
$DRAGMODE
 70
     2
  9
$LTSCALE
 40
1.0
  9
$OSMODE
 70
    37
  9
$ATTMODE
 70
     1
  9
$TEXTSIZE
 40
0.2
  9
$TRACEWID
 40
0.05
  9
$TEXTSTYLE
  7
STANDARD
  9
$CLAYER
  8
DEFAULT
  9
$CELTYPE
  6
BYLAYER
  9
$CECOLOR
 62
   256
  9
$CELTSCALE
 40
1.0
  9
$DELOBJ
 70
     1
  9
$DISPSILH
 70
     0
  9
$DIMSCALE
 40
1.0
  9
$DIMASZ
 40
0.18
  9
$DIMEXO
 40
0.0625
  9
$DIMDLI
 40
0.38
  9
$DIMRND
 40
0.0
  9
$DIMDLE
 40
0.0
  9
$DIMEXE
 40
0.18
  9
$DIMTP
 40
0.0
  9
$DIMTM
 40
0.0
  9
$DIMTXT
 40
0.18
  9
$DIMCEN
 40
0.09
  9
$DIMTSZ
 40
0.0
  9
$DIMTOL
 70
     0
  9
$DIMLIM
 70
     0
  9
$DIMTIH
 70
     1
  9
$DIMTOH
 70
     1
  9
$DIMSE1
 70
     0
  9
$DIMSE2
 70
     0
  9
$DIMTAD
 70
     0
  9
$DIMZIN
 70
     0
  9
$DIMBLK
  1

  9
$DIMASO
 70
     1
  9
$DIMSHO
 70
     1
  9
$DIMPOST
  1

  9
$DIMAPOST
  1

  9
$DIMALT
 70
     0
  9
$DIMALTD
 70
     2
  9
$DIMALTF
 40
25.4
  9
$DIMLFAC
 40
1.0
  9
$DIMTOFL
 70
     0
  9
$DIMTVP
 40
0.0
  9
$DIMTIX
 70
     0
  9
$DIMSOXD
 70
     0
  9
$DIMSAH
 70
     0
  9
$DIMBLK1
  1

  9
$DIMBLK2
  1

  9
$DIMSTYLE
  2
STANDARD
  9
$DIMCLRD
 70
     0
  9
$DIMCLRE
 70
     0
  9
$DIMCLRT
 70
     0
  9
$DIMTFAC
 40
1.0
  9
$DIMGAP
 40
0.09
  9
$DIMJUST
 70
     0
  9
$DIMSD1
 70
     0
  9
$DIMSD2
 70
     0
  9
$DIMTOLJ
 70
     1
  9
$DIMTZIN
 70
     0
  9
$DIMALTZ
 70
     0
  9
$DIMALTTZ
 70
     0
  9
$DIMFIT
 70
     3
  9
$DIMUPT
 70
     0
  9
$DIMUNIT
 70
     2
  9
$DIMDEC
 70
     4
  9
$DIMTDEC
 70
     4
  9
$DIMALTU
 70
     2
  9
$DIMALTTD
 70
     2
  9
$DIMTXSTY
  7
STANDARD
  9
$DIMAUNIT
 70
     0
  9
$LUNITS
 70
     2
  9
$LUPREC
 70
     1
  9
$SKETCHINC
 40
0.1
  9
$FILLETRAD
 40
0.5
  9
$AUNITS
 70
     0
  9
$AUPREC
 70
     0
  9
$MENU
  1
.
  9
$ELEVATION
 40
0.0
  9
$PELEVATION
 40
0.0
  9
$THICKNESS
 40
0.0
  9
$LIMCHECK
 70
     0
  9
$CHAMFERA
 40
0.5
  9
$CHAMFERB
 40
0.5
  9
$CHAMFERC
 40
1.0
  9
$CHAMFERD
 40
0.0
  9
$SKPOLY
 70
     0
  9
$TDCREATE
 40
2453721.414311099
  9
$TDUPDATE
 40
2453721.414311111
  9
$TDINDWG
 40
0.0000000116
  9
$TDUSRTIMER
 40
0.0000000116
  9
$USRTIMER
 70
     1
  9
$ANGBASE
 50
0.0
  9
$ANGDIR
 70
     0
  9
$PDMODE
 70
     0
  9
$PDSIZE
 40
0.0
  9
$PLINEWID
 40
0.0
  9
$COORDS
 70
     1
  9
$SPLFRAME
 70
     0
  9
$SPLINETYPE
 70
     6
  9
$SPLINESEGS
 70
     8
  9
$ATTDIA
 70
     0
  9
$ATTREQ
 70
     1
  9
$HANDLING
 70
     1
  9
$HANDSEED
  5
3AD
  9
$SURFTAB1
 70
     6
  9
$SURFTAB2
 70
     6
  9
$SURFTYPE
 70
     6
  9
$SURFU
 70
     6
  9
$SURFV
 70
     6
  9
$UCSNAME
  2

  9
$UCSORG
 10
0.0
 20
0.0
 30
0.0
  9
$UCSXDIR
 10
1.0
 20
0.0
 30
0.0
  9
$UCSYDIR
 10
0.0
 20
1.0
 30
0.0
  9
$PUCSNAME
  2

  9
$PUCSORG
 10
0.0
 20
0.0
 30
0.0
  9
$PUCSXDIR
 10
1.0
 20
0.0
 30
0.0
  9
$PUCSYDIR
 10
0.0
 20
1.0
 30
0.0
  9
$USERI1
 70
     0
  9
$USERI2
 70
     0
  9
$USERI3
 70
     0
  9
$USERI4
 70
     0
  9
$USERI5
 70
     0
  9
$USERR1
 40
0.0
  9
$USERR2
 40
0.0
  9
$USERR3
 40
0.0
  9
$USERR4
 40
0.0
  9
$USERR5
 40
0.0
  9
$WORLDVIEW
 70
     1
  9
$SHADEDGE
 70
     3
  9
$SHADEDIF
 70
    70
  9
$TILEMODE
 70
     1
  9
$MAXACTVP
 70
    64
  9
$PINSBASE
 10
0.0
 20
0.0
 30
0.0
  9
$PLIMCHECK
 70
     0
  9
$PEXTMIN
 10
1.000000000000000E+20
 20
1.000000000000000E+20
 30
1.000000000000000E+20
  9
$PEXTMAX
 10
-1.000000000000000E+20
 20
-1.000000000000000E+20
 30
-1.000000000000000E+20
  9
$PLIMMIN
 10
0.0
 20
0.0
  9
$PLIMMAX
 10
12.0
 20
9.0
  9
$UNITMODE
 70
     0
  9
$VISRETAIN
 70
     1
  9
$PLINEGEN
 70
     0
  9
$PSLTSCALE
 70
     1
  9
$TREEDEPTH
 70
  3020
  9
$PICKSTYLE
 70
     1
  9
$CMLSTYLE
  2
STANDARD
  9
$CMLJUST
 70
     0
  9
$CMLSCALE
 40
1.0
  9
$PROXYGRAPHICS
 70
     1
  9
$MEASUREMENT
 70
     0
  0
ENDSEC
  0
SECTION
  2
CLASSES
  0
CLASS
  1
ACDBDICTIONARYWDFLT
  2
AcDbDictionaryWithDefault
  3
ObjectDBX Classes
 90
        0
280
     0
281
     0
  0
CLASS
  1
XRECORD
  2
AcDbXrecord
  3
AutoCAD 2000
 90
        0
280
     0
281
     0
  0
CLASS
  1
LWPOLYLINE
  2
AcDbPolyline
  3
AutoCAD 2000
 90
        0
280
     0
281
     1
  0
CLASS
  1
HATCH
  2
AcDbHatch
  3
AutoCAD 2000
 90
        0
280
     0
281
     1
  0
CLASS
  1
ACDBPLACEHOLDER
  2
AcDbPlaceHolder
  3
ObjectDBX Classes
 90
        0
280
     0
281
     0
  0
CLASS
  1
LAYOUT
  2
AcDbLayout
  3
ObjectDBX Classes
 90
        0
280
     0
281
     0
  0
ENDSEC
  0
SECTION
  2
TABLES
  0
TABLE
  2
VPORT
  5
8
330
0
100
AcDbSymbolTable
 70
     2
  0
VPORT
  5
29
102
{ACAD_XDICTIONARY
360
3AB
102
}
330
8
100
AcDbSymbolTableRecord
100
AcDbViewportTableRecord
  2
*ACTIVE
 70
     0
 10
0.0
 20
0.0
 11
1.0
 21
1.0
 12
28.13481491609003
 22
31.85701109578611
 13
0.0
 23
0.0
 14
0.5
 24
0.5
 15
0.5
 25
0.5
 16
0.0
 26
0.0
 36
1.0
 17
0.0
 27
0.0
 37
0.0
 40
63.52173003621545
 41
1.972972972850329
 42
50.0
 43
0.0
 44
0.0
 50
0.0
 51
0.0
 71
     0
 72
   100
 73
     1
 74
     3
 75
     0
 76
     0
 77
     0
 78
     0
  0
ENDTAB
  0
TABLE
  2
LTYPE
  5
5
330
0
100
AcDbSymbolTable
 70
     1
  0
LTYPE
  5
14
330
5
100
AcDbSymbolTableRecord
100
AcDbLinetypeTableRecord
  2
BYBLOCK
 70
     0
  3

 72
    65
 73
     0
 40
0.0
  0
LTYPE
  5
15
330
5
100
AcDbSymbolTableRecord
100
AcDbLinetypeTableRecord
  2
BYLAYER
 70
     0
  3

 72
    65
 73
     0
 40
0.0
  0
LTYPE
  5
16
330
5
100
AcDbSymbolTableRecord
100
AcDbLinetypeTableRecord
  2
CONTINUOUS
 70
     0
  3
Solid line
 72
    65
 73
     0
 40
0.0
  0
ENDTAB
  0
TABLE
  2
LAYER
  5
2
330
0
100
AcDbSymbolTable
 70
     3
  0
LAYER
  5
10
330
2
100
AcDbSymbolTableRecord
100
AcDbLayerTableRecord
  2
0
 70
     0
 62
     7
  6
CONTINUOUS
  0
LAYER
  5
2A
330
2
100
AcDbSymbolTableRecord
100
AcDbLayerTableRecord
  2
IGES_LEVEL_0
 70
     0
 62
   255
  6
CONTINUOUS
  0
LAYER
  5
84
330
2
100
AcDbSymbolTableRecord
100
AcDbLayerTableRecord
  2
DEFAULT
 70
     0
 62
     7
  6
CONTINUOUS
  0
ENDTAB
  0
TABLE
  2
STYLE
  5
3
330
0
100
AcDbSymbolTable
 70
     1
  0
STYLE
  5
11
330
3
100
AcDbSymbolTableRecord
100
AcDbTextStyleTableRecord
  2
STANDARD
 70
     0
 40
0.0
 41
1.0
 50
0.0
 71
     0
 42
0.2
  3
txt
  4

  0
ENDTAB
  0
TABLE
  2
VIEW
  5
6
330
0
100
AcDbSymbolTable
 70
     0
  0
ENDTAB
  0
TABLE
  2
UCS
  5
7
330
0
100
AcDbSymbolTable
 70
     0
  0
ENDTAB
  0
TABLE
  2
APPID
  5
9
330
0
100
AcDbSymbolTable
 70
     1
  0
APPID
  5
12
330
9
100
AcDbSymbolTableRecord
100
AcDbRegAppTableRecord
  2
ACAD
 70
     0
  0
ENDTAB
  0
TABLE
  2
DIMSTYLE
  5
A
330
0
100
AcDbSymbolTable
 70
     1
  0
DIMSTYLE
105
27
330
A
100
AcDbSymbolTableRecord
100
AcDbDimStyleTableRecord
  2
STANDARD
 70
     0
  3

  4

  5

  6

  7

 40
1.0
 41
0.18
 42
0.0625
 43
0.38
 44
0.18
 45
0.0
 46
0.0
 47
0.0
 48
0.0
140
0.18
141
0.09
142
0.0
143
25.4
144
1.0
145
0.0
146
1.0
147
0.09
 71
     0
 72
     0
 73
     1
 74
     1
 75
     0
 76
     0
 77
     0
 78
     0
170
     0
171
     2
172
     0
173
     0
174
     0
175
     0
176
     0
177
     0
178
     0
270
     2
271
     4
272
     4
273
     2
274
     2
340
11
275
     0
280
     0
281
     0
282
     0
283
     1
284
     0
285
     0
286
     0
287
     3
288
     0
  0
ENDTAB
  0
TABLE
  2
BLOCK_RECORD
  5
1
330
0
100
AcDbSymbolTable
 70
     1
  0
BLOCK_RECORD
  5
1F
330
1
100
AcDbSymbolTableRecord
100
AcDbBlockTableRecord
  2
*MODEL_SPACE
  0
BLOCK_RECORD
  5
1B
330
1
100
AcDbSymbolTableRecord
100
AcDbBlockTableRecord
  2
*PAPER_SPACE
  0
ENDTAB
  0
ENDSEC
  0
SECTION
  2
BLOCKS
  0
BLOCK
  5
20
330
1F
100
AcDbEntity
  8
0
100
AcDbBlockBegin
  2
*MODEL_SPACE
 70
     0
 71
     0
 10
0.0
 20
0.0
 30
0.0
  3
*MODEL_SPACE
  1

  0
ENDBLK
  5
21
330
1F
100
AcDbEntity
  8
0
100
AcDbBlockEnd
  0
BLOCK
  5
1C
330
1B
100
AcDbEntity
 67
     1
  8
0
100
AcDbBlockBegin
  2
*PAPER_SPACE
 70
     0
 71
     0
 10
0.0
 20
0.0
 30
0.0
  3
*PAPER_SPACE
  1

  0
ENDBLK
  5
1D
330
1B
100
AcDbEntity
 67
     1
  8
0
100
AcDbBlockEnd
  0
ENDSEC
  0
SECTION
  2
ENTITIES
  0
ARC
  5
2B
330
1F
100
AcDbEntity
  8
IGES_LEVEL_0
 62
     7
100
AcDbCircle
 10
2.614514695415003
 20
23.30633566603518
 30
0.0
 40
16.34092177183453
100
AcDbArc
 50
0.1496341198235678
 51
6.160182559912653
  0
SPLINE
  5
2C
330
1F
100
AcDbEntity
  8
IGES_LEVEL_0
 62
     7
100
AcDbSpline
210
0.0
220
0.0
230
1.0
 70
     8
 71
     3
 72
    16
 73
    12
 74
     0
 42
0.0000000001
 43
0.0000000001
 40
0.3118588410898094
 40
0.3118588410898094
 40
0.3118588410898094
 40
0.3118588410898094
 40
0.3644054381325
 40
0.4445962316781
 40
0.5190684181864
 40
0.5897318703862
 40
0.6618470381384
 40
0.7398603122566
 40
0.8254458333803
 40
0.9171458819114
 40
1.0
 40
1.0
 40
1.0
 40
1.0
 10
17.68504381225069
 20
23.72085015851886
 30
0.0
 10
17.6993596073482
 20
23.72257856572052
 30
0.0
 10
17.73566558692867
 20
23.72573124753315
 30
0.0
 10
17.79284779180986
 20
23.7237475281897
 30
0.0
 10
17.85280996863986
 20
23.7032977554497
 30
0.0
 10
17.89720062673986
 20
23.6610029277497
 30
0.0
 10
17.92420287482986
 20
23.6059578096897
 30
0.0
 10
17.94022891073986
 20
23.5430865021497
 30
0.0
 10
17.94933176437986
 20
23.4735610933997
 30
0.0
 10
17.95383300081986
 20
23.4023239158297
 30
0.0
 10
17.95515976250986
 20
23.3544591145697
 30
0.0
 10
17.95555456462986
 20
23.3317357526097
 30
0.0
  0
ARC
  5
2D
330
1F
100
AcDbEntity
  8
IGES_LEVEL_0
 62
     7
100
AcDbCircle
 10
16.74985767718181
 20
23.30673499280123
 30
0.0
 40
16.33095521079484
100
AcDbArc
 50
173.831533829219
 51
179.8516767057001
  0
SPLINE
  5
2E
330
1F
100
AcDbEntity
  8
IGES_LEVEL_0
 62
     7
100
AcDbSpline
210
0.0
220
0.0
230
1.0
 70
     8
 71
     3
 72
    16
 73
    12
 74
     0
 42
0.0000000001
 43
0.0000000001
 40
0.0
 40
0.0
 40
0.0
 40
0.0
 40
0.08294878665854
 40
0.1746233586349
 40
0.2601856117495
 40
0.3381791692731
 40
0.4102766717635
 40
0.4809230962016
 40
0.5553796485965
 40
0.6355536894717
 40
0.65649527112381
 40
0.65649527112381
 40
0.65649527112381
 40
0.65649527112381
 10
1.418783394894857
 20
23.3317357736897
 30
0.0
 10
1.419178653071865
 20
23.3544851125097
 30
0.0
 10
1.420506424304859
 20
23.4023689178297
 30
0.0
 10
1.425011761202865
 20
23.4736185264997
 30
0.0
 10
1.43411655711486
 20
23.5431247846897
 30
0.0
 10
1.450143349094856
 20
23.6059787859497
 30
0.0
 10
1.477143104284861
 20
23.6610081429797
 30
0.0
 10
1.521523040404856
 20
23.7032924466897
 30
0.0
 10
1.581469791271855
 20
23.7237431869997
 30
0.0
 10
1.629921243684523
 20
23.72542853992556
 30
0.0
 10
1.657637150859345
 20
23.7238312612664
 30
0.0
 10
1.663368821825451
 20
23.72340379204284
 30
0.0
  0
SPLINE
  5
2F
330
1F
100
AcDbEntity
  8
IGES_LEVEL_0
 62
     7
100
AcDbSpline
210
0.0
220
0.0
230
1.0
 70
     8
 71
     3
 72
    26
 73
    22
 74
     0
 42
0.0000000001
 43
0.0000000001
 40
0.0
 40
0.0
 40
0.0
 40
0.0
 40
0.05180108195353
 40
0.1071915981961
 40
0.1645132123208
 40
0.2239144280844
 40
0.2850319384214
 40
0.3491618588015
 40
0.415365185616
 40
0.4797788674021
 40
0.5407054441474
 40
0.5982352439023
 40
0.6525848620139
 40
0.7041092281777001
 40
0.7531459177423
 40
0.7999258077725
 40
0.84459417629
 40
0.8872838031219
 40
0.9282528464997
 40
0.9673287816662
 40
1.0
 40
1.0
 40
1.0
 40
1.0
 10
18.80800531009383
 20
24.7308384404197
 30
0.0
 10
18.83422729657384
 20
24.8491632119197
 30
0.0
 10
18.86919604557384
 20
25.0982020268997
 30
0.0
 10
18.89979075343383
 20
25.4818328448597
 30
0.0
 10
18.92041634150384
 20
25.8840873232997
 30
0.0
 10
18.93474035410384
 20
26.2999549823597
 30
0.0
 10
18.94177614430383
 20
26.7319698403097
 30
0.0
 10
18.93976089843383
 20
27.1799492411997
 30
0.0
 10
18.92977793997383
 20
27.6355230646197
 30
0.0
 10
18.91489370983383
 20
28.0834535948697
 30
0.0
 10
18.89761404218383
 20
28.5109846626497
 30
0.0
 10
18.87966183167383
 20
28.9149163898897
 30
0.0
 10
18.86215252991384
 20
29.2968464097297
 30
0.0
 10
18.84449877139385
 20
29.6588758189697
 30
0.0
 10
18.82592481791384
 20
30.0031252051697
 30
0.0
 10
18.80546185026384
 20
30.3311973893697
 30
0.0
 10
18.78228664347384
 20
30.6442089550697
 30
0.0
 10
18.75517082543384
 20
30.9432461257497
 30
0.0
 10
18.72401611628384
 20
31.2287781278097
 30
0.0
 10
18.68550415507384
 20
31.4897104692197
 30
0.0
 10
18.66379470418364
 20
31.65617789259325
 30
0.0
 10
18.65302284817383
 20
31.7318996052097
 30
0.0
  0
SPLINE
  5
30
330
1F
100
AcDbEntity
  8
IGES_LEVEL_0
 62
     7
100
AcDbSpline
210
0.0
220
0.0
230
1.0
 70
     8
 71
     3
 72
    15
 73
    11
 74
     0
 42
0.0000000001
 43
0.0000000001
 40
1.0
 40
1.0
 40
1.0
 40
1.0
 40
1.115642223963397
 40
1.235672516040326
 40
1.351273210694683
 40
1.471608280623501
 40
1.597927179434149
 40
1.73113783136071
 40
1.87212585544457
 40
2.0
 40
2.0
 40
2.0
 40
2.0
 10
18.65302284817383
 20
31.7318996052097
 30
0.0
 10
18.64830328647383
 20
31.7650761807597
 30
0.0
 10
18.63299668385383
 20
31.8319585932097
 30
0.0
 10
18.59132110196383
 20
31.9253335952897
 30
0.0
 10
18.53022411516383
 20
32.0090914606897
 30
0.0
 10
18.45135361001384
 20
32.0792140401097
 30
0.0
 10
18.35509749271384
 20
32.13368152199971
 30
0.0
 10
18.24450109097384
 20
32.1701438100597
 30
0.0
 10
18.12907042475559
 20
32.18730035910171
 30
0.0
 10
18.05114940870012
 20
32.18852344131071
 30
0.0
 10
18.01419097685383
 20
32.1871977105947
 30
0.0
  0
LINE
  5
31
330
1F
100
AcDbEntity
  8
IGES_LEVEL_0
 62
     7
100
AcDbLine
 10
18.01419097685383
 20
32.1871977105947
 30
0.0
 11
17.99065507621384
 21
32.1863534576097
 31
0.0
  0
SPLINE
  5
32
330
1F
100
AcDbEntity
  8
IGES_LEVEL_0
 62
     7
100
AcDbSpline
210
0.0
220
0.0
230
1.0
 70
     8
 71
     3
 72
    15
 73
    11
 74
     0
 42
0.0000000001
 43
0.0000000001
 40
3.0
 40
3.0
 40
3.0
 40
3.0
 40
3.09398622221632
 40
3.201069531642
 40
3.3168753546999
 40
3.4431713848518
 40
3.5780853419495
 40
3.7182166469539
 40
3.8605666809788
 40
4.0
 40
4.0
 40
4.0
 40
4.0
 10
17.99065507621384
 20
32.1863534576097
 30
0.0
 10
17.72952947441384
 20
32.17685531552971
 30
0.0
 10
17.17118894990384
 20
32.1483774038097
 30
0.0
 10
16.29208421064384
 20
32.0910094090497
 30
0.0
 10
15.32400443602384
 20
32.0180546021797
 30
0.0
 10
14.27981841650984
 20
31.9266682342197
 30
0.0
 10
13.16819866734784
 20
31.8300116052697
 30
0.0
 10
12.00991277986884
 20
31.7562131048597
 30
0.0
 10
10.83724055438884
 20
31.7219058890597
 30
0.0
 10
10.05382534356501
 20
31.71570230517855
 30
0.0
 10
9.666175674277838
 20
31.7152397497747
 30
0.0
  0
SPLINE
  5
33
330
1F
100
AcDbEntity
  8
IGES_LEVEL_0
 62
     7
100
AcDbSpline
210
0.0
220
0.0
230
1.0
 70
     8
 71
     3
 72
    15
 73
    11
 74
     0
 42
0.0000000001
 43
0.0000000001
 40
4.0
 40
4.0
 40
4.0
 40
4.0
 40
4.1393605044019
 40
4.2818056341164
 40
4.4219917542004
 40
4.5569167723233
 40
4.6831723925599
 40
4.7988933925093
 40
4.9059014967853
 40
5.0
 40
5.0
 40
5.0
 40
5.0
 10
9.666175674277838
 20
31.7152397497747
 30
0.0
 10
9.279318139327828
 20
31.7147781395697
 30
0.0
 10
8.497021404816834
 20
31.7192359123997
 30
0.0
 10
7.325844729559847
 20
31.7508095743197
 30
0.0
 10
6.168709277499843
 20
31.8218764732697
 30
0.0
 10
5.058504526994241
 20
31.9159944389797
 30
0.0
 10
4.016037187148825
 20
32.0050561788797
 30
0.0
 10
3.049838124786831
 20
32.0758727191697
 30
0.0
 10
2.172086164448828
 20
32.1313161100497
 30
0.0
 10
1.614437197381565
 20
32.15869078756466
 30
0.0
 10
1.353373225879849
 20
32.1674904964397
 30
0.0
  0
LINE
  5
34
330
1F
100
AcDbEntity
  8
IGES_LEVEL_0
 62
     7
100
AcDbLine
 10
1.353373225879849
 20
32.1674904964397
 30
0.0
 11
1.329272652324335
 21
32.1683028568347
 31
0.0
  0
SPLINE
  5
35
330
1F
100
AcDbEntity
  8
IGES_LEVEL_0
 62
     7
100
AcDbSpline
210
0.0
220
0.0
230
1.0
 70
     8
 71
     3
 72
    15
 73
    11
 74
     0
 42
0.0000000001
 43
0.0000000001
 40
6.0
 40
6.0
 40
6.0
 40
6.0
 40
6.125911162516983
 40
6.267006916979449
 40
6.400346768727547
 40
6.526801190324339
 40
6.647218019246925
 40
6.762810869683256
 40
6.882703538010463
 40
7.0
 40
7.0
 40
7.0
 40
7.0
 10
1.329272652324335
 20
32.1683028568347
 30
0.0
 10
1.292920130867955
 20
32.16951947771034
 30
0.0
 10
1.215634143779184
 20
32.16819755941842
 30
0.0
 10
1.100840976832828
 20
32.15106888628971
 30
0.0
 10
0.9903084881678268
 20
32.1144857502397
 30
0.0
 10
0.894179620968842
 20
32.05983426905971
 30
0.0
 10
0.8155736439018284
 20
31.9894977647997
 30
0.0
 10
0.7548828952998434
 20
31.9056108868397
 30
0.0
 10
0.7135034107458438
 20
31.8117533092797
 30
0.0
 10
0.6984882183807117
 20
31.74442462938677
 30
0.0
 10
0.6939609053108313
 20
31.7107797229147
 30
0.0
  0
SPLINE
  5
36
330
1F
100
AcDbEntity
  8
IGES_LEVEL_0
 62
     7
100
AcDbSpline
210
0.0
220
0.0
230
1.0
 70
     8
 71
     3
 72
    26
 73
    22
 74
     0
 42
0.0000000001
 43
0.0000000001
 40
7.0
 40
7.0
 40
7.0
 40
7.0
 40
7.03250527581496
 40
7.07168624103602
 40
7.112788628129
 40
7.1556258749788
 40
7.2004506261742
 40
7.247387982935
 40
7.2965763145424
 40
7.34826957632
 40
7.4028616961667
 40
7.4607443235963
 40
7.5219761308525
 40
7.5863826446735
 40
7.6521499060373
 40
7.7156823891385
 40
7.7763079965302
 40
7.8353490127326
 40
7.8924758708678
 40
7.94784209807
 40
8.0
 40
8.0
 40
8.0
 40
8.0
 10
0.6939609053108313
 20
31.7107797229147
 30
0.0
 10
0.6838156989198438
 20
31.6353852196197
 30
0.0
 10
0.6630600467478445
 20
31.4689917797997
 30
0.0
 10
0.6258669015828247
 20
31.2077766460897
 30
0.0
 10
0.5961233443918417
 20
30.9212734262297
 30
0.0
 10
0.5704817108548497
 20
30.6211705799997
 30
0.0
 10
0.5488651960508406
 20
30.3070604841997
 30
0.0
 10
0.5300426011738324
 20
29.9778989509597
 30
0.0
 10
0.5131875458808253
 20
29.6325459427097
 30
0.0
 10
0.4973309773488239
 20
29.2692246902597
 30
0.0
 10
0.481686920128837
 20
28.8855402025897
 30
0.0
 10
0.4657125456038358
 20
28.4795394832997
 30
0.0
 10
0.4505965779858485
 20
28.0505321817297
 30
0.0
 10
0.4380909474328263
 20
27.6029872532997
 30
0.0
 10
0.4305808645388396
 20
27.1499377240297
 30
0.0
 10
0.4309960529278243
 20
26.7056585267197
 30
0.0
 10
0.4399319128038286
 20
26.2772044182997
 30
0.0
 10
0.4554220464058432
 20
25.8639585543497
 30
0.0
 10
0.4766951216588353
 20
25.4632172097897
 30
0.0
 10
0.5077868646788346
 20
25.0794283313197
 30
0.0
 10
0.5413516940114043
 20
24.82936524995616
 30
0.0
 10
0.5690887552863444
 20
24.7104649840947
 30
0.0
  0
ARC
  5
37
330
1F
100
AcDbEntity
  8
IGES_LEVEL_0
 62
     7
100
AcDbCircle
 10
1.082619317666058
 20
24.83469142732584
 30
0.0
 40
0.5283425476865239
100
AcDbArc
 50
193.5989802411696
 51
228.2321676165951
  0
SPLINE
  5
38
330
1F
100
AcDbEntity
  8
IGES_LEVEL_0
 62
     7
100
AcDbSpline
210
0.0
220
0.0
230
1.0
 70
     8
 71
     3
 72
    21
 73
    17
 74
     0
 42
0.0000000001
 43
0.0000000001
 40
9.0
 40
9.0
 40
9.0
 40
9.0
 40
9.05098047018806
 40
9.107664448148826
 40
9.166773598756809
 40
9.227189553075816
 40
9.288453181912345
 40
9.351391316648938
 40
9.41869980921603
 40
9.491541988549736
 40
9.569988779538011
 40
9.653037778176666
 40
9.739143024773501
 40
9.826953249953149
 40
9.915131667892084
 40
10.0
 40
10.0
 40
10.0
 40
10.0
 10
0.730683038606827
 20
24.4406270884447
 30
0.0
 10
0.8550648199522328
 20
24.32954253450169
 30
0.0
 10
1.130252577619572
 20
24.10906985347785
 30
0.0
 10
1.569755558429833
 20
23.7858597919797
 30
0.0
 10
2.044814059912838
 20
23.4592073812697
 30
0.0
 10
2.539054292835843
 20
23.1343991255697
 30
0.0
 10
3.048326400285831
 20
22.8097269774297
 30
0.0
 10
3.58241768051785
 20
22.4822602798697
 30
0.0
 10
4.160406865552929
 20
22.1539294231697
 30
0.0
 10
4.809175125970043
 20
21.8511013560197
 30
0.0
 10
5.529214325280847
 20
21.5854164965397
 30
0.0
 10
6.311195399842845
 20
21.3707981790997
 30
0.0
 10
7.13696933410283
 20
21.2102288850397
 30
0.0
 10
7.987564543046844
 20
21.0988307082697
 30
0.0
 10
8.83894655300783
 20
21.0356089124797
 30
0.0
 10
9.405143926671219
 20
21.02256406105492
 30
0.0
 10
9.68277152444783
 20
21.0228817367547
 30
0.0
  0
SPLINE
  5
39
330
1F
100
AcDbEntity
  8
IGES_LEVEL_0
 62
     7
100
AcDbSpline
210
0.0
220
0.0
230
1.0
 70
     8
 71
     3
 72
    21
 73
    17
 74
     0
 42
0.0000000001
 43
0.0000000001
 40
10.0
 40
10.0
 40
10.0
 40
10.0
 40
10.08437424581794
 40
10.17238145067195
 40
10.26013552142077
 40
10.34627092336846
 40
10.42941226940505
 40
10.50799141476531
 40
10.58097908845747
 40
10.64842885222759
 40
10.71148649899018
 40
10.77281722090322
 40
10.83323523248231
 40
10.89229796822399
 40
10.94890269935905
 40
11.0
 40
11.0
 40
11.0
 40
11.0
 10
9.68277152444783
 20
21.0228817367547
 30
0.0
 10
9.959277851969844
 20
21.0231981294397
 30
0.0
 10
10.52427775639283
 20
21.0374343876897
 30
0.0
 10
11.37469896902984
 20
21.1022686210697
 30
0.0
 10
12.22597252428383
 20
21.2153177997697
 30
0.0
 10
13.05317723673683
 20
21.3775417347097
 30
0.0
 10
13.83707139547684
 20
21.5938145034197
 30
0.0
 10
14.55925692541084
 20
21.8611461784097
 30
0.0
 10
15.21020898526383
 20
22.1655634760697
 30
0.0
 10
15.79027282489383
 20
22.4953446480997
 30
0.0
 10
16.32616428696385
 20
22.8240808929497
 30
0.0
 10
16.83673391402384
 20
23.1498835903597
 30
0.0
 10
17.33166752564384
 20
23.4757050661797
 30
0.0
 10
17.80686776644383
 20
23.8032625601397
 30
0.0
 10
18.24666306405323
 20
24.12768075238492
 30
0.0
 10
18.52115804854797
 20
24.35012312711865
 30
0.0
 10
18.64673279437383
 20
24.4608829996597
 30
0.0
  0
ARC
  5
3A
330
1F
100
AcDbEntity
  8
IGES_LEVEL_0
 62
     7
100
AcDbCircle
 10
18.30525929062911
 20
24.84803086698067
 30
0.0
 40
0.5162243939711364
100
AcDbArc
 50
311.4130498624787
 51
346.8784052842255
  0
LINE
  5
3B
330
1F
100
AcDbEntity
  8
IGES_LEVEL_0
 62
     7
100
AcDbLine
 10
17.07158798548532
 20
55.60016075621132
 30
0.0
 11
16.67901218773985
 21
54.99809537070971
 31
0.0
  0
LINE
  5
3C
330
1F
100
AcDbEntity
  8
IGES_LEVEL_0
 62
     7
100
AcDbLine
 10
16.16100338619092
 20
56.02535934853393
 30
0.0
 11
15.96270418773986
 21
55.7212423707097
 31
0.0
  0
LINE
  5
3D
330
1F
100
AcDbEntity
  8
IGES_LEVEL_0
 62
     7
100
AcDbLine
 10
3.411698187739856
 20
55.7211433707097
 30
0.0
 11
3.232869230923279
 21
55.99540056647184
 31
0.0
  0
LINE
  5
3E
330
1F
100
AcDbEntity
  8
IGES_LEVEL_0
 62
     7
100
AcDbLine
 10
2.695313187739861
 20
54.99811437070971
 30
0.0
 11
2.327993862011633
 21
55.56144614653802
 31
0.0
  0
LINE
  5
3F
330
1F
100
AcDbEntity
  8
IGES_LEVEL_0
 62
     7
100
AcDbLine
 10
0.6971351503188572
 20
58.50296452676971
 30
0.0
 11
0.6810352965348585
 21
58.3131564114397
 31
0.0
  0
LINE
  5
40
330
1F
100
AcDbEntity
  8
IGES_LEVEL_0
 62
     7
100
AcDbLine
 10
0.6810352965348585
 20
58.3131564114397
 30
0.0
 11
0.6784772806878578
 21
58.28377722349969
 31
0.0
  0
LINE
  5
41
330
1F
100
AcDbEntity
  8
IGES_LEVEL_0
 62
     7
100
AcDbLine
 10
0.6784772806878578
 20
58.28377722349969
 30
0.0
 11
0.6759615788188711
 21
58.25490005836971
 31
0.0
  0
LINE
  5
42
330
1F
100
AcDbEntity
  8
IGES_LEVEL_0
 62
     7
100
AcDbLine
 10
0.6759615788188711
 20
58.25490005836971
 30
0.0
 11
0.673492920799859
 21
58.22651630099968
 31
0.0
  0
LINE
  5
43
330
1F
100
AcDbEntity
  8
IGES_LEVEL_0
 62
     7
100
AcDbLine
 10
0.673492920799859
 20
58.22651630099968
 30
0.0
 11
0.6728052460928637
 21
58.2185973572497
 31
0.0
  0
LINE
  5
44
330
1F
100
AcDbEntity
  8
IGES_LEVEL_0
 62
     7
100
AcDbLine
 10
0.6728052460928637
 20
58.2185973572497
 30
0.0
 11
0.6710743192588637
 21
58.19863675290969
 31
0.0
  0
LINE
  5
45
330
1F
100
AcDbEntity
  8
IGES_LEVEL_0
 62
     7
100
AcDbLine
 10
0.6710743192588637
 20
58.19863675290969
 30
0.0
 11
0.6686998601108627
 21
58.17117970390969
 31
0.0
  0
LINE
  5
46
330
1F
100
AcDbEntity
  8
IGES_LEVEL_0
 62
     7
100
AcDbLine
 10
0.6686998601108627
 20
58.17117970390969
 30
0.0
 11
0.6618425726928621
 21
58.0912581586397
 31
0.0
  0
LINE
  5
47
330
1F
100
AcDbEntity
  8
IGES_LEVEL_0
 62
     7
100
AcDbLine
 10
0.6618425726928621
 20
58.0912581586397
 30
0.0
 11
0.6488097967518485
 21
57.9234333071097
 31
0.0
  0
LINE
  5
48
330
1F
100
AcDbEntity
  8
IGES_LEVEL_0
 62
     7
100
AcDbLine
 10
0.6488097967518485
 20
57.9234333071097
 30
0.0
 11
0.6632103314238549
 21
58.08990525861969
 31
0.0
  0
LINE
  5
49
330
1F
100
AcDbEntity
  8
IGES_LEVEL_0
 62
     7
100
AcDbLine
 10
0.6632103314238549
 20
58.08990525861969
 30
0.0
 11
0.6695895141888713
 21
58.16809950746968
 31
0.0
  0
LINE
  5
4A
330
1F
100
AcDbEntity
  8
IGES_LEVEL_0
 62
     7
100
AcDbLine
 10
0.6695895141888713
 20
58.16809950746968
 30
0.0
 11
0.671595902379849
 21
58.19253533500969
 31
0.0
  0
LINE
  5
4B
330
1F
100
AcDbEntity
  8
IGES_LEVEL_0
 62
     7
100
AcDbLine
 10
0.671595902379849
 20
58.19253533500969
 30
0.0
 11
0.6735455759588689
 21
58.21621751739971
 31
0.0
  0
LINE
  5
4C
330
1F
100
AcDbEntity
  8
IGES_LEVEL_0
 62
     7
100
AcDbLine
 10
0.6735455759588689
 20
58.21621751739971
 30
0.0
 11
0.6754369522098642
 21
58.23913819644971
 31
0.0
  0
LINE
  5
4D
330
1F
100
AcDbEntity
  8
IGES_LEVEL_0
 62
     7
100
AcDbLine
 10
0.6754369522098642
 20
58.23913819644971
 30
0.0
 11
0.6772762817968641
 21
58.26138321199971
 31
0.0
  0
LINE
  5
4E
330
1F
100
AcDbEntity
  8
IGES_LEVEL_0
 62
     7
100
AcDbLine
 10
0.6772762817968641
 20
58.26138321199971
 30
0.0
 11
0.6790629598898619
 21
58.2829565845997
 31
0.0
  0
LINE
  5
4F
330
1F
100
AcDbEntity
  8
IGES_LEVEL_0
 62
     7
100
AcDbLine
 10
0.6790629598898619
 20
58.2829565845997
 30
0.0
 11
0.6807948601978495
 21
58.30385250562969
 31
0.0
  0
LINE
  5
50
330
1F
100
AcDbEntity
  8
IGES_LEVEL_0
 62
     7
100
AcDbLine
 10
0.6807948601978495
 20
58.30385250562969
 30
0.0
 11
0.6971684345638636
 21
58.50367283179968
 31
0.0
  0
LINE
  5
51
330
1F
100
AcDbEntity
  8
IGES_LEVEL_0
 62
     7
100
AcDbLine
 10
0.6971684345638636
 20
58.50367283179968
 30
0.0
 11
0.6981478611293568
 21
58.5159260003097
 31
0.0
  0
LINE
  5
52
330
1F
100
AcDbEntity
  8
IGES_LEVEL_0
 62
     7
100
AcDbLine
 10
0.6981478611293568
 20
58.5159260003097
 30
0.0
 11
0.6986351117593586
 21
58.5220940374297
 31
0.0
  0
LINE
  5
53
330
1F
100
AcDbEntity
  8
IGES_LEVEL_0
 62
     7
100
AcDbLine
 10
0.6986351117593586
 20
58.5220940374297
 30
0.0
 11
0.6987845490068452
 21
58.52415705824969
 31
0.0
  0
LINE
  5
54
330
1F
100
AcDbEntity
  8
IGES_LEVEL_0
 62
     7
100
AcDbLine
 10
0.6987845490068452
 20
58.52415705824969
 30
0.0
 11
0.6994509366443538
 21
58.53314436624469
 31
0.0
  0
LINE
  5
55
330
1F
100
AcDbEntity
  8
IGES_LEVEL_0
 62
     7
100
AcDbLine
 10
0.6994509366443538
 20
58.53314436624469
 30
0.0
 11
0.701013199454863
 21
58.5526555740997
 31
0.0
  0
LINE
  5
56
330
1F
100
AcDbEntity
  8
IGES_LEVEL_0
 62
     7
100
AcDbLine
 10
0.701013199454863
 20
58.5526555740997
 30
0.0
 11
0.7060098080113448
 21
58.5991546294247
 31
0.0
  0
SPLINE
  5
57
330
1F
100
AcDbEntity
  8
IGES_LEVEL_0
 62
     7
100
AcDbSpline
210
0.0
220
0.0
230
1.0
 70
     8
 71
     3
 72
    15
 73
    11
 74
     0
 42
0.0000000001
 43
0.0000000001
 40
24.0
 40
24.0
 40
24.0
 40
24.0
 40
24.08082912345469
 40
24.18872216839074
 40
24.30859074911436
 40
24.43942917878159
 40
24.58035003551237
 40
24.73026533359424
 40
24.88894627416992
 40
25.0
 40
25.0
 40
25.0
 40
25.0
 10
0.7060098080113448
 20
58.5991546294247
 30
0.0
 10
0.7089604682130215
 20
58.62216445386736
 30
0.0
 10
0.7225320526009824
 20
58.67520689652105
 30
0.0
 10
0.7620402006198646
 20
58.75488239583969
 30
0.0
 10
0.8226342475798703
 20
58.8384570485997
 30
0.0
 10
0.9013657293998705
 20
58.91899246213969
 30
0.0
 10
0.9966581399438468
 20
58.99391712253969
 30
0.0
 10
1.107772401050866
 20
59.05994864239968
 30
0.0
 10
1.218885210360853
 20
59.1070334129597
 30
0.0
 10
1.293420156913781
 20
59.12866539019104
 30
0.0
 10
1.324591032429865
 20
59.13528677457969
 30
0.0
  0
LINE
  5
58
330
1F
100
AcDbEntity
  8
IGES_LEVEL_0
 62
     7
100
AcDbLine
 10
1.324591032429865
 20
59.13528677457969
 30
0.0
 11
1.348139018924854
 21
59.1402888884947
 31
0.0
  0
LINE
  5
59
330
1F
100
AcDbEntity
  8
IGES_LEVEL_0
 62
     7
100
AcDbLine
 10
1.348139018924854
 20
59.1402888884947
 30
0.0
 11
1.352115386666853
 21
59.14108117850969
 31
0.0
  0
LINE
  5
5A
330
1F
100
AcDbEntity
  8
IGES_LEVEL_0
 62
     7
100
AcDbLine
 10
1.352115386666853
 20
59.14108117850969
 30
0.0
 11
1.362461119595864
 21
59.1431402945997
 31
0.0
  0
LINE
  5
5B
330
1F
100
AcDbEntity
  8
IGES_LEVEL_0
 62
     7
100
AcDbLine
 10
1.362461119595864
 20
59.1431402945997
 30
0.0
 11
1.36921219536336
 21
59.1444904692647
 31
0.0
  0
LINE
  5
5C
330
1F
100
AcDbEntity
  8
IGES_LEVEL_0
 62
     7
100
AcDbLine
 10
1.36921219536336
 20
59.1444904692647
 30
0.0
 11
1.37295542220086
 21
59.1452410546197
 31
0.0
  0
SPLINE
  5
5D
330
1F
100
AcDbEntity
  8
IGES_LEVEL_0
 62
     7
100
AcDbSpline
210
0.0
220
0.0
230
1.0
 70
     8
 71
     3
 72
    15
 73
    11
 74
     0
 42
0.0000000001
 43
0.0000000001
 40
30.0
 40
30.0
 40
30.0
 40
30.0
 40
30.10148004770081
 40
30.21093536649794
 40
30.32567957946884
 40
30.44631540390893
 40
30.5736283112494
 40
30.70837683248858
 40
30.85121643647827
 40
31.0
 40
31.0
 40
31.0
 40
31.0
 10
1.37295542220086
 20
59.1452410546197
 30
0.0
 10
1.656363273240871
 20
59.2022162362297
 30
0.0
 10
2.238201475794867
 20
59.35703904041969
 30
0.0
 10
3.116173856201854
 20
59.65669204851971
 30
0.0
 10
4.045400033664762
 20
59.9755601266697
 30
0.0
 10
5.036654589684972
 20
60.26814777029968
 30
0.0
 10
6.094601929344847
 20
60.53260625816969
 30
0.0
 10
7.226880793504861
 20
60.7555735488797
 30
0.0
 10
8.432122132512447
 20
60.91384558968453
 30
0.0
 10
9.263333451081216
 20
60.95249169150487
 30
0.0
 10
9.68716900698486
 20
60.9524854678647
 30
0.0
  0
SPLINE
  5
5E
330
1F
100
AcDbEntity
  8
IGES_LEVEL_0
 62
     7
100
AcDbSpline
210
0.0
220
0.0
230
1.0
 70
     8
 71
     3
 72
    15
 73
    11
 74
     0
 42
0.0000000001
 43
0.0000000001
 40
31.0
 40
31.0
 40
31.0
 40
31.0
 40
31.14853441565796
 40
31.29137459809915
 40
31.42612386220672
 40
31.55343770364569
 40
31.67407352295147
 40
31.78881767202046
 40
31.89827412711169
 40
32.0
 40
32.0
 40
32.0
 40
32.0
 10
9.68716900698486
 20
60.9524854678647
 30
0.0
 10
10.11030846930311
 20
60.95247925444603
 30
0.0
 10
10.94083683638515
 20
60.91394466513453
 30
0.0
 10
12.14543602032586
 20
60.75591735857969
 30
0.0
 10
13.27777638042886
 20
60.53304644483969
 30
0.0
 10
14.33578485804885
 20
60.26867428578969
 30
0.0
 10
15.32708669895186
 20
59.9761289674997
 30
0.0
 10
16.25638098651186
 20
59.6573581698897
 30
0.0
 10
17.13501715539185
 20
59.35738738618971
 30
0.0
 10
17.71751363067673
 20
59.20219132332028
 30
0.0
 10
18.00164660564185
 20
59.14522660158971
 30
0.0
  0
LINE
  5
5F
330
1F
100
AcDbEntity
  8
IGES_LEVEL_0
 62
     7
100
AcDbLine
 10
18.00164660564185
 20
59.14522660158971
 30
0.0
 11
18.00538841039685
 21
59.14447642161969
 31
0.0
  0
LINE
  5
60
330
1F
100
AcDbEntity
  8
IGES_LEVEL_0
 62
     7
100
AcDbLine
 10
18.00538841039685
 20
59.14447642161969
 30
0.0
 11
18.01193411708185
 21
59.14316752885969
 31
0.0
  0
LINE
  5
61
330
1F
100
AcDbEntity
  8
IGES_LEVEL_0
 62
     7
100
AcDbLine
 10
18.01193411708185
 20
59.14316752885969
 30
0.0
 11
18.02617942472686
 21
59.14033627726969
 31
0.0
  0
LINE
  5
62
330
1F
100
AcDbEntity
  8
IGES_LEVEL_0
 62
     7
100
AcDbLine
 10
18.02617942472686
 20
59.14033627726969
 30
0.0
 11
18.04765210102185
 21
59.13580659884971
 31
0.0
  0
SPLINE
  5
63
330
1F
100
AcDbEntity
  8
IGES_LEVEL_0
 62
     7
100
AcDbSpline
210
0.0
220
0.0
230
1.0
 70
     8
 71
     3
 72
    15
 73
    11
 74
     0
 42
0.0000000001
 43
0.0000000001
 40
36.0
 40
36.0
 40
36.0
 40
36.0
 40
36.1111196321796
 40
36.2698598150629
 40
36.4198596389136
 40
36.5608561434335
 40
36.6917247693824
 40
36.8115282052835
 40
36.91928441351947
 40
37.0
 40
37.0
 40
37.0
 40
37.0
 10
18.04765210102185
 20
59.13580659884971
 30
0.0
 10
18.07884716980186
 20
59.1288167343697
 30
0.0
 10
18.15374158653187
 20
59.10770295542971
 30
0.0
 10
18.26526431560185
 20
59.06064769764969
 30
0.0
 10
18.37679133099185
 20
58.9945488139497
 30
0.0
 10
18.47243519286185
 20
58.91948723536969
 30
0.0
 10
18.55142190442186
 20
58.83878883224968
 30
0.0
 10
18.61218548986186
 20
58.75507621532969
 30
0.0
 10
18.65177115413185
 20
58.6752925613797
 30
0.0
 10
18.66593535475416
 20
58.62224823557133
 30
0.0
 10
18.66834238192686
 20
58.59905042072969
 30
0.0
  0
LINE
  5
64
330
1F
100
AcDbEntity
  8
IGES_LEVEL_0
 62
     7
100
AcDbLine
 10
18.66834238192686
 20
58.59905042072969
 30
0.0
 11
18.67405084420186
 21
58.54403490100969
 31
0.0
  0
LINE
  5
65
330
1F
100
AcDbEntity
  8
IGES_LEVEL_0
 62
     7
100
AcDbLine
 10
18.67405084420186
 20
58.54403490100969
 30
0.0
 11
18.67489914962186
 21
58.5329670083547
 31
0.0
  0
LINE
  5
66
330
1F
100
AcDbEntity
  8
IGES_LEVEL_0
 62
     7
100
AcDbLine
 10
18.67489914962186
 20
58.5329670083547
 30
0.0
 11
18.67524192985185
 21
58.52831161401971
 31
0.0
  0
LINE
  5
67
330
1F
100
AcDbEntity
  8
IGES_LEVEL_0
 62
     7
100
AcDbLine
 10
18.67524192985185
 20
58.52831161401971
 30
0.0
 11
18.67570276422686
 21
58.5220934233897
 31
0.0
  0
LINE
  5
68
330
1F
100
AcDbEntity
  8
IGES_LEVEL_0
 62
     7
100
AcDbLine
 10
18.67570276422686
 20
58.5220934233897
 30
0.0
 11
18.67618996435186
 21
58.5159254455297
 31
0.0
  0
LINE
  5
69
330
1F
100
AcDbEntity
  8
IGES_LEVEL_0
 62
     7
100
AcDbLine
 10
18.67618996435186
 20
58.5159254455297
 30
0.0
 11
18.67643515733185
 21
58.51281719828969
 31
0.0
  0
LINE
  5
6A
330
1F
100
AcDbEntity
  8
IGES_LEVEL_0
 62
     7
100
AcDbLine
 10
18.67643515733185
 20
58.51281719828969
 30
0.0
 11
18.67717211036187
 21
58.5036400625197
 31
0.0
  0
LINE
  5
6B
330
1F
100
AcDbEntity
  8
IGES_LEVEL_0
 62
     7
100
AcDbLine
 10
18.67717211036187
 20
58.5036400625197
 30
0.0
 11
18.69880236185186
 21
58.24033215666969
 31
0.0
  0
LINE
  5
6C
330
1F
100
AcDbEntity
  8
IGES_LEVEL_0
 62
     7
100
AcDbLine
 10
18.69880236185186
 20
58.24033215666969
 30
0.0
 11
18.72643882080186
 21
57.89852294291969
 31
0.0
  0
LINE
  5
6D
330
1F
100
AcDbEntity
  8
IGES_LEVEL_0
 62
     7
100
AcDbLine
 10
18.72643882080186
 20
57.89852294291969
 30
0.0
 11
18.72890871619185
 21
57.86709328741969
 31
0.0
  0
LINE
  5
6E
330
1F
100
AcDbEntity
  8
IGES_LEVEL_0
 62
     7
100
AcDbLine
 10
18.72890871619185
 20
57.86709328741969
 30
0.0
 11
18.73237865532686
 21
57.83788684873469
 31
0.0
  0
LINE
  5
6F
330
1F
100
AcDbEntity
  8
IGES_LEVEL_0
 62
     7
100
AcDbLine
 10
18.73237865532686
 20
57.83788684873469
 30
0.0
 11
18.73304057486186
 21
57.8440926124997
 31
0.0
  0
LINE
  5
70
330
1F
100
AcDbEntity
  8
IGES_LEVEL_0
 62
     7
100
AcDbLine
 10
18.73304057486186
 20
57.8440926124997
 30
0.0
 11
18.73107234403186
 21
57.86834837602969
 31
0.0
  0
LINE
  5
71
330
1F
100
AcDbEntity
  8
IGES_LEVEL_0
 62
     7
100
AcDbLine
 10
18.73107234403186
 20
57.86834837602969
 30
0.0
 11
18.72916114027186
 21
57.89177606790971
 31
0.0
  0
LINE
  5
72
330
1F
100
AcDbEntity
  8
IGES_LEVEL_0
 62
     7
100
AcDbLine
 10
18.72916114027186
 20
57.89177606790971
 30
0.0
 11
18.69830917489186
 21
58.25567211934969
 31
0.0
  0
ARC
  5
73
330
1F
100
AcDbEntity
  8
IGES_LEVEL_0
 62
     7
100
AcDbCircle
 10
17.85439711540392
 20
57.90467758902682
 30
0.0
 40
0.8467326632248515
100
AcDbArc
 50
18.8711494288468
 51
76.15974994863076
  0
SPLINE
  5
74
330
1F
100
AcDbEntity
  8
IGES_LEVEL_0
 62
     7
100
AcDbSpline
210
0.0
220
0.0
230
1.0
 70
     8
 71
     3
 72
    16
 73
    12
 74
     0
 42
0.0000000001
 43
0.0000000001
 40
1.0
 40
1.0
 40
1.0
 40
1.0
 40
1.09097114537574
 40
1.1876084434776
 40
1.2881936694339
 40
1.3932190980135
 40
1.5031087993536
 40
1.6184092558226
 40
1.7397728081457
 40
1.8676814846905
 40
2.0
 40
2.0
 40
2.0
 40
2.0
 10
18.05694879147686
 20
58.7268266153547
 30
0.0
 10
17.80218928297185
 20
58.78959134995969
 30
0.0
 10
17.28369564474185
 20
58.94726443872968
 30
0.0
 10
16.50534571506186
 20
59.23913477077971
 30
0.0
 10
15.69440546343186
 20
59.5590933471297
 30
0.0
 10
14.83259729727186
 20
59.85289327555969
 30
0.0
 10
13.91219887494286
 20
60.10044992636968
 30
0.0
 10
12.93236991855785
 20
60.30014889722968
 30
0.0
 10
11.89336039371686
 20
60.4638156197997
 30
0.0
 10
10.79840066847886
 20
60.58045017932971
 30
0.0
 10
10.04748485983995
 20
60.60829907436119
 30
0.0
 10
9.665853128749362
 20
60.60708151565969
 30
0.0
  0
SPLINE
  5
75
330
1F
100
AcDbEntity
  8
IGES_LEVEL_0
 62
     7
100
AcDbSpline
210
0.0
220
0.0
230
1.0
 70
     8
 71
     3
 72
    16
 73
    12
 74
     0
 42
0.0000000001
 43
0.0000000001
 40
2.0
 40
2.0
 40
2.0
 40
2.0
 40
2.1325154544299
 40
2.2604160496743
 40
2.3817788902669
 40
2.4970856143515
 40
2.6069809515464
 40
2.7120105568247
 40
2.8125977436757
 40
2.9092353253226
 40
3.0
 40
3.0
 40
3.0
 40
3.0
 10
9.665853128749362
 20
60.60708151565969
 30
0.0
 10
9.283609136757846
 20
60.60586200359969
 30
0.0
 10
8.532252248081861
 20
60.57320546141968
 30
0.0
 10
7.437399457521863
 20
60.4494539786697
 30
0.0
 10
6.399337044653848
 20
60.2791631419997
 30
0.0
 10
5.420668764310662
 20
60.0731330545997
 30
0.0
 10
4.50170056094457
 20
59.8197165114997
 30
0.0
 10
3.641696446708764
 20
59.5202513692597
 30
0.0
 10
2.832650443538867
 20
59.19521664597971
 30
0.0
 10
2.056585793314852
 20
58.8986949272197
 30
0.0
 10
1.541665280196093
 20
58.72820044715809
 30
0.0
 10
1.285772955766845
 20
58.67375094986971
 30
0.0
  0
ARC
  5
76
330
1F
100
AcDbEntity
  8
IGES_LEVEL_0
 62
     7
100
AcDbCircle
 10
1.450306620763005
 20
57.90050410500459
 30
0.0
 40
0.7905580370921114
100
AcDbArc
 50
102.0124041671369
 51
163.7721017002055
  0
LINE
  5
77
330
1F
100
AcDbEntity
  8
IGES_LEVEL_0
 62
     7
100
AcDbLine
 10
0.6912462133758623
 20
58.12143239189469
 30
0.0
 11
0.6857666444948478
 21
58.0898036391797
 31
0.0
  0
LINE
  5
78
330
1F
100
AcDbEntity
  8
IGES_LEVEL_0
 62
     7
100
AcDbLine
 10
0.6857666444948478
 20
58.0898036391797
 30
0.0
 11
0.6782278919158529
 21
58.05014156977969
 31
0.0
  0
LINE
  5
79
330
1F
100
AcDbEntity
  8
IGES_LEVEL_0
 62
     7
100
AcDbLine
 10
0.6782278919158529
 20
58.05014156977969
 30
0.0
 11
0.6256470269358658
 21
57.8171766221647
 31
0.0
  0
LINE
  5
7A
330
1F
100
AcDbEntity
  8
IGES_LEVEL_0
 62
     7
100
AcDbLine
 10
0.6256470269358658
 20
57.8171766221647
 30
0.0
 11
0.6077402087588553
 21
57.7321816458397
 31
0.0
  0
SPLINE
  5
7B
330
1F
100
AcDbEntity
  8
IGES_LEVEL_0
 62
     7
100
AcDbSpline
210
0.0
220
0.0
230
1.0
 70
     8
 71
     3
 72
    49
 73
    45
 74
     0
 42
0.0000000001
 43
0.0000000001
 40
8.0
 40
8.0
 40
8.0
 40
8.0
 40
8.00967951062332
 40
8.0509169176415
 40
8.089750613087789
 40
8.126596468403946
 40
8.16177863436349
 40
8.195602585412512
 40
8.228322883767302
 40
8.260174862931315
 40
8.291285909581008
 40
8.32168975918604
 40
8.351405353323013
 40
8.380444316027708
 40
8.408833702845769
 40
8.436601655242519
 40
8.46380241790235
 40
8.490461617384433
 40
8.516604749496583
 40
8.542269034995295
 40
8.567489673490117
 40
8.592300205879083
 40
8.616735939405023
 40
8.640823593713176
 40
8.664559221897081
 40
8.687937754929079
 40
8.710944771548572
 40
8.733551323311396
 40
8.755728407427938
 40
8.777468340708305
 40
8.798707864078605
 40
8.819081012331457
 40
8.838064011392449
 40
8.855223740688256
 40
8.870499028393228
 40
8.884028847619851
 40
8.896026135358394
 40
8.907169249346167
 40
8.918460871704147
 40
8.931258407348384
 40
8.947163367172585
 40
8.966668299734698
 40
8.988100711604341
 40
9.0
 40
9.0
 40
9.0
 40
9.0
 10
0.6077402087588553
 20
57.7321816458397
 30
0.0
 10
0.6060901955058711
 20
57.72465040954969
 30
0.0
 10
0.5977041730718469
 20
57.68575399667969
 30
0.0
 10
0.5840897283988653
 20
57.6169485768697
 30
0.0
 10
0.568419688822857
 20
57.52693447893969
 30
0.0
 10
0.5551706782448633
 20
57.44132017016971
 30
0.0
 10
0.5437567268948698
 20
57.3593942703197
 30
0.0
 10
0.5337399118478601
 20
57.2805354733897
 30
0.0
 10
0.5247896770238612
 20
57.20416861522968
 30
0.0
 10
0.5166434885048687
 20
57.12984446528969
 30
0.0
 10
0.5091104086428544
 20
57.05727550875971
 30
0.0
 10
0.5020572550898663
 20
56.9863359190397
 30
0.0
 10
0.495391634058862
 20
56.91698540284968
 30
0.0
 10
0.4890335045158594
 20
56.84918695401969
 30
0.0
 10
0.4829275866438678
 20
56.7828935667197
 30
0.0
 10
0.4770371647008602
 20
56.71802286931969
 30
0.0
 10
0.4713831213308453
 20
56.65448834199969
 30
0.0
 10
0.4660071349418473
 20
56.5922039355897
 30
0.0
 10
0.4609293379388504
 20
56.5310991712397
 30
0.0
 10
0.4561674546838646
 20
56.47109652193969
 30
0.0
 10
0.4517442458788565
 20
56.41211209592969
 30
0.0
 10
0.4476803753658629
 20
56.35406409434969
 30
0.0
 10
0.4439960526288616
 20
56.2968778480297
 30
0.0
 10
0.4407146890088569
 20
56.2405083460997
 30
0.0
 10
0.4378621236938471
 20
56.18494262331969
 30
0.0
 10
0.4354686843548592
 20
56.13020035675969
 30
0.0
 10
0.433563868658851
 20
56.07632163422969
 30
0.0
 10
0.4321703484608719
 20
56.02336632963971
 30
0.0
 10
0.4313027090888539
 20
55.9713899770397
 30
0.0
 10
0.4309822461638504
 20
55.9204754199997
 30
0.0
 10
0.43124289647686
 20
55.8709700855597
 30
0.0
 10
0.432044481696849
 20
55.82362515724969
 30
0.0
 10
0.4333554114728457
 20
55.77948067735969
 30
0.0
 10
0.4351467248108492
 20
55.73933989385969
 30
0.0
 10
0.43741403906985
 20
55.70349096607969
 30
0.0
 10
0.4402510729218676
 20
55.67172887579969
 30
0.0
 10
0.443792517508868
 20
55.64328643622969
 30
0.0
 10
0.4483573460418455
 20
55.6167573130897
 30
0.0
 10
0.4548716284998449
 20
55.58997694466969
 30
0.0
 10
0.4653917694568435
 20
55.5604636972497
 30
0.0
 10
0.4835296594868481
 20
55.5272005819097
 30
0.0
 10
0.5130966609798549
 20
55.49341996082969
 30
0.0
 10
0.5479770446063697
 20
55.47034104108894
 30
0.0
 10
0.5725413964351177
 20
55.46104246750073
 30
0.0
 10
0.5815050456273525
 20
55.45843836507469
 30
0.0
  0
SPLINE
  5
7C
330
1F
100
AcDbEntity
  8
IGES_LEVEL_0
 62
     7
100
AcDbSpline
210
0.0
220
0.0
230
1.0
 70
     8
 71
     3
 72
    27
 73
    23
 74
     0
 42
0.0000000001
 43
0.0000000001
 40
9.0
 40
9.0
 40
9.0
 40
9.0
 40
9.028345236421114
 40
9.060781796762333
 40
9.093405464911767
 40
9.126540566670807
 40
9.161353273093106
 40
9.197847357524205
 40
9.236158459941256
 40
9.276298583084861
 40
9.318147510449959
 40
9.361869713154658
 40
9.407428410900121
 40
9.455609787936716
 40
9.506727725664817
 40
9.56132899229981
 40
9.620137337828355
 40
9.683700694348103
 40
9.752666409786125
 40
9.82789360154675
 40
9.910883214643718
 40
10.0
 40
10.0
 40
10.0
 40
10.0
 10
0.5815050456273525
 20
55.45843836507469
 30
0.0
 10
0.6697480438949128
 20
55.43280217595778
 30
0.0
 10
0.8623002399096578
 20
55.38863705692267
 30
0.0
 10
1.164214037439862
 20
55.3575264235097
 30
0.0
 10
1.483162449657854
 20
55.3646422128497
 30
0.0
 10
1.806638152889846
 20
55.4097058864597
 30
0.0
 10
2.13562764298787
 20
55.49176842685969
 30
0.0
 10
2.470912032937846
 20
55.61065655874969
 30
0.0
 10
2.810872054547858
 20
55.76382210289969
 30
0.0
 10
3.155135038038864
 20
55.94727929415969
 30
0.0
 10
3.505102519881845
 20
56.1560560602397
 30
0.0
 10
3.864231116976455
 20
56.38329377419969
 30
0.0
 10
4.241871463043268
 20
56.6196491700997
 30
0.0
 10
4.643529225107486
 20
56.86275566193969
 30
0.0
 10
5.076716541957367
 20
57.11016181736971
 30
0.0
 10
5.550350618171862
 20
57.3555652061897
 30
0.0
 10
6.074908137866871
 20
57.58865087669971
 30
0.0
 10
6.659982476799868
 20
57.79622736964969
 30
0.0
 10
7.311611891948857
 20
57.96852701340969
 30
0.0
 10
8.036188270846864
 20
58.10289576993969
 30
0.0
 10
8.83347732804485
 20
58.19183179651969
 30
0.0
 10
9.391425665080808
 20
58.21387307220454
 30
0.0
 10
9.68025004686686
 20
58.2147911662047
 30
0.0
  0
SPLINE
  5
7D
330
1F
100
AcDbEntity
  8
IGES_LEVEL_0
 62
     7
100
AcDbSpline
210
0.0
220
0.0
230
1.0
 70
     8
 71
     3
 72
    27
 73
    23
 74
     0
 42
0.0000000001
 43
0.0000000001
 40
10.0
 40
10.0
 40
10.0
 40
10.0
 40
10.0891139092528
 40
10.1721272592168
 40
10.24739690146337
 40
10.31639425512171
 40
10.37995768859583
 40
10.43875332689834
 40
10.49334284416869
 40
10.54445129795112
 40
10.59262520786426
 40
10.63817690404443
 40
10.68189188051921
 40
10.72373164880066
 40
10.76386291332311
 40
10.80216995983693
 40
10.83866990134965
 40
10.8734998392478
 40
10.90666333395777
 40
10.93930189185319
 40
10.97171810801654
 40
11.0
 40
11.0
 40
11.0
 40
11.0
 10
9.68025004686686
 20
58.2147911662047
 30
0.0
 10
9.969041382362846
 20
58.21570915515971
 30
0.0
 10
10.52713959074386
 20
58.19719368821969
 30
0.0
 10
11.32511636479985
 20
58.11331605261969
 30
0.0
 10
12.05078877236785
 20
57.98353445541971
 30
0.0
 10
12.70368826518185
 20
57.8153664576497
 30
0.0
 10
13.29008343235286
 20
57.61151616888969
 30
0.0
 10
13.81598863807587
 20
57.3818014115497
 30
0.0
 10
14.29102239508985
 20
57.1394566294297
 30
0.0
 10
14.72564082871186
 20
56.89484620497969
 30
0.0
 10
15.12871794054186
 20
56.65432697743969
 30
0.0
 10
15.50774315638186
 20
56.4204021959297
 30
0.0
 10
15.86818866919187
 20
56.1954683357397
 30
0.0
 10
16.21934057698185
 20
55.98891783301971
 30
0.0
 10
16.56462845394186
 20
55.80762067127969
 30
0.0
 10
16.90546312527185
 20
55.6565444134697
 30
0.0
 10
17.24149263672186
 20
55.5396792952097
 30
0.0
 10
17.57111452874186
 20
55.4595980337097
 30
0.0
 10
17.89503774861186
 20
55.4165437065197
 30
0.0
 10
18.21407673582186
 20
55.4115032710697
 30
0.0
 10
18.51553125202129
 20
55.44458468020541
 30
0.0
 10
18.70753113114209
 20
55.48986040424918
 30
0.0
 10
18.79538402102186
 20
55.5160674743397
 30
0.0
  0
SPLINE
  5
7E
330
1F
100
AcDbEntity
  8
IGES_LEVEL_0
 62
     7
100
AcDbSpline
210
0.0
220
0.0
230
1.0
 70
     8
 71
     3
 72
    51
 73
    47
 74
     0
 42
0.0000000001
 43
0.0000000001
 40
11.0
 40
11.0
 40
11.0
 40
11.0
 40
11.01156565176146
 40
11.03262700031979
 40
11.05179252079168
 40
11.06752894491668
 40
11.08010237033393
 40
11.09095949646357
 40
11.10143272177246
 40
11.11252059885752
 40
11.12482128305115
 40
11.13865432322942
 40
11.15421206617111
 40
11.17149835530741
 40
11.19026929200161
 40
11.21011231544835
 40
11.23057687745504
 40
11.25146653146867
 40
11.27274427806378
 40
11.2944074179427
 40
11.31642936058338
 40
11.33878545436074
 40
11.36146483748471
 40
11.3844663026318
 40
11.40778452729708
 40
11.43144223493306
 40
11.45547211236223
 40
11.47990230619294
 40
11.50476121426931
 40
11.53008258166793
 40
11.55589352537823
 40
11.58221304606863
 40
11.60907120040071
 40
11.63651649753319
 40
11.66456314606254
 40
11.69322768280344
 40
11.72252258876514
 40
11.75246495897174
 40
11.78309892641449
 40
11.81457733162272
 40
11.84711290169767
 40
11.88093713438129
 40
11.91632384493963
 40
11.95356053585854
 40
11.99301781059497
 40
12.0
 40
12.0
 40
12.0
 40
12.0
 10
18.79538402102186
 20
55.5160674743397
 30
0.0
 10
18.80405380096735
 20
55.51865372427424
 30
0.0
 10
18.82798963475199
 20
55.52782108604519
 30
0.0
 10
18.86208178609185
 20
55.55036316558969
 30
0.0
 10
18.89123961630186
 20
55.5834049413297
 30
0.0
 10
18.90922295114186
 20
55.61598564381969
 30
0.0
 10
18.91958709276186
 20
55.64478224319969
 30
0.0
 10
18.92585373947186
 20
55.67048105995971
 30
0.0
 10
18.93010854857185
 20
55.6953972867497
 30
0.0
 10
18.93329140094185
 20
55.72160060254969
 30
0.0
 10
18.93576556873185
 20
55.75050626889969
 30
0.0
 10
18.93770346012185
 20
55.7829415075697
 30
0.0
 10
18.93915081020187
 20
55.81929030983969
 30
0.0
 10
18.94013230565186
 20
55.8595034618597
 30
0.0
 10
18.94065365313186
 20
55.9030647584397
 30
0.0
 10
18.94068611100185
 20
55.9491060185597
 30
0.0
 10
18.94018153817186
 20
55.99679573839969
 30
0.0
 10
18.93915150535186
 20
56.04559520662971
 30
0.0
 10
18.93761921703187
 20
56.0953158920597
 30
0.0
 10
18.93560511735186
 20
56.14590242327969
 30
0.0
 10
18.93312239704186
 20
56.19730941724969
 30
0.0
 10
18.93019049826187
 20
56.24948589839971
 30
0.0
 10
18.92683784083185
 20
56.3024018520697
 30
0.0
 10
18.92308933270185
 20
56.35604282239969
 30
0.0
 10
18.91896734397186
 20
56.41042096018969
 30
0.0
 10
18.91449194389186
 20
56.4655752235497
 30
0.0
 10
18.90967975023186
 20
56.52157088815971
 30
0.0
 10
18.90454694262185
 20
56.57847800030969
 30
0.0
 10
18.89911203778186
 20
56.63636798897971
 30
0.0
 10
18.89339246989185
 20
56.69531169445968
 30
0.0
 10
18.88740215231185
 20
56.7553724985297
 30
0.0
 10
18.88116537552186
 20
56.81661212389971
 30
0.0
 10
18.87472274330186
 20
56.8791109759397
 30
0.0
 10
18.86805266080187
 20
56.94293942598969
 30
0.0
 10
18.86111477894185
 20
57.0081551931797
 30
0.0
 10
18.85385023875186
 20
57.07478557508969
 30
0.0
 10
18.84618729515186
 20
57.1428582807197
 30
0.0
 10
18.83803415204186
 20
57.21241968446969
 30
0.0
 10
18.82925960754186
 20
57.28362046721968
 30
0.0
 10
18.81967816694186
 20
57.35675619832968
 30
0.0
 10
18.80904241112187
 20
57.43225818506971
 30
0.0
 10
18.79704709228186
 20
57.5106396811997
 30
0.0
 10
18.78328756833186
 20
57.5924496384097
 30
0.0
 10
18.76723842709185
 20
57.6783138284197
 30
0.0
 10
18.75385116221186
 20
57.7421399822497
 30
0.0
 10
18.74583596823725
 20
57.77743420341862
 30
0.0
 10
18.74464545056686
 20
57.78284731003469
 30
0.0
  0
LINE
  5
7F
330
1F
100
AcDbEntity
  8
IGES_LEVEL_0
 62
     7
100
AcDbLine
 10
18.74464545056686
 20
57.78284731003469
 30
0.0
 11
18.72597449996186
 21
57.8677413429097
 31
0.0
  0
LINE
  5
80
330
1F
100
AcDbEntity
  8
IGES_LEVEL_0
 62
     7
100
AcDbLine
 10
18.72597449996186
 20
57.8677413429097
 30
0.0
 11
18.66939330457186
 21
58.1072966973997
 31
0.0
  0
LINE
  5
81
330
1F
100
AcDbEntity
  8
IGES_LEVEL_0
 62
     7
100
AcDbLine
 10
18.66939330457186
 20
58.1072966973997
 30
0.0
 11
18.66130940116186
 21
58.14758947734969
 31
0.0
  0
LINE
  5
82
330
1F
100
AcDbEntity
  8
IGES_LEVEL_0
 62
     7
100
AcDbLine
 10
18.66130940116186
 20
58.14758947734969
 30
0.0
 11
18.65561649531186
 21
58.1785456379697
 31
0.0
  0
LINE
  5
83
330
1F
100
AcDbEntity
  8
IGES_LEVEL_0
 62
     7
100
AcDbLine
 10
18.69579230141186
 20
58.28456192822969
 30
0.0
 11
18.67720501999186
 21
58.50292513482969
 31
0.0
  0
ARC
  5
85
330
1F
100
AcDbEntity
  8
DEFAULT
100
AcDbCircle
 10
35.48428771139805
 20
31.10290681709714
 30
0.0
 40
0.857164370649345
100
AcDbArc
 50
31.96167300032181
 51
55.93845916664422
  0
LINE
  5
86
330
1F
100
AcDbEntity
  8
DEFAULT
100
AcDbLine
 10
35.96437093946986
 20
31.81301304325971
 30
0.0
 11
35.95713204507986
 21
31.81790706003971
 31
0.0
  0
ARC
  5
87
330
1F
100
AcDbEntity
  8
DEFAULT
100
AcDbCircle
 10
35.75011357656011
 20
31.56710237792387
 30
0.0
 40
0.3252070646211227
100
AcDbArc
 50
50.46315254882889
 51
102.167264418789
  0
LINE
  5
88
330
1F
100
AcDbEntity
  8
DEFAULT
100
AcDbLine
 10
35.68157087978987
 20
31.8850041451397
 30
0.0
 11
35.63754214086985
 21
31.8664095853497
 31
0.0
  0
LINE
  5
89
330
1F
100
AcDbEntity
  8
DEFAULT
100
AcDbLine
 10
35.63754214086985
 20
31.8664095853497
 30
0.0
 11
33.93154096218986
 21
31.3735589886997
 31
0.0
  0
ARC
  5
8A
330
1F
100
AcDbEntity
  8
DEFAULT
100
AcDbCircle
 10
33.9155551593711
 20
31.25067213901343
 30
0.0
 40
0.1239222486786633
100
AcDbArc
 50
82.58826801143384
 51
156.5346064036561
  0
LINE
  5
8B
330
1F
100
AcDbEntity
  8
DEFAULT
100
AcDbLine
 10
33.80188118773985
 20
31.3000173707097
 30
0.0
 11
33.7778062038761
 21
31.19077136715389
 31
0.0
  0
ARC
  5
8C
330
1F
100
AcDbEntity
  8
DEFAULT
100
AcDbCircle
 10
33.85382160545611
 20
31.17254077607628
 30
0.0
 40
0.0781709391552294
100
AcDbArc
 50
166.5136070789439
 51
244.8348256827607
  0
ARC
  5
8D
330
1F
100
AcDbEntity
  8
DEFAULT
100
AcDbCircle
 10
33.2515196436667
 20
29.7280533194586
 30
0.0
 40
1.486936995251415
100
AcDbArc
 50
28.1666188598981
 51
67.4985302257801
  0
LINE
  5
8E
330
1F
100
AcDbEntity
  8
DEFAULT
100
AcDbLine
 10
34.56237150150986
 20
30.4299429365897
 30
0.0
 11
34.71728953100985
 21
30.1406174047297
 31
0.0
  0
LINE
  5
8F
330
1F
100
AcDbEntity
  8
DEFAULT
100
AcDbLine
 10
34.71728953100985
 20
30.1406174047297
 30
0.0
 11
34.84484538374987
 21
29.8612120049897
 31
0.0
  0
LINE
  5
90
330
1F
100
AcDbEntity
  8
DEFAULT
100
AcDbLine
 10
34.84484538374987
 20
29.8612120049897
 30
0.0
 11
34.84669895343986
 21
29.85685865708971
 31
0.0
  0
LINE
  5
91
330
1F
100
AcDbEntity
  8
DEFAULT
100
AcDbLine
 10
34.84669895343986
 20
29.85685865708971
 30
0.0
 11
34.96084934140986
 21
29.5715285175697
 31
0.0
  0
ARC
  5
92
330
1F
100
AcDbEntity
  8
DEFAULT
100
AcDbCircle
 10
24.74299916288129
 20
25.75688670700527
 30
0.0
 40
10.90669310165839
100
AcDbArc
 50
11.17293959216861
 51
20.47216998687316
  0
LINE
  5
93
330
1F
100
AcDbEntity
  8
DEFAULT
100
AcDbLine
 10
35.44297532712986
 20
27.87028787532971
 30
0.0
 11
35.49232551239986
 21
27.6204319492497
 31
0.0
  0
LINE
  5
94
330
1F
100
AcDbEntity
  8
DEFAULT
100
AcDbLine
 10
35.49232551239986
 20
27.6204319492497
 30
0.0
 11
35.53277751365987
 21
27.3938041601497
 31
0.0
  0
LINE
  5
95
330
1F
100
AcDbEntity
  8
DEFAULT
100
AcDbLine
 10
35.53277751365987
 20
27.3938041601497
 30
0.0
 11
35.53797531381987
 21
27.36291558187971
 31
0.0
  0
ARC
  5
96
330
1F
100
AcDbEntity
  8
DEFAULT
100
AcDbCircle
 10
22.54251193197682
 20
25.30109269280155
 30
0.0
 40
13.15800828905159
100
AcDbArc
 50
352.5386178728204
 51
9.015240832640927
  0
LINE
  5
97
330
1F
100
AcDbEntity
  8
DEFAULT
100
AcDbLine
 10
35.58910625951985
 20
23.59242110724971
 30
0.0
 11
35.58376265260986
 21
23.5516198952497
 31
0.0
  0
LINE
  5
98
330
1F
100
AcDbEntity
  8
DEFAULT
100
AcDbLine
 10
35.58376265260986
 20
23.5516198952497
 30
0.0
 11
35.55871546151987
 21
23.36970199927971
 31
0.0
  0
LINE
  5
99
330
1F
100
AcDbEntity
  8
DEFAULT
100
AcDbLine
 10
35.55871546151987
 20
23.36970199927971
 30
0.0
 11
35.52518117066985
 21
23.14557603805971
 31
0.0
  0
ARC
  5
9A
330
1F
100
AcDbEntity
  8
DEFAULT
100
AcDbCircle
 10
12.37621012527927
 20
26.87738986305607
 30
0.0
 40
23.44784200912241
100
AcDbArc
 50
347.7546462892957
 51
350.8422151760246
  0
ARC
  5
9B
330
1F
100
AcDbEntity
  8
DEFAULT
100
AcDbCircle
 10
31.02884236321691
 20
22.81666928777779
 30
0.0
 40
4.35833315480637
100
AcDbArc
 50
339.1093962044432
 51
347.9142210650097
  0
ARC
  5
9C
330
1F
100
AcDbEntity
  8
DEFAULT
100
AcDbCircle
 10
35.17541297598923
 20
21.23402798523411
 30
0.0
 40
0.0800000164713425
100
AcDbArc
 50
159.1100087117955
 51
255.8123667253305
  0
LINE
  5
9D
330
1F
100
AcDbEntity
  8
DEFAULT
100
AcDbLine
 10
35.15580512115137
 20
21.15646810730698
 30
0.0
 11
35.24199920650491
 21
21.13467744493536
 31
0.0
  0
ARC
  5
9E
330
1F
100
AcDbEntity
  8
DEFAULT
100
AcDbCircle
 10
35.26166204703738
 20
21.21245554636897
 30
0.0
 40
0.0802250606757165
100
AcDbArc
 50
255.8124935925615
 51
285.5111410056068
  0
LINE
  5
9F
330
1F
100
AcDbEntity
  8
DEFAULT
100
AcDbLine
 10
35.28311629376032
 20
21.13515240504876
 30
0.0
 11
35.28783714880986
 21
21.13324510951971
 31
0.0
  0
LINE
  5
A0
330
1F
100
AcDbEntity
  8
DEFAULT
100
AcDbLine
 10
35.28783714880986
 20
21.13324510951971
 30
0.0
 11
35.29422856289487
 21
21.13124997309971
 31
0.0
  0
LINE
  5
A1
330
1F
100
AcDbEntity
  8
DEFAULT
100
AcDbLine
 10
35.29422856289487
 20
21.13124997309971
 30
0.0
 11
35.38013379385486
 21
21.1083494408097
 31
0.0
  0
ARC
  5
A2
330
1F
100
AcDbEntity
  8
DEFAULT
100
AcDbCircle
 10
35.3772140271374
 20
21.31902944108089
 30
0.0
 40
0.2107002314947701
100
AcDbArc
 50
270.7939984851513
 51
311.3881386314707
  0
ARC
  5
A3
330
1F
100
AcDbEntity
  8
DEFAULT
100
AcDbCircle
 10
30.44084864604314
 20
28.95135619154615
 30
0.0
 40
9.298001692283281
100
AcDbArc
 50
303.0853943749384
 51
310.7566681420442
  0
ARC
  5
A4
330
1F
100
AcDbEntity
  8
IGES_LEVEL_0
 62
     7
100
AcDbCircle
 10
33.78718177249419
 20
25.43353550156863
 30
0.0
 40
1.955009001099429
100
AcDbArc
 50
1.047369269863603
 51
6.684918544884186
  0
LINE
  5
A5
330
1F
100
AcDbEntity
  8
IGES_LEVEL_0
 62
     7
100
AcDbLine
 10
35.74186413983986
 20
25.46927115837971
 30
0.0
 11
35.74244799295987
 21
25.43733534130971
 31
0.0
  0
LINE
  5
A6
330
1F
100
AcDbEntity
  8
IGES_LEVEL_0
 62
     7
100
AcDbLine
 10
35.74244799295987
 20
25.43733534130971
 30
0.0
 11
35.74251833377487
 21
25.4312816087197
 31
0.0
  0
LINE
  5
A7
330
1F
100
AcDbEntity
  8
IGES_LEVEL_0
 62
     7
100
AcDbLine
 10
35.74251833377487
 20
25.4312816087197
 30
0.0
 11
35.74263021846987
 21
25.4174802472597
 31
0.0
  0
LINE
  5
A8
330
1F
100
AcDbEntity
  8
IGES_LEVEL_0
 62
     7
100
AcDbLine
 10
35.74263021846987
 20
25.4174802472597
 30
0.0
 11
35.74267525883987
 21
25.40266555533971
 31
0.0
  0
LINE
  5
A9
330
1F
100
AcDbEntity
  8
IGES_LEVEL_0
 62
     7
100
AcDbLine
 10
35.74267525883987
 20
25.40266555533971
 30
0.0
 11
35.73215709420985
 21
25.19565360407971
 31
0.0
  0
LINE
  5
AA
330
1F
100
AcDbEntity
  8
IGES_LEVEL_0
 62
     7
100
AcDbLine
 10
35.73215709420985
 20
25.19565360407971
 30
0.0
 11
35.73245256576986
 21
25.1970145717697
 31
0.0
  0
ARC
  5
AB
330
1F
100
AcDbEntity
  8
IGES_LEVEL_0
 62
     7
100
AcDbCircle
 10
37.31395714013355
 20
26.78054370452472
 30
0.0
 40
0.7533285630041874
100
AcDbArc
 50
21.88448475540672
 51
37.96686913253701
  0
LINE
  5
AC
330
1F
100
AcDbEntity
  8
IGES_LEVEL_0
 62
     7
100
AcDbLine
 10
38.01299875415985
 20
27.0613367701397
 30
0.0
 11
38.02530718574987
 21
27.03069461070471
 31
0.0
  0
LINE
  5
AD
330
1F
100
AcDbEntity
  8
IGES_LEVEL_0
 62
     7
100
AcDbLine
 10
38.02530718574987
 20
27.03069461070471
 30
0.0
 11
38.02767150543987
 21
27.0244399027797
 31
0.0
  0
LINE
  5
AE
330
1F
100
AcDbEntity
  8
IGES_LEVEL_0
 62
     7
100
AcDbLine
 10
38.02767150543987
 20
27.0244399027797
 30
0.0
 11
38.03570337145986
 21
27.0020660777997
 31
0.0
  0
ARC
  5
AF
330
1F
100
AcDbEntity
  8
IGES_LEVEL_0
 62
     7
100
AcDbCircle
 10
37.68554775188053
 20
26.85841110260826
 30
0.0
 40
0.3784781497262903
100
AcDbArc
 50
354.5955366255164
 51
22.30639940710359
  0
ARC
  5
B0
330
1F
100
AcDbEntity
  8
IGES_LEVEL_0
 62
     7
100
AcDbCircle
 10
37.10188614149309
 20
26.30319585810969
 30
0.0
 40
0.3830986675886913
100
AcDbArc
 50
14.13741774460832
 51
42.2601384231709
  0
LINE
  5
B1
330
1F
100
AcDbEntity
  8
IGES_LEVEL_0
 62
     7
100
AcDbLine
 10
37.47338178961986
 20
26.3967670744697
 30
0.0
 11
37.48139902244986
 21
26.36493712480971
 31
0.0
  0
LINE
  5
B2
330
1F
100
AcDbEntity
  8
IGES_LEVEL_0
 62
     7
100
AcDbLine
 10
37.48139902244986
 20
26.36493712480971
 30
0.0
 11
37.48396349882985
 21
26.3520711847397
 31
0.0
  0
LINE
  5
B3
330
1F
100
AcDbEntity
  8
IGES_LEVEL_0
 62
     7
100
AcDbLine
 10
37.48396349882985
 20
26.3520711847397
 30
0.0
 11
37.48631377406987
 21
26.33804059132971
 31
0.0
  0
ARC
  5
B4
330
1F
100
AcDbEntity
  8
IGES_LEVEL_0
 62
     7
100
AcDbCircle
 10
37.26574993136299
 20
26.29131058262112
 30
0.0
 40
0.2254597578804927
100
AcDbArc
 50
335.7206219054941
 51
11.96214612226234
  0
ARC
  5
B5
330
1F
100
AcDbEntity
  8
IGES_LEVEL_0
 62
     7
100
AcDbCircle
 10
35.67542902144938
 20
25.41177669356557
 30
0.0
 40
3.549906614575537
100
AcDbArc
 50
304.4913384545744
 51
329.1776575972458
  0
LINE
  5
B6
330
1F
100
AcDbEntity
  8
IGES_LEVEL_0
 62
     7
100
AcDbLine
 10
38.72394739833487
 20
23.5928834372147
 30
0.0
 11
38.72466320716985
 21
23.5940831537897
 31
0.0
  0
LINE
  5
B7
330
1F
100
AcDbEntity
  8
IGES_LEVEL_0
 62
     7
100
AcDbLine
 10
38.72466320716985
 20
23.5940831537897
 30
0.0
 11
38.74111529400986
 21
23.6223196934797
 31
0.0
  0
SPLINE
  5
B8
330
1F
100
AcDbEntity
  8
IGES_LEVEL_0
 62
     7
100
AcDbSpline
210
0.0
220
0.0
230
1.0
 70
     8
 71
     3
 72
    36
 73
    32
 74
     0
 42
0.0000000001
 43
0.0000000001
 40
3.0
 40
3.0
 40
3.0
 40
3.0
 40
3.01618918618678
 40
3.0620393966223
 40
3.1050243092829
 40
3.1464893081717
 40
3.187974740516
 40
3.2296745247196
 40
3.2693062290088
 40
3.3055165250436
 40
3.3411278585772
 40
3.3802548264878
 40
3.4222995211009
 40
3.4657198727841
 40
3.5091150624667
 40
3.5518782688055
 40
3.5933405909932
 40
3.6330569062548
 40
3.6709785646168
 40
3.7072427043865
 40
3.7422895176906
 40
3.7763621004082
 40
3.8093014603794
 40
3.8409467186116
 40
3.8711508780586
 40
3.8995308761226
 40
3.9252342640666
 40
3.947898228542
 40
3.9681676789982
 40
3.9864888872319
 40
4.0
 40
4.0
 40
4.0
 40
4.0
 10
38.74111529400986
 20
23.6223196934797
 30
0.0
 10
38.76462379186985
 20
23.66285028810971
 30
0.0
 10
38.85338807376986
 20
23.8189383795897
 30
0.0
 10
38.99421882989985
 20
24.0884578831397
 30
0.0
 10
39.14592365758986
 20
24.4340907598297
 30
0.0
 10
39.26065985250986
 20
24.7807236616997
 30
0.0
 10
39.33354610656987
 20
25.1349069741897
 30
0.0
 10
39.36536107824986
 20
25.48942947585971
 30
0.0
 10
39.36944226666985
 20
25.8298874445797
 30
0.0
 10
39.34447255433986
 20
26.15197305176971
 30
0.0
 10
39.28527389777986
 20
26.46822530239971
 30
0.0
 10
39.18521118353986
 20
26.79172402650971
 30
0.0
 10
39.04915735722986
 20
27.1257544338197
 30
0.0
 10
38.90600173186986
 20
27.4700504577997
 30
0.0
 10
38.75858814134986
 20
27.81485518824971
 30
0.0
 10
38.61120482419986
 20
28.1534860645197
 30
0.0
 10
38.46612892136986
 20
28.48150684832971
 30
0.0
 10
38.32535400956986
 20
28.79610435611971
 30
0.0
 10
38.18991386756987
 20
29.0966074987797
 30
0.0
 10
38.05924641182986
 20
29.38443896641971
 30
0.0
 10
37.93187099868986
 20
29.6615294628197
 30
0.0
 10
37.80675901722985
 20
29.92906573677971
 30
0.0
 10
37.68342877869986
 20
30.1865576651497
 30
0.0
 10
37.56197311984987
 20
30.4325160892697
 30
0.0
 10
37.44302198471986
 20
30.6649685550497
 30
0.0
 10
37.32854169007986
 20
30.88036067142971
 30
0.0
 10
37.22130385849987
 20
31.07485896123971
 30
0.0
 10
37.12345292423986
 20
31.2477078719097
 30
0.0
 10
37.03486240417986
 20
31.4012557727997
 30
0.0
 10
36.96155660686986
 20
31.5329895340297
 30
0.0
 10
36.91612331108948
 20
31.61317236836874
 30
0.0
 10
36.89607590088987
 20
31.64674161023971
 30
0.0
  0
LINE
  5
B9
330
1F
100
AcDbEntity
  8
IGES_LEVEL_0
 62
     7
100
AcDbLine
 10
36.89607590088987
 20
31.64674161023971
 30
0.0
 11
36.89166890726986
 21
31.6541210888497
 31
0.0
  0
LINE
  5
BA
330
1F
100
AcDbEntity
  8
IGES_LEVEL_0
 62
     7
100
AcDbLine
 10
36.89166890726986
 20
31.6541210888497
 30
0.0
 11
36.89082725782487
 21
31.6551690831197
 31
0.0
  0
LINE
  5
BB
330
1F
100
AcDbEntity
  8
IGES_LEVEL_0
 62
     7
100
AcDbLine
 10
36.89082725782487
 20
31.6551690831197
 30
0.0
 11
36.88990487044985
 21
31.65633221088971
 31
0.0
  0
LINE
  5
BC
330
1F
100
AcDbEntity
  8
IGES_LEVEL_0
 62
     7
100
AcDbLine
 10
36.88990487044985
 20
31.65633221088971
 30
0.0
 11
36.80029579559486
 21
31.7899666018597
 31
0.0
  0
SPLINE
  5
BD
330
1F
100
AcDbEntity
  8
IGES_LEVEL_0
 62
     7
100
AcDbSpline
210
0.0
220
0.0
230
1.0
 70
     8
 71
     3
 72
    16
 73
    12
 74
     0
 42
0.0000000001
 43
0.0000000001
 40
8.0
 40
8.0
 40
8.0
 40
8.0
 40
8.149813132305813
 40
8.309411413131068
 40
8.452340820994003
 40
8.578142500566697
 40
8.687554806387844
 40
8.783110725242308
 40
8.867881753715533
 40
8.947243929595164
 40
9.0
 40
9.0
 40
9.0
 40
9.0
 10
36.80029579559486
 20
31.7899666018597
 30
0.0
 10
36.77906257111636
 20
31.81832063557885
 30
0.0
 10
36.73317392826265
 20
31.87538863006257
 30
0.0
 10
36.65983976156987
 20
31.95339329433971
 30
0.0
 10
36.58430809260986
 20
32.02103497516971
 30
0.0
 10
36.51259129702986
 20
32.07462041146971
 30
0.0
 10
36.44560252351987
 20
32.11522550990971
 30
0.0
 10
36.38337150993986
 20
32.1442196555097
 30
0.0
 10
36.32461166053986
 20
32.1627537167097
 30
0.0
 10
36.2735649849901
 20
32.16994365935356
 30
0.0
 10
36.242122702517
 20
32.16861199214192
 30
0.0
 10
36.22971931829486
 20
32.16706421674971
 30
0.0
  0
SPLINE
  5
BE
330
1F
100
AcDbEntity
  8
IGES_LEVEL_0
 62
     7
100
AcDbSpline
210
0.0
220
0.0
230
1.0
 70
     8
 71
     3
 72
   110
 73
   106
 74
     0
 42
0.0000000001
 43
0.0000000001
 40
9.0
 40
9.0
 40
9.0
 40
9.0
 40
9.014641501739305
 40
9.032725276344184
 40
9.051432749303137
 40
9.07068466744747
 40
9.090401348866456
 40
9.110503614196164
 40
9.130958149783419
 40
9.15173292787032
 40
9.172758020538382
 40
9.193966467832761
 40
9.215294139228133
 40
9.236679620689257
 40
9.258064119493628
 40
9.279395409857303
 40
9.300653263227732
 40
9.321784427232023
 40
9.342729938088549
 40
9.363435081333543
 40
9.383848851410003
 40
9.403924449079321
 40
9.423619307881292
 40
9.442895100345917
 40
9.461717747467132
 40
9.480037800217723
 40
9.497821939673099
 40
9.515073461504457
 40
9.531803463028789
 40
9.548032579694894
 40
9.563781635472891
 40
9.579070928642402
 40
9.593920211237256
 40
9.60834867077606
 40
9.622374914192857
 40
9.636016953791547
 40
9.649290458475353
 40
9.662188273828315
 40
9.674721373022598
 40
9.686907903833712
 40
9.698760549803248
 40
9.710285814367406
 40
9.721489630534668
 40
9.732377734514209
 40
9.742955671605316
 40
9.753228801654149
 40
9.763202304116541
 40
9.772881182779436
 40
9.78227027020565
 40
9.791374231974114
 40
9.800199536430636
 40
9.808761194165324
 40
9.817065258522257
 40
9.825116080789067
 40
9.832917866292316
 40
9.840474676309666
 40
9.847790429563323
 40
9.854868903391182
 40
9.861713734689451
 40
9.868328420711791
 40
9.874716319818234
 40
9.880880652261304
 40
9.886824500857355
 40
9.892550283128584
 40
9.898059441972313
 40
9.903353475211235
 40
9.908433920739805
 40
9.913302361854221
 40
9.917990864926933
 40
9.922536222602989
 40
9.926938295917058
 40
9.9311970308874
 40
9.935312532742801
 40
9.939285067770923
 40
9.943115064783966
 40
9.946803144360255
 40
9.950351045847306
 40
9.953761714625987
 40
9.957038085001893
 40
9.960182998918874
 40
9.963199202224708
 40
9.966089340895271
 40
9.968855957184312
 40
9.971501485659712
 40
9.974028249073843
 40
9.976438453997828
 40
9.978734186133368
 40
9.980917405180581
 40
9.982989939106995
 40
9.984952530241481
 40
9.986799782745647
 40
9.988530862236189
 40
9.990145922249132
 40
9.991645002968546
 40
9.993027977913922
 40
9.994294483524687
 40
9.995443825112989
 40
9.996474849111158
 40
9.997385766381784
 40
9.998173902997639
 40
9.998835341015541
 40
9.999364387954101
 40
9.999752771442099
 40
9.999988377564133
 40
10.0
 40
10.0
 40
10.0
 40
10.0
 10
36.22971931829486
 20
32.16706421674971
 30
0.0
 10
36.2200491075328
 20
32.16585750461479
 30
0.0
 10
36.19844674826381
 20
32.16306754205696
 30
0.0
 10
36.16452625250986
 20
32.15845094965971
 30
0.0
 10
36.12759570963986
 20
32.1532012400897
 30
0.0
 10
36.08961461966986
 20
32.14762281541971
 30
0.0
 10
36.05073494452985
 20
32.14177579458971
 30
0.0
 10
36.01107778278985
 20
32.1357172156997
 30
0.0
 10
35.97073262702986
 20
32.1294989973597
 30
0.0
 10
35.92978946133987
 20
32.1231287805997
 30
0.0
 10
35.88836004242985
 20
32.1166201724897
 30
0.0
 10
35.84657702892986
 20
32.1099914511497
 30
0.0
 10
35.80456723379986
 20
32.1032616313297
 30
0.0
 10
35.76245181996985
 20
32.0964506298597
 30
0.0
 10
35.72034402303986
 20
32.08957773884971
 30
0.0
 10
35.67832925600986
 20
32.0826624622097
 30
0.0
 10
35.63649134079985
 20
32.0757111665997
 30
0.0
 10
35.59492190540986
 20
32.0687110740497
 30
0.0
 10
35.55373437717985
 20
32.06165924270971
 30
0.0
 10
35.51304073371986
 20
32.05455341498971
 30
0.0
 10
35.47294480083987
 20
32.0473922303097
 30
0.0
 10
35.43354235870986
 20
32.04017477053971
 30
0.0
 10
35.39492080385986
 20
32.03290053824971
 30
0.0
 10
35.35715919277986
 20
32.02556919362971
 30
0.0
 10
35.32034095712986
 20
32.0181834962797
 30
0.0
 10
35.28454651003986
 20
32.01074634171971
 30
0.0
 10
35.24982652278986
 20
32.00328258911971
 30
0.0
 10
35.21619157435985
 20
31.99581088997971
 30
0.0
 10
35.18361720623986
 20
31.9883412577597
 30
0.0
 10
35.15206765390987
 20
31.9808800920597
 30
0.0
 10
35.12150136973986
 20
31.97343100864971
 30
0.0
 10
35.09187758307986
 20
31.96599638171971
 30
0.0
 10
35.06315680252986
 20
31.9585775119197
 30
0.0
 10
35.03530085091985
 20
31.95117473749971
 30
0.0
 10
35.00827293024986
 20
31.9437874183897
 30
0.0
 10
34.98203866846986
 20
31.9364146717597
 30
0.0
 10
34.95658068660985
 20
31.9290583609897
 30
0.0
 10
34.93188511703987
 20
31.92172498342971
 30
0.0
 10
34.90793373260986
 20
31.9144292800497
 30
0.0
 10
34.88469599142987
 20
31.9071800687097
 30
0.0
 10
34.86214409304986
 20
31.8999865396197
 30
0.0
 10
34.84025798400985
 20
31.8928595488597
 30
0.0
 10
34.81902195087986
 20
31.8858108377797
 30
0.0
 10
34.79842084605987
 20
31.87885180471971
 30
0.0
 10
34.77843986688986
 20
31.8719934187897
 30
0.0
 10
34.75906457117986
 20
31.8652462010497
 30
0.0
 10
34.74028089092987
 20
31.8586202150297
 30
0.0
 10
34.72207515141986
 20
31.8521250457197
 30
0.0
 10
34.70443407193986
 20
31.8457698302797
 30
0.0
 10
34.68734360099985
 20
31.8395626681597
 30
0.0
 10
34.67078331673986
 20
31.8335091041697
 30
0.0
 10
34.65473274158985
 20
31.8276119554797
 30
0.0
 10
34.63917342908987
 20
31.82187248428971
 30
0.0
 10
34.62409366355986
 20
31.81629441117971
 30
0.0
 10
34.60948311538986
 20
31.8108814763597
 30
0.0
 10
34.59533183903986
 20
31.8056371826897
 30
0.0
 10
34.58163029167986
 20
31.8005647606897
 30
0.0
 10
34.56836933886986
 20
31.79566716953971
 30
0.0
 10
34.55554026335986
 20
31.7909470900997
 30
0.0
 10
34.54313477251986
 20
31.78640692054971
 30
0.0
 10
34.53114500560986
 20
31.78204877168971
 30
0.0
 10
34.51956354041987
 20
31.7778744620197
 30
0.0
 10
34.50838373062986
 20
31.77388563076971
 30
0.0
 10
34.49760024060986
 20
31.7700839094997
 30
0.0
 10
34.48720893793986
 20
31.7664708533597
 30
0.0
 10
34.47720646694985
 20
31.7630477433697
 30
0.0
 10
34.46758960507985
 20
31.75981538016971
 30
0.0
 10
34.45833606911985
 20
31.7567675986597
 30
0.0
 10
34.44940118606986
 20
31.75389147320971
 30
0.0
 10
34.44074367932986
 20
31.7511673604697
 30
0.0
 10
34.43234234241986
 20
31.7485827599297
 30
0.0
 10
34.42419906668987
 20
31.74613291338971
 30
0.0
 10
34.41631538283987
 20
31.7438131109697
 30
0.0
 10
34.40869240593986
 20
31.74161871414971
 30
0.0
 10
34.40133082097985
 20
31.7395451452897
 30
0.0
 10
34.39423027127985
 20
31.73758772463971
 30
0.0
 10
34.38738868682985
 20
31.73574151070971
 30
0.0
 10
34.38080240887986
 20
31.73400137393971
 30
0.0
 10
34.37446696807986
 20
31.7323622261397
 30
0.0
 10
34.36837792845985
 20
31.7308192367997
 30
0.0
 10
34.36253095270986
 20
31.72936783369971
 30
0.0
 10
34.35692181699986
 20
31.72800369077971
 30
0.0
 10
34.35154642536986
 20
31.7267227165297
 30
0.0
 10
34.34640082380986
 20
31.72552104306971
 30
0.0
 10
34.34148121418987
 20
31.72439501596971
 30
0.0
 10
34.33678396826987
 20
31.7233411839497
 30
0.0
 10
34.33230564153986
 20
31.72235629166971
 30
0.0
 10
34.32804298925986
 20
31.7214372645897
 30
0.0
 10
34.32399359425986
 20
31.7205813541497
 30
0.0
 10
34.32015980830987
 20
31.71978684822971
 30
0.0
 10
34.31654564983985
 20
31.7190526533897
 30
0.0
 10
34.31315545752986
 20
31.7183780193597
 30
0.0
 10
34.30999003013986
 20
31.7177613957097
 30
0.0
 10
34.30704969837986
 20
31.7172011527697
 30
0.0
 10
34.30433510558986
 20
31.71669571223971
 30
0.0
 10
34.30184743156987
 20
31.71624357483971
 30
0.0
 10
34.29958832651987
 20
31.71584330440971
 30
0.0
 10
34.29756101529986
 20
31.71549365149971
 30
0.0
 10
34.29576801337986
 20
31.7151932572797
 30
0.0
 10
34.29421983719986
 20
31.71494168547971
 30
0.0
 10
34.29291131516986
 20
31.71473649043971
 30
0.0
 10
34.29189225944985
 20
31.7145817459397
 30
0.0
 10
34.29108600582985
 20
31.7144658151397
 30
0.0
 10
34.29074241230985
 20
31.7144168941797
 30
0.0
 10
34.29053186869986
 20
31.71438931944971
 30
0.0
 10
34.29052209080986
 20
31.7143880402697
 30
0.0
  0
LINE
  5
BF
330
1F
100
AcDbEntity
  8
IGES_LEVEL_0
 62
     7
100
AcDbLine
 10
35.61756625868986
 20
23.58835986782971
 30
0.0
 11
35.61753915750985
 21
23.5888637378497
 31
0.0
  0
LINE
  5
C0
330
1F
100
AcDbEntity
  8
IGES_LEVEL_0
 62
     7
100
AcDbLine
 10
35.61753915750985
 20
23.5888637378497
 30
0.0
 11
35.59926602318986
 21
23.36403111963971
 31
0.0
  0
LINE
  5
C1
330
1F
100
AcDbEntity
  8
IGES_LEVEL_0
 62
     7
100
AcDbLine
 10
35.59926602318986
 20
23.36403111963971
 30
0.0
 11
35.59701346611986
 21
23.34826132368971
 31
0.0
  0
LINE
  5
C2
330
1F
100
AcDbEntity
  8
IGES_LEVEL_0
 62
     7
100
AcDbLine
 10
35.59701346611986
 20
23.34826132368971
 30
0.0
 11
35.59577968143985
 21
23.33992417195971
 31
0.0
  0
LINE
  5
C3
330
1F
100
AcDbEntity
  8
IGES_LEVEL_0
 62
     7
100
AcDbLine
 10
35.59577968143985
 20
23.33992417195971
 30
0.0
 11
35.55375709278987
 21
23.14115287720971
 31
0.0
  0
SPLINE
  5
C4
330
1F
100
AcDbEntity
  8
IGES_LEVEL_0
 62
     7
100
AcDbSpline
210
0.0
220
0.0
230
1.0
 70
     8
 71
     3
 72
    22
 73
    18
 74
     0
 42
0.0000000001
 43
0.0000000001
 40
0.0
 40
0.0
 40
0.0
 40
0.0
 40
0.003340162510864
 40
0.01504540631501
 40
0.04473344187123
 40
0.08780323992241
 40
0.1411304898071
 40
0.203003181961
 40
0.2721836006766
 40
0.3475302788404
 40
0.4283935438632
 40
0.5142999566026
 40
0.604790024994
 40
0.6991858989749
 40
0.7968759327046
 40
0.8973463300127
 40
1.0
 40
1.0
 40
1.0
 40
1.0
 10
34.73464984196987
 20
30.14903453593971
 30
0.0
 10
34.73451198021986
 20
30.14924288580971
 30
0.0
 10
34.73411266466987
 20
30.1498356639697
 30
0.0
 10
34.73756660364985
 20
30.1443126908697
 30
0.0
 10
34.74024876598986
 20
30.1396085520297
 30
0.0
 10
34.74628671623985
 20
30.12918328440971
 30
0.0
 10
34.75286787204986
 20
30.1173481943997
 30
0.0
 10
34.76068997175986
 20
30.1030226334497
 30
0.0
 10
34.76920616901985
 20
30.0870567442897
 30
0.0
 10
34.77838752631986
 20
30.0694978739097
 30
0.0
 10
34.78808325131986
 20
30.05056792952971
 30
0.0
 10
34.79822378645986
 20
30.0303666749397
 30
0.0
 10
34.80872726276986
 20
30.0090196109397
 30
0.0
 10
34.81951037223986
 20
29.9866567507997
 30
0.0
 10
34.83048952055985
 20
29.96341596931971
 30
0.0
 10
34.84158692484986
 20
29.93942955284971
 30
0.0
 10
34.8490071584656
 20
29.92319825854588
 30
0.0
 10
34.85264065379987
 20
29.91494383524971
 30
0.0
  0
LINE
  5
C5
330
1F
100
AcDbEntity
  8
IGES_LEVEL_0
 62
     7
100
AcDbLine
 10
34.85264065379987
 20
29.91494383524971
 30
0.0
 11
34.87115806572986
 21
29.8728767504297
 31
0.0
  0
LINE
  5
C6
330
1F
100
AcDbEntity
  8
IGES_LEVEL_0
 62
     7
100
AcDbLine
 10
34.87115806572986
 20
29.8728767504297
 30
0.0
 11
34.87329761228986
 21
29.8679142879647
 31
0.0
  0
LINE
  5
C7
330
1F
100
AcDbEntity
  8
IGES_LEVEL_0
 62
     7
100
AcDbLine
 10
34.87329761228986
 20
29.8679142879647
 30
0.0
 11
34.97865975251986
 21
29.5782459685397
 31
0.0
  0
LINE
  5
C8
330
1F
100
AcDbEntity
  8
IGES_LEVEL_0
 62
     7
100
AcDbLine
 10
35.48909093161986
 20
30.3037365060697
 30
0.0
 11
35.62021038960985
 21
30.1042722301097
 31
0.0
  0
LINE
  5
C9
330
1F
100
AcDbEntity
  8
IGES_LEVEL_0
 62
     7
100
AcDbLine
 10
35.62021038960985
 20
30.1042722301097
 30
0.0
 11
35.63536731446487
 21
30.0734743279747
 31
0.0
  0
LINE
  5
CA
330
1F
100
AcDbEntity
  8
IGES_LEVEL_0
 62
     7
100
AcDbLine
 10
35.63536731446487
 20
30.0734743279747
 30
0.0
 11
35.64069691910986
 21
30.0620624785197
 31
0.0
  0
LINE
  5
CB
330
1F
100
AcDbEntity
  8
IGES_LEVEL_0
 62
     7
100
AcDbLine
 10
35.64069691910986
 20
30.0620624785197
 30
0.0
 11
35.64914390402986
 21
30.0432428406497
 31
0.0
  0
ARC
  5
CC
330
1F
100
AcDbEntity
  8
IGES_LEVEL_0
 62
     7
100
AcDbCircle
 10
35.1757087546378
 20
29.81042852166322
 30
0.0
 40
0.5275825507017972
100
AcDbArc
 50
3.218099792230327
 51
26.18590439364066
  0
LINE
  5
CD
330
1F
100
AcDbEntity
  8
IGES_LEVEL_0
 62
     7
100
AcDbLine
 10
36.74077955672986
 20
24.23648349598971
 30
0.0
 11
36.75919585832986
 21
24.0858409301497
 31
0.0
  0
LINE
  5
CE
330
1F
100
AcDbEntity
  8
IGES_LEVEL_0
 62
     7
100
AcDbLine
 10
36.75919585832986
 20
24.0858409301497
 30
0.0
 11
36.75682044061486
 21
24.0633480605997
 31
0.0
  0
LINE
  5
CF
330
1F
100
AcDbEntity
  8
IGES_LEVEL_0
 62
     7
100
AcDbLine
 10
36.75682044061486
 20
24.0633480605997
 30
0.0
 11
36.75516486896986
 21
24.0518229086297
 31
0.0
  0
LINE
  5
D0
330
1F
100
AcDbEntity
  8
IGES_LEVEL_0
 62
     7
100
AcDbLine
 10
36.75516486896986
 20
24.0518229086297
 30
0.0
 11
36.75039262017985
 21
24.0261814790097
 31
0.0
  0
LINE
  5
D1
330
1F
100
AcDbEntity
  8
IGES_LEVEL_0
 62
     7
100
AcDbLine
 10
36.75039262017985
 20
24.0261814790097
 30
0.0
 11
36.69971083659986
 21
23.9095616536197
 31
0.0
  0
ARC
  5
D2
330
1F
100
AcDbEntity
  8
IGES_LEVEL_0
 62
     7
100
AcDbCircle
 10
35.73145329460496
 20
23.77169466102431
 30
0.0
 40
0.4537970855612605
100
AcDbArc
 50
355.0881246022574
 51
14.66007725459083
  0
LINE
  5
D3
330
1F
100
AcDbEntity
  8
IGES_LEVEL_0
 62
     7
100
AcDbLine
 10
36.18358384252987
 20
23.73283899866971
 30
0.0
 11
36.18058498863987
 21
23.6979438670397
 31
0.0
  0
LINE
  5
D4
330
1F
100
AcDbEntity
  8
IGES_LEVEL_0
 62
     7
100
AcDbLine
 10
36.18058498863987
 20
23.6979438670397
 30
0.0
 11
36.17994129951985
 21
23.6923832292997
 31
0.0
  0
LINE
  5
D5
330
1F
100
AcDbEntity
  8
IGES_LEVEL_0
 62
     7
100
AcDbLine
 10
36.17994129951985
 20
23.6923832292997
 30
0.0
 11
36.17657016890986
 21
23.66794469715971
 31
0.0
  0
LINE
  5
D6
330
1F
100
AcDbEntity
  8
IGES_LEVEL_0
 62
     7
100
AcDbLine
 10
36.17657016890986
 20
23.66794469715971
 30
0.0
 11
36.12795486008986
 21
23.5190008780597
 31
0.0
  0
LINE
  5
D7
330
1F
100
AcDbEntity
  8
IGES_LEVEL_0
 62
     7
100
AcDbLine
 10
35.92310839522986
 20
30.46700475597971
 30
0.0
 11
36.06813933926986
 21
30.2702882608097
 31
0.0
  0
LINE
  5
D8
330
1F
100
AcDbEntity
  8
IGES_LEVEL_0
 62
     7
100
AcDbLine
 10
36.06813933926986
 20
30.2702882608097
 30
0.0
 11
36.08675308776486
 21
30.23589830595471
 31
0.0
  0
LINE
  5
D9
330
1F
100
AcDbEntity
  8
IGES_LEVEL_0
 62
     7
100
AcDbLine
 10
36.08675308776486
 20
30.23589830595471
 30
0.0
 11
36.09028084727986
 21
30.22900376397971
 31
0.0
  0
LINE
  5
DA
330
1F
100
AcDbEntity
  8
IGES_LEVEL_0
 62
     7
100
AcDbLine
 10
36.09028084727986
 20
30.22900376397971
 30
0.0
 11
36.10137271997986
 21
30.2063784433197
 31
0.0
  0
ARC
  5
DB
330
1F
100
AcDbEntity
  8
IGES_LEVEL_0
 62
     7
100
AcDbCircle
 10
35.71181447773602
 20
29.99652690593149
 30
0.0
 40
0.4424853577739159
100
AcDbArc
 50
2.091793419304997
 51
28.31094895583255
  0
LINE
  5
DC
330
1F
100
AcDbEntity
  8
IGES_LEVEL_0
 62
     7
100
AcDbLine
 10
36.19835030260985
 20
25.8952273225797
 30
0.0
 11
36.23820540467986
 21
25.72742200219971
 31
0.0
  0
LINE
  5
DD
330
1F
100
AcDbEntity
  8
IGES_LEVEL_0
 62
     7
100
AcDbLine
 10
36.23820540467986
 20
25.72742200219971
 30
0.0
 11
36.24036866167986
 21
25.6999178325397
 31
0.0
  0
LINE
  5
DE
330
1F
100
AcDbEntity
  8
IGES_LEVEL_0
 62
     7
100
AcDbLine
 10
36.24036866167986
 20
25.6999178325397
 30
0.0
 11
36.24096902194985
 21
25.68839276460971
 31
0.0
  0
LINE
  5
DF
330
1F
100
AcDbEntity
  8
IGES_LEVEL_0
 62
     7
100
AcDbLine
 10
36.24096902194985
 20
25.68839276460971
 30
0.0
 11
36.24160396436986
 21
25.6662464202897
 31
0.0
  0
LINE
  5
E0
330
1F
100
AcDbEntity
  8
IGES_LEVEL_0
 62
     7
100
AcDbLine
 10
36.24160396436986
 20
25.6662464202897
 30
0.0
 11
36.21733072790987
 21
25.5095114440197
 31
0.0
  0
ARC
  5
E1
330
1F
100
AcDbEntity
  8
IGES_LEVEL_0
 62
     7
100
AcDbCircle
 10
35.76614142706919
 20
25.19009692864262
 30
0.0
 40
2.95842443170767
100
AcDbArc
 50
315.5166789060741
 51
329.1978089607201
  0
LINE
  5
E2
330
1F
100
AcDbEntity
  8
IGES_LEVEL_0
 62
     7
100
AcDbLine
 10
38.30725144137486
 20
23.6751596318147
 30
0.0
 11
38.38267809080986
 21
23.80167801288971
 31
0.0
  0
LINE
  5
E3
330
1F
100
AcDbEntity
  8
IGES_LEVEL_0
 62
     7
100
AcDbLine
 10
38.38267809080986
 20
23.80167801288971
 30
0.0
 11
38.38332409163986
 21
23.8028014428297
 31
0.0
  0
LINE
  5
E4
330
1F
100
AcDbEntity
  8
IGES_LEVEL_0
 62
     7
100
AcDbLine
 10
38.38332409163986
 20
23.8028014428297
 30
0.0
 11
38.39286328768986
 21
23.8193000356097
 31
0.0
  0
ARC
  5
E5
330
1F
100
AcDbEntity
  8
IGES_LEVEL_0
 62
     7
100
AcDbCircle
 10
36.68901318456859
 20
24.78939572053546
 30
0.0
 40
1.96066080998676
100
AcDbArc
 50
330.3447580393689
 51
354.7719900652421
  0
LINE
  5
E6
330
1F
100
AcDbEntity
  8
IGES_LEVEL_0
 62
     7
100
AcDbLine
 10
38.64151759159986
 20
24.61074143891471
 30
0.0
 11
38.70642487655986
 21
24.8429388445897
 31
0.0
  0
SPLINE
  5
E7
330
1F
100
AcDbEntity
  8
IGES_LEVEL_0
 62
     7
100
AcDbSpline
210
0.0
220
0.0
230
1.0
 70
     8
 71
     3
 72
    28
 73
    24
 74
     0
 42
0.0000000001
 43
0.0000000001
 40
6.0
 40
6.0
 40
6.0
 40
6.0
 40
6.0446815907816
 40
6.0920256819597
 40
6.1396762652608
 40
6.1874666200622
 40
6.2364781681475
 40
6.2886355133088
 40
6.3443020525145
 40
6.4030185015127
 40
6.4628858703021
 40
6.5214837028511
 40
6.5773019946183
 40
6.6305735201159
 40
6.6817153137422
 40
6.7310464927876
 40
6.7785142321805
 40
6.8239780888404
 40
6.8672924016037
 40
6.90832149652427
 40
6.94691412940756
 40
6.98310761185624
 40
7.0
 40
7.0
 40
7.0
 40
7.0
 10
38.70642487655986
 20
24.8429388445897
 30
0.0
 10
38.74594423748987
 20
24.94032591589971
 30
0.0
 10
38.81696069845985
 20
25.1457486699797
 30
0.0
 10
38.86851676798986
 20
25.47118652807971
 30
0.0
 10
38.88872446148986
 20
25.80682894272971
 30
0.0
 10
38.85924299947986
 20
26.1468979466697
 30
0.0
 10
38.76562326022986
 20
26.4861689170597
 30
0.0
 10
38.61903916540986
 20
26.8248381451597
 30
0.0
 10
38.46283968285987
 20
27.18376174210971
 30
0.0
 10
38.29875667874985
 20
27.5591522313597
 30
0.0
 10
38.13186982675985
 20
27.9408006968597
 30
0.0
 10
37.96733431786986
 20
28.3160509657997
 30
0.0
 10
37.80888007540986
 20
28.67703317896971
 30
0.0
 10
37.65734827305987
 20
29.02191133709971
 30
0.0
 10
37.51177318686986
 20
29.3527483750997
 30
0.0
 10
37.37139368253986
 20
29.6709642834697
 30
0.0
 10
37.23593596864986
 20
29.97676191962971
 30
0.0
 10
37.10550044617986
 20
30.2693100335497
 30
0.0
 10
36.98019224889985
 20
30.5475770266397
 30
0.0
 10
36.86020994541987
 20
30.8104948119997
 30
0.0
 10
36.74501721542985
 20
31.05728631477971
 30
0.0
 10
36.65252943053986
 20
31.2517463215197
 30
0.0
 10
36.59657926337183
 20
31.36368515088002
 30
0.0
 10
36.57711022307986
 20
31.39833211081971
 30
0.0
  0
LINE
  5
E8
330
1F
100
AcDbEntity
  8
IGES_LEVEL_0
 62
     7
100
AcDbLine
 10
36.57711022307986
 20
31.39833211081971
 30
0.0
 11
36.55862328497486
 21
31.43123132897971
 31
0.0
  0
LINE
  5
E9
330
1F
100
AcDbEntity
  8
IGES_LEVEL_0
 62
     7
100
AcDbLine
 10
36.55862328497486
 20
31.43123132897971
 30
0.0
 11
36.54157664167987
 21
31.4596603127697
 31
0.0
  0
LINE
  5
EA
330
1F
100
AcDbEntity
  8
IGES_LEVEL_0
 62
     7
100
AcDbLine
 10
36.54157664167987
 20
31.4596603127697
 30
0.0
 11
36.53439178532986
 21
31.4714060385197
 31
0.0
  0
LINE
  5
EB
330
1F
100
AcDbEntity
  8
IGES_LEVEL_0
 62
     7
100
AcDbLine
 10
36.53439178532986
 20
31.4714060385197
 30
0.0
 11
36.51588201287485
 21
31.5010195386497
 31
0.0
  0
LINE
  5
EC
330
1F
100
AcDbEntity
  8
IGES_LEVEL_0
 62
     7
100
AcDbLine
 10
36.51588201287485
 20
31.5010195386497
 30
0.0
 11
36.51537077499987
 21
31.50188084471471
 31
0.0
  0
SPLINE
  5
ED
330
1F
100
AcDbEntity
  8
IGES_LEVEL_0
 62
     7
100
AcDbSpline
210
0.0
220
0.0
230
1.0
 70
     8
 71
     3
 72
    17
 73
    13
 74
     0
 42
0.0000000001
 43
0.0000000001
 40
12.0
 40
12.0
 40
12.0
 40
12.0
 40
12.08815648248206
 40
12.25142676907921
 40
12.39828543179338
 40
12.52749796641023
 40
12.63922304380039
 40
12.73483782467666
 40
12.81679039156805
 40
12.88785694382852
 40
12.95337386249396
 40
13.0
 40
13.0
 40
13.0
 40
13.0
 10
36.51537077499987
 20
31.50188084471471
 30
0.0
 10
36.50473319129986
 20
31.51838632401971
 30
0.0
 10
36.47316488804985
 20
31.56467526398971
 30
0.0
 10
36.41756261853986
 20
31.6339444728297
 30
0.0
 10
36.34858088441986
 20
31.70353326107971
 30
0.0
 10
36.28168394568986
 20
31.75834955049971
 30
0.0
 10
36.21889126156985
 20
31.7994999491297
 30
0.0
 10
36.16116082937985
 20
31.82840927242971
 30
0.0
 10
36.10867161258986
 20
31.8465432901897
 30
0.0
 10
36.06051903775986
 20
31.85508540722971
 30
0.0
 10
36.01941796389519
 20
31.85399954872233
 30
0.0
 10
35.99509687683701
 20
31.84681837876128
 30
0.0
 10
35.98540545405486
 20
31.84299142553471
 30
0.0
  0
LINE
  5
EE
330
1F
100
AcDbEntity
  8
IGES_LEVEL_0
 62
     7
100
AcDbLine
 10
35.98540545405486
 20
31.84299142553471
 30
0.0
 11
35.94363541773986
 21
31.8264972554997
 31
0.0
  0
LINE
  5
EF
330
1F
100
AcDbEntity
  8
IGES_LEVEL_0
 62
     7
100
AcDbLine
 10
36.77076517466986
 20
28.50060485285971
 30
0.0
 11
36.88648204520986
 21
28.3205313487797
 31
0.0
  0
LINE
  5
F0
330
1F
100
AcDbEntity
  8
IGES_LEVEL_0
 62
     7
100
AcDbLine
 10
36.88648204520986
 20
28.3205313487797
 30
0.0
 11
36.90085412118486
 21
28.2867549113597
 31
0.0
  0
LINE
  5
F1
330
1F
100
AcDbEntity
  8
IGES_LEVEL_0
 62
     7
100
AcDbLine
 10
36.90085412118486
 20
28.2867549113597
 30
0.0
 11
36.90364893018986
 21
28.27963723144971
 31
0.0
  0
LINE
  5
F2
330
1F
100
AcDbEntity
  8
IGES_LEVEL_0
 62
     7
100
AcDbLine
 10
36.90364893018986
 20
28.27963723144971
 30
0.0
 11
36.91511759905986
 21
28.2477399124597
 31
0.0
  0
ARC
  5
F3
330
1F
100
AcDbEntity
  8
IGES_LEVEL_0
 62
     7
100
AcDbCircle
 10
36.62635394678912
 20
28.13254328853169
 30
0.0
 40
0.3108934046214954
100
AcDbArc
 50
351.5654785387814
 51
21.7485635633241
  0
LINE
  5
F4
330
1F
100
AcDbEntity
  8
IGES_LEVEL_0
 62
     7
100
AcDbLine
 10
35.88546825056986
 20
28.0200857125697
 30
0.0
 11
35.95287253021986
 21
27.8385235911297
 31
0.0
  0
LINE
  5
F5
330
1F
100
AcDbEntity
  8
IGES_LEVEL_0
 62
     7
100
AcDbLine
 10
35.95287253021986
 20
27.8385235911297
 30
0.0
 11
35.96008039092487
 21
27.8078719309847
 31
0.0
  0
LINE
  5
F6
330
1F
100
AcDbEntity
  8
IGES_LEVEL_0
 62
     7
100
AcDbLine
 10
35.96008039092487
 20
27.8078719309847
 30
0.0
 11
35.96235995199986
 21
27.79718837322971
 31
0.0
  0
LINE
  5
F7
330
1F
100
AcDbEntity
  8
IGES_LEVEL_0
 62
     7
100
AcDbLine
 10
35.96235995199986
 20
27.79718837322971
 30
0.0
 11
35.96749387145987
 21
27.7706461669597
 31
0.0
  0
LINE
  5
F8
330
1F
100
AcDbEntity
  8
IGES_LEVEL_0
 62
     7
100
AcDbLine
 10
35.96749387145987
 20
27.7706461669597
 30
0.0
 11
35.97259683948987
 21
27.59151710998971
 31
0.0
  0
ARC
  5
F9
330
1F
100
AcDbEntity
  8
IGES_LEVEL_0
 62
     7
100
AcDbCircle
 10
35.75504514100149
 20
27.84016333090562
 30
0.0
 40
0.6421518050443498
100
AcDbArc
 50
17.83503085558877
 51
35.42640800269631
  0
LINE
  5
FA
330
1F
100
AcDbEntity
  8
IGES_LEVEL_0
 62
     7
100
AcDbLine
 10
36.36633661464985
 20
28.03683990542971
 30
0.0
 11
36.37711891931487
 21
28.0033273687997
 31
0.0
  0
LINE
  5
FB
330
1F
100
AcDbEntity
  8
IGES_LEVEL_0
 62
     7
100
AcDbLine
 10
36.37711891931487
 20
28.0033273687997
 30
0.0
 11
36.38053095475986
 21
27.9915382928497
 31
0.0
  0
LINE
  5
FC
330
1F
100
AcDbEntity
  8
IGES_LEVEL_0
 62
     7
100
AcDbLine
 10
36.38053095475986
 20
27.9915382928497
 30
0.0
 11
36.38684536828986
 21
27.9675143709497
 31
0.0
  0
ARC
  5
FD
330
1F
100
AcDbEntity
  8
IGES_LEVEL_0
 62
     7
100
AcDbCircle
 10
36.04427915366464
 20
27.86579558741073
 30
0.0
 40
0.3573490203250844
100
AcDbArc
 50
349.88137879009
 51
16.53782566787708
  0
ARC
  5
FE
330
1F
100
AcDbEntity
  8
IGES_LEVEL_0
 62
     7
100
AcDbCircle
 10
33.22655517523128
 20
27.22470895714628
 30
0.0
 40
2.330852187115268
100
AcDbArc
 50
11.05463987019918
 51
16.19640452669993
  0
LINE
  5
FF
330
1F
100
AcDbEntity
  8
IGES_LEVEL_0
 62
     7
100
AcDbLine
 10
35.51415787077987
 20
27.6716382865697
 30
0.0
 11
35.52300817406486
 21
27.6263381097447
 31
0.0
  0
LINE
  5
100
330
1F
100
AcDbEntity
  8
IGES_LEVEL_0
 62
     7
100
AcDbLine
 10
35.52300817406486
 20
27.6263381097447
 30
0.0
 11
35.55833444853987
 21
27.36621236208971
 31
0.0
  0
SPLINE
  5
101
330
1F
100
AcDbEntity
  8
IGES_LEVEL_0
 62
     7
100
AcDbSpline
210
0.0
220
0.0
230
1.0
 70
     8
 71
     3
 72
    22
 73
    18
 74
     0
 42
0.0000000001
 43
0.0000000001
 40
0.0
 40
0.0
 40
0.0
 40
0.0
 40
0.001753997099867
 40
0.0197344150152
 40
0.05984854108613
 40
0.1144434620911
 40
0.1785065086673
 40
0.2502909366013
 40
0.3278415940714
 40
0.4094241177735
 40
0.4939588403938
 40
0.5809142813699
 40
0.6709177544666
 40
0.7650457312427
 40
0.8635211077294001
 40
0.9653438154491
 40
1.0
 40
1.0
 40
1.0
 40
1.0
 10
36.27273852115987
 20
30.76228516909971
 30
0.0
 10
36.27267647516986
 20
30.7623383846997
 30
0.0
 10
36.27217834511986
 20
30.76275044638971
 30
0.0
 10
36.27880792936986
 20
30.75637774637971
 30
0.0
 10
36.28343294833987
 20
30.7511990168097
 30
0.0
 10
36.29370530951987
 20
30.73999407290971
 30
0.0
 10
36.30425745223987
 20
30.7276698343697
 30
0.0
 10
36.31628101645985
 20
30.7131783773697
 30
0.0
 10
36.32886125501986
 20
30.6974037280797
 30
0.0
 10
36.34190456248986
 20
30.6805025492197
 30
0.0
 10
36.35517225610987
 20
30.6627580431697
 30
0.0
 10
36.36861910266985
 20
30.6442241260197
 30
0.0
 10
36.38227990712987
 20
30.62481224666971
 30
0.0
 10
36.39622990726987
 20
30.6043731144497
 30
0.0
 10
36.41045791190986
 20
30.5828739916197
 30
0.0
 10
36.42155701178986
 20
30.56555139139971
 30
0.0
 10
36.42791191440949
 20
30.55543085297808
 30
0.0
 10
36.42950576000986
 20
30.55284864126971
 30
0.0
  0
LINE
  5
102
330
1F
100
AcDbEntity
  8
IGES_LEVEL_0
 62
     7
100
AcDbLine
 10
36.42950576000986
 20
30.55284864126971
 30
0.0
 11
36.43700563519987
 21
30.54069798782971
 31
0.0
  0
LINE
  5
103
330
1F
100
AcDbEntity
  8
IGES_LEVEL_0
 62
     7
100
AcDbLine
 10
36.71980798479986
 20
26.15740991892971
 30
0.0
 11
36.78056540968986
 21
26.00231661341971
 31
0.0
  0
LINE
  5
104
330
1F
100
AcDbEntity
  8
IGES_LEVEL_0
 62
     7
100
AcDbLine
 10
36.78056540968986
 20
26.00231661341971
 30
0.0
 11
36.78600229068986
 21
25.96782267654971
 31
0.0
  0
LINE
  5
105
330
1F
100
AcDbEntity
  8
IGES_LEVEL_0
 62
     7
100
AcDbLine
 10
36.78600229068986
 20
25.96782267654971
 30
0.0
 11
36.78735059580986
 21
25.9555302413997
 31
0.0
  0
LINE
  5
106
330
1F
100
AcDbEntity
  8
IGES_LEVEL_0
 62
     7
100
AcDbLine
 10
36.78735059580986
 20
25.9555302413997
 30
0.0
 11
36.78851907591987
 21
25.9413728502197
 31
0.0
  0
ARC
  5
107
330
1F
100
AcDbEntity
  8
IGES_LEVEL_0
 62
     7
100
AcDbCircle
 10
36.52667808635739
 20
25.91065373109737
 30
0.0
 40
0.2636368109629365
100
AcDbArc
 50
334.9173876714887
 51
6.691338643404492
  0
LINE
  5
108
330
1F
100
AcDbEntity
  8
IGES_LEVEL_0
 62
     7
100
AcDbLine
 10
35.13996420473985
 20
30.1982516537497
 30
0.0
 11
35.26489640133987
 21
29.99373985163971
 31
0.0
  0
LINE
  5
109
330
1F
100
AcDbEntity
  8
IGES_LEVEL_0
 62
     7
100
AcDbLine
 10
35.26489640133987
 20
29.99373985163971
 30
0.0
 11
35.28092055198986
 21
29.9601102720097
 31
0.0
  0
LINE
  5
10A
330
1F
100
AcDbEntity
  8
IGES_LEVEL_0
 62
     7
100
AcDbLine
 10
35.28092055198986
 20
29.9601102720097
 30
0.0
 11
35.28673680136986
 21
29.9473278185997
 31
0.0
  0
LINE
  5
10B
330
1F
100
AcDbEntity
  8
IGES_LEVEL_0
 62
     7
100
AcDbLine
 10
35.28673680136986
 20
29.9473278185997
 30
0.0
 11
35.29663332341987
 21
29.92476045770971
 31
0.0
  0
LINE
  5
10C
330
1F
100
AcDbEntity
  8
IGES_LEVEL_0
 62
     7
100
AcDbLine
 10
35.29663332341987
 20
29.92476045770971
 30
0.0
 11
35.35773280775986
 21
29.70723461314971
 31
0.0
  0
ARC
  5
10D
330
1F
100
AcDbEntity
  8
IGES_LEVEL_0
 62
     7
100
AcDbCircle
 10
33.51946889954424
 20
29.23792179966684
 30
0.0
 40
1.639694662400902
100
AcDbArc
 50
23.57600274358732
 51
33.58594747082266
  0
LINE
  5
10E
330
1F
100
AcDbEntity
  8
IGES_LEVEL_0
 62
     7
100
AcDbLine
 10
35.02229878600485
 20
29.8937425970397
 30
0.0
 11
35.10966828155986
 21
29.62510393944971
 31
0.0
  0
LINE
  5
10F
330
1F
100
AcDbEntity
  8
IGES_LEVEL_0
 62
     7
100
AcDbLine
 10
35.88092306866986
 20
25.7337438119797
 30
0.0
 11
35.90848340525986
 21
25.5191269810547
 31
0.0
  0
LINE
  5
110
330
1F
100
AcDbEntity
  8
IGES_LEVEL_0
 62
     7
100
AcDbLine
 10
35.90848340525986
 20
25.5191269810547
 30
0.0
 11
35.89006798139987
 21
25.30514508580971
 31
0.0
  0
LINE
  5
111
330
1F
100
AcDbEntity
  8
IGES_LEVEL_0
 62
     7
100
AcDbLine
 10
35.80932279428986
 20
23.6693678578797
 30
0.0
 11
35.80726931492487
 21
23.4672791867597
 31
0.0
  0
LINE
  5
112
330
1F
100
AcDbEntity
  8
IGES_LEVEL_0
 62
     7
100
AcDbLine
 10
35.80726931492487
 20
23.4672791867597
 30
0.0
 11
35.75792909337986
 21
23.26977234044971
 31
0.0
  0
ARC
  5
113
330
1F
100
AcDbEntity
  8
IGES_LEVEL_0
 62
     7
100
AcDbCircle
 10
34.52875750677358
 20
27.47683330720687
 30
0.0
 40
1.166004781132961
100
AcDbArc
 50
10.20518337981347
 51
21.76508562824994
  0
LINE
  5
114
330
1F
100
AcDbEntity
  8
IGES_LEVEL_0
 62
     7
100
AcDbLine
 10
35.67631560675486
 20
27.6834187781197
 30
0.0
 11
35.69611762205986
 21
27.44849888936971
 31
0.0
  0
ARC
  5
115
330
1F
100
AcDbEntity
  8
IGES_LEVEL_0
 62
     7
100
AcDbCircle
 10
35.65420332848704
 20
21.1976978510913
 30
0.0
 40
0.156457721796461
100
AcDbArc
 50
196.4828683290756
 51
252.6404077998832
  0
LINE
  5
116
330
1F
100
AcDbEntity
  8
IGES_LEVEL_0
 62
     7
100
AcDbLine
 10
35.60752139150986
 20
21.0483666237147
 30
0.0
 11
35.62127024022486
 21
21.04406864196971
 31
0.0
  0
LINE
  5
117
330
1F
100
AcDbEntity
  8
IGES_LEVEL_0
 62
     7
100
AcDbLine
 10
35.62127024022486
 20
21.04406864196971
 30
0.0
 11
35.67924674829487
 21
21.0286146876497
 31
0.0
  0
SPLINE
  5
118
330
1F
100
AcDbEntity
  8
IGES_LEVEL_0
 62
     7
100
AcDbSpline
210
0.0
220
0.0
230
1.0
 70
     8
 71
     3
 72
    68
 73
    64
 74
     0
 42
0.0000000001
 43
0.0000000001
 40
3.0
 40
3.0
 40
3.0
 40
3.0
 40
3.017829133765257
 40
3.0540178708794
 40
3.083465087907011
 40
3.104102266686271
 40
3.117339084159351
 40
3.126135701896723
 40
3.132552599443224
 40
3.137661901450545
 40
3.142025597412269
 40
3.145959084209555
 40
3.149653680701471
 40
3.153274005520875
 40
3.156932802707027
 40
3.160712844986937
 40
3.164681566801562
 40
3.16889808097963
 40
3.173413798654808
 40
3.178260092345249
 40
3.183458997627626
 40
3.189028264603134
 40
3.194981573963482
 40
3.201330892000991
 40
3.208093271854205
 40
3.215285785601988
 40
3.222922884346167
 40
3.231020323581381
 40
3.239593396591841
 40
3.248656598463314
 40
3.25822369185009
 40
3.268307756293221
 40
3.27892122519976
 40
3.290075913501784
 40
3.30178382604135
 40
3.314062829468856
 40
3.326934275880944
 40
3.340420398736973
 40
3.354544328438033
 40
3.369330119861977
 40
3.384802776967938
 40
3.400988857127291
 40
3.417926453501932
 40
3.435646479823085
 40
3.454185526186649
 40
3.473619355110319
 40
3.494039312484173
 40
3.515544249368159
 40
3.53824071418178
 40
3.562243185481705
 40
3.587676902678404
 40
3.614729329916763
 40
3.643653981440641
 40
3.674704496028111
 40
3.707898335339499
 40
3.743098059354298
 40
3.780156898505036
 40
3.818905944559666
 40
3.85917478789455
 40
3.900946988499311
 40
3.944284349883575
 40
3.989252307311944
 40
4.0
 40
4.0
 40
4.0
 40
4.0
 10
35.67924674829487
 20
21.0286146876497
 30
0.0
 10
35.68396793959736
 20
21.02735715031562
 30
0.0
 10
35.69843836023228
 20
21.02415640172588
 30
0.0
 10
35.72128076014987
 20
21.02216638337971
 30
0.0
 10
35.74489142862986
 20
21.0238467239497
 30
0.0
 10
35.76191612316985
 20
21.0271413731497
 30
0.0
 10
35.77316331031986
 20
21.03027010479971
 30
0.0
 10
35.78054412947986
 20
21.0327327880997
 30
0.0
 10
35.78575422618987
 20
21.0346663140397
 30
0.0
 10
35.78979120534986
 20
21.03627276511971
 30
0.0
 10
35.79317322983987
 20
21.03768676228971
 30
0.0
 10
35.79618125634987
 20
21.0389916106197
 30
0.0
 10
35.79898973580986
 20
21.0402452323897
 30
0.0
 10
35.80171894034986
 20
21.04149188389971
 30
0.0
 10
35.80446009155986
 20
21.04276839563971
 30
0.0
 10
35.80727910151985
 20
21.0441032010297
 30
0.0
 10
35.81022787905987
 20
21.0455201415397
 30
0.0
 10
35.81335009360986
 20
21.04704045714971
 30
0.0
 10
35.81668018233985
 20
21.0486818479697
 30
0.0
 10
35.82024324474986
 20
21.05045803501971
 30
0.0
 10
35.82405599436986
 20
21.05237893043971
 30
0.0
 10
35.82813073188986
 20
21.05445244788971
 30
0.0
 10
35.83247723748987
 20
21.0566853747797
 30
0.0
 10
35.83710506471986
 20
21.0590845120497
 30
0.0
 10
35.84202452745986
 20
21.06165719680971
 30
0.0
 10
35.84724646336987
 20
21.0644112170597
 30
0.0
 10
35.85278134251986
 20
21.0673542821797
 30
0.0
 10
35.85863915582986
 20
21.07049395152971
 30
0.0
 10
35.86482982662986
 20
21.0738379199997
 30
0.0
 10
35.87136272623987
 20
21.07739374038971
 30
0.0
 10
35.87824662059985
 20
21.0811687928297
 30
0.0
 10
35.88548970898985
 20
21.0851702985297
 30
0.0
 10
35.89309965232987
 20
21.08940533065971
 30
0.0
 10
35.90108378250986
 20
21.0938809270597
 30
0.0
 10
35.90945065081986
 20
21.0986049647497
 30
0.0
 10
35.91821098755986
 20
21.10358674043971
 30
0.0
 10
35.92737784092985
 20
21.1088371058397
 30
0.0
 10
35.93696537753986
 20
21.1143678271597
 30
0.0
 10
35.94698826146986
 20
21.12019125614971
 30
0.0
 10
35.95746166224986
 20
21.1263203491297
 30
0.0
 10
35.96840138501986
 20
21.13276879491971
 30
0.0
 10
35.97982640046986
 20
21.13955243177971
 30
0.0
 10
35.99175668660986
 20
21.14668852457971
 30
0.0
 10
36.00421380874987
 20
21.15419696894971
 30
0.0
 10
36.01722788641986
 20
21.16210334165971
 30
0.0
 10
36.03084266873985
 20
21.17044252480971
 30
0.0
 10
36.04511577881986
 20
21.17925924354971
 30
0.0
 10
36.06011118831985
 20
21.1886038480297
 30
0.0
 10
36.07589729031986
 20
21.19853141642971
 30
0.0
 10
36.09254749133986
 20
21.2091024461097
 30
0.0
 10
36.11015257098985
 20
21.22039115382971
 30
0.0
 10
36.12883359428986
 20
21.2324947197297
 30
0.0
 10
36.14873873953987
 20
21.24553275277971
 30
0.0
 10
36.16997456157986
 20
21.25960321644971
 30
0.0
 10
36.19255620756987
 20
21.27474804268971
 30
0.0
 10
36.21640842162985
 20
21.29094690146971
 30
0.0
 10
36.24141493567986
 20
21.3081486918297
 30
0.0
 10
36.26745362628985
 20
21.3262944964397
 30
0.0
 10
36.29443339900986
 20
21.34534283199971
 30
0.0
 10
36.32231593113987
 20
21.3652865404597
 30
0.0
 10
36.35111557575986
 20
21.3861553931997
 30
0.0
 10
36.37294828618987
 20
21.40218122795971
 30
0.0
 10
36.38519490701985
 20
21.41124138754971
 30
0.0
 10
36.38755607183985
 20
21.4129907893297
 30
0.0
  0
ARC
  5
119
330
1F
100
AcDbEntity
  8
IGES_LEVEL_0
 62
     7
100
AcDbCircle
 10
35.23561557242319
 20
30.87042011063251
 30
0.0
 40
0.9423579312616344
100
AcDbArc
 50
25.2112197433761
 51
46.15257133842778
  0
LINE
  5
11A
330
1F
100
AcDbEntity
  8
IGES_LEVEL_0
 62
     7
100
AcDbLine
 10
36.08820793466985
 20
31.2718235665847
 30
0.0
 11
36.12617261283486
 21
31.19118550988971
 31
0.0
  0
SPLINE
  5
11B
330
1F
100
AcDbEntity
  8
IGES_LEVEL_0
 62
     7
100
AcDbSpline
210
0.0
220
0.0
230
1.0
 70
     8
 71
     3
 72
    22
 73
    18
 74
     0
 42
0.0000000001
 43
0.0000000001
 40
2.0
 40
2.0
 40
2.0
 40
2.0
 40
2.09005394919865
 40
2.1787428682879
 40
2.262666381834
 40
2.3422771697574
 40
2.4180274294559
 40
2.4903433668392
 40
2.5594794897616
 40
2.6256012181994
 40
2.6888298175294
 40
2.7494064659468
 40
2.8081312300267
 40
2.8651144594446
 40
2.9205350679723
 40
2.9751581531979
 40
3.0
 40
3.0
 40
3.0
 40
3.0
 10
36.12617261283486
 20
31.19118550988971
 30
0.0
 10
36.20627608966986
 20
31.02650255116971
 30
0.0
 10
36.36318368426986
 20
30.69861853737971
 30
0.0
 10
36.59002234363986
 20
30.2150241722197
 30
0.0
 10
36.80513767290985
 20
29.7493985478297
 30
0.0
 10
37.00799559593986
 20
29.30709792731971
 30
0.0
 10
37.20043456536986
 20
28.8859883846597
 30
0.0
 10
37.38373413302986
 20
28.4841218673597
 30
0.0
 10
37.55866862974986
 20
28.0999622144097
 30
0.0
 10
37.72561258974986
 20
27.7324647721497
 30
0.0
 10
37.88512978835986
 20
27.3807287189697
 30
0.0
 10
38.03783766140985
 20
27.0423621077897
 30
0.0
 10
38.18613662709986
 20
26.7161529554797
 30
0.0
 10
38.32288381753986
 20
26.3954759627597
 30
0.0
 10
38.39891107397986
 20
26.0617318029297
 30
0.0
 10
38.40407682433987
 20
25.7863531732797
 30
0.0
 10
38.39429088458986
 20
25.62482506287971
 30
0.0
 10
38.38970911224986
 20
25.57448747730971
 30
0.0
  0
ARC
  5
11C
330
1F
100
AcDbEntity
  8
IGES_LEVEL_0
 62
     7
100
AcDbCircle
 10
34.31765327916799
 20
31.54236902697144
 30
0.0
 40
0.1828654542590913
100
AcDbArc
 50
88.48220995710992
 51
166.8323362107794
  0
LINE
  5
11D
330
1F
100
AcDbEntity
  8
IGES_LEVEL_0
 62
     7
100
AcDbLine
 10
34.13959579237987
 20
31.58402602830471
 30
0.0
 11
34.12573666207986
 21
31.52478696088971
 31
0.0
  0
LINE
  5
11E
330
1F
100
AcDbEntity
  8
IGES_LEVEL_0
 62
     7
100
AcDbLine
 10
34.12573666207986
 20
31.52478696088971
 30
0.0
 11
34.13309932820987
 21
31.4237364552697
 31
0.0
  0
LINE
  5
11F
330
1F
100
AcDbEntity
  8
IGES_LEVEL_0
 62
     7
100
AcDbLine
 10
36.56021067490987
 20
30.27776467675971
 30
0.0
 11
36.56297715101987
 21
30.25441987371971
 31
0.0
  0
LINE
  5
120
330
1F
100
AcDbEntity
  8
IGES_LEVEL_0
 62
     7
100
AcDbLine
 10
18.34915576232985
 20
18.4928670266097
 30
0.0
 11
18.3255017089197
 21
18.47102152659688
 31
0.0
  0
ARC
  5
121
330
1F
100
AcDbEntity
  8
IGES_LEVEL_0
 62
     7
100
AcDbCircle
 10
9.687973187739855
 20
72.09757837070971
 30
0.0
 40
54.30016616201557
100
AcDbArc
 50
279.1565903612176
 51
279.1805846442943
  0
ARC
  5
122
330
1F
100
AcDbEntity
  8
IGES_LEVEL_0
 62
     7
100
AcDbCircle
 10
9.687973187739855
 20
72.09757837070971
 30
0.0
 40
54.30016643467859
100
AcDbArc
 50
260.8194143140545
 51
260.8416409092226
  0
LINE
  5
123
330
1F
100
AcDbEntity
  8
IGES_LEVEL_0
 62
     7
100
AcDbLine
 10
1.024570575164856
 20
18.4929749280097
 30
0.0
 11
1.048840247216476
 21
18.47101579413175
 31
0.0
  0
LINE
  5
124
330
1F
100
AcDbEntity
  8
IGES_LEVEL_0
 62
     7
100
AcDbLine
 10
18.02095448267115
 20
19.58441257582698
 30
0.0
 11
17.96659318773986
 21
22.6987683707097
 31
0.0
  0
LINE
  5
125
330
1F
100
AcDbEntity
  8
IGES_LEVEL_0
 62
     7
100
AcDbLine
 10
1.407745187739861
 20
22.6987683707097
 30
0.0
 11
1.353383793117602
 21
19.58440686453658
 31
0.0
  0
LINE
  5
126
330
1F
100
AcDbEntity
  8
IGES_LEVEL_0
 62
     7
100
AcDbLine
 10
0.7072451877398555
 20
0.3652443707097038
 30
0.0
 11
1.023606187739856
 21
18.4895723707097
 31
0.0
  0
ARC
  5
127
330
1F
100
AcDbEntity
  8
IGES_LEVEL_0
 62
     7
100
AcDbCircle
 10
18.16677453291204
 20
40.45156729746599
 30
0.0
 40
0.5003514418293261
100
AcDbArc
 50
278.5975788510087
 51
356.4584490095711
  0
ARC
  5
128
330
1F
100
AcDbEntity
  8
IGES_LEVEL_0
 62
     7
100
AcDbCircle
 10
18.16670034943374
 20
40.45193415958218
 30
0.0
 40
0.5007240234353189
100
AcDbArc
 50
278.5997437350304
 51
284.3179011033797
  0
ARC
  5
129
330
1F
100
AcDbEntity
  8
IGES_LEVEL_0
 62
     7
100
AcDbCircle
 10
18.16864804308656
 20
40.44612631579033
 30
0.0
 40
0.500244771786858
100
AcDbArc
 50
278.2684040178234
 51
352.5551134891975
  0
LINE
  5
12A
330
1F
100
AcDbEntity
  8
IGES_LEVEL_0
 62
     7
100
AcDbLine
 10
18.40217816963975
 20
41.32722078731091
 30
0.0
 11
18.64154918773986
 21
40.60852337070971
 31
0.0
  0
ARC
  5
12B
330
1F
100
AcDbEntity
  8
IGES_LEVEL_0
 62
     7
100
AcDbCircle
 10
1.207563419341438
 20
40.45156728057692
 30
0.0
 40
0.5003514421422135
100
AcDbArc
 50
183.5415490505265
 51
261.4026357309726
  0
ARC
  5
12C
330
1F
100
AcDbEntity
  8
IGES_LEVEL_0
 62
     7
100
AcDbCircle
 10
1.205689908304021
 20
40.44612631711154
 30
0.0
 40
0.5002447731084024
100
AcDbArc
 50
187.4450168087022
 51
261.7318157721588
  0
LINE
  5
12D
330
1F
100
AcDbEntity
  8
IGES_LEVEL_0
 62
     7
100
AcDbLine
 10
0.7327891877398519
 20
40.60852337070971
 30
0.0
 11
0.9721557337572437
 21
41.32720736014532
 31
0.0
  0
LINE
  5
12E
330
1F
100
AcDbEntity
  8
IGES_LEVEL_0
 62
     7
100
AcDbLine
 10
16.41424389105185
 20
55.59482842645971
 30
0.0
 11
16.40846089105186
 21
55.59698642645969
 31
0.0
  0
LINE
  5
12F
330
1F
100
AcDbEntity
  8
IGES_LEVEL_0
 62
     7
100
AcDbLine
 10
18.37817296896186
 20
42.5346800302997
 30
0.0
 11
18.38009431869186
 21
42.5776886226997
 31
0.0
  0
SPLINE
  5
130
330
1F
100
AcDbEntity
  8
IGES_LEVEL_0
 62
     7
100
AcDbSpline
210
0.0
220
0.0
230
1.0
 70
     8
 71
     3
 72
     8
 73
     4
 74
     0
 42
0.0000000001
 43
0.0000000001
 40
1.0
 40
1.0
 40
1.0
 40
1.0
 40
2.0
 40
2.0
 40
2.0
 40
2.0
 10
18.38009431869186
 20
42.5776886226997
 30
0.0
 10
18.38005332318907
 20
42.57658097908637
 30
0.0
 10
18.37995578536481
 20
42.57547587170529
 30
0.0
 10
18.38028450242685
 20
42.5828259516747
 30
0.0
  0
SPLINE
  5
131
330
1F
100
AcDbEntity
  8
IGES_LEVEL_0
 62
     7
100
AcDbSpline
210
0.0
220
0.0
230
1.0
 70
     8
 71
     3
 72
    22
 73
    18
 74
     0
 42
0.0000000001
 43
0.0000000001
 40
2.0
 40
2.0
 40
2.0
 40
2.0
 40
2.020372838226296
 40
2.068219315394171
 40
2.118222747659476
 40
2.170084140297332
 40
2.224289133912193
 40
2.281372625717016
 40
2.341734183334407
 40
2.405642195434727
 40
2.473417773450677
 40
2.545641091900555
 40
2.622992929980827
 40
2.706324547157508
 40
2.796643456638744
 40
2.895208231007072
 40
3.0
 40
3.0
 40
3.0
 40
3.0
 10
18.38028450242685
 20
42.5828259516747
 30
0.0
 10
18.38461117520185
 20
42.67956991348969
 30
0.0
 10
18.39522802145186
 20
42.9753230520697
 30
0.0
 10
18.39908938112185
 20
43.4881841180097
 30
0.0
 10
18.38743897897186
 20
44.13750550721969
 30
0.0
 10
18.36106605195185
 20
44.81398925762969
 30
0.0
 10
18.32058881989185
 20
45.5205316279597
 30
0.0
 10
18.26476363862186
 20
46.2630098679797
 30
0.0
 10
18.19112079685186
 20
47.0462278508997
 30
0.0
 10
18.09552291472186
 20
47.8737912005197
 30
0.0
 10
17.97424507758186
 20
48.7499590208397
 30
0.0
 10
17.82489182947187
 20
49.68088245007969
 30
0.0
 10
17.64529320979186
 20
50.6750831651697
 30
0.0
 10
17.43390511638187
 20
51.74312747708969
 30
0.0
 10
17.18828979848186
 20
52.8980910010497
 30
0.0
 10
16.90122575396995
 20
54.13919088166923
 30
0.0
 10
16.68334008518485
 20
54.99411690498946
 30
0.0
 10
16.56195759558185
 20
55.4321450086597
 30
0.0
  0
LINE
  5
132
330
1F
100
AcDbEntity
  8
IGES_LEVEL_0
 62
     7
100
AcDbLine
 10
16.56195759558185
 20
55.4321450086597
 30
0.0
 11
16.55292567772186
 21
55.4588101218697
 31
0.0
  0
LINE
  5
133
330
1F
100
AcDbEntity
  8
IGES_LEVEL_0
 62
     7
100
AcDbLine
 10
16.55292567772186
 20
55.4588101218697
 30
0.0
 11
16.54309941214186
 21
55.4801834194697
 31
0.0
  0
LINE
  5
134
330
1F
100
AcDbEntity
  8
IGES_LEVEL_0
 62
     7
100
AcDbLine
 10
16.54309941214186
 20
55.4801834194697
 30
0.0
 11
16.46711065459185
 21
55.5670689289697
 31
0.0
  0
LINE
  5
135
330
1F
100
AcDbEntity
  8
IGES_LEVEL_0
 62
     7
100
AcDbLine
 10
16.46711065459185
 20
55.5670689289697
 30
0.0
 11
16.41382257787186
 21
55.59494513983469
 31
0.0
  0
LINE
  5
136
330
1F
100
AcDbEntity
  8
IGES_LEVEL_0
 62
     7
100
AcDbLine
 10
16.41382257787186
 20
55.59494513983469
 30
0.0
 11
16.40846024846185
 21
55.59698507558971
 31
0.0
  0
LINE
  5
137
330
1F
100
AcDbEntity
  8
IGES_LEVEL_0
 62
     7
100
AcDbLine
 10
16.40846024846185
 20
55.59698507558971
 30
0.0
 11
16.40250375005185
 21
55.59911366210969
 31
0.0
  0
LINE
  5
138
330
1F
100
AcDbEntity
  8
IGES_LEVEL_0
 62
     7
100
AcDbLine
 10
16.40250375005185
 20
55.59911366210969
 30
0.0
 11
16.39697584114185
 21
55.60092446695969
 31
0.0
  0
LINE
  5
139
330
1F
100
AcDbEntity
  8
IGES_LEVEL_0
 62
     7
100
AcDbLine
 10
16.39697584114185
 20
55.60092446695969
 30
0.0
 11
16.39082453249186
 21
55.6027576878797
 31
0.0
  0
LINE
  5
13A
330
1F
100
AcDbEntity
  8
IGES_LEVEL_0
 62
     7
100
AcDbLine
 10
16.39082453249186
 20
55.6027576878797
 30
0.0
 11
16.33464489661186
 21
55.61861099342971
 31
0.0
  0
LINE
  5
13B
330
1F
100
AcDbEntity
  8
IGES_LEVEL_0
 62
     7
100
AcDbLine
 10
3.638385050396167
 20
55.77513274858969
 30
0.0
 11
3.605000242808856
 21
55.7678087556397
 31
0.0
  0
LINE
  5
13C
330
1F
100
AcDbEntity
  8
IGES_LEVEL_0
 62
     7
100
AcDbLine
 10
3.605000242808856
 20
55.7678087556397
 30
0.0
 11
3.145826034769854
 21
55.66172589991469
 31
0.0
  0
LINE
  5
13D
330
1F
100
AcDbEntity
  8
IGES_LEVEL_0
 62
     7
100
AcDbLine
 10
3.145826034769854
 20
55.66172589991469
 30
0.0
 11
3.130079448514849
 21
55.65734118264469
 31
0.0
  0
LINE
  5
13E
330
1F
100
AcDbEntity
  8
IGES_LEVEL_0
 62
     7
100
AcDbLine
 10
3.130079448514849
 20
55.65734118264469
 30
0.0
 11
3.121435991412866
 21
55.6544849957297
 31
0.0
  0
LINE
  5
13F
330
1F
100
AcDbEntity
  8
IGES_LEVEL_0
 62
     7
100
AcDbLine
 10
3.121435991412866
 20
55.6544849957297
 30
0.0
 11
3.117862656717861
 21
55.6532153236347
 31
0.0
  0
LINE
  5
140
330
1F
100
AcDbEntity
  8
IGES_LEVEL_0
 62
     7
100
AcDbLine
 10
3.117862656717861
 20
55.6532153236347
 30
0.0
 11
3.104874198715848
 21
55.6484581709497
 31
0.0
  0
LINE
  5
141
330
1F
100
AcDbEntity
  8
IGES_LEVEL_0
 62
     7
100
AcDbLine
 10
3.104874198715848
 20
55.6484581709497
 30
0.0
 11
3.092561773507853
 21
55.6439305475697
 31
0.0
  0
LINE
  5
142
330
1F
100
AcDbEntity
  8
IGES_LEVEL_0
 62
     7
100
AcDbLine
 10
3.092561773507853
 20
55.6439305475697
 30
0.0
 11
3.085403467688863
 21
55.64126077923469
 31
0.0
  0
LINE
  5
143
330
1F
100
AcDbEntity
  8
IGES_LEVEL_0
 62
     7
100
AcDbLine
 10
3.085403467688863
 20
55.64126077923469
 30
0.0
 11
3.073681767066844
 21
55.63651740513969
 31
0.0
  0
ARC
  5
144
330
1F
100
AcDbEntity
  8
IGES_LEVEL_0
 62
     7
100
AcDbCircle
 10
3.174163843577794
 20
55.40294071574876
 30
0.0
 40
0.2542729193736115
100
AcDbArc
 50
113.276833763287
 51
150.0210737712807
  0
LINE
  5
145
330
1F
100
AcDbEntity
  8
IGES_LEVEL_0
 62
     7
100
AcDbLine
 10
2.953910289160845
 20
55.5299961732997
 30
0.0
 11
2.930253993418845
 21
55.47485056778969
 31
0.0
  0
LINE
  5
146
330
1F
100
AcDbEntity
  8
IGES_LEVEL_0
 62
     7
100
AcDbLine
 10
2.930253993418845
 20
55.47485056778969
 30
0.0
 11
2.926862226894855
 21
55.4621982541847
 31
0.0
  0
SPLINE
  5
147
330
1F
100
AcDbEntity
  8
IGES_LEVEL_0
 62
     7
100
AcDbSpline
210
0.0
220
0.0
230
1.0
 70
     8
 71
     3
 72
    22
 73
    18
 74
     0
 42
0.0000000001
 43
0.0000000001
 40
12.0
 40
12.0
 40
12.0
 40
12.0
 40
12.10338281003966
 40
12.20071698736234
 40
12.29013451005046
 40
12.37285278479739
 40
12.4498363965599
 40
12.52189357044873
 40
12.58965707960573
 40
12.65367465215999
 40
12.7142969078758
 40
12.77174669035302
 40
12.82632194883411
 40
12.87843170518683
 40
12.92852231061663
 40
12.97689719752877
 40
13.0
 40
13.0
 40
13.0
 40
13.0
 10
2.926862226894855
 20
55.4621982541847
 30
0.0
 10
2.821565334393114
 20
55.02493868027953
 30
0.0
 10
2.610809822714671
 20
54.17753263391693
 30
0.0
 10
2.322602865704866
 20
52.94863375415969
 30
0.0
 10
2.066217288674849
 20
51.8046853087397
 30
0.0
 10
1.841605325877865
 20
50.7444051439297
 30
0.0
 10
1.649029625514871
 20
49.7546506742097
 30
0.0
 10
1.488928391449846
 20
48.82506610085969
 30
0.0
 10
1.358482617619856
 20
47.9478431874597
 30
0.0
 10
1.255838257800846
 20
47.1170392909297
 30
0.0
 10
1.176957047386864
 20
46.3287470052497
 30
0.0
 10
1.116988781728864
 20
45.5800139732897
 30
0.0
 10
1.072049884003846
 20
44.8673418097397
 30
0.0
 10
1.039652961082865
 20
44.1860466903097
 30
0.0
 10
1.01738464023687
 20
43.53134068530969
 30
0.0
 10
1.005345730175847
 20
43.0025979013597
 30
0.0
 10
0.999060668366753
 20
42.69170375984788
 30
0.0
 10
0.9971364601368435
 20
42.5912152374997
 30
0.0
  0
LINE
  5
148
330
1F
100
AcDbEntity
  8
IGES_LEVEL_0
 62
     7
100
AcDbLine
 10
0.9971364601368435
 20
42.5912152374997
 30
0.0
 11
0.9968618703048691
 21
42.57687524765969
 31
0.0
  0
LINE
  5
149
330
1F
100
AcDbEntity
  8
IGES_LEVEL_0
 62
     7
100
AcDbLine
 10
0.9968618703048691
 20
42.57687524765969
 30
0.0
 11
0.9968131108988558
 21
42.5743213200197
 31
0.0
  0
LINE
  5
14A
330
1F
100
AcDbEntity
  8
IGES_LEVEL_0
 62
     7
100
AcDbLine
 10
0.9968131108988558
 20
42.5743213200197
 30
0.0
 11
0.9949432504953677
 21
42.4803224040897
 31
0.0
  0
LINE
  5
14B
330
1F
100
AcDbEntity
  8
IGES_LEVEL_0
 62
     7
100
AcDbLine
 10
0.9949432504953677
 20
42.4803224040897
 30
0.0
 11
0.9944657824798497
 21
42.4656058216697
 31
0.0
  0
LINE
  5
14C
330
1F
100
AcDbEntity
  8
IGES_LEVEL_0
 62
     7
100
AcDbLine
 10
0.9944657824798497
 20
42.4656058216697
 30
0.0
 11
0.9699293859338667
 21
41.55677697976969
 31
0.0
  0
ARC
  5
14D
330
1F
100
AcDbEntity
  8
IGES_LEVEL_0
 62
     7
100
AcDbCircle
 10
9.797996034077901
 20
41.60885620737713
 30
0.0
 40
8.828220261752719
100
AcDbArc
 50
180.3379998641721
 51
192.0913789670782
  0
ARC
  5
14E
330
1F
100
AcDbEntity
  8
IGES_LEVEL_0
 62
     7
100
AcDbCircle
 10
1.804869935248068
 20
39.93719362953667
 30
0.0
 40
0.6634501503694432
100
AcDbArc
 50
195.5267150841699
 51
260.9642023314282
  0
LINE
  5
14F
330
1F
100
AcDbEntity
  8
IGES_LEVEL_0
 62
     7
100
AcDbLine
 10
1.700674074397867
 20
39.28197662379969
 30
0.0
 11
1.717473263416352
 21
39.2774473189397
 31
0.0
  0
LINE
  5
150
330
1F
100
AcDbEntity
  8
IGES_LEVEL_0
 62
     7
100
AcDbLine
 10
1.717473263416352
 20
39.2774473189397
 30
0.0
 11
1.736742498796858
 21
39.2723877944597
 31
0.0
  0
SPLINE
  5
151
330
1F
100
AcDbEntity
  8
IGES_LEVEL_0
 62
     7
100
AcDbSpline
210
0.0
220
0.0
230
1.0
 70
     8
 71
     3
 72
    11
 73
     7
 74
     0
 42
0.0000000001
 43
0.0000000001
 40
22.0
 40
22.0
 40
22.0
 40
22.0
 40
22.21735295552227
 40
22.46152254636755
 40
22.72420440785231
 40
23.0
 40
23.0
 40
23.0
 40
23.0
 10
1.736742498796858
 20
39.2723877944597
 30
0.0
 10
2.298590705239846
 20
39.1251293244097
 30
0.0
 10
3.502519063885856
 20
38.8530378402297
 30
0.0
 10
5.419693442470347
 20
38.56848559984969
 30
0.0
 10
7.511410100225142
 20
38.47465227011018
 30
0.0
 10
8.950183029249724
 20
38.47340210570159
 30
0.0
 10
9.687168973548864
 20
38.4733740698647
 30
0.0
  0
SPLINE
  5
152
330
1F
100
AcDbEntity
  8
IGES_LEVEL_0
 62
     7
100
AcDbSpline
210
0.0
220
0.0
230
1.0
 70
     8
 71
     3
 72
    11
 73
     7
 74
     0
 42
0.0000000001
 43
0.0000000001
 40
23.0
 40
23.0
 40
23.0
 40
23.0
 40
23.2753566736486
 40
23.53803888258821
 40
23.78221036370215
 40
24.0
 40
24.0
 40
24.0
 40
24.0
 10
9.687168973548864
 20
38.4733740698647
 30
0.0
 10
10.42298166629229
 20
38.47334607865971
 30
0.0
 10
11.86058220099907
 20
38.47466222832011
 30
0.0
 10
13.95113802522486
 20
38.5681715534897
 30
0.0
 10
15.86952740008185
 20
38.8525448247297
 30
0.0
 10
17.07467869225625
 20
39.12459831800752
 30
0.0
 10
17.63759337099187
 20
39.2723880069697
 30
0.0
  0
LINE
  5
153
330
1F
100
AcDbEntity
  8
IGES_LEVEL_0
 62
     7
100
AcDbLine
 10
17.63759337099187
 20
39.2723880069697
 30
0.0
 11
17.65686185644686
 21
39.2774468259697
 31
0.0
  0
LINE
  5
154
330
1F
100
AcDbEntity
  8
IGES_LEVEL_0
 62
     7
100
AcDbLine
 10
17.65686185644686
 20
39.2774468259697
 30
0.0
 11
17.67067895524185
 21
39.2811547691597
 31
0.0
  0
ARC
  5
155
330
1F
100
AcDbEntity
  8
IGES_LEVEL_0
 62
     7
100
AcDbCircle
 10
17.56808944072851
 20
39.93826186486507
 30
0.0
 40
0.6650671723325622
100
AcDbArc
 50
278.8735544535614
 51
344.41584247201
  0
ARC
  5
156
330
1F
100
AcDbEntity
  8
IGES_LEVEL_0
 62
     7
100
AcDbCircle
 10
11.71221942372201
 20
41.37623212742777
 30
0.0
 40
6.694615806246333
100
AcDbArc
 50
346.0258537474659
 51
1.544764590682325
  0
LINE
  5
157
330
1F
100
AcDbEntity
  8
IGES_LEVEL_0
 62
     7
100
AcDbLine
 10
18.40440219303186
 20
41.5567053259797
 30
0.0
 11
18.37989132340185
 21
42.4656005010797
 31
0.0
  0
LINE
  5
158
330
1F
100
AcDbEntity
  8
IGES_LEVEL_0
 62
     7
100
AcDbLine
 10
18.37989132340185
 20
42.4656005010797
 30
0.0
 11
18.37938647474685
 21
42.48051139925969
 31
0.0
  0
LINE
  5
159
330
1F
100
AcDbEntity
  8
IGES_LEVEL_0
 62
     7
100
AcDbLine
 10
18.37938647474685
 20
42.48051139925969
 30
0.0
 11
18.37750824809186
 21
42.5743213915097
 31
0.0
  0
LINE
  5
15A
330
1F
100
AcDbEntity
  8
IGES_LEVEL_0
 62
     7
100
AcDbLine
 10
18.37750824809186
 20
42.5743213915097
 30
0.0
 11
18.37743156611187
 21
42.5783391315197
 31
0.0
  0
LINE
  5
15B
330
1F
100
AcDbEntity
  8
IGES_LEVEL_0
 62
     7
100
AcDbLine
 10
18.37743156611187
 20
42.5783391315197
 30
0.0
 11
18.37718510931185
 21
42.5912143452097
 31
0.0
  0
SPLINE
  5
15C
330
1F
100
AcDbEntity
  8
IGES_LEVEL_0
 62
     7
100
AcDbSpline
210
0.0
220
0.0
230
1.0
 70
     8
 71
     3
 72
    22
 73
    18
 74
     0
 42
0.0000000001
 43
0.0000000001
 40
33.0
 40
33.0
 40
33.0
 40
33.0
 40
33.0231233086374
 40
33.07150788144456
 40
33.12160787165963
 40
33.17372703736832
 40
33.22831107578334
 40
33.28577051588967
 40
33.34640430786424
 40
33.4104339409025
 40
33.47821198286889
 40
33.55028434700805
 40
33.62728837269805
 40
33.71002706895933
 40
33.79946954304555
 40
33.89683379116745
 40
34.0
 40
34.0
 40
34.0
 40
34.0
 10
18.37718510931185
 20
42.5912143452097
 30
0.0
 10
18.37525552479185
 20
42.6917943009997
 30
0.0
 10
18.36897854068185
 20
43.00282717046969
 30
0.0
 10
18.35695791142186
 20
43.5317547447597
 30
0.0
 10
18.33465493273185
 20
44.1865986359697
 30
0.0
 10
18.30225427499185
 20
44.8680291538497
 30
0.0
 10
18.25729511141186
 20
45.5808380734197
 30
0.0
 10
18.19727727890187
 20
46.3297149168497
 30
0.0
 10
18.11840231384186
 20
47.1181716694897
 30
0.0
 10
18.01566328775185
 20
47.9491505446497
 30
0.0
 10
17.88517471842185
 20
48.8265711730597
 30
0.0
 10
17.72497635793185
 20
49.7563823365097
 30
0.0
 10
17.53234593185185
 20
50.74639783346969
 30
0.0
 10
17.30762505717186
 20
51.8069728531197
 30
0.0
 10
17.05117240746186
 20
52.9512702865097
 30
0.0
 10
16.76299846574932
 20
54.17948443917837
 30
0.0
 10
16.5707408454101
 20
55.03135827961352
 30
0.0
 10
16.44740009919185
 20
55.4624865156097
 30
0.0
  0
LINE
  5
15D
330
1F
100
AcDbEntity
  8
IGES_LEVEL_0
 62
     7
100
AcDbLine
 10
16.44740009919185
 20
55.4624865156097
 30
0.0
 11
16.44142148113185
 21
55.4833843221897
 31
0.0
  0
LINE
  5
15E
330
1F
100
AcDbEntity
  8
IGES_LEVEL_0
 62
     7
100
AcDbLine
 10
16.44142148113185
 20
55.4833843221897
 30
0.0
 11
16.41911054450186
 21
55.53242838782969
 31
0.0
  0
ARC
  5
15F
330
1F
100
AcDbEntity
  8
IGES_LEVEL_0
 62
     7
100
AcDbCircle
 10
16.20657431997978
 20
55.41078605903786
 30
0.0
 40
0.2448846726277553
100
AcDbArc
 50
29.78409965518748
 51
70.37723948247165
  0
LINE
  5
160
330
1F
100
AcDbEntity
  8
IGES_LEVEL_0
 62
     7
100
AcDbLine
 10
16.28881290416686
 20
55.6414488392147
 30
0.0
 11
16.25127614536686
 21
55.65483188218469
 31
0.0
  0
LINE
  5
161
330
1F
100
AcDbEntity
  8
IGES_LEVEL_0
 62
     7
100
AcDbLine
 10
16.25127614536686
 20
55.65483188218469
 30
0.0
 11
16.24759335699186
 21
55.65642317850969
 31
0.0
  0
LINE
  5
162
330
1F
100
AcDbEntity
  8
IGES_LEVEL_0
 62
     7
100
AcDbLine
 10
16.24759335699186
 20
55.65642317850969
 30
0.0
 11
16.23704056337686
 21
55.6598912633097
 31
0.0
  0
LINE
  5
163
330
1F
100
AcDbEntity
  8
IGES_LEVEL_0
 62
     7
100
AcDbLine
 10
16.23704056337686
 20
55.6598912633097
 30
0.0
 11
15.73949725138686
 21
55.77484226105469
 31
0.0
  0
ARC
  5
164
330
1F
100
AcDbEntity
  8
IGES_LEVEL_0
 62
     7
100
AcDbCircle
 10
9.817264610408081
 20
32.66450496439225
 30
0.0
 40
23.85708551813027
100
AcDbArc
 50
75.62673576363949
 51
90.31244253759795
  0
ARC
  5
165
330
1F
100
AcDbEntity
  8
IGES_LEVEL_0
 62
     7
100
AcDbCircle
 10
10.18916728027783
 20
27.49724651732313
 30
0.0
 40
29.02833020030806
100
AcDbArc
 50
90.99088781145069
 51
103.0429213116338
  0
LINE
  5
166
330
1F
100
AcDbEntity
  8
IGES_LEVEL_0
 62
     7
100
AcDbLine
 10
3.638027319029746
 20
55.7766828523397
 30
0.0
 11
3.60684857879177
 21
55.76946006724969
 31
0.0
  0
LINE
  5
167
330
1F
100
AcDbEntity
  8
IGES_LEVEL_0
 62
     7
100
AcDbLine
 10
3.485010520733866
 20
55.7410727249597
 30
0.0
 11
3.629950025558955
 21
55.7796117245397
 31
0.0
  0
LINE
  5
168
330
1F
100
AcDbEntity
  8
IGES_LEVEL_0
 62
     7
100
AcDbLine
 10
3.629950025558955
 20
55.7796117245397
 30
0.0
 11
3.727924206108568
 21
55.80518188663969
 31
0.0
  0
ARC
  5
169
330
1F
100
AcDbEntity
  8
IGES_LEVEL_0
 62
     7
100
AcDbCircle
 10
9.639709526078891
 20
32.59711799668159
 30
0.0
 40
23.94918443684031
100
AcDbArc
 50
89.95257338795682
 51
104.2910144423879
  0
LINE
  5
16A
330
1F
100
AcDbEntity
  8
IGES_LEVEL_0
 62
     7
100
AcDbLine
 10
3.040453763679849
 20
55.6188250579497
 30
0.0
 11
2.983513426814355
 21
55.6027576606047
 31
0.0
  0
LINE
  5
16B
330
1F
100
AcDbEntity
  8
IGES_LEVEL_0
 62
     7
100
AcDbLine
 10
2.983513426814355
 20
55.6027576606047
 30
0.0
 11
2.972401843766861
 21
55.59930676138969
 31
0.0
  0
LINE
  5
16C
330
1F
100
AcDbEntity
  8
IGES_LEVEL_0
 62
     7
100
AcDbLine
 10
2.972401843766861
 20
55.59930676138969
 30
0.0
 11
2.965877277453856
 21
55.59698573997969
 31
0.0
  0
LINE
  5
16D
330
1F
100
AcDbEntity
  8
IGES_LEVEL_0
 62
     7
100
AcDbLine
 10
2.965877277453856
 20
55.59698573997969
 30
0.0
 11
2.960149485445868
 21
55.5948477709597
 31
0.0
  0
LINE
  5
16E
330
1F
100
AcDbEntity
  8
IGES_LEVEL_0
 62
     7
100
AcDbLine
 10
2.960149485445868
 20
55.5948477709597
 30
0.0
 11
2.947128915228845
 21
55.58953786224969
 31
0.0
  0
LINE
  5
16F
330
1F
100
AcDbEntity
  8
IGES_LEVEL_0
 62
     7
100
AcDbLine
 10
2.947128915228845
 20
55.58953786224969
 30
0.0
 11
2.906458837640869
 21
55.5665302966997
 31
0.0
  0
LINE
  5
170
330
1F
100
AcDbEntity
  8
IGES_LEVEL_0
 62
     7
100
AcDbLine
 10
2.906458837640869
 20
55.5665302966997
 30
0.0
 11
2.841823623004856
 21
55.4985887626797
 31
0.0
  0
LINE
  5
171
330
1F
100
AcDbEntity
  8
IGES_LEVEL_0
 62
     7
100
AcDbLine
 10
2.841823623004856
 20
55.4985887626797
 30
0.0
 11
2.830077453730851
 21
55.47791610033971
 31
0.0
  0
LINE
  5
172
330
1F
100
AcDbEntity
  8
IGES_LEVEL_0
 62
     7
100
AcDbLine
 10
2.830077453730851
 20
55.47791610033971
 30
0.0
 11
2.814593824961847
 21
55.4396629630697
 31
0.0
  0
LINE
  5
173
330
1F
100
AcDbEntity
  8
IGES_LEVEL_0
 62
     7
100
AcDbLine
 10
2.814593824961847
 20
55.4396629630697
 30
0.0
 11
2.813603704401871
 21
55.43639824737971
 31
0.0
  0
LINE
  5
174
330
1F
100
AcDbEntity
  8
IGES_LEVEL_0
 62
     7
100
AcDbLine
 10
2.813603704401871
 20
55.43639824737971
 30
0.0
 11
2.812380202047365
 21
55.4321439020397
 31
0.0
  0
SPLINE
  5
175
330
1F
100
AcDbEntity
  8
IGES_LEVEL_0
 62
     7
100
AcDbSpline
210
0.0
220
0.0
230
1.0
 70
     8
 71
     3
 72
    22
 73
    18
 74
     0
 42
0.0000000001
 43
0.0000000001
 40
11.0
 40
11.0
 40
11.0
 40
11.0
 40
11.10501383102569
 40
11.20354394101351
 40
11.29383190869224
 40
11.37713979994495
 40
11.45446872911156
 40
11.52667316617173
 40
11.59443204444288
 40
11.65832543108932
 40
11.71867420422697
 40
11.77574564400307
 40
11.82993863749743
 40
11.88178875923651
 40
11.93178368548006
 40
11.97962731526341
 40
12.0
 40
12.0
 40
12.0
 40
12.0
 10
2.812380202047365
 20
55.4321439020397
 30
0.0
 10
2.690742142623307
 20
54.99318715735957
 30
0.0
 10
2.472678852818476
 20
54.13746747934697
 30
0.0
 10
2.185537481812858
 20
52.8956892975297
 30
0.0
 10
1.939984580052865
 20
51.74110873549969
 30
0.0
 10
1.728735105337862
 20
50.6733799933897
 30
0.0
 10
1.54919966196185
 20
49.6794569206597
 30
0.0
 10
1.399920703403851
 20
48.74877851184969
 30
0.0
 10
1.278692684516855
 20
47.8728238284497
 30
0.0
 10
1.183136124347854
 20
47.04544836984969
 30
0.0
 10
1.109524751139858
 20
46.26239947564969
 30
0.0
 10
1.053719552860869
 20
45.5200800527197
 30
0.0
 10
1.013258481327867
 20
44.8136902954997
 30
0.0
 10
0.9868950605668516
 20
44.1373441951897
 30
0.0
 10
0.9752487406618542
 20
43.48812095990969
 30
0.0
 10
0.9791102326798438
 20
42.9753098588497
 30
0.0
 10
0.9897970774771636
 20
42.67957286019495
 30
0.0
 10
0.9940534990603567
 20
42.5828260621897
 30
0.0
  0
ARC
  5
176
330
1F
100
AcDbEntity
  8
IGES_LEVEL_0
 62
     7
100
AcDbCircle
 10
0.3876650777339622
 20
42.5561477139906
 30
0.0
 40
0.606975000952551
100
AcDbArc
 50
1.832057216237128
 51
2.519130676618321
  0
LINE
  5
177
330
1F
100
AcDbEntity
  8
IGES_LEVEL_0
 62
     7
100
AcDbLine
 10
0.9943298109578649
 20
42.5755526938597
 30
0.0
 11
0.9942444861223549
 21
42.5776563651547
 31
0.0
  0
LINE
  5
178
330
1F
100
AcDbEntity
  8
IGES_LEVEL_0
 62
     7
100
AcDbLine
 10
0.9942444861223549
 20
42.5776563651547
 30
0.0
 11
0.9961765163398439
 21
42.5344065564997
 31
0.0
  0
LINE
  5
179
330
1F
100
AcDbEntity
  8
IGES_LEVEL_0
 62
     7
100
AcDbLine
 10
15.85266517425185
 20
55.7506017766997
 30
0.0
 11
15.76459227845186
 21
55.7738538994797
 31
0.0
  0
LINE
  5
17A
330
1F
100
AcDbEntity
  8
IGES_LEVEL_0
 62
     7
100
AcDbLine
 10
15.76459227845186
 20
55.7738538994797
 30
0.0
 11
15.74551263873185
 21
55.7788514374197
 31
0.0
  0
LINE
  5
17B
330
1F
100
AcDbEntity
  8
IGES_LEVEL_0
 62
     7
100
AcDbLine
 10
15.74551263873185
 20
55.7788514374197
 30
0.0
 11
15.74049908165186
 21
55.7801622375297
 31
0.0
  0
LINE
  5
17C
330
1F
100
AcDbEntity
  8
IGES_LEVEL_0
 62
     7
100
AcDbLine
 10
15.74049908165186
 20
55.7801622375297
 30
0.0
 11
15.72546586419186
 21
55.7840866428897
 31
0.0
  0
LINE
  5
17D
330
1F
100
AcDbEntity
  8
IGES_LEVEL_0
 62
     7
100
AcDbLine
 10
15.72546586419186
 20
55.7840866428897
 30
0.0
 11
15.56599997831187
 21
55.82513770939971
 31
0.0
  0
LINE
  5
17E
330
1F
100
AcDbEntity
  8
IGES_LEVEL_0
 62
     7
100
AcDbLine
 10
15.56599997831187
 20
55.82513770939971
 30
0.0
 11
15.20554758134186
 21
55.91379047547969
 31
0.0
  0
LINE
  5
17F
330
1F
100
AcDbEntity
  8
IGES_LEVEL_0
 62
     7
100
AcDbLine
 10
15.20554758134186
 20
55.91379047547969
 30
0.0
 11
14.87829933775186
 21
55.9889656418997
 31
0.0
  0
LINE
  5
180
330
1F
100
AcDbEntity
  8
IGES_LEVEL_0
 62
     7
100
AcDbLine
 10
14.87829933775186
 20
55.9889656418997
 30
0.0
 11
14.72143904104186
 21
56.02318395087971
 31
0.0
  0
ARC
  5
181
330
1F
100
AcDbEntity
  8
IGES_LEVEL_0
 62
     7
100
AcDbCircle
 10
10.07291505055577
 20
35.22277021898492
 30
0.0
 40
21.31351652609494
100
AcDbArc
 50
77.40241186798116
 51
89.08621757405024
  0
LINE
  5
182
330
1F
100
AcDbEntity
  8
IGES_LEVEL_0
 62
     7
100
AcDbLine
 10
10.41281951437186
 20
56.5335762024197
 30
0.0
 11
9.687168975686845
 21
56.54515023004969
 31
0.0
  0
LINE
  5
183
330
1F
100
AcDbEntity
  8
IGES_LEVEL_0
 62
     7
100
AcDbLine
 10
15.36707951855986
 20
16.0889787153497
 30
0.0
 11
15.95962250512986
 21
16.7441804934997
 31
0.0
  0
ARC
  5
184
330
1F
100
AcDbEntity
  8
IGES_LEVEL_0
 62
     7
100
AcDbCircle
 10
9.798936588620947
 20
30.18450881122125
 30
0.0
 40
15.28250972888977
100
AcDbArc
 50
269.5807358322061
 51
290.1637303465537
  0
LINE
  5
185
330
1F
100
AcDbEntity
  8
IGES_LEVEL_0
 62
     7
100
AcDbLine
 10
15.14324656925986
 20
15.8817668942997
 30
0.0
 11
15.36695783421986
 21
16.0888487992597
 31
0.0
  0
LINE
  5
186
330
1F
100
AcDbEntity
  8
IGES_LEVEL_0
 62
     7
100
AcDbLine
 10
15.12047118591985
 20
15.8653117734197
 30
0.0
 11
15.14321257446986
 21
15.8817412553997
 31
0.0
  0
LINE
  5
187
330
1F
100
AcDbEntity
  8
IGES_LEVEL_0
 62
     7
100
AcDbLine
 10
15.08929336088986
 20
15.8479231670097
 30
0.0
 11
15.12047118591985
 21
15.8653117734197
 31
0.0
  0
LINE
  5
188
330
1F
100
AcDbEntity
  8
IGES_LEVEL_0
 62
     7
100
AcDbLine
 10
15.06688125650986
 20
15.8386405396097
 30
0.0
 11
15.08929336088986
 21
15.8479231670097
 31
0.0
  0
LINE
  5
189
330
1F
100
AcDbEntity
  8
IGES_LEVEL_0
 62
     7
100
AcDbLine
 10
3.414716501639859
 20
16.7441799589097
 30
0.0
 11
4.007239304965751
 21
16.0889995839697
 31
0.0
  0
ARC
  5
18A
330
1F
100
AcDbEntity
  8
IGES_LEVEL_0
 62
     7
100
AcDbCircle
 10
9.575391773759774
 20
30.18446621765366
 30
0.0
 40
15.28246623596555
100
AcDbArc
 50
249.8362504435196
 51
270.4188723113788
  0
LINE
  5
18B
330
1F
100
AcDbEntity
  8
IGES_LEVEL_0
 62
     7
100
AcDbLine
 10
4.007381160025759
 20
16.0888475148797
 30
0.0
 11
4.23109235210525
 21
15.8817665917097
 31
0.0
  0
LINE
  5
18C
330
1F
100
AcDbEntity
  8
IGES_LEVEL_0
 62
     7
100
AcDbLine
 10
4.304470164907755
 20
15.8397353631997
 30
0.0
 11
4.307457055798565
 21
15.8386405831297
 31
0.0
  0
LINE
  5
18D
330
1F
100
AcDbEntity
  8
IGES_LEVEL_0
 62
     7
100
AcDbLine
 10
4.252978749135551
 20
15.8658915503397
 30
0.0
 11
4.304470164907755
 21
15.8397353631997
 31
0.0
  0
LINE
  5
18E
330
1F
100
AcDbEntity
  8
IGES_LEVEL_0
 62
     7
100
AcDbLine
 10
4.231141624851247
 20
15.8817288725997
 30
0.0
 11
4.252978749135551
 21
15.8658915503397
 31
0.0
  0
ARC
  5
18F
330
1F
100
AcDbEntity
  8
IGES_LEVEL_0
 62
     7
100
AcDbCircle
 10
9.992628376700877
 20
65.87744285175798
 30
0.0
 40
47.07797874893182
100
AcDbArc
 50
259.5483092781133
 51
269.6282414674857
  0
ARC
  5
190
330
1F
100
AcDbEntity
  8
IGES_LEVEL_0
 62
     7
100
AcDbCircle
 10
9.381710259626235
 20
65.87744055045175
 30
0.0
 40
47.07797644707974
100
AcDbArc
 50
270.3717584392163
 51
280.4516902616954
  0
LINE
  5
191
330
1F
100
AcDbEntity
  8
IGES_LEVEL_0
 62
     7
100
AcDbLine
 10
18.10824535738986
 20
17.4099012421997
 30
0.0
 11
18.12176366526985
 21
17.4328346212497
 31
0.0
  0
LINE
  5
192
330
1F
100
AcDbEntity
  8
IGES_LEVEL_0
 62
     7
100
AcDbLine
 10
1.252581835506859
 20
17.4328226768997
 30
0.0
 11
1.26608433397287
 21
17.4099162173197
 31
0.0
  0
LINE
  5
193
330
1F
100
AcDbEntity
  8
IGES_LEVEL_0
 62
     7
100
AcDbLine
 10
1.069988399738847
 20
18.3569218014197
 30
0.0
 11
1.163042463796856
 21
17.7038640065697
 31
0.0
  0
LINE
  5
194
330
1F
100
AcDbEntity
  8
IGES_LEVEL_0
 62
     7
100
AcDbLine
 10
1.069332161697858
 20
18.3605265098297
 30
0.0
 11
1.069988399738847
 21
18.3569218014197
 31
0.0
  0
LINE
  5
195
330
1F
100
AcDbEntity
  8
IGES_LEVEL_0
 62
     7
100
AcDbLine
 10
1.049735763627851
 20
18.4662329249397
 30
0.0
 11
1.069332161697858
 21
18.3605265098297
 31
0.0
  0
LINE
  5
196
330
1F
100
AcDbEntity
  8
IGES_LEVEL_0
 62
     7
100
AcDbLine
 10
1.000307545287868
 20
18.7421610738497
 30
0.0
 11
1.049735763627851
 21
18.4662329249397
 31
0.0
  0
LINE
  5
197
330
1F
100
AcDbEntity
  8
IGES_LEVEL_0
 62
     7
100
AcDbLine
 10
0.9974785223018472
 20
18.7600412250497
 30
0.0
 11
1.000307545287868
 21
18.7421610738497
 31
0.0
  0
LINE
  5
198
330
1F
100
AcDbEntity
  8
IGES_LEVEL_0
 62
     7
100
AcDbLine
 10
0.9957125211818578
 20
18.7714831345697
 30
0.0
 11
0.9974785223018472
 21
18.7600412250497
 31
0.0
  0
SPLINE
  5
199
330
1F
100
AcDbEntity
  8
IGES_LEVEL_0
 62
     7
100
AcDbSpline
210
0.0
220
0.0
230
1.0
 70
     8
 71
     3
 72
    14
 73
    10
 74
     0
 42
0.0000000001
 43
0.0000000001
 40
0.0
 40
0.0
 40
0.0
 40
0.0
 40
0.1221215208161
 40
0.2910656106337
 40
0.4083349103063
 40
0.4933923736365
 40
0.6456720777499
 40
0.8397554858372001
 40
1.0
 40
1.0
 40
1.0
 40
1.0
 10
1.452505353896854
 20
19.5805201344997
 30
0.0
 10
1.407924339246861
 20
19.5874081025097
 30
0.0
 10
1.298915733292844
 20
19.5881717194797
 30
0.0
 10
1.155214748739851
 20
19.5234922355797
 30
0.0
 10
1.065109023241845
 20
19.4182401897997
 30
0.0
 10
1.002804299205863
 20
19.3030625727297
 30
0.0
 10
0.9656068010548466
 20
19.1462660539097
 30
0.0
 10
0.9702702792818485
 20
18.9589794684297
 30
0.0
 10
0.9868158871298505
 20
18.8297259851397
 30
0.0
 10
0.9957125211818578
 20
18.7714831345697
 30
0.0
  0
LINE
  5
19A
330
1F
100
AcDbEntity
  8
IGES_LEVEL_0
 62
     7
100
AcDbLine
 10
1.243156553771868
 20
17.4491508129697
 30
0.0
 11
1.252566726994857
 21
17.4328614717097
 31
0.0
  0
ARC
  5
19B
330
1F
100
AcDbEntity
  8
IGES_LEVEL_0
 62
     7
100
AcDbCircle
 10
1.813210081513693
 20
17.76818871768233
 30
0.0
 40
0.6532581489230125
100
AcDbArc
 50
185.6507994589651
 51
209.2341280189191
  0
ARC
  5
19C
330
1F
100
AcDbEntity
  8
IGES_LEVEL_0
 62
     7
100
AcDbCircle
 10
17.5610009477977
 20
17.76823383018665
 30
0.0
 40
0.6533918200726766
100
AcDbArc
 50
330.6665448107896
 51
354.3469238991012
  0
LINE
  5
19D
330
1F
100
AcDbEntity
  8
IGES_LEVEL_0
 62
     7
100
AcDbLine
 10
18.12178088184986
 20
17.4328768790397
 30
0.0
 11
18.13061707180985
 21
17.4481426840997
 31
0.0
  0
SPLINE
  5
19E
330
1F
100
AcDbEntity
  8
IGES_LEVEL_0
 62
     7
100
AcDbSpline
210
0.0
220
0.0
230
1.0
 70
     8
 71
     3
 72
    14
 73
    10
 74
     0
 42
0.0000000001
 43
0.0000000001
 40
0.0
 40
0.0
 40
0.0
 40
0.0
 40
0.1627265140382
 40
0.3587804501216
 40
0.5110675223601
 40
0.5943300949671
 40
0.7131584501302
 40
0.8813893173375
 40
1.0
 40
1.0
 40
1.0
 40
1.0
 10
18.37912448296986
 20
18.7746982471097
 30
0.0
 10
18.38808273520986
 20
18.8336807718497
 30
0.0
 10
18.40457821465985
 20
18.9642130180597
 30
0.0
 10
18.40836370084986
 20
19.1527416735997
 30
0.0
 10
18.36925650660986
 20
19.3087150604797
 30
0.0
 10
18.30605196138986
 20
19.4228332538797
 30
0.0
 10
18.21505505965986
 20
19.5264705918297
 30
0.0
 10
18.07190986942986
 20
19.5884774607597
 30
0.0
 10
17.96493184380985
 20
19.5871878022397
 30
0.0
 10
17.92176497718985
 20
19.5805077650797
 30
0.0
  0
LINE
  5
19F
330
1F
100
AcDbEntity
  8
IGES_LEVEL_0
 62
     7
100
AcDbLine
 10
18.37686682694987
 20
18.7600332827097
 30
0.0
 11
18.37912448296986
 21
18.7746982471097
 31
0.0
  0
LINE
  5
1A0
330
1F
100
AcDbEntity
  8
IGES_LEVEL_0
 62
     7
100
AcDbLine
 10
18.37403573496987
 20
18.7421467643897
 30
0.0
 11
18.37686682694987
 21
18.7600332827097
 31
0.0
  0
LINE
  5
1A1
330
1F
100
AcDbEntity
  8
IGES_LEVEL_0
 62
     7
100
AcDbLine
 10
18.36304910169986
 20
18.6764995978897
 30
0.0
 11
18.37403573496987
 21
18.7421467643897
 31
0.0
  0
LINE
  5
1A2
330
1F
100
AcDbEntity
  8
IGES_LEVEL_0
 62
     7
100
AcDbLine
 10
18.32433238403986
 20
18.4647770066497
 30
0.0
 11
18.36304910169986
 21
18.6764995978897
 31
0.0
  0
LINE
  5
1A3
330
1F
100
AcDbEntity
  8
IGES_LEVEL_0
 62
     7
100
AcDbLine
 10
18.30498590357986
 20
18.3604282034697
 30
0.0
 11
18.32433238403986
 21
18.4647770066497
 31
0.0
  0
LINE
  5
1A4
330
1F
100
AcDbEntity
  8
IGES_LEVEL_0
 62
     7
100
AcDbLine
 10
18.30380907151987
 20
18.3539614312597
 30
0.0
 11
18.30498590357986
 21
18.3604282034697
 31
0.0
  0
LINE
  5
1A5
330
1F
100
AcDbEntity
  8
IGES_LEVEL_0
 62
     7
100
AcDbLine
 10
18.21129648690986
 20
17.7038535646697
 30
0.0
 11
18.30380907151987
 21
18.3539614312597
 31
0.0
  0
LINE
  5
1A6
330
1F
100
AcDbEntity
  8
IGES_LEVEL_0
 62
     7
100
AcDbLine
 10
1.70498567109486
 20
17.0866472487797
 30
0.0
 11
1.764062885255854
 21
17.0745891081197
 31
0.0
  0
ARC
  5
1A7
330
1F
100
AcDbEntity
  8
IGES_LEVEL_0
 62
     7
100
AcDbCircle
 10
1.868017877477609
 20
17.76819940969925
 30
0.0
 40
0.7007801712178602
100
AcDbArc
 50
213.6490518430536
 51
256.5472228297649
  0
LINE
  5
1A8
330
1F
100
AcDbEntity
  8
IGES_LEVEL_0
 62
     7
100
AcDbLine
 10
1.265981827957845
 20
17.4100973668497
 30
0.0
 11
1.284655408501848
 21
17.3798940167897
 31
0.0
  0
SPLINE
  5
1A9
330
1F
100
AcDbEntity
  8
IGES_LEVEL_0
 62
     7
100
AcDbSpline
210
0.0
220
0.0
230
1.0
 70
     8
 71
     3
 72
    11
 73
     7
 74
     0
 42
0.0000000001
 43
0.0000000001
 40
0.0
 40
0.0
 40
0.0
 40
0.0
 40
0.2353078582519
 40
0.4850242327006
 40
0.7421266515132
 40
1.0
 40
1.0
 40
1.0
 40
1.0
 10
1.76408734790185
 20
17.0745703390597
 30
0.0
 10
2.379642972344854
 20
16.9744591620897
 30
0.0
 10
3.652852193170546
 20
16.7925160164597
 30
0.0
 10
5.614253754555861
 20
16.6329060182897
 30
0.0
 10
7.639165952032855
 20
16.5491370646897
 30
0.0
 10
9.003735384684845
 20
16.5070637607697
 30
0.0
 10
9.687169166064862
 20
16.5069848805197
 30
0.0
  0
SPLINE
  5
1AA
330
1F
100
AcDbEntity
  8
IGES_LEVEL_0
 62
     7
100
AcDbSpline
210
0.0
220
0.0
230
1.0
 70
     8
 71
     3
 72
    11
 73
     7
 74
     0
 42
0.0000000001
 43
0.0000000001
 40
0.0
 40
0.0
 40
0.0
 40
0.0
 40
0.2583003502166
 40
0.5153944786894
 40
0.7651130529818
 40
1.0
 40
1.0
 40
1.0
 40
1.0
 10
9.687169165518853
 20
16.5069844574797
 30
0.0
 10
10.37173490169786
 20
16.5070537292997
 30
0.0
 10
11.73741024786986
 20
16.5492292838297
 30
0.0
 10
13.76343763458085
 20
16.6330651718697
 30
0.0
 10
15.72369204107986
 20
16.7928179623197
 30
0.0
 10
16.99579519861986
 20
16.9746284086397
 30
0.0
 10
17.61024890705986
 20
17.0745693585697
 30
0.0
  0
LINE
  5
1AB
330
1F
100
AcDbEntity
  8
IGES_LEVEL_0
 62
     7
100
AcDbLine
 10
18.09050240425985
 20
17.3811428630897
 30
0.0
 11
18.10833670402985
 21
17.4100588345897
 31
0.0
  0
ARC
  5
1AC
330
1F
100
AcDbEntity
  8
IGES_LEVEL_0
 62
     7
100
AcDbCircle
 10
17.50656562591744
 20
17.76789516258176
 30
0.0
 40
0.7003995304562273
100
AcDbArc
 50
283.7464813456297
 51
326.482743017435
  0
LINE
  5
1AD
330
1F
100
AcDbEntity
  8
IGES_LEVEL_0
 62
     7
100
AcDbLine
 10
17.61027687479985
 20
17.0745927665297
 30
0.0
 11
17.67299893263986
 21
17.0875574106697
 31
0.0
  0
LINE
  5
1AE
330
1F
100
AcDbEntity
  8
IGES_LEVEL_0
 62
     7
100
AcDbLine
 10
18.39388358754987
 20
18.6968329430097
 30
0.0
 11
18.39614385602987
 21
18.7382721199197
 31
0.0
  0
LINE
  5
1AF
330
1F
100
AcDbEntity
  8
IGES_LEVEL_0
 62
     7
100
AcDbLine
 10
18.34733029136986
 20
18.5877152797197
 30
0.0
 11
18.39388358754987
 21
18.6968329430097
 31
0.0
  0
LINE
  5
1B0
330
1F
100
AcDbEntity
  8
IGES_LEVEL_0
 62
     7
100
AcDbLine
 10
18.31998037996986
 20
18.5291339221697
 30
0.0
 11
18.34733029136986
 21
18.5877152797197
 31
0.0
  0
LINE
  5
1B1
330
1F
100
AcDbEntity
  8
IGES_LEVEL_0
 62
     7
100
AcDbLine
 10
18.03997218108985
 20
17.2871503343397
 30
0.0
 11
18.06291092511985
 21
17.3277396963497
 31
0.0
  0
ARC
  5
1B2
330
1F
100
AcDbEntity
  8
IGES_LEVEL_0
 62
     7
100
AcDbCircle
 10
17.46219302819124
 20
17.65102441234718
 30
0.0
 40
0.6828126347469219
100
AcDbArc
 50
284.3560720498754
 51
327.7980738340224
  0
LINE
  5
1B3
330
1F
100
AcDbEntity
  8
IGES_LEVEL_0
 62
     7
100
AcDbLine
 10
17.57923481408986
 20
16.9777229065497
 30
0.0
 11
17.63149451843985
 21
16.9895335964097
 31
0.0
  0
LINE
  5
1B4
330
1F
100
AcDbEntity
  8
IGES_LEVEL_0
 62
     7
100
AcDbLine
 10
17.56519392644985
 20
16.9752205876297
 30
0.0
 11
17.57923481408986
 21
16.9777229065497
 31
0.0
  0
SPLINE
  5
1B5
330
1F
100
AcDbEntity
  8
IGES_LEVEL_0
 62
     7
100
AcDbSpline
210
0.0
220
0.0
230
1.0
 70
     8
 71
     3
 72
    11
 73
     7
 74
     0
 42
0.0000000001
 43
0.0000000001
 40
0.0
 40
0.0
 40
0.0
 40
0.0
 40
0.2423227499167
 40
0.4940888848892
 40
0.7492651854511
 40
1.0
 40
1.0
 40
1.0
 40
1.0
 10
9.68716930178887
 20
16.4085695097497
 30
0.0
 10
10.32568583882986
 20
16.4086206612497
 30
0.0
 10
11.62712482981486
 20
16.4643255449097
 30
0.0
 10
13.59889364864385
 20
16.5536718245897
 30
0.0
 10
15.59316698700987
 20
16.6721396897397
 30
0.0
 10
16.91361741005986
 20
16.8656448374897
 30
0.0
 10
17.56518648002985
 20
16.9752079903697
 30
0.0
  0
SPLINE
  5
1B6
330
1F
100
AcDbEntity
  8
IGES_LEVEL_0
 62
     7
100
AcDbSpline
210
0.0
220
0.0
230
1.0
 70
     8
 71
     3
 72
    11
 73
     7
 74
     0
 42
0.0000000001
 43
0.0000000001
 40
0.0
 40
0.0
 40
0.0
 40
0.0
 40
0.2512996434094
 40
0.5065254998285
 40
0.7582476739369
 40
1.0
 40
1.0
 40
1.0
 40
1.0
 10
1.80915149005186
 20
16.9752083584697
 30
0.0
 10
2.46218717768987
 20
16.8654031105297
 30
0.0
 10
3.784260456288862
 20
16.6717404348997
 30
0.0
 10
5.780052383163863
 20
16.5535124700397
 30
0.0
 10
7.75033023804086
 20
16.4641772755197
 30
0.0
 10
9.050156761744873
 20
16.4086163298597
 30
0.0
 10
9.687169302477869
 20
16.4085691569097
 30
0.0
  0
LINE
  5
1B7
330
1F
100
AcDbEntity
  8
IGES_LEVEL_0
 62
     7
100
AcDbLine
 10
1.803448798473866
 20
16.9762045736397
 30
0.0
 11
1.809144582462849
 21
16.9752231279997
 31
0.0
  0
LINE
  5
1B8
330
1F
100
AcDbEntity
  8
IGES_LEVEL_0
 62
     7
100
AcDbLine
 10
1.800112715279866
 20
16.9768006380197
 30
0.0
 11
1.803448798473866
 21
16.9762045736397
 31
0.0
  0
LINE
  5
1B9
330
1F
100
AcDbEntity
  8
IGES_LEVEL_0
 62
     7
100
AcDbLine
 10
1.745843670057852
 20
16.9887466585197
 30
0.0
 11
1.800112715279866
 21
16.9768006380197
 31
0.0
  0
ARC
  5
1BA
330
1F
100
AcDbEntity
  8
IGES_LEVEL_0
 62
     7
100
AcDbCircle
 10
1.912375901079632
 20
17.65129967155429
 30
0.0
 40
0.6831613858015572
100
AcDbArc
 50
212.2723713498774
 51
255.8910184768727
  0
LINE
  5
1BB
330
1F
100
AcDbEntity
  8
IGES_LEVEL_0
 62
     7
100
AcDbLine
 10
1.31142653828887
 20
17.3277438132297
 30
0.0
 11
1.334749692314844
 21
17.2865292752797
 31
0.0
  0
LINE
  5
1BC
330
1F
100
AcDbEntity
  8
IGES_LEVEL_0
 62
     7
100
AcDbLine
 10
0.9804517071348613
 20
18.6968462728997
 30
0.0
 11
1.027019694798852
 21
18.5876925561297
 31
0.0
  0
LINE
  5
1BD
330
1F
100
AcDbEntity
  8
IGES_LEVEL_0
 62
     7
100
AcDbLine
 10
0.9777947772478655
 20
18.7202224016697
 30
0.0
 11
0.9804517071348613
 21
18.6968462728997
 31
0.0
  0
LINE
  5
1BE
330
1F
100
AcDbEntity
  8
IGES_LEVEL_0
 62
     7
100
AcDbLine
 10
0.9781942521588718
 20
18.7382684390297
 30
0.0
 11
0.9777947772478655
 21
18.7202224016697
 31
0.0
  0
LINE
  5
1BF
330
1F
100
AcDbEntity
  8
IGES_LEVEL_0
 62
     7
100
AcDbLine
 10
1.289921095919866
 20
17.3727617388297
 30
0.0
 11
1.309534813393853
 21
17.3313703959497
 31
0.0
  0
LINE
  5
1C0
330
1F
100
AcDbEntity
  8
IGES_LEVEL_0
 62
     7
100
AcDbLine
 10
18.06800027321985
 20
17.3376002858697
 30
0.0
 11
18.08386950234986
 21
17.3714853692297
 31
0.0
  0
LINE
  5
1C1
330
1F
100
AcDbEntity
  8
IGES_LEVEL_0
 62
     7
100
AcDbLine
 10
18.06479228287985
 20
17.3313499165297
 30
0.0
 11
18.06800027321985
 21
17.3376002858697
 31
0.0
  0
LINE
  5
1C2
330
1F
100
AcDbEntity
  8
IGES_LEVEL_0
 62
     7
100
AcDbLine
 10
18.39313453545985
 20
18.7675747242597
 30
0.0
 11
18.38234167753986
 21
18.8005645267597
 31
0.0
  0
LINE
  5
1C3
330
1F
100
AcDbEntity
  8
IGES_LEVEL_0
 62
     7
100
AcDbLine
 10
18.39457651367987
 20
18.7568482559897
 30
0.0
 11
18.39313453545985
 21
18.7675747242597
 31
0.0
  0
LINE
  5
1C4
330
1F
100
AcDbEntity
  8
IGES_LEVEL_0
 62
     7
100
AcDbLine
 10
0.992021044995866
 20
18.8006159073497
 30
0.0
 11
0.9797601245018512
 21
18.7568372109897
 31
0.0
  0
LINE
  5
1C5
330
1F
100
AcDbEntity
  8
IGES_LEVEL_0
 62
     7
100
AcDbLine
 10
1.309547204773864
 20
17.3313408877197
 30
0.0
 11
1.311451527377855
 21
17.3276699084997
 31
0.0
  0
LINE
  5
1C6
330
1F
100
AcDbEntity
  8
IGES_LEVEL_0
 62
     7
100
AcDbLine
 10
18.06288901167986
 20
17.3276737839897
 30
0.0
 11
18.06479262033986
 21
17.3313433647297
 31
0.0
  0
LINE
  5
1C7
330
1F
100
AcDbEntity
  8
IGES_LEVEL_0
 62
     7
100
AcDbLine
 10
0.9798795160528613
 20
18.7571579019097
 30
0.0
 11
0.9782125672368665
 21
18.7385418001497
 31
0.0
  0
LINE
  5
1C8
330
1F
100
AcDbEntity
  8
IGES_LEVEL_0
 62
     7
100
AcDbLine
 10
18.39612598333986
 20
18.7385417355697
 30
0.0
 11
18.39445869922986
 21
18.7571616138797
 31
0.0
  0
LINE
  5
1C9
330
1F
100
AcDbEntity
  8
DEFAULT
100
AcDbLine
 10
56.24031032880394
 20
16.95428845913719
 30
0.0
 11
56.22417196322395
 21
17.00843503618719
 31
0.0
  0
ARC
  5
1CA
330
1F
100
AcDbEntity
  8
IGES_LEVEL_0
 62
     7
100
AcDbCircle
 10
42.12073144764165
 20
24.58577956495439
 30
0.0
 40
8.498176014528065
100
AcDbArc
 50
265.4286393954636
 51
265.5708114216459
  0
ARC
  5
1CB
330
1F
100
AcDbEntity
  8
IGES_LEVEL_0
 62
     7
100
AcDbCircle
 10
42.12073144764165
 20
24.58577956495439
 30
0.0
 40
8.498176014528065
100
AcDbArc
 50
265.1866076531788
 51
265.4286393954636
  0
ARC
  5
1CC
330
1F
100
AcDbEntity
  8
IGES_LEVEL_0
 62
     7
100
AcDbCircle
 10
42.12073144764165
 20
24.58577956495439
 30
0.0
 40
8.498176014528065
100
AcDbArc
 50
260.1722682168483
 51
265.1866076531788
  0
ARC
  5
1CD
330
1F
100
AcDbEntity
  8
IGES_LEVEL_0
 62
     7
100
AcDbCircle
 10
42.12065367246007
 20
24.58516746073507
 30
0.0
 40
7.50255999629744
100
AcDbArc
 50
259.9997163239703
 51
264.9159748056156
  0
LINE
  5
1CE
330
1F
100
AcDbEntity
  8
IGES_LEVEL_0
 62
     7
100
AcDbLine
 10
38.18326878027395
 20
16.48946852734719
 30
0.0
 11
38.18210778027395
 21
16.46950252734719
 31
0.0
  0
LINE
  5
1CF
330
1F
100
AcDbEntity
  8
IGES_LEVEL_0
 62
     7
100
AcDbLine
 10
38.20558978027395
 20
16.54684452734719
 30
0.0
 11
38.20558778027395
 21
16.54684252734719
 31
0.0
  0
LINE
  5
1D0
330
1F
100
AcDbEntity
  8
IGES_LEVEL_0
 62
     7
100
AcDbLine
 10
56.01258078027395
 20
16.54320452734719
 30
0.0
 11
55.90572178027395
 21
16.51651752734719
 31
0.0
  0
LINE
  5
1D1
330
1F
100
AcDbEntity
  8
IGES_LEVEL_0
 62
     7
100
AcDbLine
 10
52.86283378027395
 20
17.99376852734719
 30
0.0
 11
52.70280378027395
 21
17.97976752734719
 31
0.0
  0
LINE
  5
1D2
330
1F
100
AcDbEntity
  8
IGES_LEVEL_0
 62
     7
100
AcDbLine
 10
55.36449978027395
 20
16.48300552734719
 30
0.0
 11
55.36449878027395
 21
16.48300952734719
 31
0.0
  0
ARC
  5
1D3
330
1F
100
AcDbEntity
  8
IGES_LEVEL_0
 62
     7
100
AcDbCircle
 10
55.46117778027394
 20
16.50856652734719
 30
0.0
 40
0.0999999342624546
100
AcDbArc
 50
194.8097332065693
 51
284.0223471815448
  0
ARC
  5
1D4
330
1F
100
AcDbEntity
  8
IGES_LEVEL_0
 62
     7
100
AcDbCircle
 10
38.28193878027396
 20
16.46369452734719
 30
0.0
 40
0.0999995823613767
100
AcDbArc
 50
176.6703809482108
 51
266.8058043326781
  0
ARC
  5
1D5
330
1F
100
AcDbEntity
  8
IGES_LEVEL_0
 62
     7
100
AcDbCircle
 10
38.28309978027396
 20
16.48366152734719
 30
0.0
 40
0.0999997467871799
100
AcDbArc
 50
140.8160930319786
 51
176.6709529402455
  0
ARC
  5
1D6
330
1F
100
AcDbEntity
  8
IGES_LEVEL_0
 62
     7
100
AcDbCircle
 10
55.93504478027394
 20
16.85366852734719
 30
0.0
 40
0.3199998641662452
100
AcDbArc
 50
284.022347181543
 51
3.868611543981523
  0
ARC
  5
1D7
330
1F
100
AcDbEntity
  8
IGES_LEVEL_0
 62
     7
100
AcDbCircle
 10
55.82818578027394
 20
16.82698252734719
 30
0.0
 40
0.3200001610911359
100
AcDbArc
 50
202.7842876467531
 51
284.0223037979101
  0
LINE
  5
1D8
330
1F
100
AcDbEntity
  8
IGES_LEVEL_0
 62
     7
100
AcDbLine
 10
39.23451347964395
 20
16.32147393119719
 30
0.0
 11
39.20059552181395
 21
16.32258680354719
 31
0.0
  0
LINE
  5
1D9
330
1F
100
AcDbEntity
  8
IGES_LEVEL_0
 62
     7
100
AcDbLine
 10
39.20059552181395
 20
16.32258680354719
 30
0.0
 11
38.27636651794394
 21
16.36385037001719
 31
0.0
  0
LINE
  5
1DA
330
1F
100
AcDbEntity
  8
IGES_LEVEL_0
 62
     7
100
AcDbLine
 10
54.79402687308395
 20
17.11118677174719
 30
0.0
 11
54.84292319791395
 21
17.07976600297719
 31
0.0
  0
LINE
  5
1DB
330
1F
100
AcDbEntity
  8
IGES_LEVEL_0
 62
     7
100
AcDbLine
 10
54.84292319791395
 20
17.07976600297719
 30
0.0
 11
54.84447761288395
 21
17.07876548384719
 31
0.0
  0
LINE
  5
1DC
330
1F
100
AcDbEntity
  8
IGES_LEVEL_0
 62
     7
100
AcDbLine
 10
54.84447761288395
 20
17.07876548384719
 30
0.0
 11
55.34896128859394
 21
16.75795575298719
 31
0.0
  0
LINE
  5
1DD
330
1F
100
AcDbEntity
  8
IGES_LEVEL_0
 62
     7
100
AcDbLine
 10
55.34896128859394
 20
16.75795575298719
 30
0.0
 11
55.39907433425395
 21
16.72759972347719
 31
0.0
  0
LINE
  5
1DE
330
1F
100
AcDbEntity
  8
IGES_LEVEL_0
 62
     7
100
AcDbLine
 10
55.39907433425395
 20
16.72759972347719
 30
0.0
 11
55.47070186326394
 21
16.68176541171719
 31
0.0
  0
LINE
  5
1DF
330
1F
100
AcDbEntity
  8
IGES_LEVEL_0
 62
     7
100
AcDbLine
 10
55.47070186326394
 20
16.68176541171719
 30
0.0
 11
55.48201952676395
 21
16.67364645650719
 31
0.0
  0
ARC
  5
1E0
330
1F
100
AcDbEntity
  8
IGES_LEVEL_0
 62
     7
100
AcDbCircle
 10
55.34620753051309
 20
16.47658328140865
 30
0.0
 40
0.2393298838539845
100
AcDbArc
 50
15.11558034141413
 51
55.42616602693738
  0
LINE
  5
1E1
330
1F
100
AcDbEntity
  8
IGES_LEVEL_0
 62
     7
100
AcDbLine
 10
54.62822804511394
 20
16.98951935962719
 30
0.0
 11
54.68680623476395
 21
16.95168126792719
 31
0.0
  0
LINE
  5
1E2
330
1F
100
AcDbEntity
  8
IGES_LEVEL_0
 62
     7
100
AcDbLine
 10
54.68680623476395
 20
16.95168126792719
 30
0.0
 11
54.69809961847395
 21
16.94432770964719
 31
0.0
  0
SPLINE
  5
1E3
330
1F
100
AcDbEntity
  8
IGES_LEVEL_0
 62
     7
100
AcDbSpline
210
0.0
220
0.0
230
1.0
 70
     8
 71
     3
 72
    11
 73
     7
 74
     0
 42
0.0000000001
 43
0.0000000001
 40
0.0
 40
0.0
 40
0.0
 40
0.0
 40
0.5036989370483
 40
0.8292800361139
 40
0.9395618037887
 40
1.0
 40
1.0
 40
1.0
 40
1.0
 10
54.69809961847395
 20
16.94432770964719
 30
0.0
 10
54.81360932777395
 20
16.86904281552719
 30
0.0
 10
55.00278998744395
 20
16.74230676835719
 30
0.0
 10
55.22551637257395
 20
16.62230976397719
 30
0.0
 10
55.34127608844395
 20
16.54243060598719
 30
0.0
 10
55.36124771994395
 20
16.50050172502719
 30
0.0
 10
55.36448476430395
 20
16.48300687829719
 30
0.0
  0
ARC
  5
1E4
330
1F
100
AcDbEntity
  8
IGES_LEVEL_0
 62
     7
100
AcDbCircle
 10
57.5154578184714
 20
19.40137898284191
 30
0.0
 40
3.766954789276015
100
AcDbArc
 50
210.8660711929732
 51
219.5968609891326
  0
LINE
  5
1E5
330
1F
100
AcDbEntity
  8
IGES_LEVEL_0
 62
     7
100
AcDbLine
 10
54.61283772331395
 20
17.00039065141719
 30
0.0
 11
54.62834548693395
 21
16.98946419039719
 31
0.0
  0
ARC
  5
1E6
330
1F
100
AcDbEntity
  8
IGES_LEVEL_0
 62
     7
100
AcDbCircle
 10
52.07662431552288
 20
15.37508570190885
 30
0.0
 40
3.187566298810638
100
AcDbArc
 50
71.59320636152894
 51
82.81446063568623
  0
ARC
  5
1E7
330
1F
100
AcDbEntity
  8
IGES_LEVEL_0
 62
     7
100
AcDbCircle
 10
52.16879253108114
 20
16.00344113318117
 30
0.0
 40
2.57158749753587
100
AcDbArc
 50
34.73818678110261
 51
48.94137824553781
  0
LINE
  5
1E8
330
1F
100
AcDbEntity
  8
IGES_LEVEL_0
 62
     7
100
AcDbLine
 10
38.27228358616395
 20
16.63502723291719
 30
0.0
 11
38.25622438826396
 21
16.61312954546719
 31
0.0
  0
LINE
  5
1E9
330
1F
100
AcDbEntity
  8
IGES_LEVEL_0
 62
     7
100
AcDbLine
 10
38.20696332162395
 20
16.54858230383719
 30
0.0
 11
38.20558924043395
 21
16.54684370063719
 31
0.0
  0
LINE
  5
1EA
330
1F
100
AcDbEntity
  8
IGES_LEVEL_0
 62
     7
100
AcDbLine
 10
39.14647190875395
 20
17.74268113457719
 30
0.0
 11
39.10346516290396
 21
17.69412434316719
 31
0.0
  0
LINE
  5
1EB
330
1F
100
AcDbEntity
  8
IGES_LEVEL_0
 62
     7
100
AcDbLine
 10
39.10346516290396
 20
17.69412434316719
 30
0.0
 11
39.09503561791395
 21
17.68465088770719
 31
0.0
  0
LINE
  5
1EC
330
1F
100
AcDbEntity
  8
IGES_LEVEL_0
 62
     7
100
AcDbLine
 10
39.09503561791395
 20
17.68465088770719
 30
0.0
 11
38.95299235126394
 21
17.52558159781719
 31
0.0
  0
LINE
  5
1ED
330
1F
100
AcDbEntity
  8
IGES_LEVEL_0
 62
     7
100
AcDbLine
 10
38.27228347483394
 20
16.63502727437719
 30
0.0
 11
38.25614348817395
 21
16.61302012739719
 31
0.0
  0
LINE
  5
1EE
330
1F
100
AcDbEntity
  8
IGES_LEVEL_0
 62
     7
100
AcDbLine
 10
38.25614348817395
 20
16.61302012739719
 30
0.0
 11
38.22740376171394
 21
16.57485402726719
 31
0.0
  0
LINE
  5
1EF
330
1F
100
AcDbEntity
  8
IGES_LEVEL_0
 62
     7
100
AcDbLine
 10
38.22740376171394
 20
16.57485402726719
 30
0.0
 11
38.20558758590396
 21
16.54684167112719
 31
0.0
  0
ARC
  5
1F0
330
1F
100
AcDbEntity
  8
IGES_LEVEL_0
 62
     7
100
AcDbCircle
 10
39.33495076644621
 20
17.53558626914738
 30
0.0
 40
0.2800049172206722
100
AcDbArc
 50
96.50406099323568
 51
132.3245086237503
  0
LINE
  5
1F1
330
1F
100
AcDbEntity
  8
IGES_LEVEL_0
 62
     7
100
AcDbLine
 10
52.52849462878395
 20
18.75236543302719
 30
0.0
 11
52.50774126201395
 21
18.75530878159719
 31
0.0
  0
SPLINE
  5
1F2
330
1F
100
AcDbEntity
  8
IGES_LEVEL_0
 62
     7
100
AcDbSpline
210
0.0
220
0.0
230
1.0
 70
     8
 71
     3
 72
    19
 73
    15
 74
     0
 42
0.0000000001
 43
0.0000000001
 40
0.0
 40
0.0
 40
0.0
 40
0.0
 40
0.02922265694927
 40
0.08629082872103
 40
0.1473817557372
 40
0.2127926527379
 40
0.2829038185077
 40
0.3584591620874
 40
0.4403652747727
 40
0.5297472525124
 40
0.6281377577963
 40
0.7376629149271
 40
0.8612865752708
 40
1.0
 40
1.0
 40
1.0
 40
1.0
 10
52.50774126201395
 20
18.75530878159719
 30
0.0
 10
52.37965273559395
 20
18.77321124182719
 30
0.0
 10
51.99909494879395
 20
18.81214741210719
 30
0.0
 10
51.34863516119395
 20
18.85039190933719
 30
0.0
 10
50.53674011240395
 20
18.87285808710719
 30
0.0
 10
49.66704998258395
 20
18.87247562118719
 30
0.0
 10
48.73362607701395
 20
18.84950251347719
 30
0.0
 10
47.72812346112396
 20
18.80097753525719
 30
0.0
 10
46.63920829867395
 20
18.71990220398719
 30
0.0
 10
45.45202040829396
 20
18.60339130217719
 30
0.0
 10
44.14554412997394
 20
18.45403405224719
 30
0.0
 10
42.68916329378395
 20
18.28263926864719
 30
0.0
 10
41.05530088994395
 20
18.09389779390719
 30
0.0
 10
39.90690183432396
 20
17.92350256762719
 30
0.0
 10
39.30325099305395
 20
17.81378704027719
 30
0.0
  0
LINE
  5
1F3
330
1F
100
AcDbEntity
  8
IGES_LEVEL_0
 62
     7
100
AcDbLine
 10
52.84987464889395
 20
18.69834213716719
 30
0.0
 11
52.84789891212395
 21
18.69873017414719
 31
0.0
  0
LINE
  5
1F4
330
1F
100
AcDbEntity
  8
IGES_LEVEL_0
 62
     7
100
AcDbLine
 10
52.84789891212395
 20
18.69873017414719
 30
0.0
 11
52.84167496969394
 21
18.69994755728719
 31
0.0
  0
LINE
  5
1F5
330
1F
100
AcDbEntity
  8
IGES_LEVEL_0
 62
     7
100
AcDbLine
 10
52.84167496969394
 20
18.69994755728719
 30
0.0
 11
52.83775118391395
 21
18.70071114587719
 31
0.0
  0
LINE
  5
1F6
330
1F
100
AcDbEntity
  8
IGES_LEVEL_0
 62
     7
100
AcDbLine
 10
55.57725403123395
 20
16.53898975196719
 30
0.0
 11
55.53186805739395
 21
16.70452299156719
 31
0.0
  0
LINE
  5
1F7
330
1F
100
AcDbEntity
  8
IGES_LEVEL_0
 62
     7
100
AcDbLine
 10
52.84985388488394
 20
18.69834622200719
 30
0.0
 11
52.84033662390395
 21
18.70020834414719
 31
0.0
  0
LINE
  5
1F8
330
1F
100
AcDbEntity
  8
IGES_LEVEL_0
 62
     7
100
AcDbLine
 10
52.84033662390395
 20
18.70020834414719
 30
0.0
 11
52.52849162519395
 21
18.75234611540719
 31
0.0
  0
LINE
  5
1F9
330
1F
100
AcDbEntity
  8
IGES_LEVEL_0
 62
     7
100
AcDbLine
 10
52.52849162519395
 20
18.75234611540719
 30
0.0
 11
52.50773378289395
 21
18.75527651222719
 31
0.0
  0
ARC
  5
1FA
330
1F
100
AcDbEntity
  8
IGES_LEVEL_0
 62
     7
100
AcDbCircle
 10
15.25205448830087
 20
-46.24286642156642
 30
0.0
 40
74.72598806389863
100
AcDbArc
 50
57.38661089756231
 51
57.98493291057757
  0
ARC
  5
1FB
330
1F
100
AcDbEntity
  8
IGES_LEVEL_0
 62
     7
100
AcDbCircle
 10
55.93887813543986
 20
18.28541773857049
 30
0.0
 40
1.588838782807751
100
AcDbArc
 50
208.3345875355073
 51
226.532218094725
  0
LINE
  5
1FC
330
1F
100
AcDbEntity
  8
IGES_LEVEL_0
 62
     7
100
AcDbLine
 10
54.84584192816395
 20
17.13229999638719
 30
0.0
 11
54.86687946826395
 21
17.11833647574719
 31
0.0
  0
LINE
  5
1FD
330
1F
100
AcDbEntity
  8
IGES_LEVEL_0
 62
     7
100
AcDbLine
 10
52.84032398515394
 20
18.70014864673719
 30
0.0
 11
52.84984158795395
 21
18.69828305220719
 31
0.0
  0
ARC
  5
1FE
330
1F
100
AcDbEntity
  8
IGES_LEVEL_0
 62
     7
100
AcDbCircle
 10
52.36613175493386
 20
16.14536272378167
 30
0.0
 40
2.598341279710688
100
AcDbArc
 50
67.09964832710153
 51
79.27117075417569
  0
LINE
  5
1FF
330
1F
100
AcDbEntity
  8
IGES_LEVEL_0
 62
     7
100
AcDbLine
 10
53.37722326876394
 20
18.53891058344719
 30
0.0
 11
53.44055435563395
 21
18.51074582521719
 31
0.0
  0
ARC
  5
200
330
1F
100
AcDbEntity
  8
IGES_LEVEL_0
 62
     7
100
AcDbCircle
 10
52.27113095704789
 20
16.09029910020765
 30
0.0
 40
2.688143120031004
100
AcDbArc
 50
32.41555380520452
 51
64.21278539338015
  0
ARC
  5
201
330
1F
100
AcDbEntity
  8
IGES_LEVEL_0
 62
     7
100
AcDbCircle
 10
39.35114904593775
 20
18.19816271256103
 30
0.0
 40
0.2895434245131045
100
AcDbArc
 50
98.46852460872765
 51
143.6163195164299
  0
LINE
  5
202
330
1F
100
AcDbEntity
  8
IGES_LEVEL_0
 62
     7
100
AcDbLine
 10
56.25425454661395
 20
16.87613839000719
 30
0.0
 11
56.24031032880394
 21
16.95428845913719
 31
0.0
  0
LINE
  5
203
330
1F
100
AcDbEntity
  8
IGES_LEVEL_0
 62
     7
100
AcDbLine
 10
53.00460211002395
 20
19.43191951659719
 30
0.0
 11
52.96782679171395
 21
19.43914597174719
 31
0.0
  0
SPLINE
  5
204
330
1F
100
AcDbEntity
  8
IGES_LEVEL_0
 62
     7
100
AcDbSpline
210
0.0
220
0.0
230
1.0
 70
     8
 71
     3
 72
    21
 73
    17
 74
     0
 42
0.0000000001
 43
0.0000000001
 40
0.0
 40
0.0
 40
0.0
 40
0.0
 40
0.02916804508292
 40
0.07970590204531
 40
0.1330517219565
 40
0.1894100735068
 40
0.2488755322536
 40
0.3116954273912
 40
0.3782403039187
 40
0.4489577883424
 40
0.5243834018831
 40
0.6051823746562
 40
0.6922306376266
 40
0.7867152158956
 40
0.8903774223166
 40
1.0
 40
1.0
 40
1.0
 40
1.0
 10
52.96782679171395
 20
19.43914597174719
 30
0.0
 10
52.83661796639395
 20
19.46431783182719
 30
0.0
 10
52.47447339578395
 20
19.51615215699719
 30
0.0
 10
51.86651207903395
 20
19.55164027461719
 30
0.0
 10
51.13357845535394
 20
19.57901639636719
 30
0.0
 10
50.35932252892395
 20
19.58847494544719
 30
0.0
 10
49.54169630107394
 20
19.58145905436719
 30
0.0
 10
48.67779437110396
 20
19.55571052020719
 30
0.0
 10
47.76320004695394
 20
19.50861408382719
 30
0.0
 10
46.79257996492395
 20
19.43359736449719
 30
0.0
 10
45.75906365319395
 20
19.32967581856719
 30
0.0
 10
44.65355186510395
 20
19.19714082534719
 30
0.0
 10
43.46280499378395
 20
19.04349891232719
 30
0.0
 10
42.16806659301396
 20
18.87819782156719
 30
0.0
 10
40.77070144594394
 20
18.70059382010719
 30
0.0
 10
39.80480325381394
 20
18.55918015220719
 30
0.0
 10
39.30867168151396
 20
18.48455127869719
 30
0.0
  0
ARC
  5
205
330
1F
100
AcDbEntity
  8
IGES_LEVEL_0
 62
     7
100
AcDbCircle
 10
39.28887318457516
 20
18.30133415473065
 30
0.0
 40
0.1782491873496079
100
AcDbArc
 50
97.64621555041295
 51
142.8953235716534
  0
LINE
  5
206
330
1F
100
AcDbEntity
  8
IGES_LEVEL_0
 62
     7
100
AcDbLine
 10
39.14670765524396
 20
18.40887192113719
 30
0.0
 11
39.12036340964396
 21
18.37380264653719
 31
0.0
  0
LINE
  5
207
330
1F
100
AcDbEntity
  8
IGES_LEVEL_0
 62
     7
100
AcDbLine
 10
39.12036340964396
 20
18.37380264653719
 30
0.0
 11
39.11768161837395
 21
18.37018912476719
 31
0.0
  0
LINE
  5
208
330
1F
100
AcDbEntity
  8
IGES_LEVEL_0
 62
     7
100
AcDbLine
 10
39.11768161837395
 20
18.37018912476719
 30
0.0
 11
39.11287869026394
 21
18.36369846183719
 31
0.0
  0
LINE
  5
209
330
1F
100
AcDbEntity
  8
IGES_LEVEL_0
 62
     7
100
AcDbLine
 10
39.11287869026394
 20
18.36369846183719
 30
0.0
 11
39.00672425163394
 21
18.21538013597719
 31
0.0
  0
LINE
  5
20A
330
1F
100
AcDbEntity
  8
IGES_LEVEL_0
 62
     7
100
AcDbLine
 10
39.11834820518395
 20
18.37033616685719
 30
0.0
 11
39.00675357676396
 21
18.21513806694719
 31
0.0
  0
LINE
  5
20B
330
1F
100
AcDbEntity
  8
IGES_LEVEL_0
 62
     7
100
AcDbLine
 10
39.00675357676396
 20
18.21513806694719
 30
0.0
 11
38.56543651296396
 21
17.59369486629719
 31
0.0
  0
SPLINE
  5
20C
330
1F
100
AcDbEntity
  8
IGES_LEVEL_0
 62
     7
100
AcDbSpline
210
0.0
220
0.0
230
1.0
 70
     8
 71
     3
 72
    24
 73
    20
 74
     0
 42
0.0000000001
 43
0.0000000001
 40
0.0
 40
0.0
 40
0.0
 40
0.0
 40
0.03005257183674
 40
0.08831926330997
 40
0.1555719482769
 40
0.2222403856673
 40
0.2838676669376
 40
0.3405736968514
 40
0.3972906125329
 40
0.4536367395051
 40
0.5081712989353
 40
0.5593808772438
 40
0.6097122778949
 40
0.6624217823459
 40
0.7181361557631
 40
0.7782015444817
 40
0.8445263187554
 40
0.9188127646193
 40
1.0
 40
1.0
 40
1.0
 40
1.0
 10
56.22417196322395
 20
17.00843503618719
 30
0.0
 10
56.21192071054395
 20
17.04872401120719
 30
0.0
 10
56.17450559500395
 20
17.16669781188719
 30
0.0
 10
56.09905009280395
 20
17.37138475755719
 30
0.0
 10
55.98426813617395
 20
17.61553440462719
 30
0.0
 10
55.83983130697395
 20
17.84913685983719
 30
0.0
 10
55.67868112425394
 20
18.05284952285719
 30
0.0
 10
55.50723461444395
 20
18.22874706995719
 30
0.0
 10
55.32682828421395
 20
18.38417653761719
 30
0.0
 10
55.13810506884394
 20
18.52420315830719
 30
0.0
 10
54.94811320576395
 20
18.64881366684719
 30
0.0
 10
54.76015885159394
 20
18.76069558741719
 30
0.0
 10
54.57098952243395
 20
18.86529183506719
 30
0.0
 10
54.37307055867395
 20
18.96690587491719
 30
0.0
 10
54.15938756083395
 20
19.06740183815719
 30
0.0
 10
53.92416252818394
 20
19.16648078066719
 30
0.0
 10
53.65995066131394
 20
19.26305369812719
 30
0.0
 10
53.36222875056394
 20
19.35287075219719
 30
0.0
 10
53.14999107687395
 20
19.40256417814719
 30
0.0
 10
53.03852865286395
 20
19.42539326261719
 30
0.0
  0
LINE
  5
20D
330
1F
100
AcDbEntity
  8
IGES_LEVEL_0
 62
     7
100
AcDbLine
 10
53.03852865610395
 20
19.42539327843719
 30
0.0
 11
53.00466401521395
 21
19.43222988552719
 31
0.0
  0
LINE
  5
20E
330
1F
100
AcDbEntity
  8
IGES_LEVEL_0
 62
     7
100
AcDbLine
 10
53.00466401521395
 20
19.43222988552719
 30
0.0
 11
52.96786820432395
 21
19.43943601304719
 31
0.0
  0
LINE
  5
20F
330
1F
100
AcDbEntity
  8
IGES_LEVEL_0
 62
     7
100
AcDbLine
 10
39.26515608298395
 20
18.47799844620719
 30
0.0
 11
39.28535970755395
 21
18.47987561777719
 31
0.0
  0
ARC
  5
210
330
1F
100
AcDbEntity
  8
IGES_LEVEL_0
 62
     7
100
AcDbCircle
 10
52.64371248934535
 20
25.75124678986493
 30
0.0
 40
9.384247954986453
100
AcDbArc
 50
277.9086672219504
 51
285.1421183664495
  0
LINE
  5
211
330
1F
100
AcDbEntity
  8
IGES_LEVEL_0
 62
     7
100
AcDbLine
 10
52.93813188615395
 20
16.36696943311719
 30
0.0
 11
52.25814805773395
 21
16.36593094973719
 31
0.0
  0
ARC
  5
212
330
1F
100
AcDbEntity
  8
IGES_LEVEL_0
 62
     7
100
AcDbCircle
 10
43.14360091562736
 20
19.48709170588634
 30
0.0
 40
5.030440933001724
100
AcDbArc
 50
218.9920825257837
 51
243.467059984119
  0
SPLINE
  5
213
330
1F
100
AcDbEntity
  8
IGES_LEVEL_0
 62
     7
100
AcDbSpline
210
0.0
220
0.0
230
1.0
 70
     8
 71
     3
 72
    19
 73
    15
 74
     0
 42
0.0000000001
 43
0.0000000001
 40
0.0
 40
0.0
 40
0.0
 40
0.0
 40
0.003515344076032
 40
0.04088246174246
 40
0.09858783003903
 40
0.1562931983356
 40
0.2139976741339
 40
0.2717021499322
 40
0.3871128865253
 40
0.5025218381219
 40
0.7289111648877999
 40
0.8421049357724
 40
0.955298706657
 40
1.0
 40
1.0
 40
1.0
 40
1.0
 10
52.25814805773395
 20
16.36593094973719
 30
0.0
 10
52.24826776534395
 20
16.36630019068719
 30
0.0
 10
52.13297119322395
 20
16.37030773735719
 30
0.0
 10
51.84413570535395
 20
16.37201763132719
 30
0.0
 10
51.36619937697395
 20
16.34968572918719
 30
0.0
 10
50.79140621234394
 20
16.29580784688719
 30
0.0
 10
50.19123745879395
 20
16.21949259168719
 30
0.0
 10
49.36499470357394
 20
16.09436283881719
 30
0.0
 10
48.29740916916394
 20
15.90651096393719
 30
0.0
 10
46.57820508719395
 20
15.58707646183719
 30
0.0
 10
44.88690658361395
 20
15.29585901123719
 30
0.0
 10
43.16790610284396
 20
15.06499683518719
 30
0.0
 10
42.11206343911395
 20
14.95894934054719
 30
0.0
 10
41.48201519128395
 20
14.91493523195719
 30
0.0
 10
41.30254132788396
 20
14.90391365043719
 30
0.0
  0
LINE
  5
214
330
1F
100
AcDbEntity
  8
IGES_LEVEL_0
 62
     7
100
AcDbLine
 10
52.71858095259395
 20
16.51104456216719
 30
0.0
 11
52.93030310165395
 21
16.51639982649719
 31
0.0
  0
ARC
  5
215
330
1F
100
AcDbEntity
  8
IGES_LEVEL_0
 62
     7
100
AcDbCircle
 10
41.25347692422394
 20
15.70267009251382
 30
0.0
 40
0.8002621531584248
100
AcDbArc
 50
243.5031645892555
 51
273.5150333883247
  0
LINE
  5
216
330
1F
100
AcDbEntity
  8
IGES_LEVEL_0
 62
     7
100
AcDbLine
 10
52.73498725571395
 20
17.87078498137719
 30
0.0
 11
52.73711309025394
 21
17.85169506794719
 31
0.0
  0
SPLINE
  5
217
330
1F
100
AcDbEntity
  8
IGES_LEVEL_0
 62
     7
100
AcDbSpline
210
0.0
220
0.0
230
1.0
 70
     8
 71
     3
 72
    18
 73
    14
 74
     0
 42
0.0000000001
 43
0.0000000001
 40
0.0
 40
0.0
 40
0.0
 40
0.0
 40
0.080636654765
 40
0.2010002712442
 40
0.3172448579333
 40
0.4262801868635
 40
0.5262726279195
 40
0.6188422718910001
 40
0.7057958325025
 40
0.7870711108923
 40
0.8623118585341
 40
0.9323700807251
 40
1.0
 40
1.0
 40
1.0
 40
1.0
 10
42.35421940387396
 20
17.79751269336719
 30
0.0
 10
42.31615501238396
 20
17.79132288932719
 30
0.0
 10
42.22229445151395
 20
17.76837098475719
 30
0.0
 10
42.08106545762395
 20
17.71259698088719
 30
0.0
 10
41.93559867660396
 20
17.63380668373719
 30
0.0
 10
41.80700989223395
 20
17.54622851319719
 30
0.0
 10
41.69606696742396
 20
17.45401741964719
 30
0.0
 10
41.60229196988395
 20
17.35865963577719
 30
0.0
 10
41.52575509132394
 20
17.25994743236719
 30
0.0
 10
41.46887799400396
 20
17.15786124295719
 30
0.0
 10
41.43641888274395
 20
17.05352811564719
 30
0.0
 10
41.43490199390395
 20
16.94999175832719
 30
0.0
 10
41.45743225083395
 20
16.88671330489719
 30
0.0
 10
41.47334119704395
 20
16.85843150994719
 30
0.0
  0
LINE
  5
218
330
1F
100
AcDbEntity
  8
IGES_LEVEL_0
 62
     7
100
AcDbLine
 10
41.47334119704395
 20
16.85843150994719
 30
0.0
 11
41.50704729197396
 21
16.81024815855719
 31
0.0
  0
LINE
  5
219
330
1F
100
AcDbEntity
  8
IGES_LEVEL_0
 62
     7
100
AcDbLine
 10
41.50704934654395
 20
16.81023525039719
 30
0.0
 11
41.51495368063395
 21
16.80094944799719
 31
0.0
  0
LINE
  5
21A
330
1F
100
AcDbEntity
  8
IGES_LEVEL_0
 62
     7
100
AcDbLine
 10
41.51495368063395
 20
16.80094944799719
 30
0.0
 11
41.54481609163395
 21
16.76679078806719
 31
0.0
  0
LINE
  5
21B
330
1F
100
AcDbEntity
  8
IGES_LEVEL_0
 62
     7
100
AcDbLine
 10
41.54481609163395
 20
16.76679078806719
 30
0.0
 11
41.69864091388395
 21
16.61159191599719
 31
0.0
  0
LINE
  5
21C
330
1F
100
AcDbEntity
  8
IGES_LEVEL_0
 62
     7
100
AcDbLine
 10
41.69864091388395
 20
16.61159191599719
 30
0.0
 11
41.73353493833396
 21
16.58068522894719
 31
0.0
  0
LINE
  5
21D
330
1F
100
AcDbEntity
  8
IGES_LEVEL_0
 62
     7
100
AcDbLine
 10
41.73353622469395
 20
16.58068425315719
 30
0.0
 11
41.74365010669395
 21
16.57188222858719
 31
0.0
  0
LINE
  5
21E
330
1F
100
AcDbEntity
  8
IGES_LEVEL_0
 62
     7
100
AcDbLine
 10
41.74365010669395
 20
16.57188222858719
 30
0.0
 11
41.78046052648395
 21
16.53884707921719
 31
0.0
  0
SPLINE
  5
21F
330
1F
100
AcDbEntity
  8
IGES_LEVEL_0
 62
     7
100
AcDbSpline
210
0.0
220
0.0
230
1.0
 70
     8
 71
     3
 72
    21
 73
    17
 74
     0
 42
0.0000000001
 43
0.0000000001
 40
0.0
 40
0.0
 40
0.0
 40
0.0
 40
0.0548321970156
 40
0.1336115464046
 40
0.2067806866753
 40
0.2730376614254
 40
0.3304482102454
 40
0.379391259569
 40
0.4313505231652
 40
0.4963667287268
 40
0.5723841716649
 40
0.6557883540892
 40
0.7453821555121
 40
0.840855362
 40
0.9419238202609001
 40
1.0
 40
1.0
 40
1.0
 40
1.0
 10
41.78046052648395
 20
16.53884707921719
 30
0.0
 10
41.79228362921394
 20
16.52795081495719
 30
0.0
 10
41.82071813988395
 20
16.50099352931719
 30
0.0
 10
41.86288233367395
 20
16.45738022064719
 30
0.0
 10
41.90371692750395
 20
16.40798055327719
 30
0.0
 10
41.93472352265395
 20
16.35909067579719
 30
0.0
 10
41.95274979484395
 20
16.31101491851719
 30
0.0
 10
41.95025094916396
 20
16.26264604358719
 30
0.0
 10
41.92099169734395
 20
16.22130300752719
 30
0.0
 10
41.87337028933395
 20
16.18968993564719
 30
0.0
 10
41.81253200383395
 20
16.16404549341719
 30
0.0
 10
41.74214852457395
 20
16.14415375426719
 30
0.0
 10
41.66478263068395
 20
16.12926970099719
 30
0.0
 10
41.58146586194395
 20
16.11898807142719
 30
0.0
 10
41.50694067730395
 20
16.11406206693719
 30
0.0
 10
41.46028498346395
 20
16.11280786110719
 30
0.0
 10
41.44325656237395
 20
16.11257968244719
 30
0.0
  0
LINE
  5
220
330
1F
100
AcDbEntity
  8
IGES_LEVEL_0
 62
     7
100
AcDbLine
 10
41.44325617709394
 20
16.11257485599719
 30
0.0
 11
41.40717592731396
 21
16.11202733830719
 31
0.0
  0
LINE
  5
221
330
1F
100
AcDbEntity
  8
IGES_LEVEL_0
 62
     7
100
AcDbLine
 10
41.40717592731396
 20
16.11202733830719
 30
0.0
 11
41.38591988334396
 21
16.11171956093719
 31
0.0
  0
LINE
  5
222
330
1F
100
AcDbEntity
  8
IGES_LEVEL_0
 62
     7
100
AcDbLine
 10
41.38591988334396
 20
16.11171956093719
 30
0.0
 11
41.36590525654395
 21
16.11155843736719
 31
0.0
  0
LINE
  5
223
330
1F
100
AcDbEntity
  8
IGES_LEVEL_0
 62
     7
100
AcDbLine
 10
41.36590525654395
 20
16.11155843736719
 30
0.0
 11
41.30261085814395
 21
16.11369918030719
 31
0.0
  0
LINE
  5
224
330
1F
100
AcDbEntity
  8
IGES_LEVEL_0
 62
     7
100
AcDbLine
 10
52.75412841256394
 20
17.64810833704719
 30
0.0
 11
52.75821402602395
 21
17.61182715945719
 31
0.0
  0
LINE
  5
225
330
1F
100
AcDbEntity
  8
IGES_LEVEL_0
 62
     7
100
AcDbLine
 10
52.75821402602395
 20
17.61182715945719
 30
0.0
 11
52.76410549840395
 21
17.57722833838719
 31
0.0
  0
ARC
  5
226
330
1F
100
AcDbEntity
  8
IGES_LEVEL_0
 62
     7
100
AcDbCircle
 10
53.39731550381612
 20
17.70230696260668
 30
0.0
 40
0.6454452518926123
100
AcDbArc
 50
191.173847353857
 51
218.0287980975247
  0
LINE
  5
227
330
1F
100
AcDbEntity
  8
IGES_LEVEL_0
 62
     7
100
AcDbLine
 10
52.73711366158395
 20
17.85169511929719
 30
0.0
 11
52.73911685950395
 21
17.82777742434719
 31
0.0
  0
LINE
  5
228
330
1F
100
AcDbEntity
  8
IGES_LEVEL_0
 62
     7
100
AcDbLine
 10
52.73911685950395
 20
17.82777742434719
 30
0.0
 11
52.74303609380395
 21
17.78094553573719
 31
0.0
  0
LINE
  5
229
330
1F
100
AcDbEntity
  8
IGES_LEVEL_0
 62
     7
100
AcDbLine
 10
52.74303609380395
 20
17.78094553573719
 30
0.0
 11
52.75234601536394
 21
17.66949773562719
 31
0.0
  0
LINE
  5
22A
330
1F
100
AcDbEntity
  8
IGES_LEVEL_0
 62
     7
100
AcDbLine
 10
52.75234601536394
 20
17.66949773562719
 30
0.0
 11
52.75413002094395
 21
17.64810848157719
 31
0.0
  0
SPLINE
  5
22B
330
1F
100
AcDbEntity
  8
IGES_LEVEL_0
 62
     7
100
AcDbSpline
210
0.0
220
0.0
230
1.0
 70
     8
 71
     3
 72
    29
 73
    25
 74
     0
 42
0.0000000001
 43
0.0000000001
 40
0.0
 40
0.0
 40
0.0
 40
0.0
 40
0.0167413288375
 40
0.04379629663459
 40
0.07335529914157
 40
0.1055824654896
 40
0.1406387429249
 40
0.1788226444532
 40
0.2205054503203
 40
0.2658936559442
 40
0.3151502282962
 40
0.3689136991203
 40
0.4280686360334
 40
0.493245039818
 40
0.5644633379886
 40
0.6379740662364
 40
0.7069372850982
 40
0.7682730399724
 40
0.8223766202284
 40
0.870216924364
 40
0.9125669420264
 40
0.9499815681386
 40
0.9830851470455
 40
1.0
 40
1.0
 40
1.0
 40
1.0
 10
51.48858006529396
 20
18.58159350644719
 30
0.0
 10
51.49707994313395
 20
18.58135572852719
 30
0.0
 10
51.51931073054395
 20
18.58052219396719
 30
0.0
 10
51.55650306342396
 20
18.57824233856719
 30
0.0
 10
51.60144982872394
 20
18.57418974524719
 30
0.0
 10
51.65029406793396
 20
18.56833581038719
 30
0.0
 10
51.70327300853394
 20
18.56036306047719
 30
0.0
 10
51.76070534785394
 20
18.54989017965719
 30
0.0
 10
51.82290147711395
 20
18.53646345740719
 30
0.0
 10
51.89006364658395
 20
18.51956606997719
 30
0.0
 10
51.96247177001395
 20
18.49855744183719
 30
0.0
 10
52.04065109364395
 20
18.47255010765719
 30
0.0
 10
52.12520451071394
 20
18.44032460493719
 30
0.0
 10
52.21620455659395
 20
18.40041562324719
 30
0.0
 10
52.31125699919394
 20
18.35197615334719
 30
0.0
 10
52.40440918626395
 20
18.29607258595719
 30
0.0
 10
52.48870404234395
 20
18.23577129674719
 30
0.0
 10
52.55978150274395
 20
18.17456698432719
 30
0.0
 10
52.61706808148395
 20
18.11439750067719
 30
0.0
 10
52.66162273799395
 20
18.05600842530719
 30
0.0
 10
52.69462067544394
 20
18.00003552216719
 30
0.0
 10
52.71730808969394
 20
17.94721350658719
 30
0.0
 10
52.72942131857394
 20
17.90436577224719
 30
0.0
 10
52.73380758966395
 20
17.87930061165719
 30
0.0
 10
52.73498725571395
 20
17.87078498137719
 30
0.0
  0
ARC
  5
22C
330
1F
100
AcDbEntity
  8
IGES_LEVEL_0
 62
     7
100
AcDbCircle
 10
52.26334593858324
 20
16.7529749671339
 30
0.0
 40
0.0256330945124956
100
AcDbArc
 50
150.848056779379
 51
254.7011827998493
  0
LINE
  5
22D
330
1F
100
AcDbEntity
  8
IGES_LEVEL_0
 62
     7
100
AcDbLine
 10
52.71736157883395
 20
16.47126088294719
 30
0.0
 11
52.71858095259395
 21
16.51104456216719
 31
0.0
  0
LINE
  5
22E
330
1F
100
AcDbEntity
  8
IGES_LEVEL_0
 62
     7
100
AcDbLine
 10
52.93240172227395
 20
16.47635461460719
 30
0.0
 11
52.71736157883395
 21
16.47126088294719
 31
0.0
  0
ARC
  5
22F
330
1F
100
AcDbEntity
  8
IGES_LEVEL_0
 62
     7
100
AcDbCircle
 10
38.50617868369116
 20
10.00588880497639
 30
0.0
 40
15.30783247121217
100
AcDbArc
 50
26.19762989427487
 51
33.95100832953528
  0
LINE
  5
230
330
1F
100
AcDbEntity
  8
IGES_LEVEL_0
 62
     7
100
AcDbLine
 10
40.64507118773986
 20
16.2167033707097
 30
0.0
 11
36.31303818773986
 21
16.9805583707097
 31
0.0
  0
LINE
  5
231
330
1F
100
AcDbEntity
  8
IGES_LEVEL_0
 62
     7
100
AcDbLine
 10
37.55467618773986
 20
17.0818073707097
 30
0.0
 11
37.45772718773986
 21
17.0818073707097
 31
0.0
  0
LINE
  5
232
330
1F
100
AcDbEntity
  8
IGES_LEVEL_0
 62
     7
100
AcDbLine
 10
40.81785118773986
 20
17.1965873707097
 30
0.0
 11
36.55433818773986
 21
17.9483593707097
 31
0.0
  0
LINE
  5
233
330
1F
100
AcDbEntity
  8
IGES_LEVEL_0
 62
     7
100
AcDbLine
 10
37.55467618773986
 20
17.5818073707097
 30
0.0
 11
37.45772718773986
 21
17.5818073707097
 31
0.0
  0
ARC
  5
234
330
1F
100
AcDbEntity
  8
IGES_LEVEL_0
 62
     7
100
AcDbCircle
 10
37.51211784699812
 20
17.3318068961597
 30
0.0
 40
0.2535965792770276
100
AcDbArc
 50
279.6610730810659
 51
80.33892691893405
  0
ARC
  5
235
330
1F
100
AcDbEntity
  8
IGES_LEVEL_0
 62
     7
100
AcDbCircle
 10
37.50224501519884
 20
17.33180689615971
 30
0.0
 40
0.253932791329347
100
AcDbArc
 50
100.0969638058052
 51
259.9030361941948
  0
LINE
  5
236
330
1F
100
AcDbEntity
  8
IGES_LEVEL_0
 62
     7
100
AcDbLine
 10
40.64512860381986
 20
16.2166939335597
 30
0.0
 11
40.67020814432986
 21
16.2123108858197
 31
0.0
  0
ARC
  5
237
330
1F
100
AcDbEntity
  8
IGES_LEVEL_0
 62
     7
100
AcDbCircle
 10
53.30631037512723
 20
17.94464706549695
 30
0.0
 40
0.5507420589039292
100
AcDbArc
 50
359.4900065938234
 51
84.63491363676053
  0
ARC
  5
238
330
1F
100
AcDbEntity
  8
DEFAULT
 62
     7
100
AcDbCircle
 10
34.76891073102757
 20
25.62329812121067
 30
0.0
 40
3.588523097546765
100
AcDbArc
 50
343.5143694049107
 51
354.2881218232922
  0
LINE
  5
239
330
1F
100
AcDbEntity
  8
DEFAULT
 62
     7
100
AcDbLine
 10
18.44370683598985
 20
23.1219289773197
 30
0.0
 11
18.40340325549986
 21
23.1217514332497
 31
0.0
  0
LINE
  5
23A
330
1F
100
AcDbEntity
  8
DEFAULT
 62
     7
100
AcDbLine
 10
17.96454818773986
 20
22.8158983707097
 30
0.0
 11
17.96659318773986
 21
22.6987683707097
 31
0.0
  0
LINE
  5
23B
330
1F
100
AcDbEntity
  8
DEFAULT
 62
     7
100
AcDbLine
 10
1.407745187739861
 20
22.6987683707097
 30
0.0
 11
1.409789187739859
 21
22.8158983707097
 31
0.0
  0
ARC
  5
23C
330
1F
100
AcDbEntity
  8
DEFAULT
 62
     7
100
AcDbCircle
 10
0.9722582250132893
 20
24.61080116329314
 30
0.0
 40
1.488715161137751
100
AcDbArc
 50
270.8304617890261
 51
277.2169068126328
  0
ARC
  5
23D
330
1F
100
AcDbEntity
  8
IGES_LEVEL_0
 62
     7
100
AcDbCircle
 10
0.9201551228982202
 20
24.66938140396205
 30
0.0
 40
1.547087072320831
100
AcDbArc
 50
260.2968456175066
 51
269.199886578265
  0
LINE
  5
23E
330
1F
100
AcDbEntity
  8
IGES_LEVEL_0
 62
     7
100
AcDbLine
 10
0.0145851877398661
 20
0.352594370709704
 30
0.0
 11
0.0146351877398535
 21
0.2597303707097044
 31
0.0
  0
LINE
  5
23F
330
1F
100
AcDbEntity
  8
IGES_LEVEL_0
 62
     7
100
AcDbLine
 10
0.4172451877398634
 20
23.2517583707097
 30
0.0
 11
0.0177591877398532
 21
0.3652443707097035
 31
0.0
  0
LINE
  5
240
330
1F
100
AcDbEntity
  8
IGES_LEVEL_0
 62
     7
100
AcDbLine
 10
0.4172451877398634
 20
23.2517583707097
 30
0.0
 11
0.4189381877398523
 21
23.3487743707097
 31
0.0
  0
LINE
  5
241
330
1F
100
AcDbEntity
  8
IGES_LEVEL_0
 62
     7
100
AcDbLine
 10
0.7072451877398555
 20
0.3652443707097038
 30
0.0
 11
0.705502187739865
 21
0.2653973707097043
 31
0.0
  0
LINE
  5
242
330
1F
100
AcDbEntity
  8
IGES_LEVEL_0
 62
     7
100
AcDbLine
 10
1.417093187739864
 20
23.2343063707097
 30
0.0
 11
1.409789187739859
 21
22.8158983707097
 31
0.0
  0
LINE
  5
243
330
1F
100
AcDbEntity
  8
IGES_LEVEL_0
 62
     7
100
AcDbLine
 10
1.417093187739864
 20
23.2343063707097
 30
0.0
 11
1.418789187739859
 21
23.3314813707097
 31
0.0
  0
LINE
  5
244
330
1F
100
AcDbEntity
  8
IGES_LEVEL_0
 62
     7
100
AcDbLine
 10
1.707093187739856
 20
0.3477923707097043
 30
0.0
 11
1.705350187739858
 21
0.2479443707097037
 31
0.0
  0
LINE
  5
245
330
1F
100
AcDbEntity
  8
IGES_LEVEL_0
 62
     7
100
AcDbLine
 10
1.707093187739856
 20
0.3477923707097043
 30
0.0
 11
1.99680118773986
 21
16.9452013707097
 31
0.0
  0
LINE
  5
246
330
1F
100
AcDbEntity
  8
IGES_LEVEL_0
 62
     7
100
AcDbLine
 10
18.44824818773986
 20
17.0068483707097
 30
0.0
 11
18.37694918773986
 21
16.9875673707097
 31
0.0
  0
LINE
  5
247
330
1F
100
AcDbEntity
  8
IGES_LEVEL_0
 62
     7
100
AcDbLine
 10
17.38149518773986
 20
16.7183763707097
 30
0.0
 11
15.56217318773986
 21
16.2263953707097
 31
0.0
  0
LINE
  5
248
330
1F
100
AcDbEntity
  8
IGES_LEVEL_0
 62
     7
100
AcDbLine
 10
3.812165187739856
 20
16.2263953707097
 30
0.0
 11
1.992842187739858
 21
16.7183763707097
 31
0.0
  0
LINE
  5
249
330
1F
100
AcDbEntity
  8
IGES_LEVEL_0
 62
     7
100
AcDbLine
 10
0.9973891877398534
 20
16.9875673707097
 30
0.0
 11
0.9260901877398572
 21
17.0068483707097
 31
0.0
  0
LINE
  5
24A
330
1F
100
AcDbEntity
  8
IGES_LEVEL_0
 62
     7
100
AcDbLine
 10
17.37753618773986
 20
16.9451923707097
 30
0.0
 11
17.66724518773986
 21
0.3477923707097013
 31
0.0
  0
LINE
  5
24B
330
1F
100
AcDbEntity
  8
IGES_LEVEL_0
 62
     7
100
AcDbLine
 10
17.66724518773986
 20
0.3477923707097043
 30
0.0
 11
17.66898818773986
 21
0.2479443707097037
 31
0.0
  0
LINE
  5
24C
330
1F
100
AcDbEntity
  8
IGES_LEVEL_0
 62
     7
100
AcDbLine
 10
17.95554918773986
 20
23.3314813707097
 30
0.0
 11
17.95724518773985
 21
23.2343063707097
 31
0.0
  0
LINE
  5
24D
330
1F
100
AcDbEntity
  8
IGES_LEVEL_0
 62
     7
100
AcDbLine
 10
17.96454818773986
 20
22.8158983707097
 30
0.0
 11
17.95724518773985
 21
23.2343063707097
 31
0.0
  0
LINE
  5
24E
330
1F
100
AcDbEntity
  8
IGES_LEVEL_0
 62
     7
100
AcDbLine
 10
18.35073118773986
 20
18.4895723707097
 30
0.0
 11
18.66709318773986
 21
0.3652443707097035
 31
0.0
  0
LINE
  5
24F
330
1F
100
AcDbEntity
  8
IGES_LEVEL_0
 62
     7
100
AcDbLine
 10
18.66709318773986
 20
0.3652443707097038
 30
0.0
 11
18.66883518773986
 21
0.2653973707097043
 31
0.0
  0
LINE
  5
250
330
1F
100
AcDbEntity
  8
IGES_LEVEL_0
 62
     7
100
AcDbLine
 10
18.95539918773985
 20
23.3487743707097
 30
0.0
 11
18.95709318773985
 21
23.2517583707097
 31
0.0
  0
LINE
  5
251
330
1F
100
AcDbEntity
  8
IGES_LEVEL_0
 62
     7
100
AcDbLine
 10
19.35657818773986
 20
0.3652443707097038
 30
0.0
 11
18.95709318773985
 21
23.2517583707097
 31
0.0
  0
LINE
  5
252
330
1F
100
AcDbEntity
  8
IGES_LEVEL_0
 62
     7
100
AcDbLine
 10
19.36075218773986
 20
0.2139473707097043
 30
0.0
 11
19.36082518773986
 21
0.3503023707097043
 31
0.0
  0
LINE
  5
253
330
1F
100
AcDbEntity
  8
IGES_LEVEL_0
 62
     7
100
AcDbLine
 10
31.16242418773986
 20
0.4787933707097037
 30
0.0
 11
31.11337418773985
 21
0.2663303707097041
 31
0.0
  0
LINE
  5
254
330
1F
100
AcDbEntity
  8
IGES_LEVEL_0
 62
     7
100
AcDbLine
 10
36.87399418773986
 20
23.3639933707097
 30
0.0
 11
31.16774518773986
 21
0.4774793707097018
 31
0.0
  0
LINE
  5
255
330
1F
100
AcDbEntity
  8
IGES_LEVEL_0
 62
     7
100
AcDbLine
 10
36.87399418773986
 20
23.3639933707097
 30
0.0
 11
36.89800118773986
 21
23.4602823707097
 31
0.0
  0
LINE
  5
256
330
1F
100
AcDbEntity
  8
IGES_LEVEL_0
 62
     7
100
AcDbLine
 10
37.84428918773986
 20
23.1220713707097
 30
0.0
 11
36.53311918773986
 21
17.8632533707097
 31
0.0
  0
LINE
  5
257
330
1F
100
AcDbEntity
  8
IGES_LEVEL_0
 62
     7
100
AcDbLine
 10
36.33114118773986
 20
17.0531633707097
 30
0.0
 11
32.13804118773986
 21
0.235557370709703
 31
0.0
  0
LINE
  5
258
330
1F
100
AcDbEntity
  8
IGES_LEVEL_0
 62
     7
100
AcDbLine
 10
37.84428918773986
 20
23.1220713707097
 30
0.0
 11
37.86847818773986
 21
23.2190873707097
 31
0.0
  0
LINE
  5
259
330
1F
100
AcDbEntity
  8
IGES_LEVEL_0
 62
     7
100
AcDbLine
 10
32.13152918773986
 20
0.205100370709704
 30
0.0
 11
32.13958518773986
 21
0.235162370709704
 31
0.0
  0
LINE
  5
25A
330
1F
100
AcDbEntity
  8
IGES_LEVEL_0
 62
     7
100
AcDbLine
 10
32.13073018773986
 20
0.2017933707097045
 30
0.0
 11
32.13967118773986
 21
0.2351633707097042
 31
0.0
  0
LINE
  5
25B
330
1F
100
AcDbEntity
  8
IGES_LEVEL_0
 62
     7
100
AcDbLine
 10
55.50481318773986
 20
16.4163943707097
 30
0.0
 11
55.48540718773986
 21
16.4115473707097
 31
0.0
  0
LINE
  5
25C
330
1F
100
AcDbEntity
  8
IGES_LEVEL_0
 62
     7
100
AcDbLine
 10
53.77857818773986
 20
0.3303503707097043
 30
0.0
 11
53.78381118773986
 21
0.2305033707097038
 31
0.0
  0
LINE
  5
25D
330
1F
100
AcDbEntity
  8
IGES_LEVEL_0
 62
     7
100
AcDbLine
 10
54.77720718773986
 20
0.3826863707097038
 30
0.0
 11
54.78244018773986
 21
0.2828383707097041
 31
0.0
  0
LINE
  5
25E
330
1F
100
AcDbEntity
  8
IGES_LEVEL_0
 62
     7
100
AcDbLine
 10
54.77720718773986
 20
0.3826863707097038
 30
0.0
 11
53.85700618773986
 21
17.9411683707097
 31
0.0
  0
LINE
  5
25F
330
1F
100
AcDbEntity
  8
IGES_LEVEL_0
 62
     7
100
AcDbLine
 10
53.77857818773986
 20
0.3303503707097043
 30
0.0
 11
52.85862418773986
 21
17.8844203707097
 31
0.0
  0
LINE
  5
260
330
1F
100
AcDbEntity
  8
IGES_LEVEL_0
 62
     7
100
AcDbLine
 10
52.85862418773986
 20
17.8844203707097
 30
0.0
 11
52.85790918773986
 21
17.9158823707097
 31
0.0
  0
LINE
  5
261
330
1F
100
AcDbEntity
  8
IGES_LEVEL_0
 62
     7
100
AcDbLine
 10
52.85773118773986
 20
17.5857033707097
 30
0.0
 11
52.85786018773986
 21
17.7853503707097
 31
0.0
  0
LINE
  5
262
330
1F
100
AcDbEntity
  8
IGES_LEVEL_0
 62
     7
100
AcDbLine
 10
0.4183901877398574
 20
57.3343573707097
 30
0.0
 11
0.4200831877398604
 21
57.31016937070971
 31
0.0
  0
LINE
  5
263
330
1F
100
AcDbEntity
  8
IGES_LEVEL_0
 62
     7
100
AcDbLine
 10
0.4183901877398574
 20
57.3343573707097
 30
0.0
 11
0.0189041877398614
 21
63.0406063707097
 31
0.0
  0
LINE
  5
264
330
1F
100
AcDbEntity
  8
IGES_LEVEL_0
 62
     7
100
AcDbLine
 10
1.295281187739858
 20
59.1278073707097
 30
0.0
 11
1.016462187739859
 21
63.11044437070971
 31
0.0
  0
LINE
  5
265
330
1F
100
AcDbEntity
  8
IGES_LEVEL_0
 62
     7
100
AcDbLine
 10
18.35787518773986
 20
63.11044437070971
 30
0.0
 11
18.07906118773986
 21
59.12786837070971
 31
0.0
  0
LINE
  5
266
330
1F
100
AcDbEntity
  8
IGES_LEVEL_0
 62
     7
100
AcDbLine
 10
19.35543418773986
 20
63.0406063707097
 30
0.0
 11
18.95594818773986
 21
57.3343573707097
 31
0.0
  0
LINE
  5
267
330
1F
100
AcDbEntity
  8
IGES_LEVEL_0
 62
     7
100
AcDbLine
 10
18.95425518773986
 20
57.31016937070971
 30
0.0
 11
18.95594818773986
 21
57.3343573707097
 31
0.0
  0
ARC
  5
268
330
1F
100
AcDbEntity
  8
IGES_LEVEL_0
 62
     7
100
AcDbCircle
 10
55.48058318773986
 20
16.5134143707097
 30
0.0
 40
0.1000003915757428
100
AcDbArc
 50
284.0222083548426
 51
14.80737105506065
  0
ARC
  5
269
330
1F
100
AcDbEntity
  8
IGES_LEVEL_0
 62
     7
100
AcDbCircle
 10
1.282404793008982
 20
17.33026534910207
 30
0.0
 40
0.3587252413747059
100
AcDbArc
 50
140.059603239713
 51
217.9444816377779
  0
ARC
  5
26A
330
1F
100
AcDbEntity
  8
IGES_LEVEL_0
 62
     7
100
AcDbCircle
 10
18.09192920668937
 20
17.33026502318108
 30
0.0
 40
0.3587292265861881
100
AcDbArc
 50
322.0569677002907
 51
39.9394580672345
  0
ARC
  5
26B
330
1F
100
AcDbEntity
  8
IGES_LEVEL_0
 62
     7
100
AcDbCircle
 10
19.25983111934783
 20
0.2146000098007756
 30
0.0
 40
0.1011485826206298
100
AcDbArc
 50
297.9014636909395
 51
312.8316134891428
  0
ARC
  5
26C
330
1F
100
AcDbEntity
  8
IGES_LEVEL_0
 62
     7
100
AcDbCircle
 10
19.26041355056892
 20
0.2140314598043774
 30
0.0
 40
0.1003317082922791
100
AcDbArc
 50
323.6448653529068
 51
357.509455649569
  0
LINE
  5
26D
330
1F
100
AcDbEntity
  8
IGES_LEVEL_0
 62
     7
100
AcDbLine
 10
18.40719236489986
 20
0.1719481058387039
 30
0.0
 11
18.42958576912985
 21
0.1622878970297043
 31
0.0
  0
ARC
  5
26E
330
1F
100
AcDbEntity
  8
IGES_LEVEL_0
 62
     7
100
AcDbCircle
 10
18.98501939181146
 20
2.472846990569209
 30
0.0
 40
2.376383307416692
100
AcDbArc
 50
256.4841286777402
 51
276.8727757217988
  0
ARC
  5
26F
330
1F
100
AcDbEntity
  8
IGES_LEVEL_0
 62
     7
100
AcDbCircle
 10
18.82046726306848
 20
2.135217486576228
 30
0.0
 40
1.900334501166257
100
AcDbArc
 50
265.309020913392
 51
270.0663407480731
  0
ARC
  5
270
330
1F
100
AcDbEntity
  8
IGES_LEVEL_0
 62
     7
100
AcDbCircle
 10
19.28674170569844
 20
0.3916863467326111
 30
0.0
 40
0.0815820962061899
100
AcDbArc
 50
298.7679965723143
 51
329.5193779817525
  0
LINE
  5
271
330
1F
100
AcDbEntity
  8
IGES_LEVEL_0
 62
     7
100
AcDbLine
 10
19.31867430518986
 20
0.3157675840667039
 30
0.0
 11
19.28778756314986
 21
0.3007539367617044
 31
0.0
  0
ARC
  5
272
330
1F
100
AcDbEntity
  8
IGES_LEVEL_0
 62
     7
100
AcDbCircle
 10
18.88762626276705
 20
1.513276421811659
 30
0.0
 40
1.276847619364103
100
AcDbArc
 50
270.8731966729445
 51
288.2641206056805
  0
LINE
  5
273
330
1F
100
AcDbEntity
  8
IGES_LEVEL_0
 62
     7
100
AcDbLine
 10
18.90708486762986
 20
0.2365770814137042
 30
0.0
 11
18.85876961899986
 21
0.235186717907704
 31
0.0
  0
LINE
  5
274
330
1F
100
AcDbEntity
  8
IGES_LEVEL_0
 62
     7
100
AcDbLine
 10
18.85876961899986
 20
0.235186717907704
 30
0.0
 11
18.82266759239986
 21
0.2348842592517041
 31
0.0
  0
LINE
  5
275
330
1F
100
AcDbEntity
  8
IGES_LEVEL_0
 62
     7
100
AcDbLine
 10
0.0146350934088536
 20
0.2597298883987044
 30
0.0
 11
0.0176017423348588
 21
0.2356035678657044
 31
0.0
  0
ARC
  5
276
330
1F
100
AcDbEntity
  8
IGES_LEVEL_0
 62
     7
100
AcDbCircle
 10
0.114724309087021
 20
0.2597794040440721
 30
0.0
 40
0.1000862829135577
100
AcDbArc
 50
193.9780374630045
 51
218.4456787370399
  0
ARC
  5
277
330
1F
100
AcDbEntity
  8
IGES_LEVEL_0
 62
     7
100
AcDbCircle
 10
0.1151951615844785
 20
0.260244983669307
 30
0.0
 40
0.1007445638407079
100
AcDbArc
 50
218.4865574074153
 51
253.2396462960683
  0
ARC
  5
278
330
1F
100
AcDbEntity
  8
IGES_LEVEL_0
 62
     7
100
AcDbCircle
 10
0.9158980580295525
 20
0.213279688285433
 30
0.0
 40
0.1009798831433654
100
AcDbArc
 50
276.3932178149907
 51
334.6597385928686
  0
LINE
  5
279
330
1F
100
AcDbEntity
  8
IGES_LEVEL_0
 62
     7
100
AcDbLine
 10
0.0861383573378566
 20
0.1637794091987045
 30
0.0
 11
0.1462877009308533
 21
0.1473928564367041
 31
0.0
  0
ARC
  5
27A
330
1F
100
AcDbEntity
  8
IGES_LEVEL_0
 62
     7
100
AcDbCircle
 10
0.6014422030989811
 20
2.215174917595265
 30
0.0
 40
2.11728482795985
100
AcDbArc
 50
257.588056260828
 51
269.7998315601359
  0
ARC
  5
27B
330
1F
100
AcDbEntity
  8
IGES_LEVEL_0
 62
     7
100
AcDbCircle
 10
0.6539039611848926
 20
2.473907353874422
 30
0.0
 40
2.376758233717406
100
AcDbArc
 50
268.5568524891686
 51
276.6075726776622
  0
LINE
  5
27C
330
1F
100
AcDbEntity
  8
IGES_LEVEL_0
 62
     7
100
AcDbLine
 10
0.551670358493863
 20
0.2348842592517041
 30
0.0
 11
0.5088314276518536
 21
0.2353359216547041
 31
0.0
  0
LINE
  5
27D
330
1F
100
AcDbEntity
  8
IGES_LEVEL_0
 62
     7
100
AcDbLine
 10
0.5088314276518536
 20
0.2353359216547041
 30
0.0
 11
0.4664356650608544
 21
0.2366563202527038
 31
0.0
  0
ARC
  5
27E
330
1F
100
AcDbEntity
  8
IGES_LEVEL_0
 62
     7
100
AcDbCircle
 10
0.540592349596435
 20
2.100442973931021
 30
0.0
 40
1.86526135013052
100
AcDbArc
 50
262.6286676804949
 51
267.7215068902344
  0
ARC
  5
27F
330
1F
100
AcDbEntity
  8
IGES_LEVEL_0
 62
     7
100
AcDbCircle
 10
0.4024108712013662
 20
1.159015906793276
 30
0.0
 40
0.9140306730455731
100
AcDbArc
 50
249.6274979679608
 51
263.6476584640351
  0
ARC
  5
280
330
1F
100
AcDbEntity
  8
IGES_LEVEL_0
 62
     7
100
AcDbCircle
 10
0.173720010581801
 20
0.5174105713680716
 30
0.0
 40
0.2331185994389747
100
AcDbArc
 50
236.9795913756969
 51
247.4220680729655
  0
ARC
  5
281
330
1F
100
AcDbEntity
  8
IGES_LEVEL_0
 62
     7
100
AcDbCircle
 10
0.0836167011851904
 20
0.3867633605478023
 30
0.0
 40
0.074600508906154
100
AcDbArc
 50
207.258306036189
 51
240.3262190793969
  0
ARC
  5
282
330
1F
100
AcDbEntity
  8
IGES_LEVEL_0
 62
     7
100
AcDbCircle
 10
0.0435175730690082
 20
0.3633429254432247
 30
0.0
 40
0.0283342122364557
100
AcDbArc
 50
176.142102422906
 51
202.2895415832222
  0
ARC
  5
283
330
1F
100
AcDbEntity
  8
IGES_LEVEL_0
 62
     7
100
AcDbCircle
 10
0.5549063853651125
 20
2.136224282375189
 30
0.0
 40
1.901342776934535
100
AcDbArc
 50
269.9024843001084
 51
274.658758427592
  0
LINE
  5
284
330
1F
100
AcDbEntity
  8
IGES_LEVEL_0
 62
     7
100
AcDbLine
 10
1.20716897544686
 20
0.3826866345387042
 30
0.0
 11
1.144268908612856
 21
0.3835735968347039
 31
0.0
  0
LINE
  5
285
330
1F
100
AcDbEntity
  8
IGES_LEVEL_0
 62
     7
100
AcDbLine
 10
1.144268908612856
 20
0.3835735968347039
 30
0.0
 11
0.9813406975318605
 21
0.3837965003097045
 31
0.0
  0
LINE
  5
286
330
1F
100
AcDbEntity
  8
IGES_LEVEL_0
 62
     7
100
AcDbLine
 10
0.9813406975318605
 20
0.3837965003097045
 30
0.0
 11
0.829351582827852
 21
0.3802318013187044
 31
0.0
  0
ARC
  5
287
330
1F
100
AcDbEntity
  8
IGES_LEVEL_0
 62
     7
100
AcDbCircle
 10
0.8603753127567421
 20
-0.6683556033934835
 30
0.0
 40
1.049046241659414
100
AcDbArc
 50
91.69467075821598
 51
97.27705604652121
  0
ARC
  5
288
330
1F
100
AcDbEntity
  8
IGES_LEVEL_0
 62
     7
100
AcDbCircle
 10
0.7278925850713568
 20
0.3382873959193912
 30
0.0
 40
0.0339557562471771
100
AcDbArc
 50
90.67028556847228
 51
127.4488398428234
  0
SPLINE
  5
289
330
1F
100
AcDbEntity
  8
IGES_LEVEL_0
 62
     7
100
AcDbSpline
210
0.0
220
0.0
230
1.0
 70
     8
 71
     3
 72
    26
 73
    22
 74
     0
 42
0.0000000001
 43
0.0000000001
 40
0.0
 40
0.0
 40
0.0
 40
0.0
 40
0.03146306147372
 40
0.06419043125301
 40
0.09971045617637
 40
0.1286908713141
 40
0.1522773319969
 40
0.1721868934009
 40
0.1905695833906
 40
0.2094585663816
 40
0.2309712241814
 40
0.2571132771179
 40
0.2900546097621
 40
0.3322470874481
 40
0.3866531241149
 40
0.4569375582487
 40
0.547381902771
 40
0.6520512011119
 40
0.7639179407664
 40
0.8807125752824
 40
1.0
 40
1.0
 40
1.0
 40
1.0
 10
0.7055022782898538
 20
0.2653970741217039
 30
0.0
 10
0.705402997952857
 20
0.2597093074127045
 30
0.0
 10
0.7066047520678586
 20
0.248033143604704
 30
0.0
 10
0.7128073313228617
 20
0.2309172118787041
 30
0.0
 10
0.7229569646428592
 20
0.2162929373067039
 30
0.0
 10
0.7349853692218579
 20
0.2056754095997041
 30
0.0
 10
0.7463039131408612
 20
0.1989594500957045
 30
0.0
 10
0.7566538104458521
 20
0.194645204717704
 30
0.0
 10
0.7665562686228616
 20
0.191635715249704
 30
0.0
 10
0.7769164067898634
 20
0.1892398108637042
 30
0.0
 10
0.7887542473808628
 20
0.1870744387017037
 30
0.0
 10
0.8031699347378639
 20
0.184932065923704
 30
0.0
 10
0.8213460361858557
 20
0.1827007635647039
 30
0.0
 10
0.8446469557918567
 20
0.1803169269297044
 30
0.0
 10
0.874711556305852
 20
0.177747446845704
 30
0.0
 10
0.9135119400358581
 20
0.1749893783677038
 30
0.0
 10
0.9614164872168635
 20
0.1721932795677045
 30
0.0
 10
1.016858659912854
 20
0.1695716420747043
 30
0.0
 10
1.077083980158859
 20
0.1672992416657037
 30
0.0
 10
1.139968161031857
 20
0.1654609902397043
 30
0.0
 10
1.182643480001855
 20
0.1645523884007044
 30
0.0
 10
1.204207802625857
 20
0.164177012746704
 30
0.0
  0
SPLINE
  5
28A
330
1F
100
AcDbEntity
  8
IGES_LEVEL_0
 62
     7
100
AcDbSpline
210
0.0
220
0.0
230
1.0
 70
     8
 71
     3
 72
    29
 73
    25
 74
     0
 42
0.0000000001
 43
0.0000000001
 40
0.0
 40
0.0
 40
0.0
 40
0.0
 40
0.1173359085939
 40
0.2322712090577
 40
0.3424917335726
 40
0.4452669451014
 40
0.5302751527754001
 40
0.5973396622062001
 40
0.6502288000835
 40
0.6920092295372
 40
0.7251611694562
 40
0.7517176594915001
 40
0.773368730965
 40
0.7915949376569
 40
0.8077906369792
 40
0.8233573825827
 40
0.8396404424084
 40
0.857538730446
 40
0.8770415836565
 40
0.8970268251606
 40
0.9211567585526
 40
0.9444699738402
 40
0.9701434247428
 40
1.0
 40
1.0
 40
1.0
 40
1.0
 10
1.204207802625857
 20
0.164177012746704
 30
0.0
 10
1.225391449374852
 20
0.1638082636147041
 30
0.0
 10
1.267328309863854
 20
0.163238266637704
 30
0.0
 10
1.329170209151852
 20
0.1628799247517042
 30
0.0
 10
1.38838391635886
 20
0.1630298160927038
 30
0.0
 10
1.442190395135865
 20
0.1636659760357041
 30
0.0
 10
1.488196739399851
 20
0.1646904439807043
 30
0.0
 10
1.525185745884853
 20
0.1659361115777042
 30
0.0
 10
1.554359059094862
 20
0.1672854637107036
 30
0.0
 10
1.577397982711856
 20
0.1686799276097041
 30
0.0
 10
1.595670043173859
 20
0.1700901637287039
 30
0.0
 10
1.610293074949856
 20
0.1715110235917038
 30
0.0
 10
1.622202048052861
 20
0.1729627912447039
 30
0.0
 10
1.632211538669862
 20
0.1745005658267042
 30
0.0
 10
1.641072466576856
 20
0.1762373900267041
 30
0.0
 10
1.649484612744862
 20
0.178382706684704
 30
0.0
 10
1.658001996543857
 20
0.1812736451507039
 30
0.0
 10
1.666830883650858
 20
0.1853274758377038
 30
0.0
 10
1.675650800666856
 20
0.1908294420357043
 30
0.0
 10
1.684466471329861
 20
0.1982558375407043
 30
0.0
 10
1.692421728918857
 20
0.2075631207387042
 30
0.0
 10
1.699113219042855
 20
0.2190231148207044
 30
0.0
 10
1.703930088197855
 20
0.2325092852677043
 30
0.0
 10
1.705255886172862
 20
0.242554411418704
 30
0.0
 10
1.70534997344586
 20
0.2479446676847038
 30
0.0
  0
LINE
  5
28B
330
1F
100
AcDbEntity
  8
IGES_LEVEL_0
 62
     7
100
AcDbLine
 10
1.707092258170858
 20
0.3477925576477045
 30
0.0
 11
1.661915892137861
 21
0.3594733320347044
 31
0.0
  0
LINE
  5
28C
330
1F
100
AcDbEntity
  8
IGES_LEVEL_0
 62
     7
100
AcDbLine
 10
1.651533411832856
 20
0.3608507392167043
 30
0.0
 11
1.584986368065861
 21
0.3670782742337039
 31
0.0
  0
LINE
  5
28D
330
1F
100
AcDbEntity
  8
IGES_LEVEL_0
 62
     7
100
AcDbLine
 10
1.584986368065861
 20
0.3670782742337039
 30
0.0
 11
1.433242606434857
 21
0.3759235925167038
 31
0.0
  0
LINE
  5
28E
330
1F
100
AcDbEntity
  8
IGES_LEVEL_0
 62
     7
100
AcDbLine
 10
1.433242606434857
 20
0.3759235925167038
 30
0.0
 11
1.270249892275854
 21
0.3813794119747044
 31
0.0
  0
LINE
  5
28F
330
1F
100
AcDbEntity
  8
IGES_LEVEL_0
 62
     7
100
AcDbLine
 10
1.270249892275854
 20
0.3813794119747044
 30
0.0
 11
1.20716897544686
 21
0.3826866345387042
 31
0.0
  0
LINE
  5
290
330
1F
100
AcDbEntity
  8
IGES_LEVEL_0
 62
     7
100
AcDbLine
 10
18.16716897544986
 20
0.3826866345387042
 30
0.0
 11
18.10408805861986
 21
0.3813794119747044
 31
0.0
  0
LINE
  5
291
330
1F
100
AcDbEntity
  8
IGES_LEVEL_0
 62
     7
100
AcDbLine
 10
18.10408805861986
 20
0.3813794119747044
 30
0.0
 11
17.94109534445986
 21
0.3759235925167038
 31
0.0
  0
LINE
  5
292
330
1F
100
AcDbEntity
  8
IGES_LEVEL_0
 62
     7
100
AcDbLine
 10
17.94109534445986
 20
0.3759235925167038
 30
0.0
 11
17.78935158282986
 21
0.3670782742337039
 31
0.0
  0
LINE
  5
293
330
1F
100
AcDbEntity
  8
IGES_LEVEL_0
 62
     7
100
AcDbLine
 10
17.78935158282986
 20
0.3670782742337039
 30
0.0
 11
17.72280453905986
 21
0.3608507392167043
 31
0.0
  0
LINE
  5
294
330
1F
100
AcDbEntity
  8
IGES_LEVEL_0
 62
     7
100
AcDbLine
 10
17.72280453905986
 20
0.3608507392167043
 30
0.0
 11
17.66724569271986
 21
0.3477925576477045
 31
0.0
  0
SPLINE
  5
295
330
1F
100
AcDbEntity
  8
IGES_LEVEL_0
 62
     7
100
AcDbSpline
210
0.0
220
0.0
230
1.0
 70
     8
 71
     3
 72
    26
 73
    22
 74
     0
 42
0.0000000001
 43
0.0000000001
 40
0.0
 40
0.0
 40
0.0
 40
0.0
 40
0.03148815618987
 40
0.06424117390338
 40
0.0997931450704
 40
0.1288053601301
 40
0.1524226919082
 40
0.1723593042557
 40
0.1907607926847
 40
0.2096580193882
 40
0.231168828222
 40
0.2572976058283
 40
0.2902122932877
 40
0.332361076823
 40
0.386700694312
 40
0.456888097598
 40
0.5472179303696
 40
0.6518905557972
 40
0.7637833668557
 40
0.8806307266161
 40
1.0
 40
1.0
 40
1.0
 40
1.0
 10
17.66898797744986
 20
0.2479446676847038
 30
0.0
 10
17.66908719189986
 20
0.2422606752867041
 30
0.0
 10
17.67069367660985
 20
0.230641407909704
 30
0.0
 10
17.67748129334985
 20
0.213761607478704
 30
0.0
 10
17.68812345673986
 20
0.1995040892407042
 30
0.0
 10
17.70050506888986
 20
0.1893105291167044
 30
0.0
 10
17.71204521794986
 20
0.1829890182867041
 30
0.0
 10
17.72253522379986
 20
0.179034535577704
 30
0.0
 10
17.73253055092986
 20
0.1763700807077043
 30
0.0
 10
17.74295665226986
 20
0.1743363024797041
 30
0.0
 10
17.75484385381986
 20
0.1725854495277041
 30
0.0
 10
17.76929659283986
 20
0.1709480610107045
 30
0.0
 10
17.78749757154986
 20
0.1693532417077041
 30
0.0
 10
17.81080852009986
 20
0.167784764149704
 30
0.0
 10
17.84086293968986
 20
0.1662664059467044
 30
0.0
 10
17.87962887148985
 20
0.1648634221017037
 30
0.0
 10
17.92749407099986
 20
0.1637380237997043
 30
0.0
 10
17.98289749977986
 20
0.1630483927607042
 30
0.0
 10
18.04309225729986
 20
0.162873715843704
 30
0.0
 10
18.10593947082986
 20
0.163225095577704
 30
0.0
 10
18.14858253515986
 20
0.1638019279597044
 30
0.0
 10
18.17013014828985
 20
0.164177012746704
 30
0.0
  0
SPLINE
  5
296
330
1F
100
AcDbEntity
  8
IGES_LEVEL_0
 62
     7
100
AcDbSpline
210
0.0
220
0.0
230
1.0
 70
     8
 71
     3
 72
    29
 73
    25
 74
     0
 42
0.0000000001
 43
0.0000000001
 40
0.0
 40
0.0
 40
0.0
 40
0.0
 40
0.1172440224078
 40
0.2321162982092
 40
0.3423009667223
 40
0.4450962888001
 40
0.5302328233331
 40
0.5973894711991
 40
0.6503435920089
 40
0.6921685346056
 40
0.7253495467454
 40
0.7519233693532
 40
0.7735826081689
 40
0.7918092566447
 40
0.807998520816
 40
0.8235525991198001
 40
0.8398173849183001
 40
0.85769495532
 40
0.8771819407667
 40
0.8971378515728
 40
0.9212497953025
 40
0.9445223224663
 40
0.9701686441358
 40
1.0
 40
1.0
 40
1.0
 40
1.0
 10
18.17013014828985
 20
0.164177012746704
 30
0.0
 10
18.19132815683986
 20
0.1645460118787042
 30
0.0
 10
18.23329275247986
 20
0.1654367442317039
 30
0.0
 10
18.29516555911986
 20
0.167232760871704
 30
0.0
 10
18.35441046542986
 20
0.1694460773697036
 30
0.0
 10
18.40826115700986
 20
0.1719586989637042
 30
0.0
 10
18.45431462359986
 20
0.1745893912047037
 30
0.0
 10
18.49134339620985
 20
0.177128278606704
 30
0.0
 10
18.52053102969986
 20
0.1794979248497043
 30
0.0
 10
18.54356606901986
 20
0.1816982872107044
 30
0.0
 10
18.56182103042986
 20
0.1837476722367043
 30
0.0
 10
18.57641694091986
 20
0.1856798882577037
 30
0.0
 10
18.58829027971985
 20
0.187547778943704
 30
0.0
 10
18.59825531949986
 20
0.1894347515647045
 30
0.0
 10
18.60706029543986
 20
0.1914798584857044
 30
0.0
 10
18.61539883378986
 20
0.193916702561704
 30
0.0
 10
18.62381474447986
 20
0.1971016591817042
 30
0.0
 10
18.63250214051986
 20
0.2014599477237041
 30
0.0
 10
18.64112927429985
 20
0.2072654138067044
 30
0.0
 10
18.64968662078986
 20
0.2149960705397044
 30
0.0
 10
18.65731568832986
 20
0.2245751291397043
 30
0.0
 10
18.66360718429986
 20
0.236263757575704
 30
0.0
 10
18.66795417113986
 20
0.2499129309037039
 30
0.0
 10
18.66892981785986
 20
0.2600034958657037
 30
0.0
 10
18.66883567259986
 20
0.2653970741217039
 30
0.0
  0
LINE
  5
297
330
1F
100
AcDbEntity
  8
IGES_LEVEL_0
 62
     7
100
AcDbLine
 10
18.66709225816986
 20
0.3652447551867043
 30
0.0
 11
18.56012054877986
 21
0.3795131277787037
 31
0.0
  0
LINE
  5
298
330
1F
100
AcDbEntity
  8
IGES_LEVEL_0
 62
     7
100
AcDbLine
 10
18.54498636806985
 20
0.3802318013187044
 30
0.0
 11
18.39299725335986
 21
0.3837965003097045
 31
0.0
  0
LINE
  5
299
330
1F
100
AcDbEntity
  8
IGES_LEVEL_0
 62
     7
100
AcDbLine
 10
18.39299725335986
 20
0.3837965003097045
 30
0.0
 11
18.23006904227986
 21
0.3835735968337038
 31
0.0
  0
LINE
  5
29A
330
1F
100
AcDbEntity
  8
IGES_LEVEL_0
 62
     7
100
AcDbLine
 10
18.23006904227986
 20
0.3835735968337038
 30
0.0
 11
18.16716897544986
 21
0.3826866345387042
 31
0.0
  0
LINE
  5
29B
330
1F
100
AcDbEntity
  8
IGES_LEVEL_0
 62
     7
100
AcDbLine
 10
0.9938353425318643
 20
23.1222423774197
 30
0.0
 11
0.930631114905862
 21
23.1219289773197
 31
0.0
  0
LINE
  5
29C
330
1F
100
AcDbEntity
  8
IGES_LEVEL_0
 62
     7
100
AcDbLine
 10
18.44370683598985
 20
23.1219289773197
 30
0.0
 11
18.48816961395986
 21
23.1228816859397
 31
0.0
  0
LINE
  5
29D
330
1F
100
AcDbEntity
  8
IGES_LEVEL_0
 62
     7
100
AcDbLine
 10
18.49752410040986
 20
23.1231999039597
 30
0.0
 11
18.58394552434985
 21
23.1279884320297
 31
0.0
  0
LINE
  5
29E
330
1F
100
AcDbEntity
  8
IGES_LEVEL_0
 62
     7
100
AcDbLine
 10
18.58394552434985
 20
23.1279884320297
 30
0.0
 11
18.61010095240986
 21
23.1301476008597
 31
0.0
  0
LINE
  5
29F
330
1F
100
AcDbEntity
  8
IGES_LEVEL_0
 62
     7
100
AcDbLine
 10
18.62545071185986
 20
23.1316057991497
 30
0.0
 11
18.66481091587986
 21
23.1360884537697
 31
0.0
  0
LINE
  5
2A0
330
1F
100
AcDbEntity
  8
IGES_LEVEL_0
 62
     7
100
AcDbLine
 10
18.66481091587986
 20
23.1360884537697
 30
0.0
 11
18.71152355300986
 21
23.1430295174197
 31
0.0
  0
LINE
  5
2A1
330
1F
100
AcDbEntity
  8
IGES_LEVEL_0
 62
     7
100
AcDbLine
 10
18.71598569361985
 20
23.1437966041997
 30
0.0
 11
18.74239851818986
 21
23.1487240688097
 31
0.0
  0
LINE
  5
2A2
330
1F
100
AcDbEntity
  8
IGES_LEVEL_0
 62
     7
100
AcDbLine
 10
18.74239851818986
 20
23.1487240688097
 30
0.0
 11
18.76347542641986
 21
23.1531009784897
 31
0.0
  0
LINE
  5
2A3
330
1F
100
AcDbEntity
  8
IGES_LEVEL_0
 62
     7
100
AcDbLine
 10
18.76347542641986
 20
23.1531009784897
 30
0.0
 11
18.80754778318986
 21
23.1633817459697
 31
0.0
  0
LINE
  5
2A4
330
1F
100
AcDbEntity
  8
IGES_LEVEL_0
 62
     7
100
AcDbLine
 10
18.80754778318986
 20
23.1633817459697
 30
0.0
 11
18.84666511841986
 21
23.1736034023097
 31
0.0
  0
LINE
  5
2A5
330
1F
100
AcDbEntity
  8
IGES_LEVEL_0
 62
     7
100
AcDbLine
 10
18.84666511841986
 20
23.1736034023097
 30
0.0
 11
18.88072199122986
 21
23.1840262369997
 31
0.0
  0
ARC
  5
2A6
330
1F
100
AcDbEntity
  8
IGES_LEVEL_0
 62
     7
100
AcDbCircle
 10
18.85091125700719
 20
23.29439680827263
 30
0.0
 40
0.1143256002739878
100
AcDbArc
 50
285.1147424966034
 51
338.1222753586523
  0
SPLINE
  5
2A7
330
1F
100
AcDbEntity
  8
IGES_LEVEL_0
 62
     7
100
AcDbSpline
210
0.0
220
0.0
230
1.0
 70
     8
 71
     3
 72
    11
 73
     7
 74
     0
 42
0.0000000001
 43
0.0000000001
 40
0.0
 40
0.0
 40
0.0
 40
0.0
 40
0.3882581045663
 40
0.7212935179067
 40
0.9549213379346
 40
1.0
 40
1.0
 40
1.0
 40
1.0
 10
0.5155726351848647
 20
0.2355934738597044
 30
0.0
 10
0.4517280053928635
 20
0.236707886017704
 30
0.0
 10
0.3337112105978525
 20
0.2427730610767037
 30
0.0
 10
0.1763033283378638
 20
0.2731931854097039
 30
0.0
 10
0.0841352730328543
 20
0.2952502629487043
 30
0.0
 10
0.0411174790868619
 20
0.3284336765597041
 30
0.0
 10
0.0351226856088521
 20
0.3341643114717042
 30
0.0
  0
ARC
  5
2A8
330
1F
100
AcDbEntity
  8
IGES_LEVEL_0
 62
     7
100
AcDbCircle
 10
0.063515977236745
 20
0.3704164487858991
 30
0.0
 40
0.0460477629132364
100
AcDbArc
 50
186.4484501925238
 51
231.9313477314034
  0
SPLINE
  5
2A9
330
1F
100
AcDbEntity
  8
IGES_LEVEL_0
 62
     7
100
AcDbSpline
210
0.0
220
0.0
230
1.0
 70
     8
 71
     3
 72
    11
 73
     7
 74
     0
 42
0.0000000001
 43
0.0000000001
 40
0.0
 40
0.0
 40
0.0
 40
0.0
 40
0.360710065688
 40
0.6701156502968
 40
0.8871668987259
 40
1.0
 40
1.0
 40
1.0
 40
1.0
 10
18.85876531570986
 20
0.2355934738597044
 30
0.0
 10
18.92260994549985
 20
0.236707886017704
 30
0.0
 10
19.04062674029985
 20
0.2427730610767037
 30
0.0
 10
19.19803462255986
 20
0.2731931854097039
 30
0.0
 10
19.30170921451986
 20
0.2980039347117044
 30
0.0
 10
19.35687318933986
 20
0.3483567547757044
 30
0.0
 10
19.35657840636986
 20
0.365244859635704
 30
0.0
  0
ARC
  5
2AA
330
1F
100
AcDbEntity
  8
IGES_LEVEL_0
 62
     7
100
AcDbCircle
 10
0.5581823313570004
 20
1.971016000120499
 30
0.0
 40
1.735945543748789
100
AcDbArc
 50
268.5935037086258
 51
274.9492251462823
  0
ARC
  5
2AB
330
1F
100
AcDbEntity
  8
IGES_LEVEL_0
 62
     7
100
AcDbCircle
 10
18.8161556195382
 20
1.971016000161062
 30
0.0
 40
1.735945543789329
100
AcDbArc
 50
265.0507748537841
 51
271.406496291325
  0
SPLINE
  5
2AC
330
1F
100
AcDbEntity
  8
IGES_LEVEL_0
 62
     7
100
AcDbSpline
210
0.0
220
0.0
230
1.0
 70
     8
 71
     3
 72
    29
 73
    25
 74
     0
 42
0.0000000001
 43
0.0000000001
 40
0.0
 40
0.0
 40
0.0
 40
0.0
 40
0.07520280172075
 40
0.1410194331512
 40
0.1982635963755
 40
0.248470700919
 40
0.2927225096238
 40
0.3319197695895
 40
0.3670376729268
 40
0.3987856056459
 40
0.4277692247662
 40
0.4550445522836
 40
0.4827327073049
 40
0.5130418460715001
 40
0.5451222721207
 40
0.5796673425015
 40
0.6172126712812001
 40
0.6577625442009
 40
0.7021655081608
 40
0.7505750462787
 40
0.8037602896845
 40
0.8626579466636
 40
0.9279017493244
 40
1.0
 40
1.0
 40
1.0
 40
1.0
 10
18.55107274697986
 20
17.8632889301997
 30
0.0
 10
18.57642857408986
 20
17.8494465787797
 30
0.0
 10
18.62304975547986
 20
17.8217576295397
 30
0.0
 10
18.68600694061986
 20
17.77883269604971
 30
0.0
 10
18.73894666841985
 20
17.7384445212297
 30
0.0
 10
18.78356371997986
 20
17.7009267286397
 30
0.0
 10
18.82137588675986
 20
17.6661717592797
 30
0.0
 10
18.85357325787986
 20
17.6339380124697
 30
0.0
 10
18.88108405417986
 20
17.6038662673297
 30
0.0
 10
18.90460920344986
 20
17.5755235141297
 30
0.0
 10
18.92451141673986
 20
17.5481442735997
 30
0.0
 10
18.94098943833986
 20
17.52038982240971
 30
0.0
 10
18.95066282567986
 20
17.4881480886497
 30
0.0
 10
18.94383227079986
 20
17.4532408281697
 30
0.0
 10
18.92900863621986
 20
17.41911992446971
 30
0.0
 10
18.90991998698986
 20
17.3838770856597
 30
0.0
 10
18.88688511527986
 20
17.3472309536297
 30
0.0
 10
18.85971843354986
 20
17.3087794696897
 30
0.0
 10
18.82795455108986
 20
17.2685550459297
 30
0.0
 10
18.79078823505986
 20
17.2265136267597
 30
0.0
 10
18.74720712839986
 20
17.1828485698797
 30
0.0
 10
18.69584975364986
 20
17.1380026898697
 30
0.0
 10
18.63519288207986
 20
17.0930972023097
 30
0.0
 10
18.58979532402986
 20
17.0659569155497
 30
0.0
 10
18.56521291166986
 20
17.0531994381597
 30
0.0
  0
ARC
  5
2AD
330
1F
100
AcDbEntity
  8
IGES_LEVEL_0
 62
     7
100
AcDbCircle
 10
18.28000294345132
 20
17.59876850321678
 30
0.0
 40
0.6156219056518947
100
AcDbArc
 50
289.0579549423393
 51
297.5994518138139
  0
LINE
  5
2AE
330
1F
100
AcDbEntity
  8
IGES_LEVEL_0
 62
     7
100
AcDbLine
 10
18.48101850702986
 20
17.0168895863297
 30
0.0
 11
18.44803724072986
 21
17.0067918957897
 31
0.0
  0
ARC
  5
2AF
330
1F
100
AcDbEntity
  8
IGES_LEVEL_0
 62
     7
100
AcDbCircle
 10
18.0811770542196
 20
17.01771163237475
 30
0.0
 40
0.9673690757263196
100
AcDbArc
 50
60.93863785137909
 51
73.23120893378115
  0
SPLINE
  5
2B0
330
1F
100
AcDbEntity
  8
IGES_LEVEL_0
 62
     7
100
AcDbSpline
210
0.0
220
0.0
230
1.0
 70
     8
 71
     3
 72
    31
 73
    27
 74
     0
 42
0.0000000001
 43
0.0000000001
 40
0.0
 40
0.0
 40
0.0
 40
0.0
 40
0.06866930082666
 40
0.1323341177154
 40
0.1905119910948
 40
0.2430997826522
 40
0.2903241331958
 40
0.3332362358811
 40
0.3724258259016
 40
0.4083438839046
 40
0.441512361947
 40
0.4723328387731
 40
0.5011064427616
 40
0.52714500659
 40
0.5515052699873
 40
0.5759195856687001
 40
0.6021096648298
 40
0.6308490762516
 40
0.6625049828414
 40
0.6972022641075
 40
0.7355680807963
 40
0.7783876211493001
 40
0.826410086161
 40
0.8803619675471001
 40
0.9390955937396001
 40
1.0
 40
1.0
 40
1.0
 40
1.0
 10
0.8091250392288577
 20
17.0531994381597
 30
0.0
 10
0.7857096109128582
 20
17.0653512885597
 30
0.0
 10
0.7418996430078527
 20
17.0913747654697
 30
0.0
 10
0.6827581323498583
 20
17.1346310911197
 30
0.0
 10
0.6319390559168573
 20
17.1784059114097
 30
0.0
 10
0.5887240133488637
 20
17.2210820969197
 30
0.0
 10
0.5520527292658647
 20
17.2618840539197
 30
0.0
 10
0.5208637569118627
 20
17.3005862257197
 30
0.0
 10
0.4942271206758567
 20
17.3373020376097
 30
0.0
 10
0.471530836369863
 20
17.3721778360197
 30
0.0
 10
0.4523613526868621
 20
17.4054722130597
 30
0.0
 10
0.4369210794248607
 20
17.4375926147397
 30
0.0
 10
0.4260628453018546
 20
17.4689210821097
 30
0.0
 10
0.4259931945698531
 20
17.5001697536297
 30
0.0
 10
0.4371758712028656
 20
17.5270979653397
 30
0.0
 10
0.4522573975518588
 20
17.5516307797197
 30
0.0
 10
0.4703591448428574
 20
17.5762012562597
 30
0.0
 10
0.4915605057008582
 20
17.6018435942097
 30
0.0
 10
0.5160888074908575
 20
17.6289330113897
 30
0.0
 10
0.5442740070868529
 20
17.6576530239997
 30
0.0
 10
0.5766661415048565
 20
17.6882090779997
 30
0.0
 10
0.6140843683978522
 20
17.7208451057197
 30
0.0
 10
0.6574816124368658
 20
17.75566977533971
 30
0.0
 10
0.7073232977608631
 20
17.7921447004097
 30
0.0
 10
0.7630263081218635
 20
17.8288627859497
 30
0.0
 10
0.8027284318138589
 20
17.8520774159697
 30
0.0
 10
0.823265203909853
 20
17.8632889301997
 30
0.0
  0
ARC
  5
2B1
330
1F
100
AcDbEntity
  8
IGES_LEVEL_0
 62
     7
100
AcDbCircle
 10
1.293154399724555
 20
17.01772649880092
 30
0.0
 40
0.967352925119058
100
AcDbArc
 50
106.7685336408725
 51
119.0614534998286
  0
ARC
  5
2B2
330
1F
100
AcDbEntity
  8
IGES_LEVEL_0
 62
     7
100
AcDbCircle
 10
0.6578770259262825
 20
23.46782306457767
 30
0.0
 40
0.323400003789754
100
AcDbArc
 50
221.9208098469399
 51
270.2704286152637
  0
LINE
  5
2B3
330
1F
100
AcDbEntity
  8
IGES_LEVEL_0
 62
     7
100
AcDbLine
 10
0.9263006893318652
 20
17.0067919017197
 30
0.0
 11
0.8858347617958605
 21
17.0195096897897
 31
0.0
  0
ARC
  5
2B4
330
1F
100
AcDbEntity
  8
IGES_LEVEL_0
 62
     7
100
AcDbCircle
 10
1.097133005395418
 20
17.60480108970251
 30
0.0
 40
0.6222643895966988
100
AcDbArc
 50
242.4295719193347
 51
250.1497206109723
  0
LINE
  5
2B5
330
1F
100
AcDbEntity
  8
IGES_LEVEL_0
 62
     7
100
AcDbLine
 10
0.7081675155848591
 20
0.366793955408704
 30
0.0
 11
0.7904710741648534
 21
0.3772055667937039
 31
0.0
  0
LINE
  5
2B6
330
1F
100
AcDbEntity
  8
IGES_LEVEL_0
 62
     7
100
AcDbLine
 10
0.7904710741648534
 20
0.3772055667937039
 30
0.0
 11
1.083833718508854
 21
0.3840297804817044
 31
0.0
  0
LINE
  5
2B7
330
1F
100
AcDbEntity
  8
IGES_LEVEL_0
 62
     7
100
AcDbLine
 10
1.083833718508854
 20
0.3840297804817044
 30
0.0
 11
1.144243374026855
 21
0.3836600888797038
 31
0.0
  0
LINE
  5
2B8
330
1F
100
AcDbEntity
  8
IGES_LEVEL_0
 62
     7
100
AcDbLine
 10
1.144243374026855
 20
0.3836600888797038
 30
0.0
 11
1.185398595294854
 21
0.3831127308797043
 31
0.0
  0
LINE
  5
2B9
330
1F
100
AcDbEntity
  8
IGES_LEVEL_0
 62
     7
100
AcDbLine
 10
1.185398595294854
 20
0.3831127308797043
 30
0.0
 11
1.237526922337862
 21
0.3821098937367043
 31
0.0
  0
LINE
  5
2BA
330
1F
100
AcDbEntity
  8
IGES_LEVEL_0
 62
     7
100
AcDbLine
 10
1.237526922337862
 20
0.3821098937367043
 30
0.0
 11
1.270279415903855
 21
0.3813208473747037
 31
0.0
  0
LINE
  5
2BB
330
1F
100
AcDbEntity
  8
IGES_LEVEL_0
 62
     7
100
AcDbLine
 10
1.270279415903855
 20
0.3813208473747037
 30
0.0
 11
1.701455849777856
 21
0.3519005324977037
 31
0.0
  0
ARC
  5
2BC
330
1F
100
AcDbEntity
  8
IGES_LEVEL_0
 62
     7
100
AcDbCircle
 10
1.700960771960558
 20
0.3451371247310537
 30
0.0
 40
0.0067815032745821
100
AcDbArc
 50
23.16252485523447
 51
85.81344645694853
  0
ARC
  5
2BD
330
1F
100
AcDbEntity
  8
IGES_LEVEL_0
 62
     7
100
AcDbCircle
 10
1.372102158407825
 20
23.24083344958943
 30
0.0
 40
0.0454616866257071
100
AcDbArc
 50
306.5043785650643
 51
351.7451127741378
  0
ARC
  5
2BE
330
1F
100
AcDbEntity
  8
IGES_LEVEL_0
 62
     7
100
AcDbCircle
 10
1.139231365566356
 20
23.645958726853
 30
0.0
 40
0.512470937173598
100
AcDbArc
 50
272.2420164120024
 51
300.4762017398649
  0
LINE
  5
2BF
330
1F
100
AcDbEntity
  8
IGES_LEVEL_0
 62
     7
100
AcDbLine
 10
18.66617043530986
 20
0.366793955408704
 30
0.0
 11
18.58386687672985
 21
0.3772055667937039
 31
0.0
  0
LINE
  5
2C0
330
1F
100
AcDbEntity
  8
IGES_LEVEL_0
 62
     7
100
AcDbLine
 10
18.58386687672985
 20
0.3772055667937039
 30
0.0
 11
18.29050423237986
 21
0.3840297804817044
 31
0.0
  0
LINE
  5
2C1
330
1F
100
AcDbEntity
  8
IGES_LEVEL_0
 62
     7
100
AcDbLine
 10
18.29050423237986
 20
0.3840297804817044
 30
0.0
 11
18.23009457686986
 21
0.3836600888797038
 31
0.0
  0
LINE
  5
2C2
330
1F
100
AcDbEntity
  8
IGES_LEVEL_0
 62
     7
100
AcDbLine
 10
18.23009457686986
 20
0.3836600888797038
 30
0.0
 11
18.18893935559985
 21
0.3831127308797043
 31
0.0
  0
LINE
  5
2C3
330
1F
100
AcDbEntity
  8
IGES_LEVEL_0
 62
     7
100
AcDbLine
 10
18.18893935559985
 20
0.3831127308797043
 30
0.0
 11
18.13681102855986
 21
0.3821098937367043
 31
0.0
  0
LINE
  5
2C4
330
1F
100
AcDbEntity
  8
IGES_LEVEL_0
 62
     7
100
AcDbLine
 10
18.13681102855986
 20
0.3821098937367043
 30
0.0
 11
18.10405853498986
 21
0.3813208473747037
 31
0.0
  0
LINE
  5
2C5
330
1F
100
AcDbEntity
  8
IGES_LEVEL_0
 62
     7
100
AcDbLine
 10
18.10405853498986
 20
0.3813208473747037
 30
0.0
 11
17.67288210111986
 21
0.3519005324977037
 31
0.0
  0
ARC
  5
2C6
330
1F
100
AcDbEntity
  8
IGES_LEVEL_0
 62
     7
100
AcDbCircle
 10
17.67337717893105
 20
0.3451371247365732
 30
0.0
 40
0.0067815032686311
100
AcDbArc
 50
94.18655349494696
 51
156.8374751739706
  0
ARC
  5
2C7
330
1F
100
AcDbEntity
  8
IGES_LEVEL_0
 62
     7
100
AcDbCircle
 10
18.00223579247877
 20
23.24083344958637
 30
0.0
 40
0.0454616866172276
100
AcDbArc
 50
188.2548872235171
 51
233.4956214428975
  0
ARC
  5
2C8
330
1F
100
AcDbEntity
  8
IGES_LEVEL_0
 62
     7
100
AcDbCircle
 10
18.23510658532388
 20
23.64595872682953
 30
0.0
 40
0.5124709371500862
100
AcDbArc
 50
239.5237982594277
 51
267.7579835880591
  0
ARC
  5
2C9
330
1F
100
AcDbEntity
  8
IGES_LEVEL_0
 62
     7
100
AcDbCircle
 10
18.39380024849274
 20
24.49129072240017
 30
0.0
 40
1.369128288777613
100
AcDbArc
 50
262.4985343682417
 51
267.2625169325449
  0
LINE
  5
2CA
330
1F
100
AcDbEntity
  8
IGES_LEVEL_0
 62
     7
100
AcDbLine
 10
18.34355843399986
 20
23.1230592576297
 30
0.0
 11
18.39224904706986
 21
23.1218485427497
 31
0.0
  0
ARC
  5
2CB
330
1F
100
AcDbEntity
  8
IGES_LEVEL_0
 62
     7
100
AcDbCircle
 10
32.02151240767915
 20
0.24530652466683
 30
0.0
 40
0.1222676577827538
100
AcDbArc
 50
285.4294763431305
 51
301.1615395165794
  0
LINE
  5
2CC
330
1F
100
AcDbEntity
  8
IGES_LEVEL_0
 62
     7
100
AcDbLine
 10
32.09333632289986
 20
0.1465244130377043
 30
0.0
 11
32.11001203654986
 21
0.1622751122447038
 31
0.0
  0
ARC
  5
2CD
330
1F
100
AcDbEntity
  8
IGES_LEVEL_0
 62
     7
100
AcDbCircle
 10
32.03233563631661
 20
0.2281849693198635
 30
0.0
 40
0.1018711559415334
100
AcDbArc
 50
319.6847812019981
 51
341.2644221913468
  0
LINE
  5
2CE
330
1F
100
AcDbEntity
  8
IGES_LEVEL_0
 62
     7
100
AcDbLine
 10
31.55919888496986
 20
0.1000587252267037
 30
0.0
 11
31.62341136827986
 21
0.0980679932617038
 31
0.0
  0
LINE
  5
2CF
330
1F
100
AcDbEntity
  8
IGES_LEVEL_0
 62
     7
100
AcDbLine
 10
31.63197880193986
 20
0.0979013802297043
 30
0.0
 11
31.66526277095986
 21
0.0974726208897042
 31
0.0
  0
ARC
  5
2D0
330
1F
100
AcDbEntity
  8
IGES_LEVEL_0
 62
     7
100
AcDbCircle
 10
31.70109159756944
 20
2.330267168331169
 30
0.0
 40
2.232973958152429
100
AcDbArc
 50
269.4479514657087
 51
277.2655875326057
  0
LINE
  5
2D1
330
1F
100
AcDbEntity
  8
IGES_LEVEL_0
 62
     7
100
AcDbLine
 10
31.98349323082985
 20
0.115222695793704
 30
0.0
 11
32.03334254590986
 21
0.1228734889417037
 31
0.0
  0
ARC
  5
2D2
330
1F
100
AcDbEntity
  8
IGES_LEVEL_0
 62
     7
100
AcDbCircle
 10
53.85590213741814
 20
0.2351754505323765
 30
0.0
 40
0.0722424606255832
100
AcDbArc
 50
183.7084125900614
 51
274.2260013320415
  0
LINE
  5
2D3
330
1F
100
AcDbEntity
  8
IGES_LEVEL_0
 62
     7
100
AcDbLine
 10
53.86122574066986
 20
0.1631294071597041
 30
0.0
 11
54.71257681101986
 21
0.2077537930277037
 31
0.0
  0
ARC
  5
2D4
330
1F
100
AcDbEntity
  8
IGES_LEVEL_0
 62
     7
100
AcDbCircle
 10
54.71027172131012
 20
0.2799438010722722
 30
0.0
 40
0.0722268004278523
100
AcDbArc
 50
271.828882650162
 51
2.297187146251907
  0
LINE
  5
2D5
330
1F
100
AcDbEntity
  8
IGES_LEVEL_0
 62
     7
100
AcDbLine
 10
54.77720767698986
 20
0.3826866345387042
 30
0.0
 11
54.65495117117986
 21
0.3819938927947039
 31
0.0
  0
LINE
  5
2D6
330
1F
100
AcDbEntity
  8
IGES_LEVEL_0
 62
     7
100
AcDbLine
 10
54.65495117117986
 20
0.3819938927947039
 30
0.0
 11
54.50318142161986
 21
0.3761085482547036
 31
0.0
  0
LINE
  5
2D7
330
1F
100
AcDbEntity
  8
IGES_LEVEL_0
 62
     7
100
AcDbLine
 10
54.50318142161986
 20
0.3761085482547036
 30
0.0
 11
54.34850138359986
 21
0.3688564763927044
 31
0.0
  0
LINE
  5
2D8
330
1F
100
AcDbEntity
  8
IGES_LEVEL_0
 62
     7
100
AcDbLine
 10
54.34035770867986
 20
0.3684489719997041
 30
0.0
 11
54.30117756537986
 21
0.3664553279807045
 31
0.0
  0
LINE
  5
2D9
330
1F
100
AcDbEntity
  8
IGES_LEVEL_0
 62
     7
100
AcDbLine
 10
54.30117756537986
 20
0.3664553279807045
 30
0.0
 11
54.25456482079986
 21
0.3640131645527042
 31
0.0
  0
LINE
  5
2DA
330
1F
100
AcDbEntity
  8
IGES_LEVEL_0
 62
     7
100
AcDbLine
 10
54.25369714461986
 20
0.3639669845697039
 30
0.0
 11
54.21452679268986
 21
0.3618544610197038
 31
0.0
  0
LINE
  5
2DB
330
1F
100
AcDbEntity
  8
IGES_LEVEL_0
 62
     7
100
AcDbLine
 10
54.20638158286986
 20
0.3614082932447044
 30
0.0
 11
54.05179085034986
 21
0.3524521708257037
 31
0.0
  0
LINE
  5
2DC
330
1F
100
AcDbEntity
  8
IGES_LEVEL_0
 62
     7
100
AcDbLine
 10
54.04870606427986
 20
0.3522627910477038
 30
0.0
 11
53.90023732534986
 21
0.3424410161407042
 31
0.0
  0
LINE
  5
2DD
330
1F
100
AcDbEntity
  8
IGES_LEVEL_0
 62
     7
100
AcDbLine
 10
53.90023732534986
 20
0.3424410161407042
 30
0.0
 11
53.77857814222986
 21
0.3303506782957036
 31
0.0
  0
ARC
  5
2DE
330
1F
100
AcDbEntity
  8
IGES_LEVEL_0
 62
     7
100
AcDbCircle
 10
31.21190327376617
 20
0.2435557527885734
 30
0.0
 40
0.1011261938456809
100
AcDbArc
 50
166.9849502945037
 51
182.4175093996931
  0
ARC
  5
2DF
330
1F
100
AcDbEntity
  8
IGES_LEVEL_0
 62
     7
100
AcDbCircle
 10
31.21794665953581
 20
0.2459492800010684
 30
0.0
 40
0.1072864370847274
100
AcDbArc
 50
183.5585617067652
 51
261.9445566553426
  0
ARC
  5
2E0
330
1F
100
AcDbEntity
  8
IGES_LEVEL_0
 62
     7
100
AcDbCircle
 10
32.03228620160762
 20
0.2318420482575435
 30
0.0
 40
0.102780158424751
100
AcDbArc
 50
305.3422368027782
 51
344.9212821344578
  0
ARC
  5
2E1
330
1F
100
AcDbEntity
  8
IGES_LEVEL_0
 62
     7
100
AcDbCircle
 10
32.00659837577992
 20
0.2913771757112934
 30
0.0
 40
0.1678706415261652
100
AcDbArc
 50
279.1831587733083
 51
293.012093449676
  0
LINE
  5
2E2
330
1F
100
AcDbEntity
  8
IGES_LEVEL_0
 62
     7
100
AcDbLine
 10
32.07222327534986
 20
0.1368652834737038
 30
0.0
 11
32.09173990538986
 21
0.1479970710307045
 31
0.0
  0
LINE
  5
2E3
330
1F
100
AcDbEntity
  8
IGES_LEVEL_0
 62
     7
100
AcDbLine
 10
31.70365637118985
 20
0.3525961194037043
 30
0.0
 11
31.62387766448986
 21
0.3725139774127037
 31
0.0
  0
LINE
  5
2E4
330
1F
100
AcDbEntity
  8
IGES_LEVEL_0
 62
     7
100
AcDbLine
 10
31.61058087839986
 20
0.3758114872847042
 30
0.0
 11
31.48809132287986
 21
0.4058955110477042
 31
0.0
  0
LINE
  5
2E5
330
1F
100
AcDbEntity
  8
IGES_LEVEL_0
 62
     7
100
AcDbLine
 10
31.48023415066986
 20
0.4078012246847041
 30
0.0
 11
31.33822252771986
 21
0.4416942748747038
 31
0.0
  0
LINE
  5
2E6
330
1F
100
AcDbEntity
  8
IGES_LEVEL_0
 62
     7
100
AcDbLine
 10
31.33822252771986
 20
0.4416942748747038
 30
0.0
 11
31.30632889464986
 21
0.4492519059307044
 31
0.0
  0
LINE
  5
2E7
330
1F
100
AcDbEntity
  8
IGES_LEVEL_0
 62
     7
100
AcDbLine
 10
31.30632889464986
 20
0.4492519059307044
 30
0.0
 11
31.27684159216986
 21
0.4560618642817044
 31
0.0
  0
LINE
  5
2E8
330
1F
100
AcDbEntity
  8
IGES_LEVEL_0
 62
     7
100
AcDbLine
 10
31.27021748313986
 20
0.4575484429907041
 30
0.0
 11
31.25043821615986
 21
0.461857636048704
 31
0.0
  0
LINE
  5
2E9
330
1F
100
AcDbEntity
  8
IGES_LEVEL_0
 62
     7
100
AcDbLine
 10
31.25043821615986
 20
0.461857636048704
 30
0.0
 11
31.16805390564986
 21
0.4789029411977038
 31
0.0
  0
ARC
  5
2EA
330
1F
100
AcDbEntity
  8
IGES_LEVEL_0
 62
     7
100
AcDbCircle
 10
31.62718299117593
 20
2.271856669258933
 30
0.0
 40
2.173998251321519
100
AcDbArc
 50
258.8226763765494
 51
269.6373518480803
  0
LINE
  5
2EB
330
1F
100
AcDbEntity
  8
IGES_LEVEL_0
 62
     7
100
AcDbLine
 10
32.13807219447986
 20
0.2359239827637042
 30
0.0
 11
32.05110828668986
 21
0.2618533078607038
 31
0.0
  0
LINE
  5
2EC
330
1F
100
AcDbEntity
  8
IGES_LEVEL_0
 62
     7
100
AcDbLine
 10
32.05110828668986
 20
0.2618533078607038
 30
0.0
 11
32.02620342946986
 21
0.2690908117327039
 31
0.0
  0
LINE
  5
2ED
330
1F
100
AcDbEntity
  8
IGES_LEVEL_0
 62
     7
100
AcDbLine
 10
32.02303014948986
 20
0.2699971497367043
 30
0.0
 11
31.99865032827985
 21
0.2767625964477037
 31
0.0
  0
LINE
  5
2EE
330
1F
100
AcDbEntity
  8
IGES_LEVEL_0
 62
     7
100
AcDbLine
 10
31.99865032827985
 20
0.2767625964477037
 30
0.0
 11
31.96837502880986
 21
0.2847655940687041
 31
0.0
  0
LINE
  5
2EF
330
1F
100
AcDbEntity
  8
IGES_LEVEL_0
 62
     7
100
AcDbLine
 10
31.96837502880986
 20
0.2847655940687041
 30
0.0
 11
31.90055446899986
 21
0.3022415727337039
 31
0.0
  0
LINE
  5
2F0
330
1F
100
AcDbEntity
  8
IGES_LEVEL_0
 62
     7
100
AcDbLine
 10
31.89085612087986
 20
0.3047582371277041
 30
0.0
 11
31.77558157929986
 21
0.3344533748337039
 31
0.0
  0
LINE
  5
2F1
330
1F
100
AcDbEntity
  8
IGES_LEVEL_0
 62
     7
100
AcDbLine
 10
31.76808473441986
 20
0.3363546975437041
 30
0.0
 11
31.74502243578986
 21
0.342185604373704
 31
0.0
  0
LINE
  5
2F2
330
1F
100
AcDbEntity
  8
IGES_LEVEL_0
 62
     7
100
AcDbLine
 10
31.74502243578986
 20
0.342185604373704
 30
0.0
 11
31.70365637118985
 21
0.3525961194037043
 31
0.0
  0
ARC
  5
2F3
330
1F
100
AcDbEntity
  8
IGES_LEVEL_0
 62
     7
100
AcDbCircle
 10
31.67976215694327
 20
2.283354861802369
 30
0.0
 40
2.186459492437575
100
AcDbArc
 50
268.2613964085322
 51
279.3378317200068
  0
LINE
  5
2F4
330
1F
100
AcDbEntity
  8
IGES_LEVEL_0
 62
     7
100
AcDbLine
 10
37.87823926121986
 20
23.2585234684397
 30
0.0
 11
37.89109389357986
 21
23.3111869942797
 31
0.0
  0
ARC
  5
2F5
330
1F
100
AcDbEntity
  8
IGES_LEVEL_0
 62
     7
100
AcDbCircle
 10
40.38186870617808
 20
22.5704329748063
 30
0.0
 40
3.595663552882094
100
AcDbArc
 50
155.7548751711378
 51
165.687468916472
  0
LINE
  5
2F6
330
1F
100
AcDbEntity
  8
IGES_LEVEL_0
 62
     7
100
AcDbLine
 10
37.86847795971986
 20
23.2190876569497
 30
0.0
 11
37.88506841875986
 21
23.2864001849197
 31
0.0
  0
LINE
  5
2F7
330
1F
100
AcDbEntity
  8
IGES_LEVEL_0
 62
     7
100
AcDbLine
 10
37.88506841875986
 20
23.2864001849197
 30
0.0
 11
38.18365320559986
 21
24.5435661233797
 31
0.0
  0
LINE
  5
2F8
330
1F
100
AcDbEntity
  8
IGES_LEVEL_0
 62
     7
100
AcDbLine
 10
37.15783326109986
 20
24.1715999001797
 30
0.0
 11
37.10365884227986
 21
24.0476586145697
 31
0.0
  0
ARC
  5
2F9
330
1F
100
AcDbEntity
  8
IGES_LEVEL_0
 62
     7
100
AcDbCircle
 10
37.84153654405502
 20
25.97685722192098
 30
0.0
 40
0.0204799477674622
100
AcDbArc
 50
139.4285334390777
 51
169.8782280593582
  0
LINE
  5
2FA
330
1F
100
AcDbEntity
  8
IGES_LEVEL_0
 62
     7
100
AcDbLine
 10
37.76114852736986
 20
25.5701898653497
 30
0.0
 11
37.82137245153986
 21
25.9804569136997
 31
0.0
  0
LINE
  5
2FB
330
1F
100
AcDbEntity
  8
IGES_LEVEL_0
 62
     7
100
AcDbLine
 10
37.65883728477986
 20
25.1542615412197
 30
0.0
 11
37.67504809429986
 21
25.2046353635797
 31
0.0
  0
LINE
  5
2FC
330
1F
100
AcDbEntity
  8
IGES_LEVEL_0
 62
     7
100
AcDbLine
 10
37.67504809429986
 20
25.2046353635797
 30
0.0
 11
37.68237484835986
 21
25.2286993823197
 31
0.0
  0
ARC
  5
2FD
330
1F
100
AcDbEntity
  8
IGES_LEVEL_0
 62
     7
100
AcDbCircle
 10
34.96427182733426
 20
26.0355526499952
 30
0.0
 40
2.835330003450589
100
AcDbArc
 50
343.4667810085878
 51
350.5532918074553
  0
LINE
  5
2FE
330
1F
100
AcDbEntity
  8
IGES_LEVEL_0
 62
     7
100
AcDbLine
 10
37.62296493179986
 20
25.0540747310697
 30
0.0
 11
37.65883902782986
 21
25.1542609594397
 31
0.0
  0
ARC
  5
2FF
330
1F
100
AcDbEntity
  8
IGES_LEVEL_0
 62
     7
100
AcDbCircle
 10
38.15600308713403
 20
25.36856949282982
 30
0.0
 40
0.7013929607456192
100
AcDbArc
 50
70.48514713651085
 51
113.448276276635
  0
LINE
  5
300
330
1F
100
AcDbEntity
  8
IGES_LEVEL_0
 62
     7
100
AcDbLine
 10
37.87690407688986
 20
26.0120411921797
 30
0.0
 11
37.82551956650986
 21
25.9907541791897
 31
0.0
  0
ARC
  5
301
330
1F
100
AcDbEntity
  8
IGES_LEVEL_0
 62
     7
100
AcDbCircle
 10
27.04657545556551
 20
30.06486943732609
 30
0.0
 40
11.7033750841844
100
AcDbArc
 50
329.7644801421167
 51
334.6472987313405
  0
ARC
  5
302
330
1F
100
AcDbEntity
  8
IGES_LEVEL_0
 62
     7
100
AcDbCircle
 10
37.54375974871987
 20
22.30942193129721
 30
0.0
 40
0.8648700840498071
100
AcDbArc
 50
70.05737987475099
 51
79.25328645517314
  0
LINE
  5
303
330
1F
100
AcDbEntity
  8
IGES_LEVEL_0
 62
     7
100
AcDbLine
 10
37.70503006927986
 20
23.1591231411297
 30
0.0
 11
37.00110492376986
 21
23.3380418106497
 31
0.0
  0
LINE
  5
304
330
1F
100
AcDbEntity
  8
IGES_LEVEL_0
 62
     7
100
AcDbLine
 10
37.00110492376986
 20
23.3380418106497
 30
0.0
 11
36.93507811592986
 21
23.3529700904797
 31
0.0
  0
LINE
  5
305
330
1F
100
AcDbEntity
  8
IGES_LEVEL_0
 62
     7
100
AcDbLine
 10
36.93507811592986
 20
23.3529700904797
 30
0.0
 11
36.89273630136986
 21
23.3618452326497
 31
0.0
  0
LINE
  5
306
330
1F
100
AcDbEntity
  8
IGES_LEVEL_0
 62
     7
100
AcDbLine
 10
38.20991299533986
 20
24.6049654453997
 30
0.0
 11
38.17449553704986
 21
24.5067857072097
 31
0.0
  0
LINE
  5
307
330
1F
100
AcDbEntity
  8
IGES_LEVEL_0
 62
     7
100
AcDbLine
 10
38.33961666165986
 20
25.2661466427397
 30
0.0
 11
38.36264402903986
 21
25.4224494437497
 31
0.0
  0
LINE
  5
308
330
1F
100
AcDbEntity
  8
IGES_LEVEL_0
 62
     7
100
AcDbLine
 10
38.36264569344986
 20
25.4224461798897
 30
0.0
 11
38.36935314726986
 21
25.4650396757297
 31
0.0
  0
LINE
  5
309
330
1F
100
AcDbEntity
  8
IGES_LEVEL_0
 62
     7
100
AcDbLine
 10
38.36935314726986
 20
25.4650396757297
 30
0.0
 11
38.37371254122986
 21
25.4938287046397
 31
0.0
  0
LINE
  5
30A
330
1F
100
AcDbEntity
  8
IGES_LEVEL_0
 62
     7
100
AcDbLine
 10
38.37574503149986
 20
25.5075376398997
 30
0.0
 11
38.39404402101986
 21
25.6388599239297
 31
0.0
  0
ARC
  5
30B
330
1F
100
AcDbEntity
  8
IGES_LEVEL_0
 62
     7
100
AcDbCircle
 10
37.95569856800173
 20
24.98359642567316
 30
0.0
 40
0.3257173035297186
100
AcDbArc
 50
88.30441415765341
 51
139.6486396914485
  0
ARC
  5
30C
330
1F
100
AcDbEntity
  8
IGES_LEVEL_0
 62
     7
100
AcDbCircle
 10
38.02120116764635
 20
24.91264353089972
 30
0.0
 40
0.4217374094952349
100
AcDbArc
 50
138.064188989623
 51
147.675214013352
  0
ARC
  5
30D
330
1F
100
AcDbEntity
  8
IGES_LEVEL_0
 62
     7
100
AcDbCircle
 10
38.06997738434043
 20
24.88400327511032
 30
0.0
 40
0.4782729574803096
100
AcDbArc
 50
147.9003886644125
 51
159.2296303273073
  0
ARC
  5
30E
330
1F
100
AcDbEntity
  8
IGES_LEVEL_0
 62
     7
100
AcDbCircle
 10
37.96043055875987
 20
25.06324990509173
 30
0.0
 40
0.2459701476327182
100
AcDbArc
 50
55.66004502036549
 51
88.85719150357188
  0
ARC
  5
30F
330
1F
100
AcDbEntity
  8
IGES_LEVEL_0
 62
     7
100
AcDbCircle
 10
37.91366737564628
 20
24.96949054937575
 30
0.0
 40
0.3500582044932458
100
AcDbArc
 50
19.55661223782952
 51
57.99752061220905
  0
ARC
  5
310
330
1F
100
AcDbEntity
  8
IGES_LEVEL_0
 62
     7
100
AcDbCircle
 10
37.84337292507741
 20
24.9409353757628
 30
0.0
 40
0.4258693517853953
100
AcDbArc
 50
10.79334367693285
 51
20.0110379039781
  0
ARC
  5
311
330
1F
100
AcDbEntity
  8
IGES_LEVEL_0
 62
     7
100
AcDbCircle
 10
53.46655030283653
 20
17.92654141263206
 30
0.0
 40
0.608712154543325
100
AcDbArc
 50
129.0875943572582
 51
181.0033790632843
  0
ARC
  5
312
330
1F
100
AcDbEntity
  8
IGES_LEVEL_0
 62
     7
100
AcDbCircle
 10
53.35661971258957
 20
18.04689196489023
 30
0.0
 40
0.4460860040854368
100
AcDbArc
 50
89.84767515053926
 51
127.8744684858488
  0
LINE
  5
313
330
1F
100
AcDbEntity
  8
IGES_LEVEL_0
 62
     7
100
AcDbLine
 10
54.30775863053986
 20
0.366793955408704
 30
0.0
 11
54.34035836897986
 21
0.3684346149317038
 31
0.0
  0
LINE
  5
314
330
1F
100
AcDbEntity
  8
IGES_LEVEL_0
 62
     7
100
AcDbLine
 10
54.34035836897986
 20
0.3684346149317038
 30
0.0
 11
54.76155127333986
 21
0.384001131624704
 31
0.0
  0
SPLINE
  5
315
330
1F
100
AcDbEntity
  8
IGES_LEVEL_0
 62
     7
100
AcDbSpline
210
0.0
220
0.0
230
1.0
 70
     8
 71
     3
 72
    30
 73
    26
 74
     0
 42
0.0000000001
 43
0.0000000001
 40
0.0
 40
0.0
 40
0.0
 40
0.0
 40
0.04754166337761
 40
0.09830221485724
 40
0.1501759318989
 40
0.2013720711452
 40
0.2506794456407
 40
0.2981143989075
 40
0.34354482802
 40
0.386880947681
 40
0.4282505358879
 40
0.4677060342562
 40
0.5053370994497
 40
0.5415663004349
 40
0.5790568778987
 40
0.6175498367308
 40
0.658009816479
 40
0.7007422165323
 40
0.7455808266847001
 40
0.7920209598663
 40
0.8401457993445
 40
0.8899758209064
 40
0.9411370303212
 40
0.9928233907518
 40
1.0
 40
1.0
 40
1.0
 40
1.0
 10
36.33114520467986
 20
17.0531994381597
 30
0.0
 10
36.33430895866986
 20
17.0663342058997
 30
0.0
 10
36.33707787599986
 20
17.0943886786197
 30
0.0
 10
36.33467755522986
 20
17.1370659307597
 30
0.0
 10
36.32787219710986
 20
17.1803072528197
 30
0.0
 10
36.31819374425986
 20
17.2225364347397
 30
0.0
 10
36.30677763620986
 20
17.2630116111197
 30
0.0
 10
36.29440658816986
 20
17.3014794097097
 30
0.0
 10
36.28161709161986
 20
17.3380166172397
 30
0.0
 10
36.26891199953986
 20
17.3727383412297
 30
0.0
 10
36.25680641386986
 20
17.4059146947097
 30
0.0
 10
36.24647958239986
 20
17.4378588932897
 30
0.0
 10
36.23984028352986
 20
17.4698904894797
 30
0.0
 10
36.24779851604986
 20
17.5017767235297
 30
0.0
 10
36.26755445438986
 20
17.5272867685897
 30
0.0
 10
36.29014582460986
 20
17.5513791361897
 30
0.0
 10
36.31474731001986
 20
17.5757152753797
 30
0.0
 10
36.34070090041986
 20
17.6012044404697
 30
0.0
 10
36.36762329898986
 20
17.6281446397097
 30
0.0
 10
36.39508880225986
 20
17.6566978966397
 30
0.0
 10
36.42273287981986
 20
17.6870319534797
 30
0.0
 10
36.45014225820986
 20
17.7193657207797
 30
0.0
 10
36.47660245058986
 20
17.7537768332497
 30
0.0
 10
36.49402681539986
 20
17.7797799131297
 30
0.0
 10
36.50258275044986
 20
17.7941600328397
 30
0.0
 10
36.50361341011986
 20
17.7959205973097
 30
0.0
  0
ARC
  5
316
330
1F
100
AcDbEntity
  8
IGES_LEVEL_0
 62
     7
100
AcDbCircle
 10
36.28194746818867
 20
17.93384102326218
 30
0.0
 40
0.2608962361094026
100
AcDbArc
 50
329.9292292593275
 51
344.3106176220987
  0
ARC
  5
317
330
1F
100
AcDbEntity
  8
IGES_LEVEL_0
 62
     7
100
AcDbCircle
 10
53.36822242057334
 20
17.58710356171654
 30
0.0
 40
0.510492130948091
100
AcDbArc
 50
180.1211631640689
 51
197.7063275147984
  0
ARC
  5
318
330
1F
100
AcDbEntity
  8
IGES_LEVEL_0
 62
     7
100
AcDbCircle
 10
54.61361481227146
 20
-8.361246259503398
 30
0.0
 40
8.732130238114067
100
AcDbArc
 50
92.69696451132344
 51
95.48190362885732
  0
LINE
  5
319
330
1F
100
AcDbEntity
  8
IGES_LEVEL_0
 62
     7
100
AcDbLine
 10
54.21452657682986
 20
0.3618584123927041
 30
0.0
 11
54.25456470935986
 21
0.3640152588977038
 31
0.0
  0
LINE
  5
31A
330
1F
100
AcDbEntity
  8
IGES_LEVEL_0
 62
     7
100
AcDbLine
 10
54.25456470935986
 20
0.3640152588977038
 30
0.0
 11
54.30775863053986
 21
0.366793955408704
 31
0.0
  0
ARC
  5
31B
330
1F
100
AcDbEntity
  8
IGES_LEVEL_0
 62
     7
100
AcDbCircle
 10
32.12397772946819
 20
0.233095913004538
 30
0.0
 40
0.0142873594304979
100
AcDbArc
 50
10.06755077953999
 51
99.62083687354226
  0
ARC
  5
31C
330
1F
100
AcDbEntity
  8
IGES_LEVEL_0
 62
     7
100
AcDbCircle
 10
32.1256221971056
 20
0.6092775178294797
 30
0.0
 40
0.3621176434172579
100
AcDbArc
 50
261.5112374775179
 51
269.3619831681338
  0
LINE
  5
31D
330
1F
100
AcDbEntity
  8
IGES_LEVEL_0
 62
     7
100
AcDbLine
 10
32.05990727823986
 20
0.2536836712937042
 30
0.0
 11
32.03561990350986
 21
0.2611492530227041
 31
0.0
  0
ARC
  5
31E
330
1F
100
AcDbEntity
  8
IGES_LEVEL_0
 62
     7
100
AcDbCircle
 10
31.82289760134557
 20
-0.1776421098577724
 30
0.0
 40
0.4866594858961581
100
AcDbArc
 50
66.05072388965425
 51
74.96858340992442
  0
LINE
  5
31F
330
1F
100
AcDbEntity
  8
IGES_LEVEL_0
 62
     7
100
AcDbLine
 10
31.94911207980985
 20
0.2923657205437044
 30
0.0
 11
31.89546746466986
 21
0.3055816235177037
 31
0.0
  0
LINE
  5
320
330
1F
100
AcDbEntity
  8
IGES_LEVEL_0
 62
     7
100
AcDbLine
 10
31.89546746466986
 20
0.3055816235177037
 30
0.0
 11
31.77857617176986
 21
0.3328444522037038
 31
0.0
  0
LINE
  5
321
330
1F
100
AcDbEntity
  8
IGES_LEVEL_0
 62
     7
100
AcDbLine
 10
31.77857617176986
 20
0.3328444522037038
 30
0.0
 11
31.71572797686986
 21
0.3491043488417039
 31
0.0
  0
LINE
  5
322
330
1F
100
AcDbEntity
  8
IGES_LEVEL_0
 62
     7
100
AcDbLine
 10
31.71572797686986
 20
0.3491043488417039
 30
0.0
 11
31.65289290960986
 21
0.365244859635704
 31
0.0
  0
LINE
  5
323
330
1F
100
AcDbEntity
  8
IGES_LEVEL_0
 62
     7
100
AcDbLine
 10
31.65289290960986
 20
0.365244859635704
 30
0.0
 11
31.48455812696986
 21
0.4062682127487042
 31
0.0
  0
LINE
  5
324
330
1F
100
AcDbEntity
  8
IGES_LEVEL_0
 62
     7
100
AcDbLine
 10
31.46723320531985
 20
0.4108566808887039
 30
0.0
 11
31.41123250319986
 21
0.426241671816704
 31
0.0
  0
ARC
  5
325
330
1F
100
AcDbEntity
  8
IGES_LEVEL_0
 62
     7
100
AcDbCircle
 10
31.22938957211763
 20
-0.1667765245733961
 30
0.0
 40
0.6202720635610989
100
AcDbArc
 50
72.95238048286051
 51
86.46777812940478
  0
ARC
  5
326
330
1F
100
AcDbEntity
  8
IGES_LEVEL_0
 62
     7
100
AcDbCircle
 10
31.02434368368318
 20
-0.2848682123280212
 30
0.0
 40
0.7757115428968089
100
AcDbArc
 50
71.99458439256694
 51
79.3471018199194
  0
ARC
  5
327
330
1F
100
AcDbEntity
  8
IGES_LEVEL_0
 62
     7
100
AcDbCircle
 10
18.17011288847713
 20
40.44569487603405
 30
0.0
 40
0.498733272988831
100
AcDbArc
 50
2.918794839060908
 51
18.42070561257725
  0
ARC
  5
328
330
1F
100
AcDbEntity
  8
IGES_LEVEL_0
 62
     7
100
AcDbCircle
 10
18.16982057542633
 20
40.44568881513079
 30
0.0
 40
0.4990255155267351
100
AcDbArc
 50
352.5874781670874
 51
2.917780824442361
  0
LINE
  5
329
330
1F
100
AcDbEntity
  8
IGES_LEVEL_0
 62
     7
100
AcDbLine
 10
18.64155606846986
 20
40.60850163802971
 30
0.0
 11
18.64992884809986
 21
40.5806795282797
 31
0.0
  0
LINE
  5
32A
330
1F
100
AcDbEntity
  8
IGES_LEVEL_0
 62
     7
100
AcDbLine
 10
18.66149809854986
 20
40.5254691060597
 30
0.0
 11
18.66652720938986
 21
40.47472104461971
 31
0.0
  0
LINE
  5
32B
330
1F
100
AcDbEntity
  8
IGES_LEVEL_0
 62
     7
100
AcDbLine
 10
18.66652720938986
 20
40.47472104461971
 30
0.0
 11
18.66627377909986
 21
40.42241546599971
 31
0.0
  0
LINE
  5
32C
330
1F
100
AcDbEntity
  8
IGES_LEVEL_0
 62
     7
100
AcDbLine
 10
18.66600623033986
 20
40.41808233249971
 30
0.0
 11
18.66200452549986
 21
40.37991664882971
 31
0.0
  0
ARC
  5
32D
330
1F
100
AcDbEntity
  8
IGES_LEVEL_0
 62
     7
100
AcDbCircle
 10
18.16700230834918
 20
40.45140634229954
 30
0.0
 40
0.5001379522256764
100
AcDbArc
 50
284.2993367221317
 51
351.7819956503665
  0
ARC
  5
32E
330
1F
100
AcDbEntity
  8
IGES_LEVEL_0
 62
     7
100
AcDbCircle
 10
1.204517383548447
 20
40.44568881562464
 30
0.0
 40
0.4990255236197353
100
AcDbArc
 50
177.0824299702723
 51
187.412652242689
  0
ARC
  5
32F
330
1F
100
AcDbEntity
  8
IGES_LEVEL_0
 62
     7
100
AcDbCircle
 10
1.204225064634441
 20
40.44569487556645
 30
0.0
 40
0.4987332752427036
100
AcDbArc
 50
161.579294417042
 51
177.0814159345824
  0
ARC
  5
330
330
1F
100
AcDbEntity
  8
IGES_LEVEL_0
 62
     7
100
AcDbCircle
 10
1.207335642546963
 20
40.45140634230562
 30
0.0
 40
0.5001379522319291
100
AcDbArc
 50
188.2180043502349
 51
255.7006632778817
  0
LINE
  5
331
330
1F
100
AcDbEntity
  8
IGES_LEVEL_0
 62
     7
100
AcDbLine
 10
0.7123334253908643
 20
40.37991664882971
 30
0.0
 11
0.7083317205498622
 21
40.41808233249971
 31
0.0
  0
LINE
  5
332
330
1F
100
AcDbEntity
  8
IGES_LEVEL_0
 62
     7
100
AcDbLine
 10
0.7080641717958519
 20
40.42241546599971
 30
0.0
 11
0.7078107415028659
 21
40.47472104461971
 31
0.0
  0
LINE
  5
333
330
1F
100
AcDbEntity
  8
IGES_LEVEL_0
 62
     7
100
AcDbLine
 10
0.7078107415028659
 20
40.47472104461971
 30
0.0
 11
0.7128398523398521
 21
40.5254691060597
 31
0.0
  0
LINE
  5
334
330
1F
100
AcDbEntity
  8
IGES_LEVEL_0
 62
     7
100
AcDbLine
 10
0.724409102795858
 20
40.5806795282797
 30
0.0
 11
0.7327818824218587
 21
40.60850163802971
 31
0.0
  0
LINE
  5
335
330
1F
100
AcDbEntity
  8
IGES_LEVEL_0
 62
     7
100
AcDbLine
 10
18.89431281196986
 20
63.61343527350971
 30
0.0
 11
18.91790992531986
 21
63.61148754751971
 31
0.0
  0
LINE
  5
336
330
1F
100
AcDbEntity
  8
IGES_LEVEL_0
 62
     7
100
AcDbLine
 10
18.91790992531986
 20
63.61148754751971
 30
0.0
 11
18.94051352916986
 21
63.60855038596971
 31
0.0
  0
ARC
  5
337
330
1F
100
AcDbEntity
  8
IGES_LEVEL_0
 62
     7
100
AcDbCircle
 10
18.86485640715834
 20
63.12005537071617
 30
0.0
 40
0.4943191074990156
100
AcDbArc
 50
21.64630790868696
 51
81.19609425477593
  0
LINE
  5
338
330
1F
100
AcDbEntity
  8
IGES_LEVEL_0
 62
     7
100
AcDbLine
 10
19.32771624467986
 20
63.29365543798971
 30
0.0
 11
19.33966451337986
 21
63.25820467029971
 31
0.0
  0
LINE
  5
339
330
1F
100
AcDbEntity
  8
IGES_LEVEL_0
 62
     7
100
AcDbLine
 10
19.33966451337986
 20
63.25820467029971
 30
0.0
 11
19.34549028835986
 21
63.2368980756597
 31
0.0
  0
LINE
  5
33A
330
1F
100
AcDbEntity
  8
IGES_LEVEL_0
 62
     7
100
AcDbLine
 10
19.34947979895986
 20
63.21970566548971
 30
0.0
 11
19.35454768948986
 21
63.1923871436497
 31
0.0
  0
LINE
  5
33B
330
1F
100
AcDbEntity
  8
IGES_LEVEL_0
 62
     7
100
AcDbLine
 10
19.35635028279986
 20
63.1799261611397
 30
0.0
 11
19.36010160171986
 21
63.1384811290197
 31
0.0
  0
LINE
  5
33C
330
1F
100
AcDbEntity
  8
IGES_LEVEL_0
 62
     7
100
AcDbLine
 10
19.36073091077986
 20
63.11349499403971
 30
0.0
 11
19.36009094349986
 21
63.1384806119997
 31
0.0
  0
LINE
  5
33D
330
1F
100
AcDbEntity
  8
IGES_LEVEL_0
 62
     7
100
AcDbLine
 10
19.36009094349986
 20
63.1384806119997
 30
0.0
 11
19.35636287876985
 21
63.17992768116971
 31
0.0
  0
LINE
  5
33E
330
1F
100
AcDbEntity
  8
IGES_LEVEL_0
 62
     7
100
AcDbLine
 10
19.35458342050986
 20
63.1923920749397
 30
0.0
 11
19.34958813829986
 21
63.2197278052297
 31
0.0
  0
LINE
  5
33F
330
1F
100
AcDbEntity
  8
IGES_LEVEL_0
 62
     7
100
AcDbLine
 10
19.34565283897986
 20
63.23693769756971
 30
0.0
 11
19.33989722801986
 21
63.25827200033971
 31
0.0
  0
LINE
  5
340
330
1F
100
AcDbEntity
  8
IGES_LEVEL_0
 62
     7
100
AcDbLine
 10
19.33989722801986
 20
63.25827200033971
 30
0.0
 11
19.32806617483986
 21
63.2937858378297
 31
0.0
  0
ARC
  5
341
330
1F
100
AcDbEntity
  8
IGES_LEVEL_0
 62
     7
100
AcDbCircle
 10
18.86401920101347
 20
63.1224322154566
 30
0.0
 40
0.4946341897737738
100
AcDbArc
 50
21.35454724738668
 51
80.98309593617243
  0
LINE
  5
342
330
1F
100
AcDbEntity
  8
IGES_LEVEL_0
 62
     7
100
AcDbLine
 10
18.94154116853985
 20
63.6109537873897
 30
0.0
 11
18.89320988903986
 21
63.6160676475297
 31
0.0
  0
LINE
  5
343
330
1F
100
AcDbEntity
  8
IGES_LEVEL_0
 62
     7
100
AcDbLine
 10
18.88851510079986
 20
63.61630877758971
 30
0.0
 11
18.84378560197986
 21
63.6163611612897
 31
0.0
  0
LINE
  5
344
330
1F
100
AcDbEntity
  8
IGES_LEVEL_0
 62
     7
100
AcDbLine
 10
18.84378560197986
 20
63.6163611612897
 30
0.0
 11
18.79908337400986
 21
63.6123658617997
 31
0.0
  0
ARC
  5
345
330
1F
100
AcDbEntity
  8
IGES_LEVEL_0
 62
     7
100
AcDbCircle
 10
18.87245314641643
 20
63.10289376464333
 30
0.0
 40
0.5147280265187629
100
AcDbArc
 50
98.19490130112423
 51
169.7809491189998
  0
LINE
  5
346
330
1F
100
AcDbEntity
  8
IGES_LEVEL_0
 62
     7
100
AcDbLine
 10
18.35417679244986
 20
63.0614668531797
 30
0.0
 11
18.35407962609986
 21
63.09497717397971
 31
0.0
  0
LINE
  5
347
330
1F
100
AcDbEntity
  8
IGES_LEVEL_0
 62
     7
100
AcDbLine
 10
18.35407962609986
 20
63.09497717397971
 30
0.0
 11
18.35764481184986
 21
63.1393094665297
 31
0.0
  0
LINE
  5
348
330
1F
100
AcDbEntity
  8
IGES_LEVEL_0
 62
     7
100
AcDbLine
 10
19.35704921865986
 20
63.01556796581971
 30
0.0
 11
19.35154919411986
 21
62.9820062141897
 31
0.0
  0
LINE
  5
349
330
1F
100
AcDbEntity
  8
IGES_LEVEL_0
 62
     7
100
AcDbLine
 10
19.36079321181986
 20
63.07634494137971
 30
0.0
 11
19.35955675211985
 21
63.04076153229971
 31
0.0
  0
LINE
  5
34A
330
1F
100
AcDbEntity
  8
IGES_LEVEL_0
 62
     7
100
AcDbLine
 10
19.35955675211985
 20
63.04076153229971
 30
0.0
 11
19.35704921865986
 21
63.01556796581971
 31
0.0
  0
ARC
  5
34B
330
1F
100
AcDbEntity
  8
IGES_LEVEL_0
 62
     7
100
AcDbCircle
 10
18.86326850792678
 20
63.06785617815313
 30
0.0
 40
0.4975971162346277
100
AcDbArc
 50
0.9774853682430209
 51
86.81674638824002
  0
ARC
  5
34C
330
1F
100
AcDbEntity
  8
IGES_LEVEL_0
 62
     7
100
AcDbCircle
 10
18.84700216443976
 20
63.07099981742108
 30
0.0
 40
0.4941835528705652
100
AcDbArc
 50
95.44544888811248
 51
171.2004025252113
  0
LINE
  5
34D
330
1F
100
AcDbEntity
  8
IGES_LEVEL_0
 62
     7
100
AcDbLine
 10
18.80010513562986
 20
63.56295312070971
 30
0.0
 11
18.85464749205986
 21
63.56590381515971
 31
0.0
  0
LINE
  5
34E
330
1F
100
AcDbEntity
  8
IGES_LEVEL_0
 62
     7
100
AcDbLine
 10
18.85464749205986
 20
63.56590381515971
 30
0.0
 11
18.89089991592986
 21
63.56468552045971
 31
0.0
  0
LINE
  5
34F
330
1F
100
AcDbEntity
  8
IGES_LEVEL_0
 62
     7
100
AcDbLine
 10
0.4800251425068586
 20
63.61343527375971
 30
0.0
 11
0.503663460935852
 21
63.61479442673971
 31
0.0
  0
LINE
  5
350
330
1F
100
AcDbEntity
  8
IGES_LEVEL_0
 62
     7
100
AcDbLine
 10
0.503663460935852
 20
63.61479442673971
 30
0.0
 11
0.5264558230988546
 21
63.61503536602971
 31
0.0
  0
ARC
  5
351
330
1F
100
AcDbEntity
  8
IGES_LEVEL_0
 62
     7
100
AcDbCircle
 10
0.520391138860956
 20
63.12640133489082
 30
0.0
 40
0.4886716656221747
100
AcDbArc
 50
81.92854371075791
 51
89.28890959736533
  0
ARC
  5
352
330
1F
100
AcDbEntity
  8
IGES_LEVEL_0
 62
     7
100
AcDbCircle
 10
0.5192075906226114
 20
63.12027701688035
 30
0.0
 40
0.4949015924214519
100
AcDbArc
 50
29.68207409403961
 51
81.89243203607984
  0
LINE
  5
353
330
1F
100
AcDbEntity
  8
IGES_LEVEL_0
 62
     7
100
AcDbLine
 10
0.9537571154688583
 20
63.3571625743097
 30
0.0
 11
0.9705283307538627
 21
63.32372241294971
 31
0.0
  0
LINE
  5
354
330
1F
100
AcDbEntity
  8
IGES_LEVEL_0
 62
     7
100
AcDbLine
 10
0.9705283307538627
 20
63.32372241294971
 30
0.0
 11
0.9792660105688616
 21
63.30343538307971
 31
0.0
  0
LINE
  5
355
330
1F
100
AcDbEntity
  8
IGES_LEVEL_0
 62
     7
100
AcDbLine
 10
0.9856120922348571
 20
63.28696655161971
 30
0.0
 11
0.9944369461798578
 21
63.26062063916971
 31
0.0
  0
LINE
  5
356
330
1F
100
AcDbEntity
  8
IGES_LEVEL_0
 62
     7
100
AcDbLine
 10
0.9979581943098571
 20
63.24853237050971
 30
0.0
 11
1.007447622141851
 21
63.2080143024297
 31
0.0
  0
LINE
  5
357
330
1F
100
AcDbEntity
  8
IGES_LEVEL_0
 62
     7
100
AcDbLine
 10
1.011552210252857
 20
63.18335958021971
 30
0.0
 11
1.007437139927857
 21
63.20801230538971
 31
0.0
  0
LINE
  5
358
330
1F
100
AcDbEntity
  8
IGES_LEVEL_0
 62
     7
100
AcDbLine
 10
1.007437139927857
 20
63.20801230538971
 30
0.0
 11
0.9979704556228602
 21
63.2485356307597
 31
0.0
  0
LINE
  5
359
330
1F
100
AcDbEntity
  8
IGES_LEVEL_0
 62
     7
100
AcDbLine
 10
0.9944716415618563
 20
63.26063050089971
 30
0.0
 11
0.9857162899618549
 21
63.28700357073971
 31
0.0
  0
LINE
  5
35A
330
1F
100
AcDbEntity
  8
IGES_LEVEL_0
 62
     7
100
AcDbLine
 10
0.9794214548968631
 20
63.30349726731971
 30
0.0
 11
0.9707493940078654
 21
63.3238215112797
 31
0.0
  0
LINE
  5
35B
330
1F
100
AcDbEntity
  8
IGES_LEVEL_0
 62
     7
100
AcDbLine
 10
0.9707493940078654
 20
63.3238215112797
 30
0.0
 11
0.9540854630858581
 21
63.35734045932971
 31
0.0
  0
ARC
  5
35C
330
1F
100
AcDbEntity
  8
IGES_LEVEL_0
 62
     7
100
AcDbCircle
 10
0.5178371525563511
 20
63.12232778191173
 30
0.0
 40
0.4954900756085559
100
AcDbArc
 50
29.39747384410255
 51
83.65646246665575
  0
LINE
  5
35D
330
1F
100
AcDbEntity
  8
IGES_LEVEL_0
 62
     7
100
AcDbLine
 10
0.5725836348448586
 20
63.6147841126697
 30
0.0
 11
0.5271385628218587
 21
63.61755850841971
 31
0.0
  0
LINE
  5
35E
330
1F
100
AcDbEntity
  8
IGES_LEVEL_0
 62
     7
100
AcDbLine
 10
0.5271385628218587
 20
63.61755850841971
 30
0.0
 11
0.4785661989418605
 21
63.61588829549971
 31
0.0
  0
LINE
  5
35F
330
1F
100
AcDbEntity
  8
IGES_LEVEL_0
 62
     7
100
AcDbLine
 10
0.4738836086608534
 20
63.6154729298997
 30
0.0
 11
0.4295831273628584
 21
63.60929246343971
 31
0.0
  0
ARC
  5
360
330
1F
100
AcDbEntity
  8
IGES_LEVEL_0
 62
     7
100
AcDbCircle
 10
0.5285644504295964
 20
63.10498875221655
 30
0.0
 40
0.5139256127782423
100
AcDbArc
 50
101.1044710540223
 51
180.312217638625
  0
LINE
  5
361
330
1F
100
AcDbEntity
  8
IGES_LEVEL_0
 62
     7
100
AcDbLine
 10
0.022065867415859
 20
62.99159175727971
 30
0.0
 11
0.0173005224528543
 21
63.02476166123971
 31
0.0
  0
LINE
  5
362
330
1F
100
AcDbEntity
  8
IGES_LEVEL_0
 62
     7
100
AcDbLine
 10
0.0173005224528543
 20
63.02476166123971
 30
0.0
 11
0.0146539365428543
 21
63.06915826353971
 31
0.0
  0
LINE
  5
363
330
1F
100
AcDbEntity
  8
IGES_LEVEL_0
 62
     7
100
AcDbLine
 10
1.021550994188855
 20
63.0858748017497
 30
0.0
 11
1.020780912440853
 21
63.0518740897497
 31
0.0
  0
LINE
  5
364
330
1F
100
AcDbEntity
  8
IGES_LEVEL_0
 62
     7
100
AcDbLine
 10
1.016790168349855
 20
63.14658059042971
 30
0.0
 11
1.020585916429864
 21
63.11023878742971
 31
0.0
  0
LINE
  5
365
330
1F
100
AcDbEntity
  8
IGES_LEVEL_0
 62
     7
100
AcDbLine
 10
1.020585916429864
 20
63.11023878742971
 30
0.0
 11
1.021550994188855
 21
63.0858748017497
 31
0.0
  0
LINE
  5
366
330
1F
100
AcDbEntity
  8
IGES_LEVEL_0
 62
     7
100
AcDbLine
 10
0.4834380349628565
 20
63.56468552045971
 30
0.0
 11
0.529800713275859
 21
63.56588501854971
 31
0.0
  0
LINE
  5
367
330
1F
100
AcDbEntity
  8
IGES_LEVEL_0
 62
     7
100
AcDbLine
 10
0.529800713275859
 20
63.56588501854971
 30
0.0
 11
0.5752802017678652
 21
63.56302894009971
 31
0.0
  0
ARC
  5
368
330
1F
100
AcDbEntity
  8
IGES_LEVEL_0
 62
     7
100
AcDbCircle
 10
0.5285306754527829
 20
63.07120199149864
 30
0.0
 40
0.4940437891330272
100
AcDbArc
 50
8.776165672810796
 51
84.57018961904946
  0
ARC
  5
369
330
1F
100
AcDbEntity
  8
IGES_LEVEL_0
 62
     7
100
AcDbCircle
 10
0.5121865698203801
 20
63.06787414857087
 30
0.0
 40
0.4976424594972987
100
AcDbArc
 50
93.31178991618586
 51
179.0050695296736
  0
ARC
  5
36A
330
1F
100
AcDbEntity
  8
IGES_LEVEL_0
 62
     7
100
AcDbCircle
 10
2.207181789309649
 20
57.41320714036677
 30
0.0
 40
1.790052345582151
100
AcDbArc
 50
183.3082592636881
 51
196.4928718638735
  0
LINE
  5
36B
330
1F
100
AcDbEntity
  8
IGES_LEVEL_0
 62
     7
100
AcDbLine
 10
0.4183833416018649
 20
57.33468133372971
 30
0.0
 11
0.4173464410108613
 21
57.37720752949971
 31
0.0
  0
ARC
  5
36C
330
1F
100
AcDbEntity
  8
IGES_LEVEL_0
 62
     7
100
AcDbCircle
 10
0.8874071976448169
 20
57.3671641220667
 30
0.0
 40
0.4701680390670477
100
AcDbArc
 50
171.9243966595944
 51
178.7759937253356
  0
ARC
  5
36D
330
1F
100
AcDbEntity
  8
IGES_LEVEL_0
 62
     7
100
AcDbCircle
 10
0.8935847185842055
 20
57.36633818689181
 30
0.0
 40
0.4764003307434654
100
AcDbArc
 50
165.0659911875127
 51
171.9304186332048
  0
ARC
  5
36E
330
1F
100
AcDbEntity
  8
IGES_LEVEL_0
 62
     7
100
AcDbCircle
 10
0.8981625475098246
 20
57.36455326779754
 30
0.0
 40
0.4812838290924294
100
AcDbArc
 50
142.3148200510803
 51
165.0011226505955
  0
LINE
  5
36F
330
1F
100
AcDbEntity
  8
IGES_LEVEL_0
 62
     7
100
AcDbLine
 10
0.5172833407078604
 20
57.6587728354197
 30
0.0
 11
0.5408925683148572
 21
57.68716012926971
 31
0.0
  0
ARC
  5
370
330
1F
100
AcDbEntity
  8
IGES_LEVEL_0
 62
     7
100
AcDbCircle
 10
0.9116164773208458
 20
57.3539017833924
 30
0.0
 40
0.498495077012363
100
AcDbArc
 50
123.7797104088917
 51
138.0463771426751
  0
ARC
  5
371
330
1F
100
AcDbEntity
  8
IGES_LEVEL_0
 62
     7
100
AcDbCircle
 10
17.16718468744307
 20
57.41320281644159
 30
0.0
 40
1.790023598220479
100
AcDbArc
 50
343.5069446121794
 51
356.6918080887181
  0
LINE
  5
372
330
1F
100
AcDbEntity
  8
IGES_LEVEL_0
 62
     7
100
AcDbLine
 10
18.95595460928986
 20
57.33468133372971
 30
0.0
 11
18.95699150987986
 21
57.37720752949971
 31
0.0
  0
ARC
  5
373
330
1F
100
AcDbEntity
  8
IGES_LEVEL_0
 62
     7
100
AcDbCircle
 10
18.48693075200167
 20
57.36716412202365
 30
0.0
 40
0.4701680403119177
100
AcDbArc
 50
1.224006276670718
 51
8.075603324179905
  0
ARC
  5
374
330
1F
100
AcDbEntity
  8
IGES_LEVEL_0
 62
     7
100
AcDbCircle
 10
18.48075323170634
 20
57.36633818674356
 30
0.0
 40
0.4764003313654287
100
AcDbArc
 50
8.069581374198387
 51
14.93400881099
  0
ARC
  5
375
330
1F
100
AcDbEntity
  8
IGES_LEVEL_0
 62
     7
100
AcDbCircle
 10
18.47617540332588
 20
57.36455326777507
 30
0.0
 40
0.4812838291552459
100
AcDbArc
 50
14.9988773501708
 51
37.68517994652373
  0
LINE
  5
376
330
1F
100
AcDbEntity
  8
IGES_LEVEL_0
 62
     7
100
AcDbLine
 10
18.85705461018986
 20
57.6587728354197
 30
0.0
 11
18.83344538257986
 21
57.68716012926971
 31
0.0
  0
ARC
  5
377
330
1F
100
AcDbEntity
  8
IGES_LEVEL_0
 62
     7
100
AcDbCircle
 10
18.46272148532955
 20
57.35390179596866
 30
0.0
 40
0.498495059862227
100
AcDbArc
 50
41.95362268563353
 51
56.22025197576883
  0
ARC
  5
378
330
1F
100
AcDbEntity
  8
IGES_LEVEL_0
 62
     7
100
AcDbCircle
 10
0.5249586534038974
 20
63.06569631833597
 30
0.0
 40
0.4950079336959519
100
AcDbArc
 50
15.91589577624531
 51
90.59778773908765
  0
ARC
  5
379
330
1F
100
AcDbEntity
  8
IGES_LEVEL_0
 62
     7
100
AcDbCircle
 10
0.5425467859799914
 20
63.07672237218158
 30
0.0
 40
0.4751055697968236
100
AcDbArc
 50
7.469155791765283
 51
15.21880426545903
  0
LINE
  5
37A
330
1F
100
AcDbEntity
  8
IGES_LEVEL_0
 62
     7
100
AcDbLine
 10
1.013621077540859
 20
63.13848250723971
 30
0.0
 11
1.016480219638863
 21
63.10997686478971
 31
0.0
  0
ARC
  5
37B
330
1F
100
AcDbEntity
  8
IGES_LEVEL_0
 62
     7
100
AcDbCircle
 10
18.84814348340278
 20
63.06825984694275
 30
0.0
 40
0.4924590563761381
100
AcDbArc
 50
89.25532578592124
 51
171.8019101288473
  0
LINE
  5
37C
330
1F
100
AcDbEntity
  8
IGES_LEVEL_0
 62
     7
100
AcDbLine
 10
18.36071687334986
 20
63.13848250723971
 30
0.0
 11
18.35785773125986
 21
63.10997686478971
 31
0.0
  0
ARC
  5
37D
330
1F
100
AcDbEntity
  8
IGES_LEVEL_0
 62
     7
100
AcDbCircle
 10
18.16690351716293
 20
40.45077990692481
 30
0.0
 40
0.5001746698699325
100
AcDbArc
 50
356.5475608856211
 51
18.35510770080915
  0
ARC
  5
37E
330
1F
100
AcDbEntity
  8
IGES_LEVEL_0
 62
     7
100
AcDbCircle
 10
1.207434433577473
 20
40.45077990693486
 30
0.0
 40
0.5001746697165099
100
AcDbArc
 50
161.6448922945732
 51
183.452439116593
  0
LINE
  5
37F
330
1F
100
AcDbEntity
  8
IGES_LEVEL_0
 62
     7
100
AcDbLine
 10
19.35545138633986
 20
63.04107338085971
 30
0.0
 11
19.35657593461986
 21
63.07603235005971
 31
0.0
  0
ARC
  5
380
330
1F
100
AcDbEntity
  8
IGES_LEVEL_0
 62
     7
100
AcDbCircle
 10
18.88676656020853
 20
63.07334692394679
 30
0.0
 40
0.4698170492842683
100
AcDbArc
 50
0.3274985880918216
 51
7.969398264296374
  0
ARC
  5
381
330
1F
100
AcDbEntity
  8
IGES_LEVEL_0
 62
     7
100
AcDbCircle
 10
18.8600258383302
 20
63.06291804768328
 30
0.0
 40
0.4977894496215116
100
AcDbArc
 50
8.731467469704652
 51
90.63099750573863
  0
LINE
  5
382
330
1F
100
AcDbEntity
  8
IGES_LEVEL_0
 62
     7
100
AcDbLine
 10
0.0188865645568631
 20
63.04107338085971
 30
0.0
 11
0.0177595445198596
 21
63.07552512281971
 31
0.0
  0
LINE
  5
383
330
1F
100
AcDbEntity
  8
IGES_LEVEL_0
 62
     7
100
AcDbLine
 10
0.0177595445198596
 20
63.07552512281971
 30
0.0
 11
0.0186628580758542
 21
63.10256088028971
 31
0.0
  0
ARC
  5
384
330
1F
100
AcDbEntity
  8
IGES_LEVEL_0
 62
     7
100
AcDbCircle
 10
0.5135925263263701
 20
63.06431050250461
 30
0.0
 40
0.4964055478288577
100
AcDbArc
 50
89.28418195327846
 51
175.5807106393787
  0
LINE
  5
385
330
1F
100
AcDbEntity
  8
IGES_LEVEL_0
 62
     7
100
AcDbLine
 10
18.95596580298986
 20
57.33482461748971
 30
0.0
 11
18.95706944256986
 21
57.37234019414971
 31
0.0
  0
ARC
  5
386
330
1F
100
AcDbEntity
  8
IGES_LEVEL_0
 62
     7
100
AcDbCircle
 10
18.47934184212396
 20
57.36620542685851
 30
0.0
 40
0.4777669888109791
100
AcDbArc
 50
0.7357267079060994
 51
38.6945805226306
  0
ARC
  5
387
330
1F
100
AcDbEntity
  8
IGES_LEVEL_0
 62
     7
100
AcDbCircle
 10
18.46478577593409
 20
57.3564470100582
 30
0.0
 40
0.495230726773326
100
AcDbArc
 50
38.52292842783632
 51
56.25503641475163
  0
LINE
  5
388
330
1F
100
AcDbEntity
  8
IGES_LEVEL_0
 62
     7
100
AcDbLine
 10
0.4183721479058539
 20
57.33482461748971
 30
0.0
 11
0.4172685083228606
 21
57.37234019414971
 31
0.0
  0
ARC
  5
389
330
1F
100
AcDbEntity
  8
IGES_LEVEL_0
 62
     7
100
AcDbCircle
 10
0.8949961088593573
 20
57.36620542682987
 30
0.0
 40
0.4777669889019487
100
AcDbArc
 50
141.3054194817061
 51
179.264273288798
  0
ARC
  5
38A
330
1F
100
AcDbEntity
  8
IGES_LEVEL_0
 62
     7
100
AcDbCircle
 10
0.9095521893137691
 20
57.35644699600777
 30
0.0
 40
0.4952307467575433
100
AcDbArc
 50
123.7449258788018
 51
141.4770713350073
  0
ENDSEC
  0
SECTION
  2
OBJECTS
  0
DICTIONARY
  5
C
330
0
100
AcDbDictionary
  3
ACAD_GROUP
350
D
  3
ACAD_LAYOUT
350
1A
  3
ACAD_MLINESTYLE
350
17
  3
ACAD_PLOTSETTINGS
350
19
  3
ACDBHEADERROUNDTRIPXREC
350
38B
  0
DICTIONARY
  5
3AB
330
29
100
AcDbDictionary
280
     1
  3
ACAD_XREC_ROUNDTRIP
360
3AC
  0
DICTIONARY
  5
D
102
{ACAD_REACTORS
330
C
102
}
330
C
100
AcDbDictionary
  0
DICTIONARY
  5
1A
102
{ACAD_REACTORS
330
C
102
}
330
C
100
AcDbDictionary
  0
DICTIONARY
  5
17
102
{ACAD_REACTORS
330
C
102
}
330
C
100
AcDbDictionary
  3
STANDARD
350
18
  0
DICTIONARY
  5
19
102
{ACAD_REACTORS
330
C
102
}
330
C
100
AcDbDictionary
  0
DICTIONARY
  5
38B
102
{ACAD_REACTORS
330
C
102
}
330
C
100
AcDbDictionary
  3
CEPSNTYPE
350
394
  3
DIMSTYLEDATA
350
3AA
  3
FINGERPRINTGUID
350
395
  3
HYPERLINKBASE
350
38E
  3
INSUNITS
350
393
  3
LAYOUTDICT
350
390
  3
LWETCUNION
350
392
  3
PLOTSETDICT
350
391
  3
PSVPSCALE
350
397
  3
PUCSBASE
350
39A
  3
PUCSORGBACK
350
3A0
  3
PUCSORGBOTTOM
350
39C
  3
PUCSORGFRONT
350
39F
  3
PUCSORGLEFT
350
39D
  3
PUCSORGRIGHT
350
39E
  3
PUCSORGTOP
350
39B
  3
PUCSORTHOREF
350
398
  3
PUCSORTHOVIEW
350
399
  3
STYLESHEET
350
38F
  3
TSTACKALIGN
350
38C
  3
TSTACKSIZE
350
38D
  3
UCSBASE
350
3A3
  3
UCSORGBACK
350
3A9
  3
UCSORGBOTTOM
350
3A5
  3
UCSORGFRONT
350
3A8
  3
UCSORGLEFT
350
3A6
  3
UCSORGRIGHT
350
3A7
  3
UCSORGTOP
350
3A4
  3
UCSORTHOREF
350
3A1
  3
UCSORTHOVIEW
350
3A2
  3
VERSIONGUID
350
396
  0
XRECORD
  5
3AC
102
{ACAD_REACTORS
330
3AB
102
}
330
3AB
100
AcDbXrecord
102
UCS
 74
     0
 71
     1
 10
0.0
 20
0.0
 30
0.0
 10
1.0
 20
0.0
 30
0.0
 10
0.0
 20
1.0
 30
0.0
146
0.0
 79
     0
102
VIEW
281
     0
  0
MLINESTYLE
  5
18
102
{ACAD_REACTORS
330
17
102
}
330
17
100
AcDbMlineStyle
  2
Standard
 70
     0
  3

 62
   256
 51
90.0
 52
90.0
 71
     2
 49
0.5
 62
   256
  6
BYLAYER
 49
-0.5
 62
   256
  6
BYLAYER
  0
XRECORD
  5
394
102
{ACAD_REACTORS
330
38B
102
}
330
38B
100
AcDbXrecord
 90
        0
  0
XRECORD
  5
3AA
102
{ACAD_REACTORS
330
38B
102
}
330
38B
100
AcDbXrecord
1000
DSTYLE
1002
{
1070
   340
340
11
1002
}
  0
XRECORD
  5
395
102
{ACAD_REACTORS
330
38B
102
}
330
38B
100
AcDbXrecord
  1
{FAEB1C30-E019-11D5-929B-00C0DF256EC4}
  0
XRECORD
  5
38E
102
{ACAD_REACTORS
330
38B
102
}
330
38B
100
AcDbXrecord
  1

  0
XRECORD
  5
393
102
{ACAD_REACTORS
330
38B
102
}
330
38B
100
AcDbXrecord
 90
        1
  0
XRECORD
  5
390
102
{ACAD_REACTORS
330
38B
102
}
330
38B
100
AcDbXrecord
340
1A
  0
XRECORD
  5
392
102
{ACAD_REACTORS
330
38B
102
}
330
38B
100
AcDbXrecord
 90
     2560
  0
XRECORD
  5
391
102
{ACAD_REACTORS
330
38B
102
}
330
38B
100
AcDbXrecord
340
19
  0
XRECORD
  5
397
102
{ACAD_REACTORS
330
38B
102
}
330
38B
100
AcDbXrecord
 40
0.0
  0
XRECORD
  5
39A
102
{ACAD_REACTORS
330
38B
102
}
330
38B
100
AcDbXrecord
340
0
  0
XRECORD
  5
3A0
102
{ACAD_REACTORS
330
38B
102
}
330
38B
100
AcDbXrecord
 10
0.0
 20
0.0
 30
0.0
  0
XRECORD
  5
39C
102
{ACAD_REACTORS
330
38B
102
}
330
38B
100
AcDbXrecord
 10
0.0
 20
0.0
 30
0.0
  0
XRECORD
  5
39F
102
{ACAD_REACTORS
330
38B
102
}
330
38B
100
AcDbXrecord
 10
0.0
 20
0.0
 30
0.0
  0
XRECORD
  5
39D
102
{ACAD_REACTORS
330
38B
102
}
330
38B
100
AcDbXrecord
 10
0.0
 20
0.0
 30
0.0
  0
XRECORD
  5
39E
102
{ACAD_REACTORS
330
38B
102
}
330
38B
100
AcDbXrecord
 10
0.0
 20
0.0
 30
0.0
  0
XRECORD
  5
39B
102
{ACAD_REACTORS
330
38B
102
}
330
38B
100
AcDbXrecord
 10
0.0
 20
0.0
 30
0.0
  0
XRECORD
  5
398
102
{ACAD_REACTORS
330
38B
102
}
330
38B
100
AcDbXrecord
340
0
  0
XRECORD
  5
399
102
{ACAD_REACTORS
330
38B
102
}
330
38B
100
AcDbXrecord
 70
     0
  0
XRECORD
  5
38F
102
{ACAD_REACTORS
330
38B
102
}
330
38B
100
AcDbXrecord
  1

  0
XRECORD
  5
38C
102
{ACAD_REACTORS
330
38B
102
}
330
38B
100
AcDbXrecord
 90
        1
  0
XRECORD
  5
38D
102
{ACAD_REACTORS
330
38B
102
}
330
38B
100
AcDbXrecord
 90
       70
  0
XRECORD
  5
3A3
102
{ACAD_REACTORS
330
38B
102
}
330
38B
100
AcDbXrecord
340
0
  0
XRECORD
  5
3A9
102
{ACAD_REACTORS
330
38B
102
}
330
38B
100
AcDbXrecord
 10
0.0
 20
0.0
 30
0.0
  0
XRECORD
  5
3A5
102
{ACAD_REACTORS
330
38B
102
}
330
38B
100
AcDbXrecord
 10
0.0
 20
0.0
 30
0.0
  0
XRECORD
  5
3A8
102
{ACAD_REACTORS
330
38B
102
}
330
38B
100
AcDbXrecord
 10
0.0
 20
0.0
 30
0.0
  0
XRECORD
  5
3A6
102
{ACAD_REACTORS
330
38B
102
}
330
38B
100
AcDbXrecord
 10
0.0
 20
0.0
 30
0.0
  0
XRECORD
  5
3A7
102
{ACAD_REACTORS
330
38B
102
}
330
38B
100
AcDbXrecord
 10
0.0
 20
0.0
 30
0.0
  0
XRECORD
  5
3A4
102
{ACAD_REACTORS
330
38B
102
}
330
38B
100
AcDbXrecord
 10
0.0
 20
0.0
 30
0.0
  0
XRECORD
  5
3A1
102
{ACAD_REACTORS
330
38B
102
}
330
38B
100
AcDbXrecord
340
0
  0
XRECORD
  5
3A2
102
{ACAD_REACTORS
330
38B
102
}
330
38B
100
AcDbXrecord
 70
     0
  0
XRECORD
  5
396
102
{ACAD_REACTORS
330
38B
102
}
330
38B
100
AcDbXrecord
  1
{FAEB1C32-E019-11D5-929B-00C0DF256EC4}
  0
ENDSEC
  0
EOF
