  0
SECTION
  2
HEADER
  9
$ACADVER
  1
AC1014
  9
$ACADMAINTVER
 70
     9
  9
$DWGCODEPAGE
  3
ANSI_1252
  9
$INSBASE
 10
0.0
 20
0.0
 30
0.0
  9
$EXTMIN
 10
1.000000000000000E+20
 20
1.000000000000000E+20
 30
1.000000000000000E+20
  9
$EXTMAX
 10
-1.000000000000000E+20
 20
-1.000000000000000E+20
 30
-1.000000000000000E+20
  9
$LIMMIN
 10
0.0
 20
0.0
  9
$LIMMAX
 10
12.0
 20
9.0
  9
$ORTHOMODE
 70
     0
  9
$REGENMODE
 70
     1
  9
$FILLMODE
 70
     1
  9
$QTEXTMODE
 70
     0
  9
$MIRRTEXT
 70
     1
  9
$DRAGMODE
 70
     2
  9
$LTSCALE
 40
1.0
  9
$OSMODE
 70
    37
  9
$ATTMODE
 70
     1
  9
$TEXTSIZE
 40
0.2
  9
$TRACEWID
 40
0.05
  9
$TEXTSTYLE
  7
STANDARD
  9
$CLAYER
  8
DEFAULT
  9
$CELTYPE
  6
BYLAYER
  9
$CECOLOR
 62
   256
  9
$CELTSCALE
 40
1.0
  9
$DELOBJ
 70
     1
  9
$DISPSILH
 70
     0
  9
$DIMSCALE
 40
1.0
  9
$DIMASZ
 40
0.18
  9
$DIMEXO
 40
0.0625
  9
$DIMDLI
 40
0.38
  9
$DIMRND
 40
0.0
  9
$DIMDLE
 40
0.0
  9
$DIMEXE
 40
0.18
  9
$DIMTP
 40
0.0
  9
$DIMTM
 40
0.0
  9
$DIMTXT
 40
0.18
  9
$DIMCEN
 40
0.09
  9
$DIMTSZ
 40
0.0
  9
$DIMTOL
 70
     0
  9
$DIMLIM
 70
     0
  9
$DIMTIH
 70
     1
  9
$DIMTOH
 70
     1
  9
$DIMSE1
 70
     0
  9
$DIMSE2
 70
     0
  9
$DIMTAD
 70
     0
  9
$DIMZIN
 70
     0
  9
$DIMBLK
  1

  9
$DIMASO
 70
     1
  9
$DIMSHO
 70
     1
  9
$DIMPOST
  1

  9
$DIMAPOST
  1

  9
$DIMALT
 70
     0
  9
$DIMALTD
 70
     2
  9
$DIMALTF
 40
25.4
  9
$DIMLFAC
 40
1.0
  9
$DIMTOFL
 70
     0
  9
$DIMTVP
 40
0.0
  9
$DIMTIX
 70
     0
  9
$DIMSOXD
 70
     0
  9
$DIMSAH
 70
     0
  9
$DIMBLK1
  1

  9
$DIMBLK2
  1

  9
$DIMSTYLE
  2
STANDARD
  9
$DIMCLRD
 70
     0
  9
$DIMCLRE
 70
     0
  9
$DIMCLRT
 70
     0
  9
$DIMTFAC
 40
1.0
  9
$DIMGAP
 40
0.09
  9
$DIMJUST
 70
     0
  9
$DIMSD1
 70
     0
  9
$DIMSD2
 70
     0
  9
$DIMTOLJ
 70
     1
  9
$DIMTZIN
 70
     0
  9
$DIMALTZ
 70
     0
  9
$DIMALTTZ
 70
     0
  9
$DIMFIT
 70
     3
  9
$DIMUPT
 70
     0
  9
$DIMUNIT
 70
     2
  9
$DIMDEC
 70
     4
  9
$DIMTDEC
 70
     4
  9
$DIMALTU
 70
     2
  9
$DIMALTTD
 70
     2
  9
$DIMTXSTY
  7
STANDARD
  9
$DIMAUNIT
 70
     0
  9
$LUNITS
 70
     2
  9
$LUPREC
 70
     1
  9
$SKETCHINC
 40
0.1
  9
$FILLETRAD
 40
0.5
  9
$AUNITS
 70
     0
  9
$AUPREC
 70
     0
  9
$MENU
  1
.
  9
$ELEVATION
 40
0.0
  9
$PELEVATION
 40
0.0
  9
$THICKNESS
 40
0.0
  9
$LIMCHECK
 70
     0
  9
$CHAMFERA
 40
0.5
  9
$CHAMFERB
 40
0.5
  9
$CHAMFERC
 40
1.0
  9
$CHAMFERD
 40
0.0
  9
$SKPOLY
 70
     0
  9
$TDCREATE
 40
2453721.423076181
  9
$TDUPDATE
 40
2453721.423076192
  9
$TDINDWG
 40
0.0000000116
  9
$TDUSRTIMER
 40
0.0000000116
  9
$USRTIMER
 70
     1
  9
$ANGBASE
 50
0.0
  9
$ANGDIR
 70
     0
  9
$PDMODE
 70
     0
  9
$PDSIZE
 40
0.0
  9
$PLINEWID
 40
0.0
  9
$COORDS
 70
     1
  9
$SPLFRAME
 70
     0
  9
$SPLINETYPE
 70
     6
  9
$SPLINESEGS
 70
     8
  9
$ATTDIA
 70
     0
  9
$ATTREQ
 70
     1
  9
$HANDLING
 70
     1
  9
$HANDSEED
  5
3B7
  9
$SURFTAB1
 70
     6
  9
$SURFTAB2
 70
     6
  9
$SURFTYPE
 70
     6
  9
$SURFU
 70
     6
  9
$SURFV
 70
     6
  9
$UCSNAME
  2

  9
$UCSORG
 10
0.0
 20
0.0
 30
0.0
  9
$UCSXDIR
 10
1.0
 20
0.0
 30
0.0
  9
$UCSYDIR
 10
0.0
 20
1.0
 30
0.0
  9
$PUCSNAME
  2

  9
$PUCSORG
 10
0.0
 20
0.0
 30
0.0
  9
$PUCSXDIR
 10
1.0
 20
0.0
 30
0.0
  9
$PUCSYDIR
 10
0.0
 20
1.0
 30
0.0
  9
$USERI1
 70
     0
  9
$USERI2
 70
     0
  9
$USERI3
 70
     0
  9
$USERI4
 70
     0
  9
$USERI5
 70
     0
  9
$USERR1
 40
0.0
  9
$USERR2
 40
0.0
  9
$USERR3
 40
0.0
  9
$USERR4
 40
0.0
  9
$USERR5
 40
0.0
  9
$WORLDVIEW
 70
     1
  9
$SHADEDGE
 70
     3
  9
$SHADEDIF
 70
    70
  9
$TILEMODE
 70
     1
  9
$MAXACTVP
 70
    64
  9
$PINSBASE
 10
0.0
 20
0.0
 30
0.0
  9
$PLIMCHECK
 70
     0
  9
$PEXTMIN
 10
1.000000000000000E+20
 20
1.000000000000000E+20
 30
1.000000000000000E+20
  9
$PEXTMAX
 10
-1.000000000000000E+20
 20
-1.000000000000000E+20
 30
-1.000000000000000E+20
  9
$PLIMMIN
 10
0.0
 20
0.0
  9
$PLIMMAX
 10
12.0
 20
9.0
  9
$UNITMODE
 70
     0
  9
$VISRETAIN
 70
     1
  9
$PLINEGEN
 70
     0
  9
$PSLTSCALE
 70
     1
  9
$TREEDEPTH
 70
  3020
  9
$PICKSTYLE
 70
     1
  9
$CMLSTYLE
  2
STANDARD
  9
$CMLJUST
 70
     0
  9
$CMLSCALE
 40
1.0
  9
$PROXYGRAPHICS
 70
     1
  9
$MEASUREMENT
 70
     0
  0
ENDSEC
  0
SECTION
  2
CLASSES
  0
CLASS
  1
ACDBDICTIONARYWDFLT
  2
AcDbDictionaryWithDefault
  3
ObjectDBX Classes
 90
        0
280
     0
281
     0
  0
CLASS
  1
XRECORD
  2
AcDbXrecord
  3
AutoCAD 2000
 90
        0
280
     0
281
     0
  0
CLASS
  1
LWPOLYLINE
  2
AcDbPolyline
  3
AutoCAD 2000
 90
        0
280
     0
281
     1
  0
CLASS
  1
HATCH
  2
AcDbHatch
  3
AutoCAD 2000
 90
        0
280
     0
281
     1
  0
CLASS
  1
ACDBPLACEHOLDER
  2
AcDbPlaceHolder
  3
ObjectDBX Classes
 90
        0
280
     0
281
     0
  0
CLASS
  1
LAYOUT
  2
AcDbLayout
  3
ObjectDBX Classes
 90
        0
280
     0
281
     0
  0
ENDSEC
  0
SECTION
  2
TABLES
  0
TABLE
  2
VPORT
  5
8
330
0
100
AcDbSymbolTable
 70
     2
  0
VPORT
  5
29
102
{ACAD_XDICTIONARY
360
3B5
102
}
330
8
100
AcDbSymbolTableRecord
100
AcDbViewportTableRecord
  2
*ACTIVE
 70
     0
 10
0.0
 20
0.0
 11
1.0
 21
1.0
 12
28.09382698735081
 22
35.60358021925516
 13
0.0
 23
0.0
 14
0.5
 24
0.5
 15
0.5
 25
0.5
 16
0.0
 26
0.0
 36
1.0
 17
0.0
 27
0.0
 37
0.0
 40
71.18364455473066
 41
1.972972972850329
 42
50.0
 43
0.0
 44
0.0
 50
0.0
 51
0.0
 71
     0
 72
   100
 73
     1
 74
     3
 75
     0
 76
     0
 77
     0
 78
     0
  0
ENDTAB
  0
TABLE
  2
LTYPE
  5
5
330
0
100
AcDbSymbolTable
 70
     1
  0
LTYPE
  5
14
330
5
100
AcDbSymbolTableRecord
100
AcDbLinetypeTableRecord
  2
BYBLOCK
 70
     0
  3

 72
    65
 73
     0
 40
0.0
  0
LTYPE
  5
15
330
5
100
AcDbSymbolTableRecord
100
AcDbLinetypeTableRecord
  2
BYLAYER
 70
     0
  3

 72
    65
 73
     0
 40
0.0
  0
LTYPE
  5
16
330
5
100
AcDbSymbolTableRecord
100
AcDbLinetypeTableRecord
  2
CONTINUOUS
 70
     0
  3
Solid line
 72
    65
 73
     0
 40
0.0
  0
ENDTAB
  0
TABLE
  2
LAYER
  5
2
330
0
100
AcDbSymbolTable
 70
     3
  0
LAYER
  5
10
330
2
100
AcDbSymbolTableRecord
100
AcDbLayerTableRecord
  2
0
 70
     0
 62
     7
  6
CONTINUOUS
  0
LAYER
  5
2A
330
2
100
AcDbSymbolTableRecord
100
AcDbLayerTableRecord
  2
IGES_LEVEL_0
 70
     0
 62
   255
  6
CONTINUOUS
  0
LAYER
  5
79
330
2
100
AcDbSymbolTableRecord
100
AcDbLayerTableRecord
  2
DEFAULT
 70
     0
 62
     7
  6
CONTINUOUS
  0
ENDTAB
  0
TABLE
  2
STYLE
  5
3
330
0
100
AcDbSymbolTable
 70
     1
  0
STYLE
  5
11
330
3
100
AcDbSymbolTableRecord
100
AcDbTextStyleTableRecord
  2
STANDARD
 70
     0
 40
0.0
 41
1.0
 50
0.0
 71
     0
 42
0.2
  3
txt
  4

  0
ENDTAB
  0
TABLE
  2
VIEW
  5
6
330
0
100
AcDbSymbolTable
 70
     0
  0
ENDTAB
  0
TABLE
  2
UCS
  5
7
330
0
100
AcDbSymbolTable
 70
     0
  0
ENDTAB
  0
TABLE
  2
APPID
  5
9
330
0
100
AcDbSymbolTable
 70
     1
  0
APPID
  5
12
330
9
100
AcDbSymbolTableRecord
100
AcDbRegAppTableRecord
  2
ACAD
 70
     0
  0
ENDTAB
  0
TABLE
  2
DIMSTYLE
  5
A
330
0
100
AcDbSymbolTable
 70
     1
  0
DIMSTYLE
105
27
330
A
100
AcDbSymbolTableRecord
100
AcDbDimStyleTableRecord
  2
STANDARD
 70
     0
  3

  4

  5

  6

  7

 40
1.0
 41
0.18
 42
0.0625
 43
0.38
 44
0.18
 45
0.0
 46
0.0
 47
0.0
 48
0.0
140
0.18
141
0.09
142
0.0
143
25.4
144
1.0
145
0.0
146
1.0
147
0.09
 71
     0
 72
     0
 73
     1
 74
     1
 75
     0
 76
     0
 77
     0
 78
     0
170
     0
171
     2
172
     0
173
     0
174
     0
175
     0
176
     0
177
     0
178
     0
270
     2
271
     4
272
     4
273
     2
274
     2
340
11
275
     0
280
     0
281
     0
282
     0
283
     1
284
     0
285
     0
286
     0
287
     3
288
     0
  0
ENDTAB
  0
TABLE
  2
BLOCK_RECORD
  5
1
330
0
100
AcDbSymbolTable
 70
     1
  0
BLOCK_RECORD
  5
1F
330
1
100
AcDbSymbolTableRecord
100
AcDbBlockTableRecord
  2
*MODEL_SPACE
  0
BLOCK_RECORD
  5
1B
330
1
100
AcDbSymbolTableRecord
100
AcDbBlockTableRecord
  2
*PAPER_SPACE
  0
ENDTAB
  0
ENDSEC
  0
SECTION
  2
BLOCKS
  0
BLOCK
  5
20
330
1F
100
AcDbEntity
  8
0
100
AcDbBlockBegin
  2
*MODEL_SPACE
 70
     0
 71
     0
 10
0.0
 20
0.0
 30
0.0
  3
*MODEL_SPACE
  1

  0
ENDBLK
  5
21
330
1F
100
AcDbEntity
  8
0
100
AcDbBlockEnd
  0
BLOCK
  5
1C
330
1B
100
AcDbEntity
 67
     1
  8
0
100
AcDbBlockBegin
  2
*PAPER_SPACE
 70
     0
 71
     0
 10
0.0
 20
0.0
 30
0.0
  3
*PAPER_SPACE
  1

  0
ENDBLK
  5
1D
330
1B
100
AcDbEntity
 67
     1
  8
0
100
AcDbBlockEnd
  0
ENDSEC
  0
SECTION
  2
ENTITIES
  0
LINE
  5
2B
330
1F
100
AcDbEntity
  8
IGES_LEVEL_0
 62
     7
100
AcDbLine
 10
2.816776880634508
 20
63.74980530779764
 30
0.0
 11
2.442200834229727
 21
64.3244266070281
 31
0.0
  0
LINE
  5
2C
330
1F
100
AcDbEntity
  8
IGES_LEVEL_0
 62
     7
100
AcDbLine
 10
3.525147880634507
 20
64.48517830779765
 30
0.0
 11
3.348225420290778
 21
64.75658725009781
 31
0.0
  0
LINE
  5
2D
330
1F
100
AcDbEntity
  8
IGES_LEVEL_0
 62
     7
100
AcDbLine
 10
16.29666056531474
 20
64.7866332684022
 30
0.0
 11
16.10021288063451
 21
64.48527130779765
 31
0.0
  0
LINE
  5
2E
330
1F
100
AcDbEntity
  8
IGES_LEVEL_0
 62
     7
100
AcDbLine
 10
17.20841949490711
 20
64.36326885315407
 30
0.0
 11
16.8085108806345
 21
63.74978730779765
 31
0.0
  0
ARC
  5
2F
330
1F
100
AcDbEntity
  8
IGES_LEVEL_0
 62
     7
100
AcDbCircle
 10
9.812649880634508
 20
78.21935130779765
 30
0.0
 40
11.75000036415176
100
AcDbArc
 50
258.1688220919183
 51
281.9753596662395
  0
ARC
  5
30
330
1F
100
AcDbEntity
  8
IGES_LEVEL_0
 62
     7
100
AcDbCircle
 10
9.812649880634508
 20
78.21935130779765
 30
0.0
 40
12.25000000843522
100
AcDbArc
 50
271.1693827783064
 51
286.0827214420706
  0
ARC
  5
31
330
1F
100
AcDbEntity
  8
IGES_LEVEL_0
 62
     7
100
AcDbCircle
 10
9.812649880634508
 20
78.21935130779765
 30
0.0
 40
12.24999983737344
100
AcDbArc
 50
254.0519367329553
 51
268.8306172216936
  0
ARC
  5
32
330
1F
100
AcDbEntity
  8
IGES_LEVEL_0
 62
     7
100
AcDbCircle
 10
1.038186446484694
 20
66.09736482408717
 30
0.0
 40
0.5005027791536328
100
AcDbArc
 50
123.7726315014507
 51
134.2169247711163
  0
LINE
  5
33
330
1F
100
AcDbEntity
  8
IGES_LEVEL_0
 62
     7
100
AcDbLine
 10
1.404731880634507
 20
68.10198330779765
 30
0.0
 11
1.420778880634507
 21
67.87276130779765
 31
0.0
  0
LINE
  5
34
330
1F
100
AcDbEntity
  8
IGES_LEVEL_0
 62
     7
100
AcDbLine
 10
0.8226162770740046
 20
67.26999798558052
 30
0.0
 11
0.806516423290006
 21
67.08018987025051
 31
0.0
  0
LINE
  5
35
330
1F
100
AcDbEntity
  8
IGES_LEVEL_0
 62
     7
100
AcDbLine
 10
0.806516423290006
 20
67.08018987025051
 30
0.0
 11
0.8039584074430053
 21
67.0508106823105
 31
0.0
  0
LINE
  5
36
330
1F
100
AcDbEntity
  8
IGES_LEVEL_0
 62
     7
100
AcDbLine
 10
0.8039584074430053
 20
67.0508106823105
 30
0.0
 11
0.8014427055740185
 21
67.02193351718051
 31
0.0
  0
LINE
  5
37
330
1F
100
AcDbEntity
  8
IGES_LEVEL_0
 62
     7
100
AcDbLine
 10
0.8014427055740185
 20
67.02193351718051
 30
0.0
 11
0.7989740475550065
 21
66.99354975981049
 31
0.0
  0
LINE
  5
38
330
1F
100
AcDbEntity
  8
IGES_LEVEL_0
 62
     7
100
AcDbLine
 10
0.7989740475550065
 20
66.99354975981049
 30
0.0
 11
0.7982863728480112
 21
66.98563081606051
 31
0.0
  0
LINE
  5
39
330
1F
100
AcDbEntity
  8
IGES_LEVEL_0
 62
     7
100
AcDbLine
 10
0.7982863728480112
 20
66.98563081606051
 30
0.0
 11
0.7965554460140112
 21
66.96567021172049
 31
0.0
  0
LINE
  5
3A
330
1F
100
AcDbEntity
  8
IGES_LEVEL_0
 62
     7
100
AcDbLine
 10
0.7965554460140112
 20
66.96567021172049
 30
0.0
 11
0.7941809868660101
 21
66.9382131627205
 31
0.0
  0
LINE
  5
3B
330
1F
100
AcDbEntity
  8
IGES_LEVEL_0
 62
     7
100
AcDbLine
 10
0.7941809868660101
 20
66.9382131627205
 30
0.0
 11
0.7873236994480095
 21
66.8582916174505
 31
0.0
  0
LINE
  5
3C
330
1F
100
AcDbEntity
  8
IGES_LEVEL_0
 62
     7
100
AcDbLine
 10
0.7873236994480095
 20
66.8582916174505
 30
0.0
 11
0.7742909235069959
 21
66.69046676592051
 31
0.0
  0
LINE
  5
3D
330
1F
100
AcDbEntity
  8
IGES_LEVEL_0
 62
     7
100
AcDbLine
 10
0.7742909235069959
 20
66.69046676592051
 30
0.0
 11
0.7886914581790023
 21
66.8569387174305
 31
0.0
  0
LINE
  5
3E
330
1F
100
AcDbEntity
  8
IGES_LEVEL_0
 62
     7
100
AcDbLine
 10
0.7886914581790023
 20
66.8569387174305
 30
0.0
 11
0.7950706409440187
 21
66.93513296628049
 31
0.0
  0
LINE
  5
3F
330
1F
100
AcDbEntity
  8
IGES_LEVEL_0
 62
     7
100
AcDbLine
 10
0.7950706409440187
 20
66.93513296628049
 30
0.0
 11
0.7970770291349965
 21
66.9595687938205
 31
0.0
  0
LINE
  5
40
330
1F
100
AcDbEntity
  8
IGES_LEVEL_0
 62
     7
100
AcDbLine
 10
0.7970770291349965
 20
66.9595687938205
 30
0.0
 11
0.7990267027140163
 21
66.98325097621051
 31
0.0
  0
LINE
  5
41
330
1F
100
AcDbEntity
  8
IGES_LEVEL_0
 62
     7
100
AcDbLine
 10
0.7990267027140163
 20
66.98325097621051
 30
0.0
 11
0.8009180789650117
 21
67.00617165526052
 31
0.0
  0
LINE
  5
42
330
1F
100
AcDbEntity
  8
IGES_LEVEL_0
 62
     7
100
AcDbLine
 10
0.8009180789650117
 20
67.00617165526052
 30
0.0
 11
0.8027574085520115
 21
67.02841667081052
 31
0.0
  0
LINE
  5
43
330
1F
100
AcDbEntity
  8
IGES_LEVEL_0
 62
     7
100
AcDbLine
 10
0.8027574085520115
 20
67.02841667081052
 30
0.0
 11
0.8045440866450093
 21
67.0499900434105
 31
0.0
  0
LINE
  5
44
330
1F
100
AcDbEntity
  8
IGES_LEVEL_0
 62
     7
100
AcDbLine
 10
0.8045440866450093
 20
67.0499900434105
 30
0.0
 11
0.806275986952997
 21
67.07088596444049
 31
0.0
  0
LINE
  5
45
330
1F
100
AcDbEntity
  8
IGES_LEVEL_0
 62
     7
100
AcDbLine
 10
0.806275986952997
 20
67.07088596444049
 30
0.0
 11
0.822649561319011
 21
67.27070629061049
 31
0.0
  0
LINE
  5
46
330
1F
100
AcDbEntity
  8
IGES_LEVEL_0
 62
     7
100
AcDbLine
 10
0.822649561319011
 20
67.27070629061049
 30
0.0
 11
0.8236289878845042
 21
67.28295945912051
 31
0.0
  0
LINE
  5
47
330
1F
100
AcDbEntity
  8
IGES_LEVEL_0
 62
     7
100
AcDbLine
 10
0.8236289878845042
 20
67.28295945912051
 30
0.0
 11
0.824116238514506
 21
67.28912749624051
 31
0.0
  0
LINE
  5
48
330
1F
100
AcDbEntity
  8
IGES_LEVEL_0
 62
     7
100
AcDbLine
 10
0.824116238514506
 20
67.28912749624051
 30
0.0
 11
0.8242656757619926
 21
67.2911905170605
 31
0.0
  0
LINE
  5
49
330
1F
100
AcDbEntity
  8
IGES_LEVEL_0
 62
     7
100
AcDbLine
 10
0.8242656757619926
 20
67.2911905170605
 30
0.0
 11
0.8249320633995012
 21
67.3001778250555
 31
0.0
  0
LINE
  5
4A
330
1F
100
AcDbEntity
  8
IGES_LEVEL_0
 62
     7
100
AcDbLine
 10
0.8249320633995012
 20
67.3001778250555
 30
0.0
 11
0.8264943262100104
 21
67.3196890329105
 31
0.0
  0
LINE
  5
4B
330
1F
100
AcDbEntity
  8
IGES_LEVEL_0
 62
     7
100
AcDbLine
 10
0.8264943262100104
 20
67.3196890329105
 30
0.0
 11
0.8314909347664923
 21
67.3661880882355
 31
0.0
  0
SPLINE
  5
4C
330
1F
100
AcDbEntity
  8
IGES_LEVEL_0
 62
     7
100
AcDbSpline
210
0.0
220
0.0
230
1.0
 70
     8
 71
     3
 72
    15
 73
    11
 74
     0
 42
0.0000000001
 43
0.0000000001
 40
24.0
 40
24.0
 40
24.0
 40
24.0
 40
24.08082912345469
 40
24.18872216839074
 40
24.30859074911436
 40
24.43942917878159
 40
24.58035003551237
 40
24.73026533359424
 40
24.88894627416992
 40
25.0
 40
25.0
 40
25.0
 40
25.0
 10
0.8314909347664923
 20
67.3661880882355
 30
0.0
 10
0.8344415949681689
 20
67.38919791267817
 30
0.0
 10
0.8480131793561299
 20
67.44224035533185
 30
0.0
 10
0.887521327375012
 20
67.5219158546505
 30
0.0
 10
0.9481153743350177
 20
67.60549050741051
 30
0.0
 10
1.026846856155018
 20
67.6860259209505
 30
0.0
 10
1.122139266698994
 20
67.7609505813505
 30
0.0
 10
1.233253527806014
 20
67.82698210121049
 30
0.0
 10
1.344366337116
 20
67.87406687177051
 30
0.0
 10
1.418901283668929
 20
67.89569884900185
 30
0.0
 10
1.450072159185012
 20
67.9023202333905
 30
0.0
  0
LINE
  5
4D
330
1F
100
AcDbEntity
  8
IGES_LEVEL_0
 62
     7
100
AcDbLine
 10
1.450072159185012
 20
67.9023202333905
 30
0.0
 11
1.473620145680002
 21
67.90732234730551
 31
0.0
  0
LINE
  5
4E
330
1F
100
AcDbEntity
  8
IGES_LEVEL_0
 62
     7
100
AcDbLine
 10
1.473620145680002
 20
67.90732234730551
 30
0.0
 11
1.477596513422
 21
67.90811463732049
 31
0.0
  0
LINE
  5
4F
330
1F
100
AcDbEntity
  8
IGES_LEVEL_0
 62
     7
100
AcDbLine
 10
1.477596513422
 20
67.90811463732049
 30
0.0
 11
1.487942246351011
 21
67.9101737534105
 31
0.0
  0
LINE
  5
50
330
1F
100
AcDbEntity
  8
IGES_LEVEL_0
 62
     7
100
AcDbLine
 10
1.487942246351011
 20
67.9101737534105
 30
0.0
 11
1.494693322118508
 21
67.91152392807551
 31
0.0
  0
LINE
  5
51
330
1F
100
AcDbEntity
  8
IGES_LEVEL_0
 62
     7
100
AcDbLine
 10
1.494693322118508
 20
67.91152392807551
 30
0.0
 11
1.498436548956008
 21
67.9122745134305
 31
0.0
  0
SPLINE
  5
52
330
1F
100
AcDbEntity
  8
IGES_LEVEL_0
 62
     7
100
AcDbSpline
210
0.0
220
0.0
230
1.0
 70
     8
 71
     3
 72
    15
 73
    11
 74
     0
 42
0.0000000001
 43
0.0000000001
 40
30.0
 40
30.0
 40
30.0
 40
30.0
 40
30.10148004770081
 40
30.21093536649794
 40
30.32567957946884
 40
30.44631540390893
 40
30.5736283112494
 40
30.70837683248858
 40
30.85121643647827
 40
31.0
 40
31.0
 40
31.0
 40
31.0
 10
1.498436548956008
 20
67.9122745134305
 30
0.0
 10
1.781844399996018
 20
67.9692496950405
 30
0.0
 10
2.363682602550014
 20
68.12407249923049
 30
0.0
 10
3.241654982957002
 20
68.42372550733052
 30
0.0
 10
4.17088116041991
 20
68.74259358548051
 30
0.0
 10
5.162135716440119
 20
69.03518122911049
 30
0.0
 10
6.220083056099995
 20
69.29963971698049
 30
0.0
 10
7.352361920260009
 20
69.52260700769051
 30
0.0
 10
8.557603259267594
 20
69.68087904849534
 30
0.0
 10
9.388814577836364
 20
69.71952515031568
 30
0.0
 10
9.812650133740007
 20
69.71951892667551
 30
0.0
  0
SPLINE
  5
53
330
1F
100
AcDbEntity
  8
IGES_LEVEL_0
 62
     7
100
AcDbSpline
210
0.0
220
0.0
230
1.0
 70
     8
 71
     3
 72
    15
 73
    11
 74
     0
 42
0.0000000001
 43
0.0000000001
 40
31.0
 40
31.0
 40
31.0
 40
31.0
 40
31.14853441565796
 40
31.29137459809915
 40
31.42612386220672
 40
31.55343770364569
 40
31.67407352295147
 40
31.78881767202046
 40
31.89827412711169
 40
32.0
 40
32.0
 40
32.0
 40
32.0
 10
9.812650133740007
 20
69.71951892667551
 30
0.0
 10
10.23578959605825
 20
69.71951271325683
 30
0.0
 10
11.0663179631403
 20
69.68097812394534
 30
0.0
 10
12.27091714708101
 20
69.5229508173905
 30
0.0
 10
13.40325750718401
 20
69.3000799036505
 30
0.0
 10
14.461265984804
 20
69.0357077446005
 30
0.0
 10
15.45256782570701
 20
68.74316242631051
 30
0.0
 10
16.38186211326701
 20
68.42439162870051
 30
0.0
 10
17.260498282147
 20
68.12442084500052
 30
0.0
 10
17.84299475743188
 20
67.96922478213109
 30
0.0
 10
18.127127732397
 20
67.91226006040051
 30
0.0
  0
LINE
  5
54
330
1F
100
AcDbEntity
  8
IGES_LEVEL_0
 62
     7
100
AcDbLine
 10
18.127127732397
 20
67.91226006040051
 30
0.0
 11
18.130869537152
 21
67.9115098804305
 31
0.0
  0
LINE
  5
55
330
1F
100
AcDbEntity
  8
IGES_LEVEL_0
 62
     7
100
AcDbLine
 10
18.130869537152
 20
67.9115098804305
 30
0.0
 11
18.137415243837
 21
67.91020098767049
 31
0.0
  0
LINE
  5
56
330
1F
100
AcDbEntity
  8
IGES_LEVEL_0
 62
     7
100
AcDbLine
 10
18.137415243837
 20
67.91020098767049
 30
0.0
 11
18.15166055148201
 21
67.9073697360805
 31
0.0
  0
LINE
  5
57
330
1F
100
AcDbEntity
  8
IGES_LEVEL_0
 62
     7
100
AcDbLine
 10
18.15166055148201
 20
67.9073697360805
 30
0.0
 11
18.173133227777
 21
67.90284005766051
 31
0.0
  0
SPLINE
  5
58
330
1F
100
AcDbEntity
  8
IGES_LEVEL_0
 62
     7
100
AcDbSpline
210
0.0
220
0.0
230
1.0
 70
     8
 71
     3
 72
    15
 73
    11
 74
     0
 42
0.0000000001
 43
0.0000000001
 40
36.0
 40
36.0
 40
36.0
 40
36.0
 40
36.1111196321796
 40
36.2698598150629
 40
36.4198596389136
 40
36.5608561434335
 40
36.6917247693824
 40
36.8115282052835
 40
36.91928441351947
 40
37.0
 40
37.0
 40
37.0
 40
37.0
 10
18.173133227777
 20
67.90284005766051
 30
0.0
 10
18.20432829655701
 20
67.89585019318051
 30
0.0
 10
18.27922271328701
 20
67.87473641424052
 30
0.0
 10
18.390745442357
 20
67.8276811564605
 30
0.0
 10
18.502272457747
 20
67.76158227276051
 30
0.0
 10
18.597916319617
 20
67.6865206941805
 30
0.0
 10
18.67690303117701
 20
67.60582229106049
 30
0.0
 10
18.73766661661701
 20
67.5221096741405
 30
0.0
 10
18.777252280887
 20
67.44232602019051
 30
0.0
 10
18.79141648150931
 20
67.38928169438213
 30
0.0
 10
18.793823508682
 20
67.3660838795405
 30
0.0
  0
LINE
  5
59
330
1F
100
AcDbEntity
  8
IGES_LEVEL_0
 62
     7
100
AcDbLine
 10
18.793823508682
 20
67.3660838795405
 30
0.0
 11
18.79953197095701
 21
67.3110683598205
 31
0.0
  0
LINE
  5
5A
330
1F
100
AcDbEntity
  8
IGES_LEVEL_0
 62
     7
100
AcDbLine
 10
18.79953197095701
 20
67.3110683598205
 30
0.0
 11
18.80038027637701
 21
67.3000004671655
 31
0.0
  0
LINE
  5
5B
330
1F
100
AcDbEntity
  8
IGES_LEVEL_0
 62
     7
100
AcDbLine
 10
18.80038027637701
 20
67.3000004671655
 30
0.0
 11
18.800723056607
 21
67.29534507283051
 31
0.0
  0
LINE
  5
5C
330
1F
100
AcDbEntity
  8
IGES_LEVEL_0
 62
     7
100
AcDbLine
 10
18.800723056607
 20
67.29534507283051
 30
0.0
 11
18.801183890982
 21
67.28912688220051
 31
0.0
  0
LINE
  5
5D
330
1F
100
AcDbEntity
  8
IGES_LEVEL_0
 62
     7
100
AcDbLine
 10
18.801183890982
 20
67.28912688220051
 30
0.0
 11
18.801671091107
 21
67.2829589043405
 31
0.0
  0
LINE
  5
5E
330
1F
100
AcDbEntity
  8
IGES_LEVEL_0
 62
     7
100
AcDbLine
 10
18.801671091107
 20
67.2829589043405
 30
0.0
 11
18.801916284087
 21
67.2798506571005
 31
0.0
  0
LINE
  5
5F
330
1F
100
AcDbEntity
  8
IGES_LEVEL_0
 62
     7
100
AcDbLine
 10
18.801916284087
 20
67.2798506571005
 30
0.0
 11
18.80265323711701
 21
67.27067352133051
 31
0.0
  0
LINE
  5
60
330
1F
100
AcDbEntity
  8
IGES_LEVEL_0
 62
     7
100
AcDbLine
 10
18.80265323711701
 20
67.27067352133051
 30
0.0
 11
18.82428348860701
 21
67.0073656154805
 31
0.0
  0
LINE
  5
61
330
1F
100
AcDbEntity
  8
IGES_LEVEL_0
 62
     7
100
AcDbLine
 10
18.82428348860701
 20
67.0073656154805
 30
0.0
 11
18.85191994755701
 21
66.6655564017305
 31
0.0
  0
LINE
  5
62
330
1F
100
AcDbEntity
  8
IGES_LEVEL_0
 62
     7
100
AcDbLine
 10
18.85191994755701
 20
66.6655564017305
 30
0.0
 11
18.854389842947
 21
66.63412674623049
 31
0.0
  0
LINE
  5
63
330
1F
100
AcDbEntity
  8
IGES_LEVEL_0
 62
     7
100
AcDbLine
 10
18.854389842947
 20
66.63412674623049
 30
0.0
 11
18.85785978208201
 21
66.6049203075455
 31
0.0
  0
LINE
  5
64
330
1F
100
AcDbEntity
  8
IGES_LEVEL_0
 62
     7
100
AcDbLine
 10
18.85785978208201
 20
66.6049203075455
 30
0.0
 11
18.85852170161701
 21
66.61112607131051
 31
0.0
  0
LINE
  5
65
330
1F
100
AcDbEntity
  8
IGES_LEVEL_0
 62
     7
100
AcDbLine
 10
18.85852170161701
 20
66.61112607131051
 30
0.0
 11
18.85655347078701
 21
66.6353818348405
 31
0.0
  0
LINE
  5
66
330
1F
100
AcDbEntity
  8
IGES_LEVEL_0
 62
     7
100
AcDbLine
 10
18.85655347078701
 20
66.6353818348405
 30
0.0
 11
18.854642267027
 21
66.65880952672052
 31
0.0
  0
LINE
  5
67
330
1F
100
AcDbEntity
  8
IGES_LEVEL_0
 62
     7
100
AcDbLine
 10
18.854642267027
 20
66.65880952672052
 30
0.0
 11
18.82379030164701
 21
67.0227055781605
 31
0.0
  0
ARC
  5
68
330
1F
100
AcDbEntity
  8
IGES_LEVEL_0
 62
     7
100
AcDbCircle
 10
17.97987824215906
 20
66.67171104783762
 30
0.0
 40
0.84673266322486
100
AcDbArc
 50
18.87114942884703
 51
76.15974994863041
  0
SPLINE
  5
69
330
1F
100
AcDbEntity
  8
IGES_LEVEL_0
 62
     7
100
AcDbSpline
210
0.0
220
0.0
230
1.0
 70
     8
 71
     3
 72
    16
 73
    12
 74
     0
 42
0.0000000001
 43
0.0000000001
 40
1.0
 40
1.0
 40
1.0
 40
1.0
 40
1.09097114537574
 40
1.1876084434776
 40
1.2881936694339
 40
1.3932190980135
 40
1.5031087993536
 40
1.6184092558226
 40
1.7397728081457
 40
1.8676814846905
 40
2.0
 40
2.0
 40
2.0
 40
2.0
 10
18.18242991823201
 20
67.49386007416551
 30
0.0
 10
17.927670409727
 20
67.55662480877049
 30
0.0
 10
17.409176771497
 20
67.71429789754049
 30
0.0
 10
16.63082684181701
 20
68.00616822959051
 30
0.0
 10
15.81988659018701
 20
68.3261268059405
 30
0.0
 10
14.95807842402701
 20
68.6199267343705
 30
0.0
 10
14.03768000169801
 20
68.86748338518049
 30
0.0
 10
13.057851045313
 20
69.06718235604049
 30
0.0
 10
12.01884152047201
 20
69.2308490786105
 30
0.0
 10
10.92388179523401
 20
69.34748363814052
 30
0.0
 10
10.1729659865951
 20
69.375332533172
 30
0.0
 10
9.791334255504509
 20
69.3741149744705
 30
0.0
  0
SPLINE
  5
6A
330
1F
100
AcDbEntity
  8
IGES_LEVEL_0
 62
     7
100
AcDbSpline
210
0.0
220
0.0
230
1.0
 70
     8
 71
     3
 72
    16
 73
    12
 74
     0
 42
0.0000000001
 43
0.0000000001
 40
2.0
 40
2.0
 40
2.0
 40
2.0
 40
2.1325154544299
 40
2.2604160496743
 40
2.3817788902669
 40
2.4970856143515
 40
2.6069809515464
 40
2.7120105568247
 40
2.8125977436757
 40
2.9092353253226
 40
3.0
 40
3.0
 40
3.0
 40
3.0
 10
9.791334255504509
 20
69.3741149744705
 30
0.0
 10
9.409090263512994
 20
69.3728954624105
 30
0.0
 10
8.657733374837008
 20
69.34023892023049
 30
0.0
 10
7.562880584277011
 20
69.21648743748051
 30
0.0
 10
6.524818171408995
 20
69.0461966008105
 30
0.0
 10
5.546149891065809
 20
68.84016651341051
 30
0.0
 10
4.627181687699718
 20
68.58674997031051
 30
0.0
 10
3.767177573463911
 20
68.28728482807051
 30
0.0
 10
2.958131570294015
 20
67.96225010479051
 30
0.0
 10
2.18206692007
 20
67.66572838603051
 30
0.0
 10
1.667146406951239
 20
67.4952339059689
 30
0.0
 10
1.411254082521992
 20
67.44078440868051
 30
0.0
  0
ARC
  5
6B
330
1F
100
AcDbEntity
  8
IGES_LEVEL_0
 62
     7
100
AcDbCircle
 10
1.575787747518191
 20
66.66753756381534
 30
0.0
 40
0.7905580370921682
100
AcDbArc
 50
102.0124041671389
 51
163.772101700203
  0
LINE
  5
6C
330
1F
100
AcDbEntity
  8
IGES_LEVEL_0
 62
     7
100
AcDbLine
 10
0.8167273401310098
 20
66.8884658507055
 30
0.0
 11
0.8112477712499953
 21
66.85683709799051
 31
0.0
  0
LINE
  5
6D
330
1F
100
AcDbEntity
  8
IGES_LEVEL_0
 62
     7
100
AcDbLine
 10
0.8112477712499953
 20
66.85683709799051
 30
0.0
 11
0.8037090186710003
 21
66.8171750285905
 31
0.0
  0
LINE
  5
6E
330
1F
100
AcDbEntity
  8
IGES_LEVEL_0
 62
     7
100
AcDbLine
 10
0.8037090186710003
 20
66.8171750285905
 30
0.0
 11
0.7511281536910133
 21
66.58421008097551
 31
0.0
  0
LINE
  5
6F
330
1F
100
AcDbEntity
  8
IGES_LEVEL_0
 62
     7
100
AcDbLine
 10
0.7511281536910133
 20
66.58421008097551
 30
0.0
 11
0.7332213355140027
 21
66.4992151046505
 31
0.0
  0
SPLINE
  5
70
330
1F
100
AcDbEntity
  8
IGES_LEVEL_0
 62
     7
100
AcDbSpline
210
0.0
220
0.0
230
1.0
 70
     8
 71
     3
 72
    49
 73
    45
 74
     0
 42
0.0000000001
 43
0.0000000001
 40
8.0
 40
8.0
 40
8.0
 40
8.0
 40
8.00967951062332
 40
8.0509169176415
 40
8.089750613087789
 40
8.126596468403946
 40
8.16177863436349
 40
8.195602585412512
 40
8.228322883767302
 40
8.260174862931315
 40
8.291285909581008
 40
8.32168975918604
 40
8.351405353323013
 40
8.380444316027708
 40
8.408833702845769
 40
8.436601655242519
 40
8.46380241790235
 40
8.490461617384433
 40
8.516604749496583
 40
8.542269034995295
 40
8.567489673490117
 40
8.592300205879083
 40
8.616735939405023
 40
8.640823593713176
 40
8.664559221897081
 40
8.687937754929079
 40
8.710944771548572
 40
8.733551323311396
 40
8.755728407427938
 40
8.777468340708305
 40
8.798707864078605
 40
8.819081012331457
 40
8.838064011392449
 40
8.855223740688256
 40
8.870499028393228
 40
8.884028847619851
 40
8.896026135358394
 40
8.907169249346167
 40
8.918460871704147
 40
8.931258407348384
 40
8.947163367172585
 40
8.966668299734698
 40
8.988100711604341
 40
9.0
 40
9.0
 40
9.0
 40
9.0
 10
0.7332213355140027
 20
66.4992151046505
 30
0.0
 10
0.7315713222610185
 20
66.4916838683605
 30
0.0
 10
0.7231852998269943
 20
66.45278745549049
 30
0.0
 10
0.7095708551540128
 20
66.3839820356805
 30
0.0
 10
0.6939008155780044
 20
66.29396793775049
 30
0.0
 10
0.6806518050000108
 20
66.20835362898052
 30
0.0
 10
0.6692378536500172
 20
66.12642772913051
 30
0.0
 10
0.6592210386030075
 20
66.04756893220051
 30
0.0
 10
0.6502708037790086
 20
65.97120207404049
 30
0.0
 10
0.6421246152600162
 20
65.89687792410049
 30
0.0
 10
0.6345915353980018
 20
65.82430896757052
 30
0.0
 10
0.6275383818450138
 20
65.7533693778505
 30
0.0
 10
0.6208727608140094
 20
65.68401886166049
 30
0.0
 10
0.6145146312710068
 20
65.6162204128305
 30
0.0
 10
0.6084087133990153
 20
65.54992702553051
 30
0.0
 10
0.6025182914560077
 20
65.4850563281305
 30
0.0
 10
0.5968642480859927
 20
65.4215218008105
 30
0.0
 10
0.5914882616969948
 20
65.35923739440051
 30
0.0
 10
0.5864104646939978
 20
65.2981326300505
 30
0.0
 10
0.581648581439012
 20
65.2381299807505
 30
0.0
 10
0.577225372634004
 20
65.1791455547405
 30
0.0
 10
0.5731615021210104
 20
65.1210975531605
 30
0.0
 10
0.569477179384009
 20
65.06391130684051
 30
0.0
 10
0.5661958157640044
 20
65.0075418049105
 30
0.0
 10
0.5633432504489946
 20
64.9519760821305
 30
0.0
 10
0.5609498111100066
 20
64.8972338155705
 30
0.0
 10
0.5590449954139984
 20
64.8433550930405
 30
0.0
 10
0.5576514752160193
 20
64.79039978845052
 30
0.0
 10
0.5567838358440014
 20
64.73842343585051
 30
0.0
 10
0.5564633729189978
 20
64.68750887881051
 30
0.0
 10
0.5567240232320074
 20
64.63800354437051
 30
0.0
 10
0.5575256084519964
 20
64.5906586160605
 30
0.0
 10
0.5588365382279932
 20
64.5465141361705
 30
0.0
 10
0.5606278515659966
 20
64.50637335267049
 30
0.0
 10
0.5628951658249974
 20
64.4705244248905
 30
0.0
 10
0.5657321996770151
 20
64.4387623346105
 30
0.0
 10
0.5692736442640154
 20
64.4103198950405
 30
0.0
 10
0.573838472796993
 20
64.38379077190051
 30
0.0
 10
0.5803527552549923
 20
64.3570104034805
 30
0.0
 10
0.5908728962119909
 20
64.3274971560605
 30
0.0
 10
0.6090107862419956
 20
64.29423404072051
 30
0.0
 10
0.6385777877350023
 20
64.2604534196405
 30
0.0
 10
0.6734581713615171
 20
64.23737449989974
 30
0.0
 10
0.698022523190263
 20
64.22807592631155
 30
0.0
 10
0.7069861723824999
 20
64.2254718238855
 30
0.0
  0
SPLINE
  5
71
330
1F
100
AcDbEntity
  8
IGES_LEVEL_0
 62
     7
100
AcDbSpline
210
0.0
220
0.0
230
1.0
 70
     8
 71
     3
 72
    27
 73
    23
 74
     0
 42
0.0000000001
 43
0.0000000001
 40
9.0
 40
9.0
 40
9.0
 40
9.0
 40
9.028345236421114
 40
9.060781796762333
 40
9.093405464911767
 40
9.126540566670807
 40
9.161353273093106
 40
9.197847357524205
 40
9.236158459941256
 40
9.276298583084861
 40
9.318147510449959
 40
9.361869713154658
 40
9.407428410900121
 40
9.455609787936716
 40
9.506727725664817
 40
9.56132899229981
 40
9.620137337828355
 40
9.683700694348103
 40
9.752666409786125
 40
9.82789360154675
 40
9.910883214643718
 40
10.0
 40
10.0
 40
10.0
 40
10.0
 10
0.7069861723824999
 20
64.2254718238855
 30
0.0
 10
0.7952291706500603
 20
64.19983563476859
 30
0.0
 10
0.9877813666648052
 20
64.15567051573348
 30
0.0
 10
1.28969516419501
 20
64.12455988232051
 30
0.0
 10
1.608643576413002
 20
64.1316756716605
 30
0.0
 10
1.932119279644994
 20
64.17673934527051
 30
0.0
 10
2.261108769743018
 20
64.25880188567049
 30
0.0
 10
2.596393159692994
 20
64.3776900175605
 30
0.0
 10
2.936353181303005
 20
64.5308555617105
 30
0.0
 10
3.280616164794012
 20
64.7143127529705
 30
0.0
 10
3.630583646636993
 20
64.92308951905051
 30
0.0
 10
3.989712243731603
 20
65.1503272330105
 30
0.0
 10
4.367352589798415
 20
65.38668262891051
 30
0.0
 10
4.769010351862633
 20
65.6297891207505
 30
0.0
 10
5.202197668712515
 20
65.87719527618052
 30
0.0
 10
5.67583174492701
 20
66.12259866500051
 30
0.0
 10
6.200389264622018
 20
66.35568433551052
 30
0.0
 10
6.785463603555016
 20
66.5632608284605
 30
0.0
 10
7.437093018704005
 20
66.7355604722205
 30
0.0
 10
8.161669397602012
 20
66.86992922875049
 30
0.0
 10
8.958958454799998
 20
66.95886525533049
 30
0.0
 10
9.516906791835956
 20
66.98090653101534
 30
0.0
 10
9.805731173622007
 20
66.98182462501551
 30
0.0
  0
SPLINE
  5
72
330
1F
100
AcDbEntity
  8
IGES_LEVEL_0
 62
     7
100
AcDbSpline
210
0.0
220
0.0
230
1.0
 70
     8
 71
     3
 72
    27
 73
    23
 74
     0
 42
0.0000000001
 43
0.0000000001
 40
10.0
 40
10.0
 40
10.0
 40
10.0
 40
10.0891139092528
 40
10.1721272592168
 40
10.24739690146337
 40
10.31639425512171
 40
10.37995768859583
 40
10.43875332689834
 40
10.49334284416869
 40
10.54445129795112
 40
10.59262520786426
 40
10.63817690404443
 40
10.68189188051921
 40
10.72373164880066
 40
10.76386291332311
 40
10.80216995983693
 40
10.83866990134965
 40
10.8734998392478
 40
10.90666333395777
 40
10.93930189185319
 40
10.97171810801654
 40
11.0
 40
11.0
 40
11.0
 40
11.0
 10
9.805731173622007
 20
66.98182462501551
 30
0.0
 10
10.09452250911799
 20
66.98274261397052
 30
0.0
 10
10.65262071749901
 20
66.9642271470305
 30
0.0
 10
11.450597491555
 20
66.8803495114305
 30
0.0
 10
12.176269899123
 20
66.75056791423052
 30
0.0
 10
12.829169391937
 20
66.5823999164605
 30
0.0
 10
13.41556455910801
 20
66.37854962770049
 30
0.0
 10
13.94146976483101
 20
66.1488348703605
 30
0.0
 10
14.416503521845
 20
65.9064900882405
 30
0.0
 10
14.85112195546701
 20
65.6618796637905
 30
0.0
 10
15.25419906729701
 20
65.4213604362505
 30
0.0
 10
15.63322428313701
 20
65.18743565474051
 30
0.0
 10
15.99366979594701
 20
64.96250179455051
 30
0.0
 10
16.344821703737
 20
64.75595129183051
 30
0.0
 10
16.69010958069701
 20
64.57465413009049
 30
0.0
 10
17.030944252027
 20
64.4235778722805
 30
0.0
 10
17.36697376347701
 20
64.30671275402051
 30
0.0
 10
17.69659565549701
 20
64.22663149252051
 30
0.0
 10
18.020518875367
 20
64.1835771653305
 30
0.0
 10
18.33955786257701
 20
64.17853672988051
 30
0.0
 10
18.64101237877644
 20
64.21161813901622
 30
0.0
 10
18.8330122578972
 20
64.25689386306011
 30
0.0
 10
18.92086514777701
 20
64.28310093315051
 30
0.0
  0
SPLINE
  5
73
330
1F
100
AcDbEntity
  8
IGES_LEVEL_0
 62
     7
100
AcDbSpline
210
0.0
220
0.0
230
1.0
 70
     8
 71
     3
 72
    51
 73
    47
 74
     0
 42
0.0000000001
 43
0.0000000001
 40
11.0
 40
11.0
 40
11.0
 40
11.0
 40
11.01156565176146
 40
11.03262700031979
 40
11.05179252079168
 40
11.06752894491668
 40
11.08010237033393
 40
11.09095949646357
 40
11.10143272177246
 40
11.11252059885752
 40
11.12482128305115
 40
11.13865432322942
 40
11.15421206617111
 40
11.17149835530741
 40
11.19026929200161
 40
11.21011231544835
 40
11.23057687745504
 40
11.25146653146867
 40
11.27274427806378
 40
11.2944074179427
 40
11.31642936058338
 40
11.33878545436074
 40
11.36146483748471
 40
11.3844663026318
 40
11.40778452729708
 40
11.43144223493306
 40
11.45547211236223
 40
11.47990230619294
 40
11.50476121426931
 40
11.53008258166793
 40
11.55589352537823
 40
11.58221304606863
 40
11.60907120040071
 40
11.63651649753319
 40
11.66456314606254
 40
11.69322768280344
 40
11.72252258876514
 40
11.75246495897174
 40
11.78309892641449
 40
11.81457733162272
 40
11.84711290169767
 40
11.88093713438129
 40
11.91632384493963
 40
11.95356053585854
 40
11.99301781059497
 40
12.0
 40
12.0
 40
12.0
 40
12.0
 10
18.92086514777701
 20
64.28310093315051
 30
0.0
 10
18.9295349277225
 20
64.28568718308505
 30
0.0
 10
18.95347076150714
 20
64.29485454485599
 30
0.0
 10
18.987562912847
 20
64.3173966244005
 30
0.0
 10
19.01672074305701
 20
64.3504384001405
 30
0.0
 10
19.034704077897
 20
64.3830191026305
 30
0.0
 10
19.04506821951701
 20
64.4118157020105
 30
0.0
 10
19.05133486622701
 20
64.43751451877051
 30
0.0
 10
19.055589675327
 20
64.46243074556051
 30
0.0
 10
19.058772527697
 20
64.4886340613605
 30
0.0
 10
19.061246695487
 20
64.5175397277105
 30
0.0
 10
19.063184586877
 20
64.5499749663805
 30
0.0
 10
19.06463193695701
 20
64.5863237686505
 30
0.0
 10
19.06561343240701
 20
64.6265369206705
 30
0.0
 10
19.06613477988701
 20
64.67009821725051
 30
0.0
 10
19.066167237757
 20
64.7161394773705
 30
0.0
 10
19.065662664927
 20
64.7638291972105
 30
0.0
 10
19.06463263210701
 20
64.81262866544051
 30
0.0
 10
19.06310034378701
 20
64.8623493508705
 30
0.0
 10
19.061086244107
 20
64.91293588209049
 30
0.0
 10
19.058603523797
 20
64.9643428760605
 30
0.0
 10
19.05567162501701
 20
65.01651935721051
 30
0.0
 10
19.052318967587
 20
65.06943531088051
 30
0.0
 10
19.048570459457
 20
65.1230762812105
 30
0.0
 10
19.04444847072701
 20
65.1774544190005
 30
0.0
 10
19.03997307064701
 20
65.23260868236051
 30
0.0
 10
19.03516087698701
 20
65.28860434697052
 30
0.0
 10
19.030028069377
 20
65.3455114591205
 30
0.0
 10
19.02459316453701
 20
65.40340144779052
 30
0.0
 10
19.018873596647
 20
65.46234515327049
 30
0.0
 10
19.012883279067
 20
65.52240595734051
 30
0.0
 10
19.00664650227701
 20
65.58364558271052
 30
0.0
 10
19.00020387005701
 20
65.64614443475051
 30
0.0
 10
18.99353378755701
 20
65.70997288480049
 30
0.0
 10
18.986595905697
 20
65.7751886519905
 30
0.0
 10
18.97933136550701
 20
65.84181903390049
 30
0.0
 10
18.97166842190701
 20
65.90989173953051
 30
0.0
 10
18.963515278797
 20
65.97945314328049
 30
0.0
 10
18.95474073429701
 20
66.05065392603049
 30
0.0
 10
18.945159293697
 20
66.12378965714049
 30
0.0
 10
18.93452353787701
 20
66.19929164388051
 30
0.0
 10
18.92252821903701
 20
66.27767314001051
 30
0.0
 10
18.90876869508701
 20
66.35948309722051
 30
0.0
 10
18.892719553847
 20
66.4453472872305
 30
0.0
 10
18.87933228896701
 20
66.50917344106051
 30
0.0
 10
18.8713170949924
 20
66.54446766222942
 30
0.0
 10
18.870126577322
 20
66.5498807688455
 30
0.0
  0
LINE
  5
74
330
1F
100
AcDbEntity
  8
IGES_LEVEL_0
 62
     7
100
AcDbLine
 10
18.870126577322
 20
66.5498807688455
 30
0.0
 11
18.85145562671701
 21
66.63477480172051
 31
0.0
  0
LINE
  5
75
330
1F
100
AcDbEntity
  8
IGES_LEVEL_0
 62
     7
100
AcDbLine
 10
18.85145562671701
 20
66.63477480172051
 30
0.0
 11
18.794874431327
 21
66.87433015621051
 31
0.0
  0
LINE
  5
76
330
1F
100
AcDbEntity
  8
IGES_LEVEL_0
 62
     7
100
AcDbLine
 10
18.794874431327
 20
66.87433015621051
 30
0.0
 11
18.78679052791701
 21
66.9146229361605
 31
0.0
  0
LINE
  5
77
330
1F
100
AcDbEntity
  8
IGES_LEVEL_0
 62
     7
100
AcDbLine
 10
18.78679052791701
 20
66.9146229361605
 30
0.0
 11
18.78109762206701
 21
66.94557909678051
 31
0.0
  0
LINE
  5
78
330
1F
100
AcDbEntity
  8
IGES_LEVEL_0
 62
     7
100
AcDbLine
 10
18.821273428167
 20
67.05159538704049
 30
0.0
 11
18.80268614674701
 21
67.2699585936405
 31
0.0
  0
ARC
  5
7A
330
1F
100
AcDbEntity
  8
DEFAULT
 62
     7
100
AcDbCircle
 10
35.42419381966383
 20
38.15208786702355
 30
0.0
 40
0.8571643706493777
100
AcDbArc
 50
31.96167300032246
 51
55.93845916664396
  0
LINE
  5
7B
330
1F
100
AcDbEntity
  8
DEFAULT
 62
     7
100
AcDbLine
 10
35.90427704773566
 20
38.86219409318615
 30
0.0
 11
35.89703815334566
 21
38.86708810996615
 31
0.0
  0
ARC
  5
7C
330
1F
100
AcDbEntity
  8
DEFAULT
 62
     7
100
AcDbCircle
 10
35.69001968482591
 20
38.61628342785026
 30
0.0
 40
0.3252070646211656
100
AcDbArc
 50
50.46315254883351
 51
102.1672644187861
  0
LINE
  5
7D
330
1F
100
AcDbEntity
  8
DEFAULT
 62
     7
100
AcDbLine
 10
35.62147698805567
 20
38.93418519506614
 30
0.0
 11
35.57744824913566
 21
38.91559063527615
 31
0.0
  0
LINE
  5
7E
330
1F
100
AcDbEntity
  8
DEFAULT
 62
     7
100
AcDbLine
 10
35.57744824913566
 20
38.91559063527615
 30
0.0
 11
33.87144707045566
 21
38.42274003862615
 31
0.0
  0
ARC
  5
7F
330
1F
100
AcDbEntity
  8
DEFAULT
 62
     7
100
AcDbCircle
 10
33.8554612676369
 20
38.29985318893986
 30
0.0
 40
0.1239222486786809
100
AcDbArc
 50
82.58826801143489
 51
156.5346064036499
  0
LINE
  5
80
330
1F
100
AcDbEntity
  8
DEFAULT
 62
     7
100
AcDbLine
 10
33.74178729600565
 20
38.34919842063614
 30
0.0
 11
33.7177123121419
 21
38.23995241708033
 31
0.0
  0
ARC
  5
81
330
1F
100
AcDbEntity
  8
DEFAULT
 62
     7
100
AcDbCircle
 10
33.79372771372191
 20
38.22172182600271
 30
0.0
 40
0.0781709391552294
100
AcDbArc
 50
166.5136070789388
 51
244.8348256827607
  0
ARC
  5
82
330
1F
100
AcDbEntity
  8
DEFAULT
 62
     7
100
AcDbCircle
 10
33.19142575193253
 20
36.77723436938504
 30
0.0
 40
1.486936995251401
100
AcDbArc
 50
28.16661885989823
 51
67.49853022578095
  0
LINE
  5
83
330
1F
100
AcDbEntity
  8
DEFAULT
 62
     7
100
AcDbLine
 10
34.50227760977566
 20
37.47912398651614
 30
0.0
 11
34.65719563927566
 21
37.18979845465614
 31
0.0
  0
LINE
  5
84
330
1F
100
AcDbEntity
  8
DEFAULT
 62
     7
100
AcDbLine
 10
34.65719563927566
 20
37.18979845465614
 30
0.0
 11
34.78475149201567
 21
36.91039305491614
 31
0.0
  0
LINE
  5
85
330
1F
100
AcDbEntity
  8
DEFAULT
 62
     7
100
AcDbLine
 10
34.78475149201567
 20
36.91039305491614
 30
0.0
 11
34.78660506170566
 21
36.90603970701615
 31
0.0
  0
LINE
  5
86
330
1F
100
AcDbEntity
  8
DEFAULT
 62
     7
100
AcDbLine
 10
34.78660506170566
 20
36.90603970701615
 30
0.0
 11
34.90075544967566
 21
36.62070956749614
 31
0.0
  0
ARC
  5
87
330
1F
100
AcDbEntity
  8
DEFAULT
 62
     7
100
AcDbCircle
 10
24.68290527114735
 20
32.80606775693175
 30
0.0
 40
10.90669310165812
100
AcDbArc
 50
11.17293959216863
 51
20.4721699868734
  0
LINE
  5
88
330
1F
100
AcDbEntity
  8
DEFAULT
 62
     7
100
AcDbLine
 10
35.38288143539566
 20
34.91946892525614
 30
0.0
 11
35.43223162066566
 21
34.66961299917614
 31
0.0
  0
LINE
  5
89
330
1F
100
AcDbEntity
  8
DEFAULT
 62
     7
100
AcDbLine
 10
35.43223162066566
 20
34.66961299917614
 30
0.0
 11
35.47268362192567
 21
34.44298521007615
 31
0.0
  0
LINE
  5
8A
330
1F
100
AcDbEntity
  8
DEFAULT
 62
     7
100
AcDbLine
 10
35.47268362192567
 20
34.44298521007615
 30
0.0
 11
35.47788142208567
 21
34.41209663180614
 31
0.0
  0
ARC
  5
8B
330
1F
100
AcDbEntity
  8
DEFAULT
 62
     7
100
AcDbCircle
 10
22.48241804024262
 20
32.35027374272798
 30
0.0
 40
13.15800828905159
100
AcDbArc
 50
352.5386178728205
 51
9.015240832640957
  0
LINE
  5
8C
330
1F
100
AcDbEntity
  8
DEFAULT
 62
     7
100
AcDbLine
 10
35.52901236778565
 20
30.64160215717615
 30
0.0
 11
35.52366876087567
 21
30.60080094517614
 31
0.0
  0
LINE
  5
8D
330
1F
100
AcDbEntity
  8
DEFAULT
 62
     7
100
AcDbLine
 10
35.52366876087567
 20
30.60080094517614
 30
0.0
 11
35.49862156978567
 21
30.41888304920614
 31
0.0
  0
LINE
  5
8E
330
1F
100
AcDbEntity
  8
DEFAULT
 62
     7
100
AcDbLine
 10
35.49862156978567
 20
30.41888304920614
 30
0.0
 11
35.46508727893566
 21
30.19475708798614
 31
0.0
  0
ARC
  5
8F
330
1F
100
AcDbEntity
  8
DEFAULT
 62
     7
100
AcDbCircle
 10
12.31611623353626
 20
33.9265709129844
 30
0.0
 40
23.44784200913141
100
AcDbArc
 50
347.7546462892957
 51
350.8422151760234
  0
ARC
  5
90
330
1F
100
AcDbEntity
  8
DEFAULT
 62
     7
100
AcDbCircle
 10
30.9687484714822
 20
29.86585033770442
 30
0.0
 40
4.35833315480691
100
AcDbArc
 50
339.1093962044432
 51
347.9142210650086
  0
ARC
  5
91
330
1F
100
AcDbEntity
  8
DEFAULT
 62
     7
100
AcDbCircle
 10
35.11531908425503
 20
28.28320903516055
 30
0.0
 40
0.080000016471339
100
AcDbArc
 50
159.1100087117955
 51
255.8123667253298
  0
LINE
  5
92
330
1F
100
AcDbEntity
  8
DEFAULT
 62
     7
100
AcDbLine
 10
35.09571122941717
 20
28.20564915723342
 30
0.0
 11
35.18190531477071
 21
28.1838584948618
 31
0.0
  0
ARC
  5
93
330
1F
100
AcDbEntity
  8
DEFAULT
 62
     7
100
AcDbCircle
 10
35.20156815530318
 20
28.26163659629541
 30
0.0
 40
0.0802250606757165
100
AcDbArc
 50
255.8124935925615
 51
285.5111410056068
  0
LINE
  5
94
330
1F
100
AcDbEntity
  8
DEFAULT
 62
     7
100
AcDbLine
 10
35.22302240202612
 20
28.1843334549752
 30
0.0
 11
35.22774325707567
 21
28.18242615944615
 31
0.0
  0
LINE
  5
95
330
1F
100
AcDbEntity
  8
DEFAULT
 62
     7
100
AcDbLine
 10
35.22774325707567
 20
28.18242615944615
 30
0.0
 11
35.23413467116067
 21
28.18043102302615
 31
0.0
  0
LINE
  5
96
330
1F
100
AcDbEntity
  8
DEFAULT
 62
     7
100
AcDbLine
 10
35.23413467116067
 20
28.18043102302615
 30
0.0
 11
35.32003990212066
 21
28.15753049073614
 31
0.0
  0
ARC
  5
97
330
1F
100
AcDbEntity
  8
DEFAULT
 62
     7
100
AcDbCircle
 10
35.31712013540319
 20
28.36821049100735
 30
0.0
 40
0.2107002314947952
100
AcDbArc
 50
270.7939984851551
 51
311.3881386314713
  0
ARC
  5
98
330
1F
100
AcDbEntity
  8
DEFAULT
 62
     7
100
AcDbCircle
 10
30.38075475430898
 20
36.00053724147254
 30
0.0
 40
9.29800169228321
100
AcDbArc
 50
303.0853943749384
 51
310.7566681420442
  0
ARC
  5
99
330
1F
100
AcDbEntity
  8
IGES_LEVEL_0
 62
     7
100
AcDbCircle
 10
33.72708788076
 20
32.48271655149506
 30
0.0
 40
1.955009001099429
100
AcDbArc
 50
1.047369269863812
 51
6.684918544884496
  0
LINE
  5
9A
330
1F
100
AcDbEntity
  8
IGES_LEVEL_0
 62
     7
100
AcDbLine
 10
35.68177024810566
 20
32.51845220830614
 30
0.0
 11
35.68235410122567
 21
32.48651639123614
 31
0.0
  0
LINE
  5
9B
330
1F
100
AcDbEntity
  8
IGES_LEVEL_0
 62
     7
100
AcDbLine
 10
35.68235410122567
 20
32.48651639123614
 30
0.0
 11
35.68242444204067
 21
32.48046265864615
 31
0.0
  0
LINE
  5
9C
330
1F
100
AcDbEntity
  8
IGES_LEVEL_0
 62
     7
100
AcDbLine
 10
35.68242444204067
 20
32.48046265864615
 30
0.0
 11
35.68253632673567
 21
32.46666129718614
 31
0.0
  0
LINE
  5
9D
330
1F
100
AcDbEntity
  8
IGES_LEVEL_0
 62
     7
100
AcDbLine
 10
35.68253632673567
 20
32.46666129718614
 30
0.0
 11
35.68258136710567
 21
32.45184660526614
 31
0.0
  0
LINE
  5
9E
330
1F
100
AcDbEntity
  8
IGES_LEVEL_0
 62
     7
100
AcDbLine
 10
35.68258136710567
 20
32.45184660526614
 30
0.0
 11
35.67206320247566
 21
32.24483465400614
 31
0.0
  0
LINE
  5
9F
330
1F
100
AcDbEntity
  8
IGES_LEVEL_0
 62
     7
100
AcDbLine
 10
35.67206320247566
 20
32.24483465400614
 30
0.0
 11
35.67235867403566
 21
32.24619562169615
 31
0.0
  0
ARC
  5
A0
330
1F
100
AcDbEntity
  8
IGES_LEVEL_0
 62
     7
100
AcDbCircle
 10
37.25386324839944
 20
33.82972475445119
 30
0.0
 40
0.7533285630040962
100
AcDbArc
 50
21.88448475540688
 51
37.96686913253874
  0
LINE
  5
A1
330
1F
100
AcDbEntity
  8
IGES_LEVEL_0
 62
     7
100
AcDbLine
 10
37.95290486242566
 20
34.11051782006614
 30
0.0
 11
37.96521329401567
 21
34.07987566063115
 31
0.0
  0
LINE
  5
A2
330
1F
100
AcDbEntity
  8
IGES_LEVEL_0
 62
     7
100
AcDbLine
 10
37.96521329401567
 20
34.07987566063115
 30
0.0
 11
37.96757761370567
 21
34.07362095270614
 31
0.0
  0
LINE
  5
A3
330
1F
100
AcDbEntity
  8
IGES_LEVEL_0
 62
     7
100
AcDbLine
 10
37.96757761370567
 20
34.07362095270614
 30
0.0
 11
37.97560947972566
 21
34.05124712772614
 31
0.0
  0
ARC
  5
A4
330
1F
100
AcDbEntity
  8
IGES_LEVEL_0
 62
     7
100
AcDbCircle
 10
37.6254538601461
 20
33.90759215253466
 30
0.0
 40
0.3784781497265207
100
AcDbArc
 50
354.5955366255246
 51
22.3063994070951
  0
ARC
  5
A5
330
1F
100
AcDbEntity
  8
IGES_LEVEL_0
 62
     7
100
AcDbCircle
 10
37.04179224975877
 20
33.35237690803609
 30
0.0
 40
0.3830986675888092
100
AcDbArc
 50
14.1374177446088
 51
42.26013842316387
  0
LINE
  5
A6
330
1F
100
AcDbEntity
  8
IGES_LEVEL_0
 62
     7
100
AcDbLine
 10
37.41328789788567
 20
33.44594812439614
 30
0.0
 11
37.42130513071567
 21
33.41411817473615
 31
0.0
  0
LINE
  5
A7
330
1F
100
AcDbEntity
  8
IGES_LEVEL_0
 62
     7
100
AcDbLine
 10
37.42130513071567
 20
33.41411817473615
 30
0.0
 11
37.42386960709565
 21
33.40125223466615
 31
0.0
  0
LINE
  5
A8
330
1F
100
AcDbEntity
  8
IGES_LEVEL_0
 62
     7
100
AcDbLine
 10
37.42386960709565
 20
33.40125223466615
 30
0.0
 11
37.42621988233567
 21
33.38722164125615
 31
0.0
  0
ARC
  5
A9
330
1F
100
AcDbEntity
  8
IGES_LEVEL_0
 62
     7
100
AcDbCircle
 10
37.20565603962862
 20
33.34049163254758
 30
0.0
 40
0.2254597578806559
100
AcDbArc
 50
335.7206219055063
 51
11.96214612224894
  0
ARC
  5
AA
330
1F
100
AcDbEntity
  8
IGES_LEVEL_0
 62
     7
100
AcDbCircle
 10
35.61533512971518
 20
32.46095774349202
 30
0.0
 40
3.549906614575542
100
AcDbArc
 50
304.4913384545744
 51
329.1776575972456
  0
LINE
  5
AB
330
1F
100
AcDbEntity
  8
IGES_LEVEL_0
 62
     7
100
AcDbLine
 10
38.66385350660067
 20
30.64206448714114
 30
0.0
 11
38.66456931543566
 21
30.64326420371614
 31
0.0
  0
LINE
  5
AC
330
1F
100
AcDbEntity
  8
IGES_LEVEL_0
 62
     7
100
AcDbLine
 10
38.66456931543566
 20
30.64326420371614
 30
0.0
 11
38.68102140227566
 21
30.67150074340614
 31
0.0
  0
SPLINE
  5
AD
330
1F
100
AcDbEntity
  8
IGES_LEVEL_0
 62
     7
100
AcDbSpline
210
0.0
220
0.0
230
1.0
 70
     8
 71
     3
 72
    36
 73
    32
 74
     0
 42
0.0000000001
 43
0.0000000001
 40
3.0
 40
3.0
 40
3.0
 40
3.0
 40
3.01618918618678
 40
3.0620393966223
 40
3.1050243092829
 40
3.1464893081717
 40
3.187974740516
 40
3.2296745247196
 40
3.2693062290088
 40
3.3055165250436
 40
3.3411278585772
 40
3.3802548264878
 40
3.4222995211009
 40
3.4657198727841
 40
3.5091150624667
 40
3.5518782688055
 40
3.5933405909932
 40
3.6330569062548
 40
3.6709785646168
 40
3.7072427043865
 40
3.7422895176906
 40
3.7763621004082
 40
3.8093014603794
 40
3.8409467186116
 40
3.8711508780586
 40
3.8995308761226
 40
3.9252342640666
 40
3.947898228542
 40
3.9681676789982
 40
3.9864888872319
 40
4.0
 40
4.0
 40
4.0
 40
4.0
 10
38.68102140227566
 20
30.67150074340614
 30
0.0
 10
38.70452990013565
 20
30.71203133803614
 30
0.0
 10
38.79329418203567
 20
30.86811942951614
 30
0.0
 10
38.93412493816565
 20
31.13763893306614
 30
0.0
 10
39.08582976585566
 20
31.48327180975614
 30
0.0
 10
39.20056596077566
 20
31.82990471162614
 30
0.0
 10
39.27345221483567
 20
32.18408802411614
 30
0.0
 10
39.30526718651566
 20
32.53861052578614
 30
0.0
 10
39.30934837493565
 20
32.87906849450614
 30
0.0
 10
39.28437866260566
 20
33.20115410169615
 30
0.0
 10
39.22518000604566
 20
33.51740635232615
 30
0.0
 10
39.12511729180567
 20
33.84090507643614
 30
0.0
 10
38.98906346549566
 20
34.17493548374614
 30
0.0
 10
38.84590784013567
 20
34.51923150772615
 30
0.0
 10
38.69849424961566
 20
34.86403623817614
 30
0.0
 10
38.55111093246566
 20
35.20266711444614
 30
0.0
 10
38.40603502963566
 20
35.53068789825615
 30
0.0
 10
38.26526011783567
 20
35.84528540604615
 30
0.0
 10
38.12981997583567
 20
36.14578854870614
 30
0.0
 10
37.99915252009566
 20
36.43362001634614
 30
0.0
 10
37.87177710695566
 20
36.71071051274615
 30
0.0
 10
37.74666512549565
 20
36.97824678670614
 30
0.0
 10
37.62333488696567
 20
37.23573871507614
 30
0.0
 10
37.50187922811567
 20
37.48169713919614
 30
0.0
 10
37.38292809298567
 20
37.71414960497614
 30
0.0
 10
37.26844779834566
 20
37.92954172135615
 30
0.0
 10
37.16120996676567
 20
38.12404001116614
 30
0.0
 10
37.06335903250566
 20
38.29688892183614
 30
0.0
 10
36.97476851244566
 20
38.45043682272615
 30
0.0
 10
36.90146271513567
 20
38.58217058395614
 30
0.0
 10
36.8560294193553
 20
38.66235341829519
 30
0.0
 10
36.83598200915567
 20
38.69592266016615
 30
0.0
  0
LINE
  5
AE
330
1F
100
AcDbEntity
  8
IGES_LEVEL_0
 62
     7
100
AcDbLine
 10
36.83598200915567
 20
38.69592266016615
 30
0.0
 11
36.83157501553566
 21
38.70330213877614
 31
0.0
  0
LINE
  5
AF
330
1F
100
AcDbEntity
  8
IGES_LEVEL_0
 62
     7
100
AcDbLine
 10
36.83157501553566
 20
38.70330213877614
 30
0.0
 11
36.83073336609067
 21
38.70435013304614
 31
0.0
  0
LINE
  5
B0
330
1F
100
AcDbEntity
  8
IGES_LEVEL_0
 62
     7
100
AcDbLine
 10
36.83073336609067
 20
38.70435013304614
 30
0.0
 11
36.82981097871566
 21
38.70551326081615
 31
0.0
  0
LINE
  5
B1
330
1F
100
AcDbEntity
  8
IGES_LEVEL_0
 62
     7
100
AcDbLine
 10
36.82981097871566
 20
38.70551326081615
 30
0.0
 11
36.74020190386066
 21
38.83914765178614
 31
0.0
  0
SPLINE
  5
B2
330
1F
100
AcDbEntity
  8
IGES_LEVEL_0
 62
     7
100
AcDbSpline
210
0.0
220
0.0
230
1.0
 70
     8
 71
     3
 72
    16
 73
    12
 74
     0
 42
0.0000000001
 43
0.0000000001
 40
8.0
 40
8.0
 40
8.0
 40
8.0
 40
8.149813132305813
 40
8.309411413131068
 40
8.452340820994003
 40
8.578142500566697
 40
8.687554806387844
 40
8.783110725242308
 40
8.867881753715533
 40
8.947243929595164
 40
9.0
 40
9.0
 40
9.0
 40
9.0
 10
36.74020190386066
 20
38.83914765178614
 30
0.0
 10
36.71896867938216
 20
38.86750168550529
 30
0.0
 10
36.67308003652845
 20
38.92456967998901
 30
0.0
 10
36.59974586983567
 20
39.00257434426614
 30
0.0
 10
36.52421420087566
 20
39.07021602509614
 30
0.0
 10
36.45249740529566
 20
39.12380146139614
 30
0.0
 10
36.38550863178567
 20
39.16440655983615
 30
0.0
 10
36.32327761820567
 20
39.19340070543614
 30
0.0
 10
36.26451776880566
 20
39.21193476663614
 30
0.0
 10
36.2134710932559
 20
39.21912470928
 30
0.0
 10
36.1820288107828
 20
39.21779304206835
 30
0.0
 10
36.16962542656066
 20
39.21624526667615
 30
0.0
  0
SPLINE
  5
B3
330
1F
100
AcDbEntity
  8
IGES_LEVEL_0
 62
     7
100
AcDbSpline
210
0.0
220
0.0
230
1.0
 70
     8
 71
     3
 72
   110
 73
   106
 74
     0
 42
0.0000000001
 43
0.0000000001
 40
9.0
 40
9.0
 40
9.0
 40
9.0
 40
9.014641501739305
 40
9.032725276344184
 40
9.051432749303137
 40
9.07068466744747
 40
9.090401348866456
 40
9.110503614196164
 40
9.130958149783419
 40
9.15173292787032
 40
9.172758020538382
 40
9.193966467832761
 40
9.215294139228133
 40
9.236679620689257
 40
9.258064119493628
 40
9.279395409857303
 40
9.300653263227732
 40
9.321784427232023
 40
9.342729938088549
 40
9.363435081333543
 40
9.383848851410003
 40
9.403924449079321
 40
9.423619307881292
 40
9.442895100345917
 40
9.461717747467132
 40
9.480037800217723
 40
9.497821939673099
 40
9.515073461504457
 40
9.531803463028789
 40
9.548032579694894
 40
9.563781635472891
 40
9.579070928642402
 40
9.593920211237256
 40
9.60834867077606
 40
9.622374914192857
 40
9.636016953791547
 40
9.649290458475353
 40
9.662188273828315
 40
9.674721373022598
 40
9.686907903833712
 40
9.698760549803248
 40
9.710285814367406
 40
9.721489630534668
 40
9.732377734514209
 40
9.742955671605316
 40
9.753228801654149
 40
9.763202304116541
 40
9.772881182779436
 40
9.78227027020565
 40
9.791374231974114
 40
9.800199536430636
 40
9.808761194165324
 40
9.817065258522257
 40
9.825116080789067
 40
9.832917866292316
 40
9.840474676309666
 40
9.847790429563323
 40
9.854868903391182
 40
9.861713734689451
 40
9.868328420711791
 40
9.874716319818234
 40
9.880880652261304
 40
9.886824500857355
 40
9.892550283128584
 40
9.898059441972313
 40
9.903353475211235
 40
9.908433920739805
 40
9.913302361854221
 40
9.917990864926933
 40
9.922536222602989
 40
9.926938295917058
 40
9.9311970308874
 40
9.935312532742801
 40
9.939285067770923
 40
9.943115064783966
 40
9.946803144360255
 40
9.950351045847306
 40
9.953761714625987
 40
9.957038085001893
 40
9.960182998918874
 40
9.963199202224708
 40
9.966089340895271
 40
9.968855957184312
 40
9.971501485659712
 40
9.974028249073843
 40
9.976438453997828
 40
9.978734186133368
 40
9.980917405180581
 40
9.982989939106995
 40
9.984952530241481
 40
9.986799782745647
 40
9.988530862236189
 40
9.990145922249132
 40
9.991645002968546
 40
9.993027977913922
 40
9.994294483524687
 40
9.995443825112989
 40
9.996474849111158
 40
9.997385766381784
 40
9.998173902997639
 40
9.998835341015541
 40
9.999364387954101
 40
9.999752771442099
 40
9.999988377564133
 40
10.0
 40
10.0
 40
10.0
 40
10.0
 10
36.16962542656066
 20
39.21624526667615
 30
0.0
 10
36.1599552157986
 20
39.21503855454122
 30
0.0
 10
36.13835285652962
 20
39.2122485919834
 30
0.0
 10
36.10443236077566
 20
39.20763199958615
 30
0.0
 10
36.06750181790567
 20
39.20238229001614
 30
0.0
 10
36.02952072793566
 20
39.19680386534615
 30
0.0
 10
35.99064105279565
 20
39.19095684451614
 30
0.0
 10
35.95098389105566
 20
39.18489826562614
 30
0.0
 10
35.91063873529566
 20
39.17868004728614
 30
0.0
 10
35.86969556960567
 20
39.17230983052614
 30
0.0
 10
35.82826615069565
 20
39.16580122241614
 30
0.0
 10
35.78648313719566
 20
39.15917250107614
 30
0.0
 10
35.74447334206566
 20
39.15244268125614
 30
0.0
 10
35.70235792823566
 20
39.14563167978614
 30
0.0
 10
35.66025013130566
 20
39.13875878877614
 30
0.0
 10
35.61823536427566
 20
39.13184351213614
 30
0.0
 10
35.57639744906565
 20
39.12489221652614
 30
0.0
 10
35.53482801367566
 20
39.11789212397615
 30
0.0
 10
35.49364048544565
 20
39.11084029263614
 30
0.0
 10
35.45294684198566
 20
39.10373446491614
 30
0.0
 10
35.41285090910567
 20
39.09657328023614
 30
0.0
 10
35.37344846697566
 20
39.08935582046614
 30
0.0
 10
35.33482691212566
 20
39.08208158817615
 30
0.0
 10
35.29706530104566
 20
39.07475024355614
 30
0.0
 10
35.26024706539566
 20
39.06736454620614
 30
0.0
 10
35.22445261830566
 20
39.05992739164614
 30
0.0
 10
35.18973263105566
 20
39.05246363904614
 30
0.0
 10
35.15609768262566
 20
39.04499193990614
 30
0.0
 10
35.12352331450566
 20
39.03752230768615
 30
0.0
 10
35.09197376217567
 20
39.03006114198614
 30
0.0
 10
35.06140747800566
 20
39.02261205857614
 30
0.0
 10
35.03178369134567
 20
39.01517743164614
 30
0.0
 10
35.00306291079566
 20
39.00775856184615
 30
0.0
 10
34.97520695918566
 20
39.00035578742615
 30
0.0
 10
34.94817903851566
 20
38.99296846831614
 30
0.0
 10
34.92194477673566
 20
38.98559572168614
 30
0.0
 10
34.89648679487566
 20
38.97823941091615
 30
0.0
 10
34.87179122530567
 20
38.97090603335614
 30
0.0
 10
34.84783984087567
 20
38.96361032997614
 30
0.0
 10
34.82460209969567
 20
38.95636111863614
 30
0.0
 10
34.80205020131567
 20
38.94916758954614
 30
0.0
 10
34.78016409227566
 20
38.94204059878614
 30
0.0
 10
34.75892805914566
 20
38.93499188770615
 30
0.0
 10
34.73832695432567
 20
38.92803285464615
 30
0.0
 10
34.71834597515566
 20
38.92117446871615
 30
0.0
 10
34.69897067944567
 20
38.91442725097615
 30
0.0
 10
34.68018699919567
 20
38.90780126495614
 30
0.0
 10
34.66198125968566
 20
38.90130609564614
 30
0.0
 10
34.64434018020566
 20
38.89495088020614
 30
0.0
 10
34.62724970926566
 20
38.88874371808615
 30
0.0
 10
34.61068942500566
 20
38.88269015409614
 30
0.0
 10
34.59463884985566
 20
38.87679300540614
 30
0.0
 10
34.57907953735567
 20
38.87105353421615
 30
0.0
 10
34.56399977182566
 20
38.86547546110614
 30
0.0
 10
34.54938922365567
 20
38.86006252628614
 30
0.0
 10
34.53523794730566
 20
38.85481823261614
 30
0.0
 10
34.52153639994566
 20
38.84974581061614
 30
0.0
 10
34.50827544713566
 20
38.84484821946614
 30
0.0
 10
34.49544637162566
 20
38.84012814002614
 30
0.0
 10
34.48304088078567
 20
38.83558797047614
 30
0.0
 10
34.47105111387566
 20
38.83122982161615
 30
0.0
 10
34.45946964868567
 20
38.82705551194614
 30
0.0
 10
34.44828983889566
 20
38.82306668069614
 30
0.0
 10
34.43750634887566
 20
38.81926495942614
 30
0.0
 10
34.42711504620566
 20
38.81565190328614
 30
0.0
 10
34.41711257521565
 20
38.81222879329614
 30
0.0
 10
34.40749571334565
 20
38.80899643009614
 30
0.0
 10
34.39824217738565
 20
38.80594864858614
 30
0.0
 10
34.38930729433567
 20
38.80307252313614
 30
0.0
 10
34.38064978759566
 20
38.80034841039614
 30
0.0
 10
34.37224845068566
 20
38.79776380985614
 30
0.0
 10
34.36410517495567
 20
38.79531396331615
 30
0.0
 10
34.35622149110567
 20
38.79299416089614
 30
0.0
 10
34.34859851420566
 20
38.79079976407614
 30
0.0
 10
34.34123692924565
 20
38.78872619521614
 30
0.0
 10
34.33413637954565
 20
38.78676877456614
 30
0.0
 10
34.32729479509565
 20
38.78492256063615
 30
0.0
 10
34.32070851714566
 20
38.78318242386614
 30
0.0
 10
34.31437307634566
 20
38.78154327606615
 30
0.0
 10
34.30828403672565
 20
38.78000028672614
 30
0.0
 10
34.30243706097566
 20
38.77854888362614
 30
0.0
 10
34.29682792526566
 20
38.77718474070615
 30
0.0
 10
34.29145253363566
 20
38.77590376645614
 30
0.0
 10
34.28630693207566
 20
38.77470209299614
 30
0.0
 10
34.28138732245567
 20
38.77357606589614
 30
0.0
 10
34.27669007653567
 20
38.77252223387615
 30
0.0
 10
34.27221174980566
 20
38.77153734159614
 30
0.0
 10
34.26794909752566
 20
38.77061831451614
 30
0.0
 10
34.26389970252566
 20
38.76976240407615
 30
0.0
 10
34.26006591657567
 20
38.76896789815615
 30
0.0
 10
34.25645175810566
 20
38.76823370331614
 30
0.0
 10
34.25306156579566
 20
38.76755906928614
 30
0.0
 10
34.24989613840566
 20
38.76694244563615
 30
0.0
 10
34.24695580664566
 20
38.76638220269614
 30
0.0
 10
34.24424121385566
 20
38.76587676216614
 30
0.0
 10
34.24175353983567
 20
38.76542462476614
 30
0.0
 10
34.23949443478567
 20
38.76502435433615
 30
0.0
 10
34.23746712356567
 20
38.76467470142615
 30
0.0
 10
34.23567412164566
 20
38.76437430720614
 30
0.0
 10
34.23412594546566
 20
38.76412273540615
 30
0.0
 10
34.23281742343566
 20
38.76391754036614
 30
0.0
 10
34.23179836771566
 20
38.76376279586614
 30
0.0
 10
34.23099211409566
 20
38.76364686506614
 30
0.0
 10
34.23064852057566
 20
38.76359794410614
 30
0.0
 10
34.23043797696566
 20
38.76357036937614
 30
0.0
 10
34.23042819907566
 20
38.76356909019614
 30
0.0
  0
LINE
  5
B4
330
1F
100
AcDbEntity
  8
IGES_LEVEL_0
 62
     7
100
AcDbLine
 10
35.55747236695567
 20
30.63754091775614
 30
0.0
 11
35.55744526577566
 21
30.63804478777614
 31
0.0
  0
LINE
  5
B5
330
1F
100
AcDbEntity
  8
IGES_LEVEL_0
 62
     7
100
AcDbLine
 10
35.55744526577566
 20
30.63804478777614
 30
0.0
 11
35.53917213145566
 21
30.41321216956614
 31
0.0
  0
LINE
  5
B6
330
1F
100
AcDbEntity
  8
IGES_LEVEL_0
 62
     7
100
AcDbLine
 10
35.53917213145566
 20
30.41321216956614
 30
0.0
 11
35.53691957438566
 21
30.39744237361614
 31
0.0
  0
LINE
  5
B7
330
1F
100
AcDbEntity
  8
IGES_LEVEL_0
 62
     7
100
AcDbLine
 10
35.53691957438566
 20
30.39744237361614
 30
0.0
 11
35.53568578970565
 21
30.38910522188614
 31
0.0
  0
LINE
  5
B8
330
1F
100
AcDbEntity
  8
IGES_LEVEL_0
 62
     7
100
AcDbLine
 10
35.53568578970565
 20
30.38910522188614
 30
0.0
 11
35.49366320105567
 21
30.19033392713615
 31
0.0
  0
ARC
  5
B9
330
1F
100
AcDbEntity
  8
IGES_LEVEL_0
 62
     7
100
AcDbCircle
 10
32.4937438337501
 20
35.95222018696308
 30
0.0
 40
2.5116620038329
100
AcDbArc
 50
23.75850236045838
 51
29.74125767214666
  0
LINE
  5
BA
330
1F
100
AcDbEntity
  8
IGES_LEVEL_0
 62
     7
100
AcDbLine
 10
34.79254676206567
 20
36.96412488517615
 30
0.0
 11
34.81106417399566
 21
36.92205780035614
 31
0.0
  0
LINE
  5
BB
330
1F
100
AcDbEntity
  8
IGES_LEVEL_0
 62
     7
100
AcDbLine
 10
34.81106417399566
 20
36.92205780035614
 30
0.0
 11
34.81320372055566
 21
36.91709533789114
 31
0.0
  0
LINE
  5
BC
330
1F
100
AcDbEntity
  8
IGES_LEVEL_0
 62
     7
100
AcDbLine
 10
34.81320372055566
 20
36.91709533789114
 30
0.0
 11
34.91856586078566
 21
36.62742701846614
 31
0.0
  0
LINE
  5
BD
330
1F
100
AcDbEntity
  8
IGES_LEVEL_0
 62
     7
100
AcDbLine
 10
35.42899703988566
 20
37.35291755599614
 30
0.0
 11
35.56011649787565
 21
37.15345328003615
 31
0.0
  0
LINE
  5
BE
330
1F
100
AcDbEntity
  8
IGES_LEVEL_0
 62
     7
100
AcDbLine
 10
35.56011649787565
 20
37.15345328003615
 30
0.0
 11
35.57527342273067
 21
37.12265537790114
 31
0.0
  0
LINE
  5
BF
330
1F
100
AcDbEntity
  8
IGES_LEVEL_0
 62
     7
100
AcDbLine
 10
35.57527342273067
 20
37.12265537790114
 30
0.0
 11
35.58060302737566
 21
37.11124352844614
 31
0.0
  0
LINE
  5
C0
330
1F
100
AcDbEntity
  8
IGES_LEVEL_0
 62
     7
100
AcDbLine
 10
35.58060302737566
 20
37.11124352844614
 30
0.0
 11
35.58905001229566
 21
37.09242389057614
 31
0.0
  0
ARC
  5
C1
330
1F
100
AcDbEntity
  8
IGES_LEVEL_0
 62
     7
100
AcDbCircle
 10
35.11561486290393
 20
36.85960957158974
 30
0.0
 40
0.5275825507014741
100
AcDbArc
 50
3.218099792223415
 51
26.18590439364803
  0
LINE
  5
C2
330
1F
100
AcDbEntity
  8
IGES_LEVEL_0
 62
     7
100
AcDbLine
 10
36.68068566499566
 20
31.28566454591615
 30
0.0
 11
36.69910196659566
 21
31.13502198007614
 31
0.0
  0
LINE
  5
C3
330
1F
100
AcDbEntity
  8
IGES_LEVEL_0
 62
     7
100
AcDbLine
 10
36.69910196659566
 20
31.13502198007614
 30
0.0
 11
36.69672654888066
 21
31.11252911052614
 31
0.0
  0
LINE
  5
C4
330
1F
100
AcDbEntity
  8
IGES_LEVEL_0
 62
     7
100
AcDbLine
 10
36.69672654888066
 20
31.11252911052614
 30
0.0
 11
36.69507097723566
 21
31.10100395855614
 31
0.0
  0
LINE
  5
C5
330
1F
100
AcDbEntity
  8
IGES_LEVEL_0
 62
     7
100
AcDbLine
 10
36.69507097723566
 20
31.10100395855614
 30
0.0
 11
36.69029872844565
 21
31.07536252893614
 31
0.0
  0
LINE
  5
C6
330
1F
100
AcDbEntity
  8
IGES_LEVEL_0
 62
     7
100
AcDbLine
 10
36.69029872844565
 20
31.07536252893614
 30
0.0
 11
36.63961694486567
 21
30.95874270354614
 31
0.0
  0
ARC
  5
C7
330
1F
100
AcDbEntity
  8
IGES_LEVEL_0
 62
     7
100
AcDbCircle
 10
35.67135940287076
 20
30.82087571095075
 30
0.0
 40
0.4537970855612605
100
AcDbArc
 50
355.0881246022574
 51
14.66007725459083
  0
LINE
  5
C8
330
1F
100
AcDbEntity
  8
IGES_LEVEL_0
 62
     7
100
AcDbLine
 10
36.12348995079567
 20
30.78202004859615
 30
0.0
 11
36.12049109690567
 21
30.74712491696614
 31
0.0
  0
LINE
  5
C9
330
1F
100
AcDbEntity
  8
IGES_LEVEL_0
 62
     7
100
AcDbLine
 10
36.12049109690567
 20
30.74712491696614
 30
0.0
 11
36.11984740778566
 21
30.74156427922614
 31
0.0
  0
LINE
  5
CA
330
1F
100
AcDbEntity
  8
IGES_LEVEL_0
 62
     7
100
AcDbLine
 10
36.11984740778566
 20
30.74156427922614
 30
0.0
 11
36.11647627717566
 21
30.71712574708614
 31
0.0
  0
LINE
  5
CB
330
1F
100
AcDbEntity
  8
IGES_LEVEL_0
 62
     7
100
AcDbLine
 10
36.11647627717566
 20
30.71712574708614
 30
0.0
 11
36.06786096835566
 21
30.56818192798614
 31
0.0
  0
LINE
  5
CC
330
1F
100
AcDbEntity
  8
IGES_LEVEL_0
 62
     7
100
AcDbLine
 10
35.86301450349566
 20
37.51618580590615
 30
0.0
 11
36.00804544753567
 21
37.31946931073614
 31
0.0
  0
LINE
  5
CD
330
1F
100
AcDbEntity
  8
IGES_LEVEL_0
 62
     7
100
AcDbLine
 10
36.00804544753567
 20
37.31946931073614
 30
0.0
 11
36.02665919603066
 21
37.28507935588115
 31
0.0
  0
LINE
  5
CE
330
1F
100
AcDbEntity
  8
IGES_LEVEL_0
 62
     7
100
AcDbLine
 10
36.02665919603066
 20
37.28507935588115
 30
0.0
 11
36.03018695554566
 21
37.27818481390614
 31
0.0
  0
LINE
  5
CF
330
1F
100
AcDbEntity
  8
IGES_LEVEL_0
 62
     7
100
AcDbLine
 10
36.03018695554566
 20
37.27818481390614
 30
0.0
 11
36.04127882824567
 21
37.25555949324614
 31
0.0
  0
ARC
  5
D0
330
1F
100
AcDbEntity
  8
IGES_LEVEL_0
 62
     7
100
AcDbCircle
 10
35.65172058600187
 20
37.04570795585794
 30
0.0
 40
0.4424853577738671
100
AcDbArc
 50
2.091793419304314
 51
28.31094895583439
  0
LINE
  5
D1
330
1F
100
AcDbEntity
  8
IGES_LEVEL_0
 62
     7
100
AcDbLine
 10
36.13825641087566
 20
32.94440837250615
 30
0.0
 11
36.17811151294566
 21
32.77660305212615
 31
0.0
  0
LINE
  5
D2
330
1F
100
AcDbEntity
  8
IGES_LEVEL_0
 62
     7
100
AcDbLine
 10
36.17811151294566
 20
32.77660305212615
 30
0.0
 11
36.18027476994566
 21
32.74909888246614
 31
0.0
  0
LINE
  5
D3
330
1F
100
AcDbEntity
  8
IGES_LEVEL_0
 62
     7
100
AcDbLine
 10
36.18027476994566
 20
32.74909888246614
 30
0.0
 11
36.18087513021565
 21
32.73757381453615
 31
0.0
  0
LINE
  5
D4
330
1F
100
AcDbEntity
  8
IGES_LEVEL_0
 62
     7
100
AcDbLine
 10
36.18087513021565
 20
32.73757381453615
 30
0.0
 11
36.18151007263566
 21
32.71542747021614
 31
0.0
  0
LINE
  5
D5
330
1F
100
AcDbEntity
  8
IGES_LEVEL_0
 62
     7
100
AcDbLine
 10
36.18151007263566
 20
32.71542747021614
 30
0.0
 11
36.15723683617567
 21
32.55869249394614
 31
0.0
  0
ARC
  5
D6
330
1F
100
AcDbEntity
  8
IGES_LEVEL_0
 62
     7
100
AcDbCircle
 10
35.70604753533488
 20
32.23927797856911
 30
0.0
 40
2.958424431707792
100
AcDbArc
 50
315.5166789060748
 51
329.1978089607204
  0
LINE
  5
D7
330
1F
100
AcDbEntity
  8
IGES_LEVEL_0
 62
     7
100
AcDbLine
 10
38.24715754964066
 20
30.72434068174114
 30
0.0
 11
38.32258419907566
 21
30.85085906281615
 31
0.0
  0
LINE
  5
D8
330
1F
100
AcDbEntity
  8
IGES_LEVEL_0
 62
     7
100
AcDbLine
 10
38.32258419907566
 20
30.85085906281615
 30
0.0
 11
38.32323019990567
 21
30.85198249275614
 31
0.0
  0
LINE
  5
D9
330
1F
100
AcDbEntity
  8
IGES_LEVEL_0
 62
     7
100
AcDbLine
 10
38.32323019990567
 20
30.85198249275614
 30
0.0
 11
38.33276939595567
 21
30.86848108553614
 31
0.0
  0
ARC
  5
DA
330
1F
100
AcDbEntity
  8
IGES_LEVEL_0
 62
     7
100
AcDbCircle
 10
36.62891929283416
 20
31.83857677046197
 30
0.0
 40
1.960660809986997
100
AcDbArc
 50
330.3447580393705
 51
354.7719900652407
  0
LINE
  5
DB
330
1F
100
AcDbEntity
  8
IGES_LEVEL_0
 62
     7
100
AcDbLine
 10
38.58142369986566
 20
31.65992248884114
 30
0.0
 11
38.64633098482566
 21
31.89211989451614
 31
0.0
  0
SPLINE
  5
DC
330
1F
100
AcDbEntity
  8
IGES_LEVEL_0
 62
     7
100
AcDbSpline
210
0.0
220
0.0
230
1.0
 70
     8
 71
     3
 72
    28
 73
    24
 74
     0
 42
0.0000000001
 43
0.0000000001
 40
6.0
 40
6.0
 40
6.0
 40
6.0
 40
6.0446815907816
 40
6.0920256819597
 40
6.1396762652608
 40
6.1874666200622
 40
6.2364781681475
 40
6.2886355133088
 40
6.3443020525145
 40
6.4030185015127
 40
6.4628858703021
 40
6.5214837028511
 40
6.5773019946183
 40
6.6305735201159
 40
6.6817153137422
 40
6.7310464927876
 40
6.7785142321805
 40
6.8239780888404
 40
6.8672924016037
 40
6.90832149652427
 40
6.94691412940756
 40
6.98310761185624
 40
7.0
 40
7.0
 40
7.0
 40
7.0
 10
38.64633098482566
 20
31.89211989451614
 30
0.0
 10
38.68585034575567
 20
31.98950696582615
 30
0.0
 10
38.75686680672565
 20
32.19492971990614
 30
0.0
 10
38.80842287625566
 20
32.52036757800615
 30
0.0
 10
38.82863056975566
 20
32.85600999265614
 30
0.0
 10
38.79914910774566
 20
33.19607899659614
 30
0.0
 10
38.70552936849566
 20
33.53534996698615
 30
0.0
 10
38.55894527367566
 20
33.87401919508614
 30
0.0
 10
38.40274579112567
 20
34.23294279203614
 30
0.0
 10
38.23866278701566
 20
34.60833328128614
 30
0.0
 10
38.07177593502566
 20
34.98998174678614
 30
0.0
 10
37.90724042613566
 20
35.36523201572614
 30
0.0
 10
37.74878618367566
 20
35.72621422889614
 30
0.0
 10
37.59725438132567
 20
36.07109238702614
 30
0.0
 10
37.45167929513566
 20
36.40192942502614
 30
0.0
 10
37.31129979080566
 20
36.72014533339615
 30
0.0
 10
37.17584207691566
 20
37.02594296955614
 30
0.0
 10
37.04540655444566
 20
37.31849108347615
 30
0.0
 10
36.92009835716566
 20
37.59675807656615
 30
0.0
 10
36.80011605368567
 20
37.85967586192614
 30
0.0
 10
36.68492332369566
 20
38.10646736470615
 30
0.0
 10
36.59243553880566
 20
38.30092737144614
 30
0.0
 10
36.53648537163763
 20
38.41286620080646
 30
0.0
 10
36.51701633134566
 20
38.44751316074614
 30
0.0
  0
LINE
  5
DD
330
1F
100
AcDbEntity
  8
IGES_LEVEL_0
 62
     7
100
AcDbLine
 10
36.51701633134566
 20
38.44751316074614
 30
0.0
 11
36.49852939324066
 21
38.48041237890615
 31
0.0
  0
LINE
  5
DE
330
1F
100
AcDbEntity
  8
IGES_LEVEL_0
 62
     7
100
AcDbLine
 10
36.49852939324066
 20
38.48041237890615
 30
0.0
 11
36.48148274994567
 21
38.50884136269615
 31
0.0
  0
LINE
  5
DF
330
1F
100
AcDbEntity
  8
IGES_LEVEL_0
 62
     7
100
AcDbLine
 10
36.48148274994567
 20
38.50884136269615
 30
0.0
 11
36.47429789359566
 21
38.52058708844614
 31
0.0
  0
LINE
  5
E0
330
1F
100
AcDbEntity
  8
IGES_LEVEL_0
 62
     7
100
AcDbLine
 10
36.47429789359566
 20
38.52058708844614
 30
0.0
 11
36.45578812114066
 21
38.55020058857615
 31
0.0
  0
LINE
  5
E1
330
1F
100
AcDbEntity
  8
IGES_LEVEL_0
 62
     7
100
AcDbLine
 10
36.45578812114066
 20
38.55020058857615
 30
0.0
 11
36.45527688326567
 21
38.55106189464114
 31
0.0
  0
SPLINE
  5
E2
330
1F
100
AcDbEntity
  8
IGES_LEVEL_0
 62
     7
100
AcDbSpline
210
0.0
220
0.0
230
1.0
 70
     8
 71
     3
 72
    17
 73
    13
 74
     0
 42
0.0000000001
 43
0.0000000001
 40
12.0
 40
12.0
 40
12.0
 40
12.0
 40
12.08815648248206
 40
12.25142676907921
 40
12.39828543179338
 40
12.52749796641023
 40
12.63922304380039
 40
12.73483782467666
 40
12.81679039156805
 40
12.88785694382852
 40
12.95337386249396
 40
13.0
 40
13.0
 40
13.0
 40
13.0
 10
36.45527688326567
 20
38.55106189464114
 30
0.0
 10
36.44463929956567
 20
38.56756737394615
 30
0.0
 10
36.41307099631565
 20
38.61385631391615
 30
0.0
 10
36.35746872680566
 20
38.68312552275614
 30
0.0
 10
36.28848699268566
 20
38.75271431100614
 30
0.0
 10
36.22159005395567
 20
38.80753060042615
 30
0.0
 10
36.15879736983565
 20
38.84868099905614
 30
0.0
 10
36.10106693764566
 20
38.87759032235614
 30
0.0
 10
36.04857772085566
 20
38.89572434011615
 30
0.0
 10
36.00042514602566
 20
38.90426645715614
 30
0.0
 10
35.959324072161
 20
38.90318059864877
 30
0.0
 10
35.93500298510281
 20
38.89599942868772
 30
0.0
 10
35.92531156232067
 20
38.89217247546115
 30
0.0
  0
LINE
  5
E3
330
1F
100
AcDbEntity
  8
IGES_LEVEL_0
 62
     7
100
AcDbLine
 10
35.92531156232067
 20
38.89217247546115
 30
0.0
 11
35.88354152600566
 21
38.87567830542614
 31
0.0
  0
LINE
  5
E4
330
1F
100
AcDbEntity
  8
IGES_LEVEL_0
 62
     7
100
AcDbLine
 10
36.71067128293566
 20
35.54978590278614
 30
0.0
 11
36.82638815347566
 21
35.36971239870614
 31
0.0
  0
LINE
  5
E5
330
1F
100
AcDbEntity
  8
IGES_LEVEL_0
 62
     7
100
AcDbLine
 10
36.82638815347566
 20
35.36971239870614
 30
0.0
 11
36.84076022945066
 21
35.33593596128614
 31
0.0
  0
LINE
  5
E6
330
1F
100
AcDbEntity
  8
IGES_LEVEL_0
 62
     7
100
AcDbLine
 10
36.84076022945066
 20
35.33593596128614
 30
0.0
 11
36.84355503845566
 21
35.32881828137614
 31
0.0
  0
LINE
  5
E7
330
1F
100
AcDbEntity
  8
IGES_LEVEL_0
 62
     7
100
AcDbLine
 10
36.84355503845566
 20
35.32881828137614
 30
0.0
 11
36.85502370732566
 21
35.29692096238614
 31
0.0
  0
ARC
  5
E8
330
1F
100
AcDbEntity
  8
IGES_LEVEL_0
 62
     7
100
AcDbCircle
 10
36.56626005505498
 20
35.18172433845813
 30
0.0
 40
0.3108934046214479
100
AcDbArc
 50
351.5654785387803
 51
21.74856356332689
  0
LINE
  5
E9
330
1F
100
AcDbEntity
  8
IGES_LEVEL_0
 62
     7
100
AcDbLine
 10
35.82537435883566
 20
35.06926676249614
 30
0.0
 11
35.89277863848567
 21
34.88770464105615
 31
0.0
  0
LINE
  5
EA
330
1F
100
AcDbEntity
  8
IGES_LEVEL_0
 62
     7
100
AcDbLine
 10
35.89277863848567
 20
34.88770464105615
 30
0.0
 11
35.89998649919067
 21
34.85705298091114
 31
0.0
  0
LINE
  5
EB
330
1F
100
AcDbEntity
  8
IGES_LEVEL_0
 62
     7
100
AcDbLine
 10
35.89998649919067
 20
34.85705298091114
 30
0.0
 11
35.90226606026566
 21
34.84636942315615
 31
0.0
  0
LINE
  5
EC
330
1F
100
AcDbEntity
  8
IGES_LEVEL_0
 62
     7
100
AcDbLine
 10
35.90226606026566
 20
34.84636942315615
 30
0.0
 11
35.90739997972567
 21
34.81982721688614
 31
0.0
  0
LINE
  5
ED
330
1F
100
AcDbEntity
  8
IGES_LEVEL_0
 62
     7
100
AcDbLine
 10
35.90739997972567
 20
34.81982721688614
 30
0.0
 11
35.91250294775567
 21
34.64069815991614
 31
0.0
  0
SPLINE
  5
EE
330
1F
100
AcDbEntity
  8
IGES_LEVEL_0
 62
     7
100
AcDbSpline
210
0.0
220
0.0
230
1.0
 70
     8
 71
     3
 72
    17
 73
    13
 74
     0
 42
0.0000000001
 43
0.0000000001
 40
0.0
 40
0.0
 40
0.0
 40
0.0
 40
0.0005712845157628
 40
0.02525979155847
 40
0.08348009514071
 40
0.170856651104
 40
0.2843706917377
 40
0.4190911825191
 40
0.5688302081341
 40
0.7273661233741
 40
0.8904236212562
 40
1.0
 40
1.0
 40
1.0
 40
1.0
 10
36.21821552803566
 20
35.26157204676615
 30
0.0
 10
36.21820550340566
 20
35.26158101670615
 30
0.0
 10
36.21781255450567
 20
35.26192124684614
 30
0.0
 10
36.22420659364566
 20
35.25441147024614
 30
0.0
 10
36.22833149412567
 20
35.24791615569615
 30
0.0
 10
36.23882612250567
 20
35.23232758931614
 30
0.0
 10
36.24957741376566
 20
35.21383408986614
 30
0.0
 10
36.26214919825567
 20
35.19060101958614
 30
0.0
 10
36.27485081855566
 20
35.16445606201614
 30
0.0
 10
36.28737419203567
 20
35.13607012789615
 30
0.0
 10
36.29781379136567
 20
35.10970453531614
 30
0.0
 10
36.30403594628184
 20
35.09287984917086
 30
0.0
 10
36.30624272291566
 20
35.08602095535615
 30
0.0
  0
LINE
  5
EF
330
1F
100
AcDbEntity
  8
IGES_LEVEL_0
 62
     7
100
AcDbLine
 10
36.30624272291566
 20
35.08602095535615
 30
0.0
 11
36.31702502758067
 21
35.05250841872614
 31
0.0
  0
LINE
  5
F0
330
1F
100
AcDbEntity
  8
IGES_LEVEL_0
 62
     7
100
AcDbLine
 10
36.31702502758067
 20
35.05250841872614
 30
0.0
 11
36.32043706302567
 21
35.04071934277614
 31
0.0
  0
LINE
  5
F1
330
1F
100
AcDbEntity
  8
IGES_LEVEL_0
 62
     7
100
AcDbLine
 10
36.32043706302567
 20
35.04071934277614
 30
0.0
 11
36.32675147655566
 21
35.01669542087615
 31
0.0
  0
ARC
  5
F2
330
1F
100
AcDbEntity
  8
IGES_LEVEL_0
 62
     7
100
AcDbCircle
 10
35.98418526193071
 20
34.91497663733718
 30
0.0
 40
0.3573490203248294
100
AcDbArc
 50
349.8813787900803
 51
16.53782566788744
  0
ARC
  5
F3
330
1F
100
AcDbEntity
  8
IGES_LEVEL_0
 62
     7
100
AcDbCircle
 10
33.16646128349544
 20
34.27389000707245
 30
0.0
 40
2.330852187116929
100
AcDbArc
 50
11.05463987019779
 51
16.19640452669491
  0
LINE
  5
F4
330
1F
100
AcDbEntity
  8
IGES_LEVEL_0
 62
     7
100
AcDbLine
 10
35.45406397904567
 20
34.72081933649614
 30
0.0
 11
35.46291428233066
 21
34.67551915967114
 31
0.0
  0
LINE
  5
F5
330
1F
100
AcDbEntity
  8
IGES_LEVEL_0
 62
     7
100
AcDbLine
 10
35.46291428233066
 20
34.67551915967114
 30
0.0
 11
35.49824055680567
 21
34.41539341201614
 31
0.0
  0
ARC
  5
F6
330
1F
100
AcDbEntity
  8
IGES_LEVEL_0
 62
     7
100
AcDbCircle
 10
35.12480770626522
 20
36.83380961791875
 30
0.0
 40
1.462600971242689
100
AcDbArc
 50
31.68456426553447
 51
41.9465458073514
  0
LINE
  5
F7
330
1F
100
AcDbEntity
  8
IGES_LEVEL_0
 62
     7
100
AcDbLine
 10
36.36941186827566
 20
37.60202969119614
 30
0.0
 11
36.37691174346567
 21
37.58987903775615
 31
0.0
  0
LINE
  5
F8
330
1F
100
AcDbEntity
  8
IGES_LEVEL_0
 62
     7
100
AcDbLine
 10
36.65971409306566
 20
33.20659096885615
 30
0.0
 11
36.72047151795566
 21
33.05149766334614
 31
0.0
  0
LINE
  5
F9
330
1F
100
AcDbEntity
  8
IGES_LEVEL_0
 62
     7
100
AcDbLine
 10
36.72047151795566
 20
33.05149766334614
 30
0.0
 11
36.72590839895566
 21
33.01700372647615
 31
0.0
  0
LINE
  5
FA
330
1F
100
AcDbEntity
  8
IGES_LEVEL_0
 62
     7
100
AcDbLine
 10
36.72590839895566
 20
33.01700372647615
 30
0.0
 11
36.72725670407566
 21
33.00471129132615
 31
0.0
  0
LINE
  5
FB
330
1F
100
AcDbEntity
  8
IGES_LEVEL_0
 62
     7
100
AcDbLine
 10
36.72725670407566
 20
33.00471129132615
 30
0.0
 11
36.72842518418567
 21
32.99055390014614
 31
0.0
  0
ARC
  5
FC
330
1F
100
AcDbEntity
  8
IGES_LEVEL_0
 62
     7
100
AcDbCircle
 10
36.46658419462334
 20
32.95983478102379
 30
0.0
 40
0.2636368109627971
100
AcDbArc
 50
334.9173876714784
 51
6.691338643411158
  0
LINE
  5
FD
330
1F
100
AcDbEntity
  8
IGES_LEVEL_0
 62
     7
100
AcDbLine
 10
35.07987031300566
 20
37.24743270367614
 30
0.0
 11
35.20480250960567
 21
37.04292090156615
 31
0.0
  0
LINE
  5
FE
330
1F
100
AcDbEntity
  8
IGES_LEVEL_0
 62
     7
100
AcDbLine
 10
35.20480250960567
 20
37.04292090156615
 30
0.0
 11
35.22082666025566
 21
37.00929132193615
 31
0.0
  0
LINE
  5
FF
330
1F
100
AcDbEntity
  8
IGES_LEVEL_0
 62
     7
100
AcDbLine
 10
35.22082666025566
 20
37.00929132193615
 30
0.0
 11
35.22664290963566
 21
36.99650886852614
 31
0.0
  0
LINE
  5
100
330
1F
100
AcDbEntity
  8
IGES_LEVEL_0
 62
     7
100
AcDbLine
 10
35.22664290963566
 20
36.99650886852614
 30
0.0
 11
35.23653943168567
 21
36.97394150763614
 31
0.0
  0
LINE
  5
101
330
1F
100
AcDbEntity
  8
IGES_LEVEL_0
 62
     7
100
AcDbLine
 10
35.23653943168567
 20
36.97394150763614
 30
0.0
 11
35.29763891602566
 21
36.75641566307614
 31
0.0
  0
ARC
  5
102
330
1F
100
AcDbEntity
  8
IGES_LEVEL_0
 62
     7
100
AcDbCircle
 10
33.4593750078108
 20
36.2871028495937
 30
0.0
 40
1.639694662400037
100
AcDbArc
 50
23.57600274358452
 51
33.58594747082515
  0
LINE
  5
103
330
1F
100
AcDbEntity
  8
IGES_LEVEL_0
 62
     7
100
AcDbLine
 10
34.96220489427066
 20
36.94292364696614
 30
0.0
 11
35.04957438982567
 21
36.67428498937615
 31
0.0
  0
LINE
  5
104
330
1F
100
AcDbEntity
  8
IGES_LEVEL_0
 62
     7
100
AcDbLine
 10
35.82082917693566
 20
32.78292486190614
 30
0.0
 11
35.84838951352566
 21
32.56830803098114
 31
0.0
  0
LINE
  5
105
330
1F
100
AcDbEntity
  8
IGES_LEVEL_0
 62
     7
100
AcDbLine
 10
35.84838951352566
 20
32.56830803098114
 30
0.0
 11
35.82997408966567
 21
32.35432613573614
 31
0.0
  0
LINE
  5
106
330
1F
100
AcDbEntity
  8
IGES_LEVEL_0
 62
     7
100
AcDbLine
 10
35.74922890255566
 20
30.71854890780614
 30
0.0
 11
35.74717542319067
 21
30.51646023668614
 31
0.0
  0
LINE
  5
107
330
1F
100
AcDbEntity
  8
IGES_LEVEL_0
 62
     7
100
AcDbLine
 10
35.74717542319067
 20
30.51646023668614
 30
0.0
 11
35.69783520164566
 21
30.31895339037614
 31
0.0
  0
ARC
  5
108
330
1F
100
AcDbEntity
  8
IGES_LEVEL_0
 62
     7
100
AcDbCircle
 10
34.4686636150394
 20
34.52601435713331
 30
0.0
 40
1.166004781132941
100
AcDbArc
 50
10.2051833798136
 51
21.76508562825033
  0
LINE
  5
109
330
1F
100
AcDbEntity
  8
IGES_LEVEL_0
 62
     7
100
AcDbLine
 10
35.61622171502066
 20
34.73259982804614
 30
0.0
 11
35.63602373032566
 21
34.49767993929615
 31
0.0
  0
ARC
  5
10A
330
1F
100
AcDbEntity
  8
IGES_LEVEL_0
 62
     7
100
AcDbCircle
 10
35.59410943675284
 20
28.24687890101771
 30
0.0
 40
0.156457721796444
100
AcDbArc
 50
196.4828683290689
 51
252.6404077998813
  0
LINE
  5
10B
330
1F
100
AcDbEntity
  8
IGES_LEVEL_0
 62
     7
100
AcDbLine
 10
35.54742749977566
 20
28.09754767364114
 30
0.0
 11
35.56117634849066
 21
28.09324969189614
 31
0.0
  0
LINE
  5
10C
330
1F
100
AcDbEntity
  8
IGES_LEVEL_0
 62
     7
100
AcDbLine
 10
35.56117634849066
 20
28.09324969189614
 30
0.0
 11
35.61915285656067
 21
28.07779573757614
 31
0.0
  0
SPLINE
  5
10D
330
1F
100
AcDbEntity
  8
IGES_LEVEL_0
 62
     7
100
AcDbSpline
210
0.0
220
0.0
230
1.0
 70
     8
 71
     3
 72
    68
 73
    64
 74
     0
 42
0.0000000001
 43
0.0000000001
 40
3.0
 40
3.0
 40
3.0
 40
3.0
 40
3.017829133765257
 40
3.0540178708794
 40
3.083465087907011
 40
3.104102266686271
 40
3.117339084159351
 40
3.126135701896723
 40
3.132552599443224
 40
3.137661901450545
 40
3.142025597412269
 40
3.145959084209555
 40
3.149653680701471
 40
3.153274005520875
 40
3.156932802707027
 40
3.160712844986937
 40
3.164681566801562
 40
3.16889808097963
 40
3.173413798654808
 40
3.178260092345249
 40
3.183458997627626
 40
3.189028264603134
 40
3.194981573963482
 40
3.201330892000991
 40
3.208093271854205
 40
3.215285785601988
 40
3.222922884346167
 40
3.231020323581381
 40
3.239593396591841
 40
3.248656598463314
 40
3.25822369185009
 40
3.268307756293221
 40
3.27892122519976
 40
3.290075913501784
 40
3.30178382604135
 40
3.314062829468856
 40
3.326934275880944
 40
3.340420398736973
 40
3.354544328438033
 40
3.369330119861977
 40
3.384802776967938
 40
3.400988857127291
 40
3.417926453501932
 40
3.435646479823085
 40
3.454185526186649
 40
3.473619355110319
 40
3.494039312484173
 40
3.515544249368159
 40
3.53824071418178
 40
3.562243185481705
 40
3.587676902678404
 40
3.614729329916763
 40
3.643653981440641
 40
3.674704496028111
 40
3.707898335339499
 40
3.743098059354298
 40
3.780156898505036
 40
3.818905944559666
 40
3.85917478789455
 40
3.900946988499311
 40
3.944284349883575
 40
3.989252307311944
 40
4.0
 40
4.0
 40
4.0
 40
4.0
 10
35.61915285656067
 20
28.07779573757614
 30
0.0
 10
35.62387404786316
 20
28.07653820024206
 30
0.0
 10
35.63834446849808
 20
28.07333745165232
 30
0.0
 10
35.66118686841567
 20
28.07134743330614
 30
0.0
 10
35.68479753689566
 20
28.07302777387614
 30
0.0
 10
35.70182223143566
 20
28.07632242307614
 30
0.0
 10
35.71306941858566
 20
28.07945115472614
 30
0.0
 10
35.72045023774567
 20
28.08191383802614
 30
0.0
 10
35.72566033445567
 20
28.08384736396614
 30
0.0
 10
35.72969731361566
 20
28.08545381504614
 30
0.0
 10
35.73307933810567
 20
28.08686781221615
 30
0.0
 10
35.73608736461567
 20
28.08817266054614
 30
0.0
 10
35.73889584407566
 20
28.08942628231614
 30
0.0
 10
35.74162504861566
 20
28.09067293382615
 30
0.0
 10
35.74436619982566
 20
28.09194944556614
 30
0.0
 10
35.74718520978566
 20
28.09328425095614
 30
0.0
 10
35.75013398732567
 20
28.09470119146614
 30
0.0
 10
35.75325620187566
 20
28.09622150707615
 30
0.0
 10
35.75658629060565
 20
28.09786289789614
 30
0.0
 10
35.76014935301566
 20
28.09963908494614
 30
0.0
 10
35.76396210263566
 20
28.10155998036614
 30
0.0
 10
35.76803684015566
 20
28.10363349781614
 30
0.0
 10
35.77238334575567
 20
28.10586642470614
 30
0.0
 10
35.77701117298567
 20
28.10826556197614
 30
0.0
 10
35.78193063572566
 20
28.11083824673614
 30
0.0
 10
35.78715257163567
 20
28.11359226698614
 30
0.0
 10
35.79268745078566
 20
28.11653533210614
 30
0.0
 10
35.79854526409567
 20
28.11967500145615
 30
0.0
 10
35.80473593489566
 20
28.12301896992614
 30
0.0
 10
35.81126883450567
 20
28.12657479031615
 30
0.0
 10
35.81815272886566
 20
28.13034984275614
 30
0.0
 10
35.82539581725565
 20
28.13435134845614
 30
0.0
 10
35.83300576059567
 20
28.13858638058614
 30
0.0
 10
35.84098989077566
 20
28.14306197698614
 30
0.0
 10
35.84935675908567
 20
28.14778601467614
 30
0.0
 10
35.85811709582566
 20
28.15276779036615
 30
0.0
 10
35.86728394919565
 20
28.15801815576614
 30
0.0
 10
35.87687148580567
 20
28.16354887708614
 30
0.0
 10
35.88689436973566
 20
28.16937230607615
 30
0.0
 10
35.89736777051566
 20
28.17550139905614
 30
0.0
 10
35.90830749328566
 20
28.18194984484615
 30
0.0
 10
35.91973250873566
 20
28.18873348170614
 30
0.0
 10
35.93166279487566
 20
28.19586957450614
 30
0.0
 10
35.94411991701567
 20
28.20337801887614
 30
0.0
 10
35.95713399468566
 20
28.21128439158614
 30
0.0
 10
35.97074877700565
 20
28.21962357473614
 30
0.0
 10
35.98502188708567
 20
28.22844029347614
 30
0.0
 10
36.00001729658565
 20
28.23778489795614
 30
0.0
 10
36.01580339858566
 20
28.24771246635615
 30
0.0
 10
36.03245359960566
 20
28.25828349603614
 30
0.0
 10
36.05005867925566
 20
28.26957220375615
 30
0.0
 10
36.06873970255566
 20
28.28167576965614
 30
0.0
 10
36.08864484780567
 20
28.29471380270615
 30
0.0
 10
36.10988066984567
 20
28.30878426637614
 30
0.0
 10
36.13246231583567
 20
28.32392909261614
 30
0.0
 10
36.15631452989565
 20
28.34012795139615
 30
0.0
 10
36.18132104394566
 20
28.35732974175614
 30
0.0
 10
36.20735973455565
 20
28.37547554636614
 30
0.0
 10
36.23433950727566
 20
28.39452388192614
 30
0.0
 10
36.26222203940567
 20
28.41446759038614
 30
0.0
 10
36.29102168402567
 20
28.43533644312614
 30
0.0
 10
36.31285439445567
 20
28.45136227788614
 30
0.0
 10
36.32510101528565
 20
28.46042243747614
 30
0.0
 10
36.32746218010566
 20
28.46217183925614
 30
0.0
  0
ARC
  5
10E
330
1F
100
AcDbEntity
  8
IGES_LEVEL_0
 62
     7
100
AcDbCircle
 10
35.17552168068922
 20
37.91960116055907
 30
0.0
 40
0.9423579312613916
100
AcDbArc
 50
25.21121974337518
 51
46.1525713384322
  0
LINE
  5
10F
330
1F
100
AcDbEntity
  8
IGES_LEVEL_0
 62
     7
100
AcDbLine
 10
36.02811404293566
 20
38.32100461651115
 30
0.0
 11
36.06607872110067
 21
38.24036655981615
 31
0.0
  0
SPLINE
  5
110
330
1F
100
AcDbEntity
  8
IGES_LEVEL_0
 62
     7
100
AcDbSpline
210
0.0
220
0.0
230
1.0
 70
     8
 71
     3
 72
    22
 73
    18
 74
     0
 42
0.0000000001
 43
0.0000000001
 40
2.0
 40
2.0
 40
2.0
 40
2.0
 40
2.09005394919865
 40
2.1787428682879
 40
2.262666381834
 40
2.3422771697574
 40
2.4180274294559
 40
2.4903433668392
 40
2.5594794897616
 40
2.6256012181994
 40
2.6888298175294
 40
2.7494064659468
 40
2.8081312300267
 40
2.8651144594446
 40
2.9205350679723
 40
2.9751581531979
 40
3.0
 40
3.0
 40
3.0
 40
3.0
 10
36.06607872110067
 20
38.24036655981615
 30
0.0
 10
36.14618219793566
 20
38.07568360109615
 30
0.0
 10
36.30308979253566
 20
37.74779958730615
 30
0.0
 10
36.52992845190566
 20
37.26420522214615
 30
0.0
 10
36.74504378117565
 20
36.79857959775615
 30
0.0
 10
36.94790170420566
 20
36.35627897724615
 30
0.0
 10
37.14034067363566
 20
35.93516943458614
 30
0.0
 10
37.32364024129566
 20
35.53330291728614
 30
0.0
 10
37.49857473801566
 20
35.14914326433615
 30
0.0
 10
37.66551869801566
 20
34.78164582207614
 30
0.0
 10
37.82503589662566
 20
34.42990976889614
 30
0.0
 10
37.97774376967566
 20
34.09154315771615
 30
0.0
 10
38.12604273536566
 20
33.76533400540615
 30
0.0
 10
38.26278992580566
 20
33.44465701268614
 30
0.0
 10
38.33881718224566
 20
33.11091285285615
 30
0.0
 10
38.34398293260567
 20
32.83553422320614
 30
0.0
 10
38.33419699285567
 20
32.67400611280614
 30
0.0
 10
38.32961522051566
 20
32.62366852723615
 30
0.0
  0
ARC
  5
111
330
1F
100
AcDbEntity
  8
IGES_LEVEL_0
 62
     7
100
AcDbCircle
 10
34.2575593874338
 20
38.59155007689788
 30
0.0
 40
0.182865454259099
100
AcDbArc
 50
88.48220995711223
 51
166.8323362107788
  0
LINE
  5
112
330
1F
100
AcDbEntity
  8
IGES_LEVEL_0
 62
     7
100
AcDbLine
 10
34.07950190064567
 20
38.63320707823115
 30
0.0
 11
34.06564277034566
 21
38.57396801081615
 31
0.0
  0
LINE
  5
113
330
1F
100
AcDbEntity
  8
IGES_LEVEL_0
 62
     7
100
AcDbLine
 10
34.06564277034566
 20
38.57396801081615
 30
0.0
 11
34.07300543647567
 21
38.47291750519614
 31
0.0
  0
LINE
  5
114
330
1F
100
AcDbEntity
  8
IGES_LEVEL_0
 62
     7
100
AcDbLine
 10
36.50011678317567
 20
37.32694572668615
 30
0.0
 11
36.50288325928567
 21
37.30360092364614
 31
0.0
  0
ARC
  5
115
330
1F
100
AcDbEntity
  8
IGES_LEVEL_0
 62
     7
100
AcDbCircle
 10
2.7182999582211
 20
30.40354494274178
 30
0.0
 40
16.36261983701264
100
AcDbArc
 50
0.1524729437779603
 51
6.142359152071406
  0
SPLINE
  5
116
330
1F
100
AcDbEntity
  8
IGES_LEVEL_0
 62
     7
100
AcDbSpline
210
0.0
220
0.0
230
1.0
 70
     8
 71
     3
 72
    16
 73
    12
 74
     0
 42
0.0000000001
 43
0.0000000001
 40
0.3268376485695402
 40
0.3268376485695402
 40
0.3268376485695402
 40
0.3268376485695402
 40
0.3644054381324
 40
0.4445962316781
 40
0.5190684181863
 40
0.5897318703862
 40
0.6618470381384
 40
0.7398603122566
 40
0.8254458333803
 40
0.9171458819114
 40
1.0
 40
1.0
 40
1.0
 40
1.0
 10
17.82278107540641
 20
30.82028287296195
 30
0.0
 10
17.83303878558333
 20
30.82131042518962
 30
0.0
 10
17.86528030226173
 20
30.82366450456772
 30
0.0
 10
17.9183289084445
 20
30.82182418472615
 30
0.0
 10
17.97829108527451
 20
30.80137441197615
 30
0.0
 10
18.02268174337451
 20
30.75907958428615
 30
0.0
 10
18.04968399146451
 20
30.70403446622614
 30
0.0
 10
18.0657100273745
 20
30.64116315867615
 30
0.0
 10
18.07481288101451
 20
30.57163774992615
 30
0.0
 10
18.07931411745451
 20
30.50040057235615
 30
0.0
 10
18.0806408791445
 20
30.45253577110615
 30
0.0
 10
18.08103568126451
 20
30.42981240913614
 30
0.0
  0
ARC
  5
117
330
1F
100
AcDbEntity
  8
IGES_LEVEL_0
 62
     7
100
AcDbCircle
 10
16.89663019641811
 20
30.40395911169535
 30
0.0
 40
16.35224876848429
100
AcDbArc
 50
173.8490975304646
 51
179.8488826779335
  0
SPLINE
  5
118
330
1F
100
AcDbEntity
  8
IGES_LEVEL_0
 62
     7
100
AcDbSpline
210
0.0
220
0.0
230
1.0
 70
     8
 71
     3
 72
    16
 73
    12
 74
     0
 42
0.0000000001
 43
0.0000000001
 40
0.0
 40
0.0
 40
0.0
 40
0.0
 40
0.08294878665852
 40
0.1746233586349
 40
0.2601856117494
 40
0.338179169273
 40
0.4102766717635
 40
0.4809230962016
 40
0.5553796485964
 40
0.6355536894716
 40
0.642708825727037
 40
0.642708825727037
 40
0.642708825727037
 40
0.642708825727037
 10
1.544264511529507
 20
30.42981243021615
 30
0.0
 10
1.544659769707507
 20
30.45256176904615
 30
0.0
 10
1.545987540940507
 20
30.50044557436615
 30
0.0
 10
1.550492877837507
 20
30.57169518303615
 30
0.0
 10
1.559597673749507
 20
30.64120144121615
 30
0.0
 10
1.575624465730507
 20
30.70405544248614
 30
0.0
 10
1.602624220920507
 20
30.75908479951615
 30
0.0
 10
1.647004157040507
 20
30.80136910321615
 30
0.0
 10
1.706950907906507
 20
30.82181984352615
 30
0.0
 10
1.7515978092656
 20
30.82337285757245
 30
0.0
 10
1.775557006729702
 20
30.82229573836255
 30
0.0
 10
1.777519096919547
 20
30.82219516632675
 30
0.0
  0
SPLINE
  5
119
330
1F
100
AcDbEntity
  8
IGES_LEVEL_0
 62
     7
100
AcDbSpline
210
0.0
220
0.0
230
1.0
 70
     8
 71
     3
 72
    26
 73
    22
 74
     0
 42
0.0000000001
 43
0.0000000001
 40
0.0
 40
0.0
 40
0.0
 40
0.0
 40
0.05180108195353
 40
0.1071915981961
 40
0.1645132123208
 40
0.2239144280844
 40
0.2850319384214
 40
0.3491618588015
 40
0.415365185616
 40
0.4797788674021
 40
0.5407054441474
 40
0.5982352439023
 40
0.6525848620139
 40
0.7041092281777001
 40
0.7531459177423
 40
0.7999258077725
 40
0.84459417629
 40
0.8872838031219
 40
0.9282528464997
 40
0.9673287816662
 40
1.0
 40
1.0
 40
1.0
 40
1.0
 10
18.93348600298451
 20
31.82166952906337
 30
0.0
 10
18.95970798946452
 20
31.93999430056337
 30
0.0
 10
18.99467673846452
 20
32.18903311554337
 30
0.0
 10
19.02527144632451
 20
32.57266393350337
 30
0.0
 10
19.04589703439451
 20
32.97491841194337
 30
0.0
 10
19.06022104699451
 20
33.39078607100337
 30
0.0
 10
19.06725683719451
 20
33.82280092895337
 30
0.0
 10
19.06524159132451
 20
34.27078032984337
 30
0.0
 10
19.05525863286451
 20
34.72635415326337
 30
0.0
 10
19.04037440272451
 20
35.17428468351337
 30
0.0
 10
19.02309473507451
 20
35.60181575129337
 30
0.0
 10
19.00514252456451
 20
36.00574747853337
 30
0.0
 10
18.98763322280452
 20
36.38767749837337
 30
0.0
 10
18.96997946428452
 20
36.74970690761337
 30
0.0
 10
18.95140551080452
 20
37.09395629381337
 30
0.0
 10
18.93094254315452
 20
37.42202847801337
 30
0.0
 10
18.90776733636452
 20
37.73504004371337
 30
0.0
 10
18.88065151832451
 20
38.03407721439337
 30
0.0
 10
18.84949680917451
 20
38.31960921645337
 30
0.0
 10
18.81098484796452
 20
38.58054155786337
 30
0.0
 10
18.78927539707431
 20
38.74700898123691
 30
0.0
 10
18.77850354106451
 20
38.82273069385337
 30
0.0
  0
SPLINE
  5
11A
330
1F
100
AcDbEntity
  8
IGES_LEVEL_0
 62
     7
100
AcDbSpline
210
0.0
220
0.0
230
1.0
 70
     8
 71
     3
 72
    15
 73
    11
 74
     0
 42
0.0000000001
 43
0.0000000001
 40
1.0
 40
1.0
 40
1.0
 40
1.0
 40
1.115642223963397
 40
1.235672516040326
 40
1.351273210694683
 40
1.471608280623501
 40
1.597927179434149
 40
1.73113783136071
 40
1.87212585544457
 40
2.0
 40
2.0
 40
2.0
 40
2.0
 10
18.77850354106451
 20
38.82273069385337
 30
0.0
 10
18.77378397936451
 20
38.85590726940337
 30
0.0
 10
18.75847737674451
 20
38.92278968185337
 30
0.0
 10
18.7168017948545
 20
39.01616468393337
 30
0.0
 10
18.65570480805451
 20
39.09992254933337
 30
0.0
 10
18.57683430290452
 20
39.17004512875337
 30
0.0
 10
18.48057818560451
 20
39.22451261064337
 30
0.0
 10
18.36998178386452
 20
39.26097489870337
 30
0.0
 10
18.25455111764627
 20
39.27813144774537
 30
0.0
 10
18.17663010159079
 20
39.27935452995438
 30
0.0
 10
18.13967166974451
 20
39.27802879923837
 30
0.0
  0
LINE
  5
11B
330
1F
100
AcDbEntity
  8
IGES_LEVEL_0
 62
     7
100
AcDbLine
 10
18.13967166974451
 20
39.27802879923837
 30
0.0
 11
18.11613576910452
 21
39.27718454625337
 31
0.0
  0
SPLINE
  5
11C
330
1F
100
AcDbEntity
  8
IGES_LEVEL_0
 62
     7
100
AcDbSpline
210
0.0
220
0.0
230
1.0
 70
     8
 71
     3
 72
    15
 73
    11
 74
     0
 42
0.0000000001
 43
0.0000000001
 40
3.0
 40
3.0
 40
3.0
 40
3.0
 40
3.09398622221632
 40
3.201069531642
 40
3.3168753546999
 40
3.4431713848518
 40
3.5780853419495
 40
3.7182166469539
 40
3.8605666809788
 40
4.0
 40
4.0
 40
4.0
 40
4.0
 10
18.11613576910452
 20
39.27718454625337
 30
0.0
 10
17.85501016730451
 20
39.26768640417338
 30
0.0
 10
17.29666964279451
 20
39.23920849245337
 30
0.0
 10
16.41756490353451
 20
39.18184049769337
 30
0.0
 10
15.44948512891452
 20
39.10888569082337
 30
0.0
 10
14.40529910940052
 20
39.01749932286337
 30
0.0
 10
13.29367936023851
 20
38.92084269391337
 30
0.0
 10
12.13539347275952
 20
38.84704419350337
 30
0.0
 10
10.96272124727952
 20
38.81273697770337
 30
0.0
 10
10.17930603645569
 20
38.80653339382221
 30
0.0
 10
9.791656367168514
 20
38.80607083841837
 30
0.0
  0
SPLINE
  5
11D
330
1F
100
AcDbEntity
  8
IGES_LEVEL_0
 62
     7
100
AcDbSpline
210
0.0
220
0.0
230
1.0
 70
     8
 71
     3
 72
    15
 73
    11
 74
     0
 42
0.0000000001
 43
0.0000000001
 40
4.0
 40
4.0
 40
4.0
 40
4.0
 40
4.1393605044019
 40
4.2818056341164
 40
4.4219917542004
 40
4.5569167723233
 40
4.6831723925599
 40
4.7988933925093
 40
4.9059014967853
 40
5.0
 40
5.0
 40
5.0
 40
5.0
 10
9.791656367168514
 20
38.80607083841837
 30
0.0
 10
9.404798832218503
 20
38.80560922821337
 30
0.0
 10
8.62250209770751
 20
38.81006700104337
 30
0.0
 10
7.451325422450523
 20
38.84164066296337
 30
0.0
 10
6.294189970390519
 20
38.91270756191337
 30
0.0
 10
5.183985219884917
 20
39.00682552762337
 30
0.0
 10
4.141517880039501
 20
39.09588726752337
 30
0.0
 10
3.175318817677507
 20
39.16670380781337
 30
0.0
 10
2.297566857339504
 20
39.22214719869337
 30
0.0
 10
1.739917890272241
 20
39.24952187620833
 30
0.0
 10
1.478853918770525
 20
39.25832158508337
 30
0.0
  0
LINE
  5
11E
330
1F
100
AcDbEntity
  8
IGES_LEVEL_0
 62
     7
100
AcDbLine
 10
1.478853918770525
 20
39.25832158508337
 30
0.0
 11
1.454753345215011
 21
39.25913394547837
 31
0.0
  0
SPLINE
  5
11F
330
1F
100
AcDbEntity
  8
IGES_LEVEL_0
 62
     7
100
AcDbSpline
210
0.0
220
0.0
230
1.0
 70
     8
 71
     3
 72
    15
 73
    11
 74
     0
 42
0.0000000001
 43
0.0000000001
 40
6.0
 40
6.0
 40
6.0
 40
6.0
 40
6.125911162516983
 40
6.267006916979449
 40
6.400346768727547
 40
6.526801190324339
 40
6.647218019246925
 40
6.762810869683256
 40
6.882703538010463
 40
7.0
 40
7.0
 40
7.0
 40
7.0
 10
1.454753345215011
 20
39.25913394547837
 30
0.0
 10
1.418400823758631
 20
39.26035056635401
 30
0.0
 10
1.34111483666986
 20
39.25902864806209
 30
0.0
 10
1.226321669723504
 20
39.24189997493338
 30
0.0
 10
1.115789181058503
 20
39.20531683888337
 30
0.0
 10
1.019660313859518
 20
39.15066535770338
 30
0.0
 10
0.9410543367925044
 20
39.08032885344337
 30
0.0
 10
0.8803635881905194
 20
38.99644197548337
 30
0.0
 10
0.8389841036365198
 20
38.90258439792337
 30
0.0
 10
0.8239689112713878
 20
38.83525571803044
 30
0.0
 10
0.8194415982015073
 20
38.80161081155837
 30
0.0
  0
SPLINE
  5
120
330
1F
100
AcDbEntity
  8
IGES_LEVEL_0
 62
     7
100
AcDbSpline
210
0.0
220
0.0
230
1.0
 70
     8
 71
     3
 72
    26
 73
    22
 74
     0
 42
0.0000000001
 43
0.0000000001
 40
7.0
 40
7.0
 40
7.0
 40
7.0
 40
7.03250527581496
 40
7.07168624103602
 40
7.112788628129
 40
7.1556258749788
 40
7.2004506261742
 40
7.247387982935
 40
7.2965763145424
 40
7.34826957632
 40
7.4028616961667
 40
7.4607443235963
 40
7.5219761308525
 40
7.5863826446735
 40
7.6521499060373
 40
7.7156823891385
 40
7.7763079965302
 40
7.8353490127326
 40
7.8924758708678
 40
7.94784209807
 40
8.0
 40
8.0
 40
8.0
 40
8.0
 10
0.8194415982015073
 20
38.80161081155837
 30
0.0
 10
0.8092963918105198
 20
38.72621630826338
 30
0.0
 10
0.7885407396385205
 20
38.55982286844337
 30
0.0
 10
0.7513475944735006
 20
38.29860773473337
 30
0.0
 10
0.7216040372825177
 20
38.01210451487337
 30
0.0
 10
0.6959624037455257
 20
37.71200166864337
 30
0.0
 10
0.6743458889415166
 20
37.39789157284337
 30
0.0
 10
0.6555232940645084
 20
37.06873003960337
 30
0.0
 10
0.6386682387715013
 20
36.72337703135337
 30
0.0
 10
0.6228116702394999
 20
36.36005577890337
 30
0.0
 10
0.6071676130195129
 20
35.97637129123337
 30
0.0
 10
0.5911932384945118
 20
35.57037057194337
 30
0.0
 10
0.5760772708765245
 20
35.14136327037337
 30
0.0
 10
0.5635716403235023
 20
34.69381834194337
 30
0.0
 10
0.5560615574295156
 20
34.24076881267337
 30
0.0
 10
0.5564767458185003
 20
33.79648961536337
 30
0.0
 10
0.5654126056945046
 20
33.36803550694337
 30
0.0
 10
0.5809027392965191
 20
32.95478964299337
 30
0.0
 10
0.6021758145495113
 20
32.55404829843337
 30
0.0
 10
0.6332675575695106
 20
32.17025941996337
 30
0.0
 10
0.666832386902079
 20
31.92019633859982
 30
0.0
 10
0.6945694481770204
 20
31.80129607273837
 30
0.0
  0
ARC
  5
121
330
1F
100
AcDbEntity
  8
IGES_LEVEL_0
 62
     7
100
AcDbCircle
 10
1.208100010556741
 20
31.92552251596952
 30
0.0
 40
0.5283425476865307
100
AcDbArc
 50
193.5989802411702
 51
228.2321676165949
  0
SPLINE
  5
122
330
1F
100
AcDbEntity
  8
IGES_LEVEL_0
 62
     7
100
AcDbSpline
210
0.0
220
0.0
230
1.0
 70
     8
 71
     3
 72
    21
 73
    17
 74
     0
 42
0.0000000001
 43
0.0000000001
 40
9.0
 40
9.0
 40
9.0
 40
9.0
 40
9.05098047018806
 40
9.107664448148826
 40
9.166773598756809
 40
9.227189553075816
 40
9.288453181912345
 40
9.351391316648938
 40
9.41869980921603
 40
9.491541988549736
 40
9.569988779538011
 40
9.653037778176666
 40
9.739143024773501
 40
9.826953249953149
 40
9.915131667892084
 40
10.0
 40
10.0
 40
10.0
 40
10.0
 10
0.856163731497503
 20
31.53145817708837
 30
0.0
 10
0.9805455128429088
 20
31.42037362314536
 30
0.0
 10
1.255733270510248
 20
31.19990094212151
 30
0.0
 10
1.695236251320509
 20
30.87669088062337
 30
0.0
 10
2.170294752803514
 20
30.55003846991337
 30
0.0
 10
2.664534985726519
 20
30.22523021421337
 30
0.0
 10
3.173807093176507
 20
29.90055806607337
 30
0.0
 10
3.707898373408526
 20
29.57309136851337
 30
0.0
 10
4.285887558443605
 20
29.24476051181337
 30
0.0
 10
4.934655818860719
 20
28.94193244466337
 30
0.0
 10
5.654695018171523
 20
28.67624758518337
 30
0.0
 10
6.436676092733521
 20
28.46162926774337
 30
0.0
 10
7.262450026993506
 20
28.30105997368337
 30
0.0
 10
8.11304523593752
 20
28.18966179691337
 30
0.0
 10
8.964427245898506
 20
28.12644000112337
 30
0.0
 10
9.530624619561895
 20
28.11339514969858
 30
0.0
 10
9.808252217338506
 20
28.11371282539837
 30
0.0
  0
SPLINE
  5
123
330
1F
100
AcDbEntity
  8
IGES_LEVEL_0
 62
     7
100
AcDbSpline
210
0.0
220
0.0
230
1.0
 70
     8
 71
     3
 72
    21
 73
    17
 74
     0
 42
0.0000000001
 43
0.0000000001
 40
10.0
 40
10.0
 40
10.0
 40
10.0
 40
10.08437424581794
 40
10.17238145067195
 40
10.26013552142077
 40
10.34627092336846
 40
10.42941226940505
 40
10.50799141476531
 40
10.58097908845747
 40
10.64842885222759
 40
10.71148649899018
 40
10.77281722090322
 40
10.83323523248231
 40
10.89229796822399
 40
10.94890269935905
 40
11.0
 40
11.0
 40
11.0
 40
11.0
 10
9.808252217338506
 20
28.11371282539837
 30
0.0
 10
10.08475854486052
 20
28.11402921808337
 30
0.0
 10
10.64975844928351
 20
28.12826547633337
 30
0.0
 10
11.50017966192051
 20
28.19309970971337
 30
0.0
 10
12.35145321717451
 20
28.30614888841337
 30
0.0
 10
13.17865792962751
 20
28.46837282335337
 30
0.0
 10
13.96255208836752
 20
28.68464559206337
 30
0.0
 10
14.68473761830151
 20
28.95197726705337
 30
0.0
 10
15.33568967815451
 20
29.25639456471337
 30
0.0
 10
15.91575351778451
 20
29.58617573674337
 30
0.0
 10
16.45164497985452
 20
29.91491198159337
 30
0.0
 10
16.96221460691452
 20
30.24071467900337
 30
0.0
 10
17.45714821853451
 20
30.56653615482337
 30
0.0
 10
17.93234845933451
 20
30.89409364878337
 30
0.0
 10
18.37214375694391
 20
31.21851184102858
 30
0.0
 10
18.64663874143865
 20
31.44095421576232
 30
0.0
 10
18.77221348726451
 20
31.55171408830337
 30
0.0
  0
ARC
  5
124
330
1F
100
AcDbEntity
  8
IGES_LEVEL_0
 62
     7
100
AcDbCircle
 10
18.43073998351976
 20
31.93886195562436
 30
0.0
 40
0.5162243939711713
100
AcDbArc
 50
311.4130498624795
 51
346.8784052842239
  0
ARC
  5
125
330
1F
100
AcDbEntity
  8
IGES_LEVEL_0
 62
     7
100
AcDbCircle
 10
18.42022311151916
 20
48.81031286890335
 30
0.0
 40
0.4994048129380878
100
AcDbArc
 50
251.0775901163005
 51
270.079061458646
  0
ARC
  5
126
330
1F
100
AcDbEntity
  8
IGES_LEVEL_0
 62
     7
100
AcDbCircle
 10
18.41837218797398
 20
48.81559343196232
 30
0.0
 40
0.4993416336806884
100
AcDbArc
 50
251.6123490957008
 51
266.8021574573179
  0
ARC
  5
127
330
1F
100
AcDbEntity
  8
IGES_LEVEL_0
 62
     7
100
AcDbCircle
 10
1.205077072595177
 20
48.81031286897235
 30
0.0
 40
0.4994048130070438
100
AcDbArc
 50
269.9209385447693
 51
288.9225061161072
  0
ARC
  5
128
330
1F
100
AcDbEntity
  8
IGES_LEVEL_0
 62
     7
100
AcDbCircle
 10
1.20692799619238
 20
48.81559343196503
 30
0.0
 40
0.4993416336833235
100
AcDbArc
 50
273.197842542511
 51
288.3876985961167
  0
ARC
  5
129
330
1F
100
AcDbEntity
  8
IGES_LEVEL_0
 62
     7
100
AcDbCircle
 10
18.41893869189423
 20
48.81639562049919
 30
0.0
 40
0.5001120639938809
100
AcDbArc
 50
251.5850364334802
 51
356.4737603783878
  0
ARC
  5
12A
330
1F
100
AcDbEntity
  8
IGES_LEVEL_0
 62
     7
100
AcDbCircle
 10
1.206361492270212
 20
48.81639562049838
 30
0.0
 40
0.5001120639932571
100
AcDbArc
 50
183.5262396215244
 51
288.4150091851511
  0
LINE
  5
12B
330
1F
100
AcDbEntity
  8
IGES_LEVEL_0
 62
     7
100
AcDbLine
 10
15.978146301007
 20
64.51763523551051
 30
0.0
 11
15.89007340520701
 21
64.5408873582905
 31
0.0
  0
LINE
  5
12C
330
1F
100
AcDbEntity
  8
IGES_LEVEL_0
 62
     7
100
AcDbLine
 10
15.89007340520701
 20
64.5408873582905
 30
0.0
 11
15.870993765487
 21
64.5458848962305
 31
0.0
  0
LINE
  5
12D
330
1F
100
AcDbEntity
  8
IGES_LEVEL_0
 62
     7
100
AcDbLine
 10
15.870993765487
 20
64.5458848962305
 30
0.0
 11
15.86598020840701
 21
64.54719569634051
 31
0.0
  0
LINE
  5
12E
330
1F
100
AcDbEntity
  8
IGES_LEVEL_0
 62
     7
100
AcDbLine
 10
15.86598020840701
 20
64.54719569634051
 30
0.0
 11
15.85094699094701
 21
64.55112010170051
 31
0.0
  0
LINE
  5
12F
330
1F
100
AcDbEntity
  8
IGES_LEVEL_0
 62
     7
100
AcDbLine
 10
15.85094699094701
 20
64.55112010170051
 30
0.0
 11
15.69148110506701
 21
64.59217116821051
 31
0.0
  0
LINE
  5
130
330
1F
100
AcDbEntity
  8
IGES_LEVEL_0
 62
     7
100
AcDbLine
 10
15.69148110506701
 20
64.59217116821051
 30
0.0
 11
15.33102870809701
 21
64.6808239342905
 31
0.0
  0
LINE
  5
131
330
1F
100
AcDbEntity
  8
IGES_LEVEL_0
 62
     7
100
AcDbLine
 10
15.33102870809701
 20
64.6808239342905
 30
0.0
 11
15.003780464507
 21
64.75599910071051
 31
0.0
  0
LINE
  5
132
330
1F
100
AcDbEntity
  8
IGES_LEVEL_0
 62
     7
100
AcDbLine
 10
15.003780464507
 20
64.75599910071051
 30
0.0
 11
14.84692016779701
 21
64.79021740969051
 31
0.0
  0
ARC
  5
133
330
1F
100
AcDbEntity
  8
IGES_LEVEL_0
 62
     7
100
AcDbCircle
 10
10.19839617731086
 20
43.98980367779515
 30
0.0
 40
21.31351652609551
100
AcDbArc
 50
77.40241186798133
 51
89.08621757405011
  0
LINE
  5
134
330
1F
100
AcDbEntity
  8
IGES_LEVEL_0
 62
     7
100
AcDbLine
 10
10.53830064112701
 20
65.30060966123051
 30
0.0
 11
9.812650102441992
 21
65.3121836888605
 31
0.0
  0
LINE
  5
135
330
1F
100
AcDbEntity
  8
IGES_LEVEL_0
 62
     7
100
AcDbLine
 10
3.165934890434997
 20
64.38585851676051
 30
0.0
 11
3.108994553569502
 21
64.3697911194155
 31
0.0
  0
LINE
  5
136
330
1F
100
AcDbEntity
  8
IGES_LEVEL_0
 62
     7
100
AcDbLine
 10
3.108994553569502
 20
64.3697911194155
 30
0.0
 11
3.097882970522008
 21
64.3663402202005
 31
0.0
  0
LINE
  5
137
330
1F
100
AcDbEntity
  8
IGES_LEVEL_0
 62
     7
100
AcDbLine
 10
3.097882970522008
 20
64.3663402202005
 30
0.0
 11
3.091358404209004
 21
64.3640191987905
 31
0.0
  0
LINE
  5
138
330
1F
100
AcDbEntity
  8
IGES_LEVEL_0
 62
     7
100
AcDbLine
 10
3.091358404209004
 20
64.3640191987905
 30
0.0
 11
3.085630612201015
 21
64.3618812297705
 31
0.0
  0
LINE
  5
139
330
1F
100
AcDbEntity
  8
IGES_LEVEL_0
 62
     7
100
AcDbLine
 10
3.085630612201015
 20
64.3618812297705
 30
0.0
 11
3.072610041983992
 21
64.3565713210605
 31
0.0
  0
LINE
  5
13A
330
1F
100
AcDbEntity
  8
IGES_LEVEL_0
 62
     7
100
AcDbLine
 10
3.072610041983992
 20
64.3565713210605
 30
0.0
 11
3.031939964396017
 21
64.33356375551051
 31
0.0
  0
LINE
  5
13B
330
1F
100
AcDbEntity
  8
IGES_LEVEL_0
 62
     7
100
AcDbLine
 10
3.031939964396017
 20
64.33356375551051
 30
0.0
 11
2.967304749760004
 21
64.2656222214905
 31
0.0
  0
LINE
  5
13C
330
1F
100
AcDbEntity
  8
IGES_LEVEL_0
 62
     7
100
AcDbLine
 10
2.967304749760004
 20
64.2656222214905
 30
0.0
 11
2.955558580485999
 21
64.24494955915051
 31
0.0
  0
LINE
  5
13D
330
1F
100
AcDbEntity
  8
IGES_LEVEL_0
 62
     7
100
AcDbLine
 10
2.955558580485999
 20
64.24494955915051
 30
0.0
 11
2.940074951716994
 21
64.20669642188051
 31
0.0
  0
LINE
  5
13E
330
1F
100
AcDbEntity
  8
IGES_LEVEL_0
 62
     7
100
AcDbLine
 10
2.940074951716994
 20
64.20669642188051
 30
0.0
 11
2.939084831157018
 21
64.20343170619051
 31
0.0
  0
LINE
  5
13F
330
1F
100
AcDbEntity
  8
IGES_LEVEL_0
 62
     7
100
AcDbLine
 10
2.939084831157018
 20
64.20343170619051
 30
0.0
 11
2.937861328802512
 21
64.1991773608505
 31
0.0
  0
SPLINE
  5
140
330
1F
100
AcDbEntity
  8
IGES_LEVEL_0
 62
     7
100
AcDbSpline
210
0.0
220
0.0
230
1.0
 70
     8
 71
     3
 72
    22
 73
    18
 74
     0
 42
0.0000000001
 43
0.0000000001
 40
11.0
 40
11.0
 40
11.0
 40
11.0
 40
11.10501383102569
 40
11.20354394101351
 40
11.29383190869224
 40
11.37713979994495
 40
11.45446872911156
 40
11.52667316617173
 40
11.59443204444288
 40
11.65832543108932
 40
11.71867420422697
 40
11.77574564400307
 40
11.82993863749743
 40
11.88178875923651
 40
11.93178368548006
 40
11.97962731526341
 40
12.0
 40
12.0
 40
12.0
 40
12.0
 10
2.937861328802512
 20
64.1991773608505
 30
0.0
 10
2.816223269378455
 20
63.76022061617038
 30
0.0
 10
2.598159979573623
 20
62.90450093815778
 30
0.0
 10
2.311018608568006
 20
61.66272275634051
 30
0.0
 10
2.065465706808013
 20
60.5081421943105
 30
0.0
 10
1.854216232093009
 20
59.4404134522005
 30
0.0
 10
1.674680788716998
 20
58.4464903794705
 30
0.0
 10
1.525401830158998
 20
57.5158119706605
 30
0.0
 10
1.404173811272003
 20
56.6398572872605
 30
0.0
 10
1.308617251103001
 20
55.8124818286605
 30
0.0
 10
1.235005877895006
 20
55.0294329344605
 30
0.0
 10
1.179200679616017
 20
54.28711351153051
 30
0.0
 10
1.138739608083014
 20
53.58072375431051
 30
0.0
 10
1.112376187321999
 20
52.90437765400051
 30
0.0
 10
1.100729867417002
 20
52.2551544187205
 30
0.0
 10
1.104591359434991
 20
51.74234331766051
 30
0.0
 10
1.115278204232259
 20
51.44660631900576
 30
0.0
 10
1.119534625815504
 20
51.3498595210005
 30
0.0
  0
ARC
  5
141
330
1F
100
AcDbEntity
  8
IGES_LEVEL_0
 62
     7
100
AcDbCircle
 10
0.5131462045418811
 20
51.3231811728034
 30
0.0
 40
0.6069750008997428
100
AcDbArc
 50
1.832057216208006
 51
2.519130676648977
  0
LINE
  5
142
330
1F
100
AcDbEntity
  8
IGES_LEVEL_0
 62
     7
100
AcDbLine
 10
1.119810937713012
 20
51.34258615267051
 30
0.0
 11
1.119725612877502
 21
51.34468982396551
 31
0.0
  0
LINE
  5
143
330
1F
100
AcDbEntity
  8
IGES_LEVEL_0
 62
     7
100
AcDbLine
 10
1.119725612877502
 20
51.34468982396551
 30
0.0
 11
1.121657643094991
 21
51.3014400153105
 31
0.0
  0
LINE
  5
144
330
1F
100
AcDbEntity
  8
IGES_LEVEL_0
 62
     7
100
AcDbLine
 10
3.610491647489013
 20
64.50810618377051
 30
0.0
 11
3.755431152314102
 21
64.54664518335051
 31
0.0
  0
LINE
  5
145
330
1F
100
AcDbEntity
  8
IGES_LEVEL_0
 62
     7
100
AcDbLine
 10
3.755431152314102
 20
64.54664518335051
 30
0.0
 11
3.853405332863716
 21
64.5722153454505
 31
0.0
  0
ARC
  5
146
330
1F
100
AcDbEntity
  8
IGES_LEVEL_0
 62
     7
100
AcDbCircle
 10
9.765190652833926
 20
41.3641514554933
 30
0.0
 40
23.9491844368394
100
AcDbArc
 50
89.95257338795655
 51
104.2910144423882
  0
LINE
  5
147
330
1F
100
AcDbEntity
  8
IGES_LEVEL_0
 62
     7
100
AcDbLine
 10
3.763866177151314
 20
64.5421662074005
 30
0.0
 11
3.730481369564004
 21
64.53484221445051
 31
0.0
  0
LINE
  5
148
330
1F
100
AcDbEntity
  8
IGES_LEVEL_0
 62
     7
100
AcDbLine
 10
3.730481369564004
 20
64.53484221445051
 30
0.0
 11
3.271307161525002
 21
64.4287593587255
 31
0.0
  0
LINE
  5
149
330
1F
100
AcDbEntity
  8
IGES_LEVEL_0
 62
     7
100
AcDbLine
 10
3.271307161525002
 20
64.4287593587255
 30
0.0
 11
3.255560575269996
 21
64.4243746414555
 31
0.0
  0
LINE
  5
14A
330
1F
100
AcDbEntity
  8
IGES_LEVEL_0
 62
     7
100
AcDbLine
 10
3.255560575269996
 20
64.4243746414555
 30
0.0
 11
3.246917118168014
 21
64.4215184545405
 31
0.0
  0
LINE
  5
14B
330
1F
100
AcDbEntity
  8
IGES_LEVEL_0
 62
     7
100
AcDbLine
 10
3.246917118168014
 20
64.4215184545405
 30
0.0
 11
3.243343783473009
 21
64.42024878244551
 31
0.0
  0
LINE
  5
14C
330
1F
100
AcDbEntity
  8
IGES_LEVEL_0
 62
     7
100
AcDbLine
 10
3.243343783473009
 20
64.42024878244551
 30
0.0
 11
3.230355325470995
 21
64.41549162976051
 31
0.0
  0
LINE
  5
14D
330
1F
100
AcDbEntity
  8
IGES_LEVEL_0
 62
     7
100
AcDbLine
 10
3.230355325470995
 20
64.41549162976051
 30
0.0
 11
3.218042900263001
 21
64.41096400638051
 31
0.0
  0
LINE
  5
14E
330
1F
100
AcDbEntity
  8
IGES_LEVEL_0
 62
     7
100
AcDbLine
 10
3.218042900263001
 20
64.41096400638051
 30
0.0
 11
3.210884594444011
 21
64.4082942380455
 31
0.0
  0
LINE
  5
14F
330
1F
100
AcDbEntity
  8
IGES_LEVEL_0
 62
     7
100
AcDbLine
 10
3.210884594444011
 20
64.4082942380455
 30
0.0
 11
3.199162893821992
 21
64.4035508639505
 31
0.0
  0
ARC
  5
150
330
1F
100
AcDbEntity
  8
IGES_LEVEL_0
 62
     7
100
AcDbCircle
 10
3.29964497033297
 20
64.16997417455954
 30
0.0
 40
0.2542729193736488
100
AcDbArc
 50
113.2768337632904
 51
150.0210737712782
  0
LINE
  5
151
330
1F
100
AcDbEntity
  8
IGES_LEVEL_0
 62
     7
100
AcDbLine
 10
3.079391415915993
 20
64.29702963211051
 30
0.0
 11
3.055735120173992
 21
64.2418840266005
 31
0.0
  0
LINE
  5
152
330
1F
100
AcDbEntity
  8
IGES_LEVEL_0
 62
     7
100
AcDbLine
 10
3.055735120173992
 20
64.2418840266005
 30
0.0
 11
3.052343353650002
 21
64.22923171299551
 31
0.0
  0
SPLINE
  5
153
330
1F
100
AcDbEntity
  8
IGES_LEVEL_0
 62
     7
100
AcDbSpline
210
0.0
220
0.0
230
1.0
 70
     8
 71
     3
 72
    22
 73
    18
 74
     0
 42
0.0000000001
 43
0.0000000001
 40
12.0
 40
12.0
 40
12.0
 40
12.0
 40
12.10338281003966
 40
12.20071698736234
 40
12.29013451005046
 40
12.37285278479739
 40
12.4498363965599
 40
12.52189357044873
 40
12.58965707960573
 40
12.65367465215999
 40
12.7142969078758
 40
12.77174669035302
 40
12.82632194883411
 40
12.87843170518683
 40
12.92852231061663
 40
12.97689719752877
 40
13.0
 40
13.0
 40
13.0
 40
13.0
 10
3.052343353650002
 20
64.22923171299551
 30
0.0
 10
2.947046461148261
 20
63.79197213909034
 30
0.0
 10
2.736290949469819
 20
62.94456609272774
 30
0.0
 10
2.448083992460013
 20
61.7156672129705
 30
0.0
 10
2.191698415429997
 20
60.57171876755051
 30
0.0
 10
1.967086452633012
 20
59.51143860274051
 30
0.0
 10
1.774510752270018
 20
58.52168413302051
 30
0.0
 10
1.614409518204994
 20
57.5920995596705
 30
0.0
 10
1.483963744375004
 20
56.7148766462705
 30
0.0
 10
1.381319384555994
 20
55.8840727497405
 30
0.0
 10
1.302438174142012
 20
55.0957804640605
 30
0.0
 10
1.242469908484011
 20
54.3470474321005
 30
0.0
 10
1.197531010758993
 20
53.63437526855051
 30
0.0
 10
1.165134087838013
 20
52.9530801491205
 30
0.0
 10
1.142865766992017
 20
52.2983741441205
 30
0.0
 10
1.130826856930995
 20
51.76963136017051
 30
0.0
 10
1.124541795121901
 20
51.45873721865869
 30
0.0
 10
1.122617586891991
 20
51.3582486963105
 30
0.0
  0
LINE
  5
154
330
1F
100
AcDbEntity
  8
IGES_LEVEL_0
 62
     7
100
AcDbLine
 10
1.122617586891991
 20
51.3582486963105
 30
0.0
 11
1.122342997060017
 21
51.3439087064705
 31
0.0
  0
LINE
  5
155
330
1F
100
AcDbEntity
  8
IGES_LEVEL_0
 62
     7
100
AcDbLine
 10
1.122342997060017
 20
51.3439087064705
 30
0.0
 11
1.122294237654003
 21
51.34135477883051
 31
0.0
  0
LINE
  5
156
330
1F
100
AcDbEntity
  8
IGES_LEVEL_0
 62
     7
100
AcDbLine
 10
1.122294237654003
 20
51.34135477883051
 30
0.0
 11
1.120424377250515
 21
51.24735586290051
 31
0.0
  0
LINE
  5
157
330
1F
100
AcDbEntity
  8
IGES_LEVEL_0
 62
     7
100
AcDbLine
 10
1.120424377250515
 20
51.24735586290051
 30
0.0
 11
1.119946909234997
 21
51.23263928048051
 31
0.0
  0
LINE
  5
158
330
1F
100
AcDbEntity
  8
IGES_LEVEL_0
 62
     7
100
AcDbLine
 10
1.119946909234997
 20
51.23263928048051
 30
0.0
 11
1.095410512689014
 21
50.3238104385805
 31
0.0
  0
ARC
  5
159
330
1F
100
AcDbEntity
  8
IGES_LEVEL_0
 62
     7
100
AcDbCircle
 10
9.923477160833224
 20
50.37588966618795
 30
0.0
 40
8.828220261752895
100
AcDbArc
 50
180.3379998641722
 51
192.091378967078
  0
ARC
  5
15A
330
1F
100
AcDbEntity
  8
IGES_LEVEL_0
 62
     7
100
AcDbCircle
 10
1.930351062003215
 20
48.70422708834747
 30
0.0
 40
0.6634501503694414
100
AcDbArc
 50
195.5267150841693
 51
260.9642023314282
  0
LINE
  5
15B
330
1F
100
AcDbEntity
  8
IGES_LEVEL_0
 62
     7
100
AcDbLine
 10
1.826155201153014
 20
48.0490100826105
 30
0.0
 11
1.842954390171499
 21
48.04448077775051
 31
0.0
  0
LINE
  5
15C
330
1F
100
AcDbEntity
  8
IGES_LEVEL_0
 62
     7
100
AcDbLine
 10
1.842954390171499
 20
48.04448077775051
 30
0.0
 11
1.862223625552005
 21
48.0394212532705
 31
0.0
  0
SPLINE
  5
15D
330
1F
100
AcDbEntity
  8
IGES_LEVEL_0
 62
     7
100
AcDbSpline
210
0.0
220
0.0
230
1.0
 70
     8
 71
     3
 72
    11
 73
     7
 74
     0
 42
0.0000000001
 43
0.0000000001
 40
22.0
 40
22.0
 40
22.0
 40
22.0
 40
22.21735295552227
 40
22.46152254636755
 40
22.72420440785231
 40
23.0
 40
23.0
 40
23.0
 40
23.0
 10
1.862223625552005
 20
48.0394212532705
 30
0.0
 10
2.424071831994993
 20
47.89216278322051
 30
0.0
 10
3.628000190641004
 20
47.6200712990405
 30
0.0
 10
5.545174569225495
 20
47.3355190586605
 30
0.0
 10
7.636891226980289
 20
47.24168572892098
 30
0.0
 10
9.075664156004871
 20
47.2404355645124
 30
0.0
 10
9.812650100304012
 20
47.24040752867551
 30
0.0
  0
SPLINE
  5
15E
330
1F
100
AcDbEntity
  8
IGES_LEVEL_0
 62
     7
100
AcDbSpline
210
0.0
220
0.0
230
1.0
 70
     8
 71
     3
 72
    11
 73
     7
 74
     0
 42
0.0000000001
 43
0.0000000001
 40
23.0
 40
23.0
 40
23.0
 40
23.0
 40
23.2753566736486
 40
23.53803888258821
 40
23.78221036370215
 40
24.0
 40
24.0
 40
24.0
 40
24.0
 10
9.812650100304012
 20
47.24040752867551
 30
0.0
 10
10.54846279304744
 20
47.24037953747052
 30
0.0
 10
11.98606332775422
 20
47.24169568713091
 30
0.0
 10
14.07661915198001
 20
47.33520501230051
 30
0.0
 10
15.995008526837
 20
47.61957828354051
 30
0.0
 10
17.2001598190114
 20
47.89163177681833
 30
0.0
 10
17.76307449774701
 20
48.03942146578051
 30
0.0
  0
LINE
  5
15F
330
1F
100
AcDbEntity
  8
IGES_LEVEL_0
 62
     7
100
AcDbLine
 10
17.76307449774701
 20
48.03942146578051
 30
0.0
 11
17.78234298320201
 21
48.04448028478051
 31
0.0
  0
LINE
  5
160
330
1F
100
AcDbEntity
  8
IGES_LEVEL_0
 62
     7
100
AcDbLine
 10
17.78234298320201
 20
48.04448028478051
 30
0.0
 11
17.796160081997
 21
48.04818822797051
 31
0.0
  0
ARC
  5
161
330
1F
100
AcDbEntity
  8
IGES_LEVEL_0
 62
     7
100
AcDbCircle
 10
17.69357056748369
 20
48.70529532367583
 30
0.0
 40
0.6650671723325151
100
AcDbArc
 50
278.8735544535592
 51
344.4158424720128
  0
ARC
  5
162
330
1F
100
AcDbEntity
  8
IGES_LEVEL_0
 62
     7
100
AcDbCircle
 10
11.83770055047702
 20
50.14326558623856
 30
0.0
 40
6.694615806246473
100
AcDbArc
 50
346.0258537474664
 51
1.544764590682476
  0
LINE
  5
163
330
1F
100
AcDbEntity
  8
IGES_LEVEL_0
 62
     7
100
AcDbLine
 10
18.529883319787
 20
50.32373878479051
 30
0.0
 11
18.505372450157
 21
51.23263395989051
 31
0.0
  0
LINE
  5
164
330
1F
100
AcDbEntity
  8
IGES_LEVEL_0
 62
     7
100
AcDbLine
 10
18.505372450157
 20
51.23263395989051
 30
0.0
 11
18.504867601502
 21
51.2475448580705
 31
0.0
  0
LINE
  5
165
330
1F
100
AcDbEntity
  8
IGES_LEVEL_0
 62
     7
100
AcDbLine
 10
18.504867601502
 20
51.2475448580705
 30
0.0
 11
18.502989374847
 21
51.34135485032051
 31
0.0
  0
LINE
  5
166
330
1F
100
AcDbEntity
  8
IGES_LEVEL_0
 62
     7
100
AcDbLine
 10
18.502989374847
 20
51.34135485032051
 30
0.0
 11
18.50291269286701
 21
51.34537259033051
 31
0.0
  0
LINE
  5
167
330
1F
100
AcDbEntity
  8
IGES_LEVEL_0
 62
     7
100
AcDbLine
 10
18.50291269286701
 20
51.34537259033051
 30
0.0
 11
18.502666236067
 21
51.35824780402051
 31
0.0
  0
SPLINE
  5
168
330
1F
100
AcDbEntity
  8
IGES_LEVEL_0
 62
     7
100
AcDbSpline
210
0.0
220
0.0
230
1.0
 70
     8
 71
     3
 72
    22
 73
    18
 74
     0
 42
0.0000000001
 43
0.0000000001
 40
33.0
 40
33.0
 40
33.0
 40
33.0
 40
33.0231233086374
 40
33.07150788144456
 40
33.12160787165963
 40
33.17372703736832
 40
33.22831107578334
 40
33.28577051588967
 40
33.34640430786424
 40
33.4104339409025
 40
33.47821198286889
 40
33.55028434700805
 40
33.62728837269805
 40
33.71002706895933
 40
33.79946954304555
 40
33.89683379116745
 40
34.0
 40
34.0
 40
34.0
 40
34.0
 10
18.502666236067
 20
51.35824780402051
 30
0.0
 10
18.500736651547
 20
51.4588277598105
 30
0.0
 10
18.494459667437
 20
51.7698606292805
 30
0.0
 10
18.48243903817701
 20
52.2987882035705
 30
0.0
 10
18.460136059487
 20
52.9536320947805
 30
0.0
 10
18.427735401747
 20
53.63506261266051
 30
0.0
 10
18.38277623816701
 20
54.34787153223051
 30
0.0
 10
18.32275840565701
 20
55.0967483756605
 30
0.0
 10
18.243883440597
 20
55.88520512830051
 30
0.0
 10
18.141144414507
 20
56.71618400346051
 30
0.0
 10
18.010655845177
 20
57.59360463187051
 30
0.0
 10
17.850457484687
 20
58.5234157953205
 30
0.0
 10
17.657827058607
 20
59.5134312922805
 30
0.0
 10
17.43310618392701
 20
60.5740063119305
 30
0.0
 10
17.17665353421701
 20
61.71830374532051
 30
0.0
 10
16.88847959250447
 20
62.94651789798918
 30
0.0
 10
16.69622197216529
 20
63.79839173842434
 30
0.0
 10
16.572881225947
 20
64.22951997442051
 30
0.0
  0
LINE
  5
169
330
1F
100
AcDbEntity
  8
IGES_LEVEL_0
 62
     7
100
AcDbLine
 10
16.572881225947
 20
64.22951997442051
 30
0.0
 11
16.566902607887
 21
64.25041778100051
 31
0.0
  0
LINE
  5
16A
330
1F
100
AcDbEntity
  8
IGES_LEVEL_0
 62
     7
100
AcDbLine
 10
16.566902607887
 20
64.25041778100051
 30
0.0
 11
16.54459167125701
 21
64.2994618466405
 31
0.0
  0
ARC
  5
16B
330
1F
100
AcDbEntity
  8
IGES_LEVEL_0
 62
     7
100
AcDbCircle
 10
16.33205544673492
 20
64.17781951784868
 30
0.0
 40
0.244884672627751
100
AcDbArc
 50
29.78409965518603
 51
70.37723948246953
  0
LINE
  5
16C
330
1F
100
AcDbEntity
  8
IGES_LEVEL_0
 62
     7
100
AcDbLine
 10
16.41429403092201
 20
64.4084822980255
 30
0.0
 11
16.37675727212201
 21
64.4218653409955
 31
0.0
  0
LINE
  5
16D
330
1F
100
AcDbEntity
  8
IGES_LEVEL_0
 62
     7
100
AcDbLine
 10
16.37675727212201
 20
64.4218653409955
 30
0.0
 11
16.373074483747
 21
64.4234566373205
 31
0.0
  0
LINE
  5
16E
330
1F
100
AcDbEntity
  8
IGES_LEVEL_0
 62
     7
100
AcDbLine
 10
16.373074483747
 20
64.4234566373205
 30
0.0
 11
16.36252169013201
 21
64.4269247221205
 31
0.0
  0
LINE
  5
16F
330
1F
100
AcDbEntity
  8
IGES_LEVEL_0
 62
     7
100
AcDbLine
 10
16.36252169013201
 20
64.4269247221205
 30
0.0
 11
15.86497837814201
 21
64.5418757198655
 31
0.0
  0
ARC
  5
170
330
1F
100
AcDbEntity
  8
IGES_LEVEL_0
 62
     7
100
AcDbCircle
 10
9.942745737163371
 20
41.43153842320422
 30
0.0
 40
23.85708551812912
100
AcDbArc
 50
75.62673576363913
 51
90.3124425375983
  0
ARC
  5
171
330
1F
100
AcDbEntity
  8
IGES_LEVEL_0
 62
     7
100
AcDbCircle
 10
10.31464840703318
 20
36.2642799761328
 30
0.0
 40
29.02833020030921
100
AcDbArc
 50
90.99088781145106
 51
103.0429213116337
  0
LINE
  5
172
330
1F
100
AcDbEntity
  8
IGES_LEVEL_0
 62
     7
100
AcDbLine
 10
3.763508445784893
 20
64.5437163111505
 30
0.0
 11
3.732329705546917
 21
64.5364935260605
 31
0.0
  0
LINE
  5
173
330
1F
100
AcDbEntity
  8
IGES_LEVEL_0
 62
     7
100
AcDbLine
 10
18.50365409571701
 20
51.3017134891105
 30
0.0
 11
18.50557544544701
 21
51.3447220815105
 31
0.0
  0
SPLINE
  5
174
330
1F
100
AcDbEntity
  8
IGES_LEVEL_0
 62
     7
100
AcDbSpline
210
0.0
220
0.0
230
1.0
 70
     8
 71
     3
 72
     8
 73
     4
 74
     0
 42
0.0000000001
 43
0.0000000001
 40
1.0
 40
1.0
 40
1.0
 40
1.0
 40
2.0
 40
2.0
 40
2.0
 40
2.0
 10
18.50557544544701
 20
51.3447220815105
 30
0.0
 10
18.50553444994421
 20
51.34361443789717
 30
0.0
 10
18.50543691211996
 20
51.34250933051609
 30
0.0
 10
18.505765629182
 20
51.34985941048551
 30
0.0
  0
SPLINE
  5
175
330
1F
100
AcDbEntity
  8
IGES_LEVEL_0
 62
     7
100
AcDbSpline
210
0.0
220
0.0
230
1.0
 70
     8
 71
     3
 72
    22
 73
    18
 74
     0
 42
0.0000000001
 43
0.0000000001
 40
2.0
 40
2.0
 40
2.0
 40
2.0
 40
2.020372838226296
 40
2.068219315394171
 40
2.118222747659476
 40
2.170084140297332
 40
2.224289133912193
 40
2.281372625717016
 40
2.341734183334407
 40
2.405642195434727
 40
2.473417773450677
 40
2.545641091900555
 40
2.622992929980827
 40
2.706324547157508
 40
2.796643456638744
 40
2.895208231007072
 40
3.0
 40
3.0
 40
3.0
 40
3.0
 10
18.505765629182
 20
51.34985941048551
 30
0.0
 10
18.510092301957
 20
51.4466033723005
 30
0.0
 10
18.520709148207
 20
51.74235651088051
 30
0.0
 10
18.524570507877
 20
52.25521757682051
 30
0.0
 10
18.51292010572701
 20
52.9045389660305
 30
0.0
 10
18.486547178707
 20
53.5810227164405
 30
0.0
 10
18.446069946647
 20
54.28756508677051
 30
0.0
 10
18.39024476537701
 20
55.03004332679051
 30
0.0
 10
18.31660192360701
 20
55.81326130971051
 30
0.0
 10
18.221004041477
 20
56.64082465933051
 30
0.0
 10
18.099726204337
 20
57.5169924796505
 30
0.0
 10
17.95037295622701
 20
58.4479159088905
 30
0.0
 10
17.77077433654701
 20
59.4421166239805
 30
0.0
 10
17.55938624313701
 20
60.5101609359005
 30
0.0
 10
17.31377092523701
 20
61.66512445986051
 30
0.0
 10
17.0267068807251
 20
62.90622434048004
 30
0.0
 10
16.80882121194
 20
63.76115036380027
 30
0.0
 10
16.687438722337
 20
64.1991784674705
 30
0.0
  0
LINE
  5
176
330
1F
100
AcDbEntity
  8
IGES_LEVEL_0
 62
     7
100
AcDbLine
 10
16.687438722337
 20
64.1991784674705
 30
0.0
 11
16.67840680447701
 21
64.2258435806805
 31
0.0
  0
LINE
  5
177
330
1F
100
AcDbEntity
  8
IGES_LEVEL_0
 62
     7
100
AcDbLine
 10
16.67840680447701
 20
64.2258435806805
 30
0.0
 11
16.668580538897
 21
64.24721687828051
 31
0.0
  0
LINE
  5
178
330
1F
100
AcDbEntity
  8
IGES_LEVEL_0
 62
     7
100
AcDbLine
 10
16.668580538897
 20
64.24721687828051
 30
0.0
 11
16.592591781347
 21
64.3341023877805
 31
0.0
  0
LINE
  5
179
330
1F
100
AcDbEntity
  8
IGES_LEVEL_0
 62
     7
100
AcDbLine
 10
16.592591781347
 20
64.3341023877805
 30
0.0
 11
16.539303704627
 21
64.36197859864551
 31
0.0
  0
LINE
  5
17A
330
1F
100
AcDbEntity
  8
IGES_LEVEL_0
 62
     7
100
AcDbLine
 10
16.539303704627
 20
64.36197859864551
 30
0.0
 11
16.533941375217
 21
64.36401853440052
 31
0.0
  0
LINE
  5
17B
330
1F
100
AcDbEntity
  8
IGES_LEVEL_0
 62
     7
100
AcDbLine
 10
16.533941375217
 20
64.36401853440052
 30
0.0
 11
16.527984876807
 21
64.3661471209205
 31
0.0
  0
LINE
  5
17C
330
1F
100
AcDbEntity
  8
IGES_LEVEL_0
 62
     7
100
AcDbLine
 10
16.527984876807
 20
64.3661471209205
 30
0.0
 11
16.522456967897
 21
64.3679579257705
 31
0.0
  0
LINE
  5
17D
330
1F
100
AcDbEntity
  8
IGES_LEVEL_0
 62
     7
100
AcDbLine
 10
16.522456967897
 20
64.3679579257705
 30
0.0
 11
16.516305659247
 21
64.3697911466905
 31
0.0
  0
LINE
  5
17E
330
1F
100
AcDbEntity
  8
IGES_LEVEL_0
 62
     7
100
AcDbLine
 10
16.516305659247
 20
64.3697911466905
 30
0.0
 11
16.46012602336701
 21
64.38564445224051
 31
0.0
  0
LINE
  5
17F
330
1F
100
AcDbEntity
  8
IGES_LEVEL_0
 62
     7
100
AcDbLine
 10
16.539725017807
 20
64.36186188527051
 30
0.0
 11
16.53394201780701
 21
64.36401988527049
 31
0.0
  0
ARC
  5
180
330
1F
100
AcDbEntity
  8
IGES_LEVEL_0
 62
     7
100
AcDbCircle
 10
9.812649880634508
 20
78.14208142063615
 30
0.0
 40
53.25738217803566
100
AcDbArc
 50
279.3405146148343
 51
279.3609282670425
  0
LINE
  5
181
330
1F
100
AcDbEntity
  8
IGES_LEVEL_0
 62
     7
100
AcDbLine
 10
18.4751207330245
 20
25.59390993634615
 30
0.0
 11
18.45349890358592
 21
25.57528890789452
 31
0.0
  0
LINE
  5
182
330
1F
100
AcDbEntity
  8
IGES_LEVEL_0
 62
     7
100
AcDbLine
 10
18.09210188063451
 20
29.79528042063615
 30
0.0
 11
18.14656196908872
 21
26.67523332216798
 31
0.0
  0
LINE
  5
183
330
1F
100
AcDbEntity
  8
IGES_LEVEL_0
 62
     7
100
AcDbLine
 10
1.478737889457026
 20
26.67522764285872
 30
0.0
 11
1.533198880634507
 21
29.79527942063615
 31
0.0
  0
LINE
  5
184
330
1F
100
AcDbEntity
  8
IGES_LEVEL_0
 62
     7
100
AcDbLine
 10
1.150179451135507
 20
25.59390993634615
 30
0.0
 11
1.171804474320378
 21
25.57528481369474
 31
0.0
  0
ARC
  5
185
330
1F
100
AcDbEntity
  8
IGES_LEVEL_0
 62
     7
100
AcDbCircle
 10
9.812649880634508
 20
78.14208142063615
 30
0.0
 40
53.25738201606362
100
AcDbArc
 50
260.6390727944589
 51
260.659488913564
  0
LINE
  5
186
330
1F
100
AcDbEntity
  8
IGES_LEVEL_0
 62
     7
100
AcDbLine
 10
18.52160667623451
 20
25.82937282421337
 30
0.0
 11
18.51993939212451
 21
25.84799270252337
 31
0.0
  0
LINE
  5
187
330
1F
100
AcDbEntity
  8
IGES_LEVEL_0
 62
     7
100
AcDbLine
 10
1.105360208947516
 20
25.84798899055337
 30
0.0
 11
1.103693260131522
 21
25.82937288879337
 31
0.0
  0
LINE
  5
188
330
1F
100
AcDbEntity
  8
IGES_LEVEL_0
 62
     7
100
AcDbLine
 10
18.18836970457451
 20
24.41850487263337
 30
0.0
 11
18.19027331323451
 21
24.42217445337337
 31
0.0
  0
LINE
  5
189
330
1F
100
AcDbEntity
  8
IGES_LEVEL_0
 62
     7
100
AcDbLine
 10
1.435027897668519
 20
24.42217197636337
 30
0.0
 11
1.43693222027251
 21
24.41850099714337
 31
0.0
  0
LINE
  5
18A
330
1F
100
AcDbEntity
  8
IGES_LEVEL_0
 62
     7
100
AcDbLine
 10
1.117501737890521
 20
25.89144699599337
 30
0.0
 11
1.105240817396506
 21
25.84766829963337
 31
0.0
  0
LINE
  5
18B
330
1F
100
AcDbEntity
  8
IGES_LEVEL_0
 62
     7
100
AcDbLine
 10
18.52005720657452
 20
25.84767934463337
 30
0.0
 11
18.51861522835451
 21
25.85840581290337
 31
0.0
  0
LINE
  5
18C
330
1F
100
AcDbEntity
  8
IGES_LEVEL_0
 62
     7
100
AcDbLine
 10
18.51861522835451
 20
25.85840581290337
 30
0.0
 11
18.50782237043451
 21
25.89139561540337
 31
0.0
  0
LINE
  5
18D
330
1F
100
AcDbEntity
  8
IGES_LEVEL_0
 62
     7
100
AcDbLine
 10
18.19027297577451
 20
24.42218100517337
 30
0.0
 11
18.19348096611451
 21
24.42843137451337
 31
0.0
  0
LINE
  5
18E
330
1F
100
AcDbEntity
  8
IGES_LEVEL_0
 62
     7
100
AcDbLine
 10
18.19348096611451
 20
24.42843137451337
 30
0.0
 11
18.20935019524451
 21
24.46231645787337
 31
0.0
  0
LINE
  5
18F
330
1F
100
AcDbEntity
  8
IGES_LEVEL_0
 62
     7
100
AcDbLine
 10
1.415401788814521
 20
24.46359282747337
 30
0.0
 11
1.435015506288508
 21
24.42220148459337
 31
0.0
  0
LINE
  5
190
330
1F
100
AcDbEntity
  8
IGES_LEVEL_0
 62
     7
100
AcDbLine
 10
1.103674945053527
 20
25.82909952767337
 30
0.0
 11
1.103275470142521
 21
25.81105349031337
 31
0.0
  0
LINE
  5
191
330
1F
100
AcDbEntity
  8
IGES_LEVEL_0
 62
     7
100
AcDbLine
 10
1.103275470142521
 20
25.81105349031337
 30
0.0
 11
1.105932400029516
 21
25.78767736154337
 31
0.0
  0
LINE
  5
192
330
1F
100
AcDbEntity
  8
IGES_LEVEL_0
 62
     7
100
AcDbLine
 10
1.105932400029516
 20
25.78767736154337
 30
0.0
 11
1.152500387693507
 21
25.67852364477337
 31
0.0
  0
LINE
  5
193
330
1F
100
AcDbEntity
  8
IGES_LEVEL_0
 62
     7
100
AcDbLine
 10
1.436907231183525
 20
24.41857490187337
 30
0.0
 11
1.460230385209499
 21
24.37736036392337
 31
0.0
  0
ARC
  5
194
330
1F
100
AcDbEntity
  8
IGES_LEVEL_0
 62
     7
100
AcDbCircle
 10
2.037856593974286
 20
24.74213076019796
 30
0.0
 40
0.6831613858015564
100
AcDbArc
 50
212.2723713498774
 51
255.8910184768728
  0
LINE
  5
195
330
1F
100
AcDbEntity
  8
IGES_LEVEL_0
 62
     7
100
AcDbLine
 10
1.871324362952507
 20
24.07957774716337
 30
0.0
 11
1.925593408174521
 21
24.06763172666337
 31
0.0
  0
LINE
  5
196
330
1F
100
AcDbEntity
  8
IGES_LEVEL_0
 62
     7
100
AcDbLine
 10
1.925593408174521
 20
24.06763172666337
 30
0.0
 11
1.928929491368521
 21
24.06703566228337
 31
0.0
  0
LINE
  5
197
330
1F
100
AcDbEntity
  8
IGES_LEVEL_0
 62
     7
100
AcDbLine
 10
1.928929491368521
 20
24.06703566228337
 30
0.0
 11
1.934625275357504
 21
24.06605421664337
 31
0.0
  0
SPLINE
  5
198
330
1F
100
AcDbEntity
  8
IGES_LEVEL_0
 62
     7
100
AcDbSpline
210
0.0
220
0.0
230
1.0
 70
     8
 71
     3
 72
    11
 73
     7
 74
     0
 42
0.0000000001
 43
0.0000000001
 40
0.0
 40
0.0
 40
0.0
 40
0.0
 40
0.2512996434094
 40
0.5065254998285
 40
0.7582476739369
 40
1.0
 40
1.0
 40
1.0
 40
1.0
 10
1.934632182946515
 20
24.06603944711337
 30
0.0
 10
2.587667870584525
 20
23.95623419917337
 30
0.0
 10
3.909741149183518
 20
23.76257152354337
 30
0.0
 10
5.905533076058518
 20
23.64434355868337
 30
0.0
 10
7.875810930935515
 20
23.55500836416337
 30
0.0
 10
9.175637454639528
 20
23.49944741850337
 30
0.0
 10
9.812649995372524
 20
23.49940024555337
 30
0.0
  0
SPLINE
  5
199
330
1F
100
AcDbEntity
  8
IGES_LEVEL_0
 62
     7
100
AcDbSpline
210
0.0
220
0.0
230
1.0
 70
     8
 71
     3
 72
    11
 73
     7
 74
     0
 42
0.0000000001
 43
0.0000000001
 40
0.0
 40
0.0
 40
0.0
 40
0.0
 40
0.2423227499167
 40
0.4940888848892
 40
0.7492651854511
 40
1.0
 40
1.0
 40
1.0
 40
1.0
 10
9.812649994683525
 20
23.49940059839337
 30
0.0
 10
10.45116653172451
 20
23.49945174989337
 30
0.0
 10
11.75260552270952
 20
23.55515663355337
 30
0.0
 10
13.72437434153851
 20
23.64450291323337
 30
0.0
 10
15.71864767990452
 20
23.76297077838337
 30
0.0
 10
17.03909810295451
 20
23.95647592613337
 30
0.0
 10
17.69066717292451
 20
24.06603907901337
 30
0.0
  0
LINE
  5
19A
330
1F
100
AcDbEntity
  8
IGES_LEVEL_0
 62
     7
100
AcDbLine
 10
17.69067461934451
 20
24.06605167627337
 30
0.0
 11
17.70471550698451
 21
24.06855399519337
 31
0.0
  0
LINE
  5
19B
330
1F
100
AcDbEntity
  8
IGES_LEVEL_0
 62
     7
100
AcDbLine
 10
17.70471550698451
 20
24.06855399519337
 30
0.0
 11
17.75697521133451
 21
24.08036468505337
 31
0.0
  0
ARC
  5
19C
330
1F
100
AcDbEntity
  8
IGES_LEVEL_0
 62
     7
100
AcDbCircle
 10
17.58767372108584
 20
24.74185550099092
 30
0.0
 40
0.6828126347470005
100
AcDbArc
 50
284.3560720498784
 51
327.79807383402
  0
LINE
  5
19D
330
1F
100
AcDbEntity
  8
IGES_LEVEL_0
 62
     7
100
AcDbLine
 10
18.16545287398451
 20
24.37798142298337
 30
0.0
 11
18.18839161801451
 21
24.41857078499337
 31
0.0
  0
LINE
  5
19E
330
1F
100
AcDbEntity
  8
IGES_LEVEL_0
 62
     7
100
AcDbLine
 10
18.44546107286452
 20
25.61996501081337
 30
0.0
 11
18.47281098426451
 21
25.67854636836337
 31
0.0
  0
LINE
  5
19F
330
1F
100
AcDbEntity
  8
IGES_LEVEL_0
 62
     7
100
AcDbLine
 10
18.47281098426451
 20
25.67854636836337
 30
0.0
 11
18.51936428044452
 21
25.78766403165337
 31
0.0
  0
LINE
  5
1A0
330
1F
100
AcDbEntity
  8
IGES_LEVEL_0
 62
     7
100
AcDbLine
 10
18.51936428044452
 20
25.78766403165337
 30
0.0
 11
18.52162454892452
 21
25.82910320856337
 31
0.0
  0
LINE
  5
1A1
330
1F
100
AcDbEntity
  8
IGES_LEVEL_0
 62
     7
100
AcDbLine
 10
17.73575756769451
 20
24.16542385517337
 30
0.0
 11
17.79847962553451
 21
24.17838849931337
 31
0.0
  0
ARC
  5
1A2
330
1F
100
AcDbEntity
  8
IGES_LEVEL_0
 62
     7
100
AcDbCircle
 10
17.63204631881209
 20
24.85872625122543
 30
0.0
 40
0.7003995304562343
100
AcDbArc
 50
283.7464813456295
 51
326.4827430174348
  0
LINE
  5
1A3
330
1F
100
AcDbEntity
  8
IGES_LEVEL_0
 62
     7
100
AcDbLine
 10
18.21598309715451
 20
24.47197395173337
 30
0.0
 11
18.23381739692451
 21
24.50088992323337
 31
0.0
  0
SPLINE
  5
1A4
330
1F
100
AcDbEntity
  8
IGES_LEVEL_0
 62
     7
100
AcDbSpline
210
0.0
220
0.0
230
1.0
 70
     8
 71
     3
 72
    11
 73
     7
 74
     0
 42
0.0000000001
 43
0.0000000001
 40
0.0
 40
0.0
 40
0.0
 40
0.0
 40
0.2583003502166
 40
0.5153944786894
 40
0.7651130529818
 40
1.0
 40
1.0
 40
1.0
 40
1.0
 10
9.812649858413508
 20
23.59781554612337
 30
0.0
 10
10.49721559459252
 20
23.59788481794337
 30
0.0
 10
11.86289094076452
 20
23.64006037247337
 30
0.0
 10
13.88891832747551
 20
23.72389626051337
 30
0.0
 10
15.84917273397451
 20
23.88364905096337
 30
0.0
 10
17.12127589151451
 20
24.06545949728337
 30
0.0
 10
17.73572959995451
 20
24.16540044721337
 30
0.0
  0
SPLINE
  5
1A5
330
1F
100
AcDbEntity
  8
IGES_LEVEL_0
 62
     7
100
AcDbSpline
210
0.0
220
0.0
230
1.0
 70
     8
 71
     3
 72
    11
 73
     7
 74
     0
 42
0.0000000001
 43
0.0000000001
 40
0.0
 40
0.0
 40
0.0
 40
0.0
 40
0.2353078582519
 40
0.4850242327006
 40
0.7421266515132
 40
1.0
 40
1.0
 40
1.0
 40
1.0
 10
1.889568040796505
 20
24.16540142770337
 30
0.0
 10
2.505123665239509
 20
24.06529025073337
 30
0.0
 10
3.778332886065201
 20
23.88334710510337
 30
0.0
 10
5.739734447450516
 20
23.72373710693337
 30
0.0
 10
7.76464664492751
 20
23.63996815333337
 30
0.0
 10
9.1292160775795
 20
23.59789484941337
 30
0.0
 10
9.812649858959517
 20
23.59781596916337
 30
0.0
  0
LINE
  5
1A6
330
1F
100
AcDbEntity
  8
IGES_LEVEL_0
 62
     7
100
AcDbLine
 10
1.3914625208525
 20
24.50092845549337
 30
0.0
 11
1.410136101396503
 21
24.47072510543337
 31
0.0
  0
ARC
  5
1A7
330
1F
100
AcDbEntity
  8
IGES_LEVEL_0
 62
     7
100
AcDbCircle
 10
1.993498570372264
 20
24.85903049834292
 30
0.0
 40
0.7007801712178602
100
AcDbArc
 50
213.6490518430536
 51
256.5472228297649
  0
LINE
  5
1A8
330
1F
100
AcDbEntity
  8
IGES_LEVEL_0
 62
     7
100
AcDbLine
 10
1.830466363989515
 20
24.17747833742337
 30
0.0
 11
1.889543578150509
 21
24.16542019676337
 31
0.0
  0
LINE
  5
1A9
330
1F
100
AcDbEntity
  8
IGES_LEVEL_0
 62
     7
100
AcDbLine
 10
18.33677717980451
 20
24.79468465331337
 30
0.0
 11
18.42928976441452
 21
25.44479251990337
 31
0.0
  0
LINE
  5
1AA
330
1F
100
AcDbEntity
  8
IGES_LEVEL_0
 62
     7
100
AcDbLine
 10
18.42928976441452
 20
25.44479251990337
 30
0.0
 11
18.43046659647452
 21
25.45125929211337
 31
0.0
  0
LINE
  5
1AB
330
1F
100
AcDbEntity
  8
IGES_LEVEL_0
 62
     7
100
AcDbLine
 10
18.43046659647452
 20
25.45125929211337
 30
0.0
 11
18.44981307693452
 21
25.55560809529337
 31
0.0
  0
LINE
  5
1AC
330
1F
100
AcDbEntity
  8
IGES_LEVEL_0
 62
     7
100
AcDbLine
 10
18.44981307693452
 20
25.55560809529337
 30
0.0
 11
18.48852979459451
 21
25.76733068653337
 31
0.0
  0
LINE
  5
1AD
330
1F
100
AcDbEntity
  8
IGES_LEVEL_0
 62
     7
100
AcDbLine
 10
18.48852979459451
 20
25.76733068653337
 30
0.0
 11
18.49951642786452
 21
25.83297785303337
 31
0.0
  0
LINE
  5
1AE
330
1F
100
AcDbEntity
  8
IGES_LEVEL_0
 62
     7
100
AcDbLine
 10
18.49951642786452
 20
25.83297785303337
 30
0.0
 11
18.50234751984452
 21
25.85086437135337
 31
0.0
  0
LINE
  5
1AF
330
1F
100
AcDbEntity
  8
IGES_LEVEL_0
 62
     7
100
AcDbLine
 10
18.50234751984452
 20
25.85086437135337
 30
0.0
 11
18.50460517586451
 21
25.86552933575337
 31
0.0
  0
SPLINE
  5
1B0
330
1F
100
AcDbEntity
  8
IGES_LEVEL_0
 62
     7
100
AcDbSpline
210
0.0
220
0.0
230
1.0
 70
     8
 71
     3
 72
    14
 73
    10
 74
     0
 42
0.0000000001
 43
0.0000000001
 40
0.0
 40
0.0
 40
0.0
 40
0.0
 40
0.1627265140382
 40
0.3587804501216
 40
0.5110675223601
 40
0.5943300949671
 40
0.7131584501302
 40
0.8813893173375
 40
1.0
 40
1.0
 40
1.0
 40
1.0
 10
18.50460517586451
 20
25.86552933575337
 30
0.0
 10
18.51356342810452
 20
25.92451186049337
 30
0.0
 10
18.53005890755451
 20
26.05504410670337
 30
0.0
 10
18.53384439374452
 20
26.24357276224337
 30
0.0
 10
18.49473719950451
 20
26.39954614912337
 30
0.0
 10
18.43153265428451
 20
26.51366434252337
 30
0.0
 10
18.34053575255452
 20
26.61730168047337
 30
0.0
 10
18.19739056232451
 20
26.67930854940337
 30
0.0
 10
18.09041253670451
 20
26.67801889088337
 30
0.0
 10
18.04724567008451
 20
26.67133885372337
 30
0.0
  0
LINE
  5
1B1
330
1F
100
AcDbEntity
  8
IGES_LEVEL_0
 62
     7
100
AcDbLine
 10
18.24726157474451
 20
24.52370796768337
 30
0.0
 11
18.25609776470451
 21
24.53897377274337
 31
0.0
  0
ARC
  5
1B2
330
1F
100
AcDbEntity
  8
IGES_LEVEL_0
 62
     7
100
AcDbCircle
 10
17.68648164069235
 20
24.85906491883032
 30
0.0
 40
0.6533918200726833
100
AcDbArc
 50
330.6665448107893
 51
354.3469238991006
  0
ARC
  5
1B3
330
1F
100
AcDbEntity
  8
IGES_LEVEL_0
 62
     7
100
AcDbCircle
 10
1.938690774408379
 20
24.859019806326
 30
0.0
 40
0.6532581489230442
100
AcDbArc
 50
185.6507994589658
 51
209.2341280189186
  0
LINE
  5
1B4
330
1F
100
AcDbEntity
  8
IGES_LEVEL_0
 62
     7
100
AcDbLine
 10
1.368637246666523
 20
24.53998190161337
 30
0.0
 11
1.378047419889512
 21
24.52369256035337
 31
0.0
  0
SPLINE
  5
1B5
330
1F
100
AcDbEntity
  8
IGES_LEVEL_0
 62
     7
100
AcDbSpline
210
0.0
220
0.0
230
1.0
 70
     8
 71
     3
 72
    14
 73
    10
 74
     0
 42
0.0000000001
 43
0.0000000001
 40
0.0
 40
0.0
 40
0.0
 40
0.0
 40
0.1221215208161
 40
0.2910656106337
 40
0.4083349103063
 40
0.4933923736365
 40
0.6456720777499
 40
0.8397554858372001
 40
1.0
 40
1.0
 40
1.0
 40
1.0
 10
1.577986046791509
 20
26.67135122314337
 30
0.0
 10
1.533405032141516
 20
26.67823919115337
 30
0.0
 10
1.424396426187499
 20
26.67900280812337
 30
0.0
 10
1.280695441634506
 20
26.61432332422337
 30
0.0
 10
1.1905897161365
 20
26.50907127844337
 30
0.0
 10
1.128284992100518
 20
26.39389366137337
 30
0.0
 10
1.091087493949502
 20
26.23709714255337
 30
0.0
 10
1.095750972176504
 20
26.04981055707337
 30
0.0
 10
1.112296580024506
 20
25.92055707378337
 30
0.0
 10
1.121193214076513
 20
25.86231422321337
 30
0.0
  0
LINE
  5
1B6
330
1F
100
AcDbEntity
  8
IGES_LEVEL_0
 62
     7
100
AcDbLine
 10
1.121193214076513
 20
25.86231422321337
 30
0.0
 11
1.122959215196502
 21
25.85087231369337
 31
0.0
  0
LINE
  5
1B7
330
1F
100
AcDbEntity
  8
IGES_LEVEL_0
 62
     7
100
AcDbLine
 10
1.122959215196502
 20
25.85087231369337
 30
0.0
 11
1.125788238182523
 21
25.83299216249337
 31
0.0
  0
LINE
  5
1B8
330
1F
100
AcDbEntity
  8
IGES_LEVEL_0
 62
     7
100
AcDbLine
 10
1.125788238182523
 20
25.83299216249337
 30
0.0
 11
1.175216456522506
 21
25.55706401358337
 31
0.0
  0
LINE
  5
1B9
330
1F
100
AcDbEntity
  8
IGES_LEVEL_0
 62
     7
100
AcDbLine
 10
1.175216456522506
 20
25.55706401358337
 30
0.0
 11
1.194812854592513
 21
25.45135759847337
 31
0.0
  0
LINE
  5
1BA
330
1F
100
AcDbEntity
  8
IGES_LEVEL_0
 62
     7
100
AcDbLine
 10
1.194812854592513
 20
25.45135759847337
 30
0.0
 11
1.195469092633502
 21
25.44775289006337
 31
0.0
  0
LINE
  5
1BB
330
1F
100
AcDbEntity
  8
IGES_LEVEL_0
 62
     7
100
AcDbLine
 10
1.195469092633502
 20
25.44775289006337
 30
0.0
 11
1.288523156691511
 21
24.79469509521337
 31
0.0
  0
LINE
  5
1BC
330
1F
100
AcDbEntity
  8
IGES_LEVEL_0
 62
     7
100
AcDbLine
 10
1.378062528401514
 20
24.52365376554337
 30
0.0
 11
1.391565026867525
 21
24.50074730596337
 31
0.0
  0
LINE
  5
1BD
330
1F
100
AcDbEntity
  8
IGES_LEVEL_0
 62
     7
100
AcDbLine
 10
18.23372605028452
 20
24.50073233084337
 30
0.0
 11
18.24724435816451
 21
24.52366570989337
 31
0.0
  0
ARC
  5
1BE
330
1F
100
AcDbEntity
  8
IGES_LEVEL_0
 62
     7
100
AcDbCircle
 10
9.507190952520801
 20
72.96827163909634
 30
0.0
 40
47.07797644708067
100
AcDbArc
 50
270.3717584392164
 51
280.4516902616953
  0
ARC
  5
1BF
330
1F
100
AcDbEntity
  8
IGES_LEVEL_0
 62
     7
100
AcDbCircle
 10
10.11810906959553
 20
72.96827394040164
 30
0.0
 40
47.07797874893182
100
AcDbArc
 50
259.5483092781133
 51
269.6282414674857
  0
LINE
  5
1C0
330
1F
100
AcDbEntity
  8
IGES_LEVEL_0
 62
     7
100
AcDbLine
 10
4.356622317745902
 20
22.97255996124337
 30
0.0
 11
4.378459442030206
 21
22.95672263898337
 31
0.0
  0
LINE
  5
1C1
330
1F
100
AcDbEntity
  8
IGES_LEVEL_0
 62
     7
100
AcDbLine
 10
4.378459442030206
 20
22.95672263898337
 30
0.0
 11
4.42995085780241
 21
22.93056645184337
 31
0.0
  0
LINE
  5
1C2
330
1F
100
AcDbEntity
  8
IGES_LEVEL_0
 62
     7
100
AcDbLine
 10
4.42995085780241
 20
22.93056645184337
 30
0.0
 11
4.43293774869322
 21
22.92947167177337
 31
0.0
  0
LINE
  5
1C3
330
1F
100
AcDbEntity
  8
IGES_LEVEL_0
 62
     7
100
AcDbLine
 10
4.132861852920414
 20
23.17967860352337
 30
0.0
 11
4.356573044999905
 21
22.97259768035337
 31
0.0
  0
ARC
  5
1C4
330
1F
100
AcDbEntity
  8
IGES_LEVEL_0
 62
     7
100
AcDbCircle
 10
9.700872466654426
 20
37.27529730629731
 30
0.0
 40
15.28246623596552
100
AcDbArc
 50
249.8362504435196
 51
270.4188723113788
  0
LINE
  5
1C5
330
1F
100
AcDbEntity
  8
IGES_LEVEL_0
 62
     7
100
AcDbLine
 10
3.540197194534514
 20
23.83501104755337
 30
0.0
 11
4.132719997860406
 21
23.17983067261337
 31
0.0
  0
LINE
  5
1C6
330
1F
100
AcDbEntity
  8
IGES_LEVEL_0
 62
     7
100
AcDbLine
 10
15.19236194940451
 20
22.92947162825337
 30
0.0
 11
15.21477405378451
 21
22.93875425565337
 31
0.0
  0
LINE
  5
1C7
330
1F
100
AcDbEntity
  8
IGES_LEVEL_0
 62
     7
100
AcDbLine
 10
15.21477405378451
 20
22.93875425565337
 30
0.0
 11
15.24595187881451
 21
22.95614286206337
 31
0.0
  0
LINE
  5
1C8
330
1F
100
AcDbEntity
  8
IGES_LEVEL_0
 62
     7
100
AcDbLine
 10
15.24595187881451
 20
22.95614286206337
 30
0.0
 11
15.26869326736451
 21
22.97257234404337
 31
0.0
  0
LINE
  5
1C9
330
1F
100
AcDbEntity
  8
IGES_LEVEL_0
 62
     7
100
AcDbLine
 10
15.26872726215451
 20
22.97259798294337
 30
0.0
 11
15.49243852711452
 21
23.17967988790337
 31
0.0
  0
ARC
  5
1CA
330
1F
100
AcDbEntity
  8
IGES_LEVEL_0
 62
     7
100
AcDbCircle
 10
9.924417281515627
 20
37.27533989986478
 30
0.0
 40
15.28250972888963
100
AcDbArc
 50
269.580735832206
 51
290.1637303465539
  0
LINE
  5
1CB
330
1F
100
AcDbEntity
  8
IGES_LEVEL_0
 62
     7
100
AcDbLine
 10
15.49256021145452
 20
23.17980980399337
 30
0.0
 11
16.08510319802451
 21
23.83501158214337
 31
0.0
  0
ARC
  5
1CC
330
1F
100
AcDbEntity
  8
IGES_LEVEL_0
 62
     7
100
AcDbCircle
 10
42.06064883270668
 20
31.67775088178236
 30
0.0
 40
8.498273445065051
100
AcDbArc
 50
260.1722285592561
 51
265.6440619794687
  0
ARC
  5
1CD
330
1F
100
AcDbEntity
  8
IGES_LEVEL_0
 62
     7
100
AcDbCircle
 10
42.06056594353031
 20
31.67710938338117
 30
0.0
 40
7.502627647773627
100
AcDbArc
 50
259.9997273499018
 51
264.75433035092
  0
LINE
  5
1CE
330
1F
100
AcDbEntity
  8
IGES_LEVEL_0
 62
     7
100
AcDbLine
 10
53.81259911103557
 20
24.92079965029896
 30
0.0
 11
53.83649762924557
 21
24.95273997536896
 31
0.0
  0
LINE
  5
1CF
330
1F
100
AcDbEntity
  8
IGES_LEVEL_0
 62
     7
100
AcDbLine
 10
53.83649762924557
 20
24.95273997536896
 30
0.0
 11
53.84884130797057
 21
24.96605539887896
 31
0.0
  0
LINE
  5
1D0
330
1F
100
AcDbEntity
  8
IGES_LEVEL_0
 62
     7
100
AcDbLine
 10
53.84884130797057
 20
24.96605539887896
 30
0.0
 11
53.83221404298557
 21
24.94781385290896
 31
0.0
  0
LINE
  5
1D1
330
1F
100
AcDbEntity
  8
IGES_LEVEL_0
 62
     7
100
AcDbLine
 10
53.83221404298557
 20
24.94781385290896
 30
0.0
 11
53.81259911103557
 21
24.92079965029896
 31
0.0
  0
SPLINE
  5
1D2
330
1F
100
AcDbEntity
  8
IGES_LEVEL_0
 62
     7
100
AcDbSpline
210
0.0
220
0.0
230
1.0
 70
     8
 71
     3
 72
    18
 73
    14
 74
     0
 42
0.0000000001
 43
0.0000000001
 40
0.0
 40
0.0
 40
0.0
 40
0.0
 40
0.080636654765
 40
0.2010002712442
 40
0.3172448579333
 40
0.4262801868635
 40
0.5262726279195
 40
0.6188422718910001
 40
0.7057958325025
 40
0.7870711108923
 40
0.8623118585341
 40
0.9323700807251
 40
1.0
 40
1.0
 40
1.0
 40
1.0
 10
42.27178489838558
 20
24.88743284539896
 30
0.0
 10
42.23372050689558
 20
24.88124304135896
 30
0.0
 10
42.13985994602557
 20
24.85829113678896
 30
0.0
 10
41.99863095213557
 20
24.80251713291896
 30
0.0
 10
41.85316417111558
 20
24.72372683576896
 30
0.0
 10
41.72457538674557
 20
24.63614866522896
 30
0.0
 10
41.61363246193558
 20
24.54393757167896
 30
0.0
 10
41.51985746439557
 20
24.44857978780896
 30
0.0
 10
41.44332058583557
 20
24.34986758439896
 30
0.0
 10
41.38644348851558
 20
24.24778139498896
 30
0.0
 10
41.35398437725557
 20
24.14344826767896
 30
0.0
 10
41.35246748841557
 20
24.03991191035896
 30
0.0
 10
41.37499774534557
 20
23.97663345692896
 30
0.0
 10
41.39090669155557
 20
23.94835166197896
 30
0.0
  0
LINE
  5
1D3
330
1F
100
AcDbEntity
  8
IGES_LEVEL_0
 62
     7
100
AcDbLine
 10
41.39090669155557
 20
23.94835166197896
 30
0.0
 11
41.42461381377058
 21
23.90016185650896
 31
0.0
  0
LINE
  5
1D4
330
1F
100
AcDbEntity
  8
IGES_LEVEL_0
 62
     7
100
AcDbLine
 10
41.42461381377058
 20
23.90016185650896
 30
0.0
 11
41.43251917514557
 21
23.89086960002896
 31
0.0
  0
LINE
  5
1D5
330
1F
100
AcDbEntity
  8
IGES_LEVEL_0
 62
     7
100
AcDbLine
 10
41.43251917514557
 20
23.89086960002896
 30
0.0
 11
41.46238158614557
 21
23.85671094009896
 31
0.0
  0
LINE
  5
1D6
330
1F
100
AcDbEntity
  8
IGES_LEVEL_0
 62
     7
100
AcDbLine
 10
41.46238158614557
 20
23.85671094009896
 30
0.0
 11
41.61620640839557
 21
23.70151206802896
 31
0.0
  0
LINE
  5
1D7
330
1F
100
AcDbEntity
  8
IGES_LEVEL_0
 62
     7
100
AcDbLine
 10
41.61620640839557
 20
23.70151206802896
 30
0.0
 11
41.65110107602558
 21
23.67060489308396
 31
0.0
  0
LINE
  5
1D8
330
1F
100
AcDbEntity
  8
IGES_LEVEL_0
 62
     7
100
AcDbLine
 10
41.65110107602558
 20
23.67060489308396
 30
0.0
 11
41.66121560120557
 21
23.66180238061896
 31
0.0
  0
LINE
  5
1D9
330
1F
100
AcDbEntity
  8
IGES_LEVEL_0
 62
     7
100
AcDbLine
 10
41.66121560120557
 20
23.66180238061896
 30
0.0
 11
41.69802602099557
 21
23.62876723124896
 31
0.0
  0
SPLINE
  5
1DA
330
1F
100
AcDbEntity
  8
IGES_LEVEL_0
 62
     7
100
AcDbSpline
210
0.0
220
0.0
230
1.0
 70
     8
 71
     3
 72
    21
 73
    17
 74
     0
 42
0.0000000001
 43
0.0000000001
 40
8.0
 40
8.0
 40
8.0
 40
8.0
 40
8.0548321970156
 40
8.1336115464046
 40
8.2067806866753
 40
8.2730376614254
 40
8.3304482102454
 40
8.379391259568999
 40
8.4313505231652
 40
8.4963667287268
 40
8.572384171664901
 40
8.6557883540892
 40
8.7453821555121
 40
8.840855361999999
 40
8.9419238202609
 40
9.0
 40
9.0
 40
9.0
 40
9.0
 10
41.69802602099557
 20
23.62876723124896
 30
0.0
 10
41.70984912372556
 20
23.61787096698896
 30
0.0
 10
41.73828363439557
 20
23.59091368134896
 30
0.0
 10
41.78044782818557
 20
23.54730037267896
 30
0.0
 10
41.82128242201557
 20
23.49790070530896
 30
0.0
 10
41.85228901716558
 20
23.44901082782896
 30
0.0
 10
41.87031528935557
 20
23.40093507054896
 30
0.0
 10
41.86781644367558
 20
23.35256619561896
 30
0.0
 10
41.83855719185557
 20
23.31122315955896
 30
0.0
 10
41.79093578384557
 20
23.27961008767896
 30
0.0
 10
41.73009749834557
 20
23.25396564544896
 30
0.0
 10
41.65971401908557
 20
23.23407390629896
 30
0.0
 10
41.58234812519557
 20
23.21918985302896
 30
0.0
 10
41.49903135645558
 20
23.20890822345896
 30
0.0
 10
41.42450617181557
 20
23.20398221896896
 30
0.0
 10
41.37785003675398
 20
23.20275696126678
 30
0.0
 10
41.36082186424557
 20
23.20249742125396
 30
0.0
  0
LINE
  5
1DB
330
1F
100
AcDbEntity
  8
IGES_LEVEL_0
 62
     7
100
AcDbLine
 10
41.36082186424557
 20
23.20249742125396
 30
0.0
 11
41.32474142182558
 21
23.20194749033896
 31
0.0
  0
LINE
  5
1DC
330
1F
100
AcDbEntity
  8
IGES_LEVEL_0
 62
     7
100
AcDbLine
 10
41.32474142182558
 20
23.20194749033896
 30
0.0
 11
41.30348537785558
 21
23.20163971296896
 31
0.0
  0
LINE
  5
1DD
330
1F
100
AcDbEntity
  8
IGES_LEVEL_0
 62
     7
100
AcDbLine
 10
41.30348537785558
 20
23.20163971296896
 30
0.0
 11
41.28347075105558
 21
23.20147858939896
 31
0.0
  0
LINE
  5
1DE
330
1F
100
AcDbEntity
  8
IGES_LEVEL_0
 62
     7
100
AcDbLine
 10
41.28347075105558
 20
23.20147858939896
 30
0.0
 11
41.22017635265557
 21
23.20361933233896
 31
0.0
  0
LINE
  5
1DF
330
1F
100
AcDbEntity
  8
IGES_LEVEL_0
 62
     7
100
AcDbLine
 10
55.49481952574557
 20
23.62890990399896
 30
0.0
 11
55.45007723729092
 21
23.79371083753921
 31
0.0
  0
ARC
  5
1E0
330
1F
100
AcDbEntity
  8
IGES_LEVEL_0
 62
     7
100
AcDbCircle
 10
55.74566354002327
 20
23.91725952226135
 30
0.0
 40
0.320367819637912
100
AcDbArc
 50
202.6838731777556
 51
284.0220637024079
  0
LINE
  5
1E1
330
1F
100
AcDbEntity
  8
IGES_LEVEL_0
 62
     7
100
AcDbLine
 10
55.82328722851725
 20
23.60643786464377
 30
0.0
 11
55.93014631008467
 21
23.63312453803686
 31
0.0
  0
ARC
  5
1E2
330
1F
100
AcDbEntity
  8
IGES_LEVEL_0
 62
     7
100
AcDbCircle
 10
55.85428875959535
 20
23.94236677857765
 30
0.0
 40
0.3184103190867609
100
AcDbArc
 50
283.7825899177792
 51
4.108351703314362
  0
LINE
  5
1E3
330
1F
100
AcDbEntity
  8
IGES_LEVEL_0
 62
     7
100
AcDbLine
 10
56.17188087577426
 20
23.9651785966099
 30
0.0
 11
56.17180056995557
 21
23.96629663528896
 31
0.0
  0
LINE
  5
1E4
330
1F
100
AcDbEntity
  8
IGES_LEVEL_0
 62
     7
100
AcDbLine
 10
56.17180056995557
 20
23.96629663528896
 30
0.0
 11
56.17138494796556
 21
23.97146251892896
 31
0.0
  0
LINE
  5
1E5
330
1F
100
AcDbEntity
  8
IGES_LEVEL_0
 62
     7
100
AcDbLine
 10
56.17138494796556
 20
23.97146251892896
 30
0.0
 11
56.17110681846557
 21
23.97449250237896
 31
0.0
  0
ARC
  5
1E6
330
1F
100
AcDbEntity
  8
IGES_LEVEL_0
 62
     7
100
AcDbCircle
 10
55.13190212416339
 20
23.88486104023923
 30
0.0
 40
1.043062891519495
100
AcDbArc
 50
4.703516463157881
 51
4.929564499640162
  0
LINE
  5
1E7
330
1F
100
AcDbEntity
  8
IGES_LEVEL_0
 62
     7
100
AcDbLine
 10
56.17145235125557
 20
23.97039185934896
 30
0.0
 11
56.17188127478556
 21
23.96517867937896
 31
0.0
  0
LINE
  5
1E8
330
1F
100
AcDbEntity
  8
IGES_LEVEL_0
 62
     7
100
AcDbLine
 10
54.71159236759557
 20
24.20110692377896
 30
0.0
 11
54.76048869242557
 21
24.16968615500896
 31
0.0
  0
LINE
  5
1E9
330
1F
100
AcDbEntity
  8
IGES_LEVEL_0
 62
     7
100
AcDbLine
 10
54.76048869242557
 20
24.16968615500896
 30
0.0
 11
54.76204310739557
 21
24.16868563587896
 31
0.0
  0
LINE
  5
1EA
330
1F
100
AcDbEntity
  8
IGES_LEVEL_0
 62
     7
100
AcDbLine
 10
54.76204310739557
 20
24.16868563587896
 30
0.0
 11
55.26652678310556
 21
23.84787590501896
 31
0.0
  0
LINE
  5
1EB
330
1F
100
AcDbEntity
  8
IGES_LEVEL_0
 62
     7
100
AcDbLine
 10
55.26652678310556
 20
23.84787590501896
 30
0.0
 11
55.31663982876557
 21
23.81751987550896
 31
0.0
  0
LINE
  5
1EC
330
1F
100
AcDbEntity
  8
IGES_LEVEL_0
 62
     7
100
AcDbLine
 10
55.31663982876557
 20
23.81751987550896
 30
0.0
 11
55.38826735777556
 21
23.77168556374896
 31
0.0
  0
LINE
  5
1ED
330
1F
100
AcDbEntity
  8
IGES_LEVEL_0
 62
     7
100
AcDbLine
 10
55.38826735777556
 20
23.77168556374896
 30
0.0
 11
55.39958502127557
 21
23.76356660853896
 31
0.0
  0
ARC
  5
1EE
330
1F
100
AcDbEntity
  8
IGES_LEVEL_0
 62
     7
100
AcDbCircle
 10
55.27322568304568
 20
23.5731884722009
 30
0.0
 40
0.2284962081817722
100
AcDbArc
 50
14.11529327095223
 51
56.42664863160376
  0
LINE
  5
1EF
330
1F
100
AcDbEntity
  8
IGES_LEVEL_0
 62
     7
100
AcDbLine
 10
55.49482289505057
 20
23.62891272890396
 30
0.0
 11
55.4948281936902
 21
23.62889165794064
 31
0.0
  0
ARC
  5
1F0
330
1F
100
AcDbEntity
  8
IGES_LEVEL_0
 62
     7
100
AcDbCircle
 10
55.39814660126355
 20
23.60333539640707
 30
0.0
 40
0.1000022640629966
100
AcDbArc
 50
284.0235949511241
 51
14.80658240271259
  0
LINE
  5
1F1
330
1F
100
AcDbEntity
  8
IGES_LEVEL_0
 62
     7
100
AcDbLine
 10
55.42237929511001
 20
23.50631359799729
 30
0.0
 11
55.40297328299501
 21
23.5014666465073
 31
0.0
  0
ARC
  5
1F2
330
1F
100
AcDbEntity
  8
IGES_LEVEL_0
 62
     7
100
AcDbCircle
 10
55.37874323324959
 20
23.59848670392756
 30
0.0
 40
0.0999999342624507
100
AcDbArc
 50
194.8097528877397
 51
284.0223668627272
  0
LINE
  5
1F3
330
1F
100
AcDbEntity
  8
IGES_LEVEL_0
 62
     7
100
AcDbLine
 10
55.2820653075413
 20
23.57292568803935
 30
0.0
 11
55.28205726680057
 21
23.57292835485396
 31
0.0
  0
SPLINE
  5
1F4
330
1F
100
AcDbEntity
  8
IGES_LEVEL_0
 62
     7
100
AcDbSpline
210
0.0
220
0.0
230
1.0
 70
     8
 71
     3
 72
    11
 73
     7
 74
     0
 42
0.0000000001
 43
0.0000000001
 40
13.14156109415427
 40
13.14156109415427
 40
13.14156109415427
 40
13.14156109415427
 40
13.20199926123436
 40
13.31228103232846
 40
13.63786214148873
 40
14.14156109415427
 40
14.14156109415427
 40
14.14156109415427
 40
14.14156109415427
 10
55.28205726680057
 20
23.57292835485396
 30
0.0
 10
55.27881320720132
 20
23.59042189228869
 30
0.0
 10
55.25884157572379
 20
23.6323507630092
 30
0.0
 10
55.14308186708557
 20
23.71222991600896
 30
0.0
 10
54.92035548195557
 20
23.83222692038896
 30
0.0
 10
54.73120777355205
 20
23.9590135731681
 30
0.0
 10
54.61566511298557
 20
24.03424786167896
 30
0.0
  0
LINE
  5
1F5
330
1F
100
AcDbEntity
  8
IGES_LEVEL_0
 62
     7
100
AcDbLine
 10
54.61566511298557
 20
24.03424786167896
 30
0.0
 11
54.60437172927557
 21
24.04160141995896
 31
0.0
  0
LINE
  5
1F6
330
1F
100
AcDbEntity
  8
IGES_LEVEL_0
 62
     7
100
AcDbLine
 10
54.60437172927557
 20
24.04160141995896
 30
0.0
 11
54.54585226053557
 21
24.07941192704396
 31
0.0
  0
LINE
  5
1F7
330
1F
100
AcDbEntity
  8
IGES_LEVEL_0
 62
     7
100
AcDbLine
 10
54.54585226053557
 20
24.07941192704396
 30
0.0
 11
54.53040321782557
 21
24.09031080344896
 31
0.0
  0
ARC
  5
1F8
330
1F
100
AcDbEntity
  8
IGES_LEVEL_0
 62
     7
100
AcDbCircle
 10
57.43253410056749
 20
26.4909268814987
 30
0.0
 40
3.766340560113408
100
AcDbArc
 50
210.8651002990463
 51
219.5972409375154
  0
ARC
  5
1F9
330
1F
100
AcDbEntity
  8
IGES_LEVEL_0
 62
     7
100
AcDbCircle
 10
52.08649453884559
 20
23.09349979724185
 30
0.0
 40
2.571393388120864
100
AcDbArc
 50
34.73749393138063
 51
48.94164467576857
  0
LINE
  5
1FA
330
1F
100
AcDbEntity
  8
IGES_LEVEL_0
 62
     7
100
AcDbLine
 10
53.78886924246557
 20
24.86791509966896
 30
0.0
 11
53.82278342528556
 21
24.92857059615896
 31
0.0
  0
LINE
  5
1FB
330
1F
100
AcDbEntity
  8
IGES_LEVEL_0
 62
     7
100
AcDbLine
 10
53.82278342528556
 20
24.92857059615896
 30
0.0
 11
53.83791168119556
 21
24.94691145010896
 31
0.0
  0
LINE
  5
1FC
330
1F
100
AcDbEntity
  8
IGES_LEVEL_0
 62
     7
100
AcDbLine
 10
53.83791168119556
 20
24.94691145010896
 30
0.0
 11
53.85476552315556
 21
24.96402671332896
 31
0.0
  0
SPLINE
  5
1FD
330
1F
100
AcDbEntity
  8
IGES_LEVEL_0
 62
     7
100
AcDbSpline
210
0.0
220
0.0
230
1.0
 70
     8
 71
     3
 72
    29
 73
    25
 74
     0
 42
0.0000000001
 43
0.0000000001
 40
0.0
 40
0.0
 40
0.0
 40
0.0
 40
0.0167413288375
 40
0.04379629663459
 40
0.07335529914157
 40
0.1055824654896
 40
0.1406387429249
 40
0.1788226444532
 40
0.2205054503203
 40
0.2658936559442
 40
0.3151502282962
 40
0.3689136991203
 40
0.4280686360334
 40
0.493245039818
 40
0.5644633379886
 40
0.6379740662364
 40
0.7069372850982
 40
0.7682730399724
 40
0.8223766202284
 40
0.870216924364
 40
0.9125669420264
 40
0.9499815681386
 40
0.9830851470455
 40
1.0
 40
1.0
 40
1.0
 40
1.0
 10
51.40614555980558
 20
25.67151365847896
 30
0.0
 10
51.41464543764558
 20
25.67127588055896
 30
0.0
 10
51.43687622505557
 20
25.67044234599896
 30
0.0
 10
51.47406855793558
 20
25.66816249059896
 30
0.0
 10
51.51901532323556
 20
25.66410989727896
 30
0.0
 10
51.56785956244558
 20
25.65825596241896
 30
0.0
 10
51.62083850304556
 20
25.65028321250896
 30
0.0
 10
51.67827084236556
 20
25.63981033168896
 30
0.0
 10
51.74046697162557
 20
25.62638360943896
 30
0.0
 10
51.80762914109558
 20
25.60948622200896
 30
0.0
 10
51.88003726452557
 20
25.58847759386896
 30
0.0
 10
51.95821658815557
 20
25.56247025968896
 30
0.0
 10
52.04277000522556
 20
25.53024475696896
 30
0.0
 10
52.13377005110557
 20
25.49033577527896
 30
0.0
 10
52.22882249370557
 20
25.44189630537896
 30
0.0
 10
52.32197468077557
 20
25.38599273798896
 30
0.0
 10
52.40626953685558
 20
25.32569144877896
 30
0.0
 10
52.47734699725557
 20
25.26448713635896
 30
0.0
 10
52.53463357599557
 20
25.20431765270896
 30
0.0
 10
52.57918823250557
 20
25.14592857733896
 30
0.0
 10
52.61218616995556
 20
25.08995567419896
 30
0.0
 10
52.63487358420557
 20
25.03713365861896
 30
0.0
 10
52.64698681308556
 20
24.99428592427896
 30
0.0
 10
52.65160149579572
 20
24.96924620284119
 30
0.0
 10
52.65255275022557
 20
24.96070513340896
 30
0.0
  0
LINE
  5
1FE
330
1F
100
AcDbEntity
  8
IGES_LEVEL_0
 62
     7
100
AcDbLine
 10
52.65255275022557
 20
24.96070513340896
 30
0.0
 11
52.65467887043057
 21
24.94161524565396
 31
0.0
  0
LINE
  5
1FF
330
1F
100
AcDbEntity
  8
IGES_LEVEL_0
 62
     7
100
AcDbLine
 10
52.65467887043057
 20
24.94161524565396
 30
0.0
 11
52.65668235401557
 21
24.91769757637896
 31
0.0
  0
LINE
  5
200
330
1F
100
AcDbEntity
  8
IGES_LEVEL_0
 62
     7
100
AcDbLine
 10
52.65668235401557
 20
24.91769757637896
 30
0.0
 11
52.66060158831557
 21
24.87086568776896
 31
0.0
  0
LINE
  5
201
330
1F
100
AcDbEntity
  8
IGES_LEVEL_0
 62
     7
100
AcDbLine
 10
52.66060158831557
 20
24.87086568776896
 30
0.0
 11
52.66991150987556
 21
24.75941788765896
 31
0.0
  0
LINE
  5
202
330
1F
100
AcDbEntity
  8
IGES_LEVEL_0
 62
     7
100
AcDbLine
 10
52.66991150987556
 20
24.75941788765896
 30
0.0
 11
52.67169471126557
 21
24.73802856134396
 31
0.0
  0
LINE
  5
203
330
1F
100
AcDbEntity
  8
IGES_LEVEL_0
 62
     7
100
AcDbLine
 10
52.67169471126557
 20
24.73802856134396
 30
0.0
 11
52.67577952053557
 21
24.70174731148896
 31
0.0
  0
LINE
  5
204
330
1F
100
AcDbEntity
  8
IGES_LEVEL_0
 62
     7
100
AcDbLine
 10
52.67577952053557
 20
24.70174731148896
 30
0.0
 11
52.68167099291557
 21
24.66714849041896
 31
0.0
  0
ARC
  5
205
330
1F
100
AcDbEntity
  8
IGES_LEVEL_0
 62
     7
100
AcDbCircle
 10
53.31488099832774
 20
24.79222711463845
 30
0.0
 40
0.6454452518926123
100
AcDbArc
 50
191.173847353857
 51
218.0287980975247
  0
LINE
  5
206
330
1F
100
AcDbEntity
  8
IGES_LEVEL_0
 62
     7
100
AcDbLine
 10
39.20292520206557
 20
25.56979576980896
 30
0.0
 11
39.18272157749557
 21
25.56791859823896
 31
0.0
  0
ARC
  5
207
330
1F
100
AcDbEntity
  8
IGES_LEVEL_0
 62
     7
100
AcDbCircle
 10
39.20567711836721
 20
25.39254963259632
 30
0.0
 40
0.1768650077524638
100
AcDbArc
 50
97.45753303235469
 51
143.0810802948162
  0
LINE
  5
208
330
1F
100
AcDbEntity
  8
IGES_LEVEL_0
 62
     7
100
AcDbLine
 10
39.06427595897557
 20
25.49878965843396
 30
0.0
 11
39.03792890415558
 21
25.46372279856896
 31
0.0
  0
LINE
  5
209
330
1F
100
AcDbEntity
  8
IGES_LEVEL_0
 62
     7
100
AcDbLine
 10
39.03792890415558
 20
25.46372279856896
 30
0.0
 11
39.03524711288557
 21
25.46010927679896
 31
0.0
  0
LINE
  5
20A
330
1F
100
AcDbEntity
  8
IGES_LEVEL_0
 62
     7
100
AcDbLine
 10
39.03524711288557
 20
25.46010927679896
 30
0.0
 11
39.03044418477556
 21
25.45361861386896
 31
0.0
  0
LINE
  5
20B
330
1F
100
AcDbEntity
  8
IGES_LEVEL_0
 62
     7
100
AcDbLine
 10
39.03044418477556
 20
25.45361861386896
 30
0.0
 11
38.92428974614556
 21
25.30530028800896
 31
0.0
  0
SPLINE
  5
20C
330
1F
100
AcDbEntity
  8
IGES_LEVEL_0
 62
     7
100
AcDbSpline
210
0.0
220
0.0
230
1.0
 70
     8
 71
     3
 72
    24
 73
    20
 74
     0
 42
0.0000000001
 43
0.0000000001
 40
0.0
 40
0.0
 40
0.0
 40
0.0
 40
0.04182983330318
 40
0.0993955978616
 40
0.1658369878024
 40
0.2316990644673
 40
0.2925798080758
 40
0.348600380434
 40
0.4046338063893
 40
0.4602992386759
 40
0.5141703651648
 40
0.5647533796003
 40
0.6144688428799
 40
0.6665321897203
 40
0.7215642512398
 40
0.7808947670273
 40
0.8464083465239
 40
0.9197857933666001
 40
1.0
 40
1.0
 40
1.0
 40
1.0
 10
56.15652998906558
 20
24.04888190834896
 30
0.0
 10
56.13978633443557
 20
24.10580249665896
 30
0.0
 10
56.09802035040556
 20
24.24048322995896
 30
0.0
 10
56.01659538383557
 20
24.46135530108896
 30
0.0
 10
55.90179923780556
 20
24.70551976324896
 30
0.0
 10
55.75734761089557
 20
24.93912781163896
 30
0.0
 10
55.59618372380557
 20
25.14284163576896
 30
0.0
 10
55.42472161419556
 20
25.31874129236896
 30
0.0
 10
55.24429798298557
 20
25.47417349004896
 30
0.0
 10
55.05556261722556
 20
25.61419837460896
 30
0.0
 10
54.86557154530557
 20
25.73880033629896
 30
0.0
 10
54.67762951986556
 20
25.85066970790896
 30
0.0
 10
54.48847972435557
 20
25.95525187840896
 30
0.0
 10
54.29058228039557
 20
26.05685213113896
 30
0.0
 10
54.07692260843557
 20
26.15733518208896
 30
0.0
 10
53.84172150080556
 20
26.25640304356896
 30
0.0
 10
53.57753625409556
 20
26.35296654697896
 30
0.0
 10
53.27981736275557
 20
26.44278500337896
 30
0.0
 10
53.06763692186345
 20
26.49279513171515
 30
0.0
 10
52.95609415061557
 20
26.51531343046896
 30
0.0
  0
LINE
  5
20D
330
1F
100
AcDbEntity
  8
IGES_LEVEL_0
 62
     7
100
AcDbLine
 10
52.95609415061557
 20
26.51531343046896
 30
0.0
 11
52.92222950972557
 21
26.52215003755896
 31
0.0
  0
LINE
  5
20E
330
1F
100
AcDbEntity
  8
IGES_LEVEL_0
 62
     7
100
AcDbLine
 10
52.92222950972557
 20
26.52215003755896
 30
0.0
 11
52.88543369883557
 21
26.52935616507896
 31
0.0
  0
LINE
  5
20F
330
1F
100
AcDbEntity
  8
IGES_LEVEL_0
 62
     7
100
AcDbLine
 10
38.87055784577557
 20
24.61550174984896
 30
0.0
 11
39.01260111242557
 21
24.77457103973896
 31
0.0
  0
LINE
  5
210
330
1F
100
AcDbEntity
  8
IGES_LEVEL_0
 62
     7
100
AcDbLine
 10
39.01260111242557
 20
24.77457103973896
 30
0.0
 11
39.02103065741558
 21
24.78404449519896
 31
0.0
  0
LINE
  5
211
330
1F
100
AcDbEntity
  8
IGES_LEVEL_0
 62
     7
100
AcDbLine
 10
39.02103065741558
 20
24.78404449519896
 30
0.0
 11
39.06400913994057
 21
24.83256371153896
 31
0.0
  0
ARC
  5
212
330
1F
100
AcDbEntity
  8
IGES_LEVEL_0
 62
     7
100
AcDbCircle
 10
39.25253844460709
 20
24.62541531223829
 30
0.0
 40
0.2800959800690989
100
AcDbArc
 50
96.50471319923095
 51
132.305864906189
  0
SPLINE
  5
213
330
1F
100
AcDbEntity
  8
IGES_LEVEL_0
 62
     7
100
AcDbSpline
210
0.0
220
0.0
230
1.0
 70
     8
 71
     3
 72
    19
 73
    15
 74
     0
 42
0.0000000001
 43
0.0000000001
 40
3.0
 40
3.0
 40
3.0
 40
3.0
 40
3.1387134247292
 40
3.2623370850729
 40
3.3718622422037
 40
3.4702527474876
 40
3.5596347252273
 40
3.6415408379126
 40
3.7170961814923
 40
3.7872073472621
 40
3.8526182442628
 40
3.91370917127897
 40
3.97077734305073
 40
4.0
 40
4.0
 40
4.0
 40
4.0
 10
39.22080778678557
 20
24.90370818567396
 30
0.0
 10
39.82446732883558
 20
25.01342271965896
 30
0.0
 10
40.97286638445557
 20
25.18381794593896
 30
0.0
 10
42.60672878829557
 20
25.37255942067896
 30
0.0
 10
44.06310962448556
 20
25.54395420427896
 30
0.0
 10
45.36958590280558
 20
25.69331145420896
 30
0.0
 10
46.55677379318557
 20
25.80982235601896
 30
0.0
 10
47.64568895563558
 20
25.89089768728896
 30
0.0
 10
48.65119157152557
 20
25.93942266550896
 30
0.0
 10
49.58461547709557
 20
25.96239577321896
 30
0.0
 10
50.45430560691557
 20
25.96277823913896
 30
0.0
 10
51.26620065570558
 20
25.94031206136896
 30
0.0
 10
51.91666044330557
 20
25.90206756413896
 30
0.0
 10
52.29728421311247
 20
25.86359142470819
 30
0.0
 10
52.42530675652557
 20
25.84522893362896
 30
0.0
  0
LINE
  5
214
330
1F
100
AcDbEntity
  8
IGES_LEVEL_0
 62
     7
100
AcDbLine
 10
52.42530675652557
 20
25.84522893362896
 30
0.0
 11
52.43567970035057
 21
25.84374112465896
 31
0.0
  0
LINE
  5
215
330
1F
100
AcDbEntity
  8
IGES_LEVEL_0
 62
     7
100
AcDbLine
 10
52.43567970035057
 20
25.84374112465896
 30
0.0
 11
52.44605711970557
 21
25.84226626743896
 31
0.0
  0
LINE
  5
216
330
1F
100
AcDbEntity
  8
IGES_LEVEL_0
 62
     7
100
AcDbLine
 10
52.44605711970557
 20
25.84226626743896
 30
0.0
 11
52.75790211841557
 21
25.79012849617896
 31
0.0
  0
LINE
  5
217
330
1F
100
AcDbEntity
  8
IGES_LEVEL_0
 62
     7
100
AcDbLine
 10
52.75790211841557
 20
25.79012849617896
 30
0.0
 11
52.76742976140056
 21
25.78826433161896
 31
0.0
  0
LINE
  5
218
330
1F
100
AcDbEntity
  8
IGES_LEVEL_0
 62
     7
100
AcDbLine
 10
52.76742976140056
 20
25.78826433161896
 30
0.0
 11
52.76546440663557
 21
25.78865032617896
 31
0.0
  0
LINE
  5
219
330
1F
100
AcDbEntity
  8
IGES_LEVEL_0
 62
     7
100
AcDbLine
 10
52.76546440663557
 20
25.78865032617896
 30
0.0
 11
52.75924046420556
 21
25.78986770931896
 31
0.0
  0
LINE
  5
21A
330
1F
100
AcDbEntity
  8
IGES_LEVEL_0
 62
     7
100
AcDbLine
 10
52.75924046420556
 20
25.78986770931896
 30
0.0
 11
52.75660307904557
 21
25.79035004833896
 31
0.0
  0
LINE
  5
21B
330
1F
100
AcDbEntity
  8
IGES_LEVEL_0
 62
     7
100
AcDbLine
 10
52.75660307904557
 20
25.79035004833896
 30
0.0
 11
52.76740708246557
 21
25.78820320423896
 31
0.0
  0
ARC
  5
21C
330
1F
100
AcDbEntity
  8
IGES_LEVEL_0
 62
     7
100
AcDbCircle
 10
52.39686264041285
 20
23.6097600647675
 30
0.0
 40
2.209732494092088
100
AcDbArc
 50
66.02420964349574
 51
80.34660943777935
  0
LINE
  5
21D
330
1F
100
AcDbEntity
  8
IGES_LEVEL_0
 62
     7
100
AcDbLine
 10
53.29478876327556
 20
25.62883073547896
 30
0.0
 11
53.35811985014557
 21
25.60066597724896
 31
0.0
  0
ARC
  5
21E
330
1F
100
AcDbEntity
  8
IGES_LEVEL_0
 62
     7
100
AcDbCircle
 10
52.18869402066972
 20
23.18021535130237
 30
0.0
 40
2.688147690007104
100
AcDbArc
 50
32.41596102782748
 51
64.2127749113356
  0
ARC
  5
21F
330
1F
100
AcDbEntity
  8
IGES_LEVEL_0
 62
     7
100
AcDbCircle
 10
55.856392860788
 20
25.37529587222416
 30
0.0
 40
1.588773361041379
100
AcDbArc
 50
208.334739521776
 51
226.5325044304201
  0
LINE
  5
220
330
1F
100
AcDbEntity
  8
IGES_LEVEL_0
 62
     7
100
AcDbLine
 10
54.76340742267557
 20
24.22222014841896
 30
0.0
 11
54.78473447160057
 21
24.20806339236896
 31
0.0
  0
ARC
  5
221
330
1F
100
AcDbEntity
  8
IGES_LEVEL_0
 62
     7
100
AcDbCircle
 10
14.9630939568708
 20
-39.47759459033518
 30
0.0
 40
75.1107587897655
100
AcDbArc
 50
57.38738332612283
 51
57.98290572073954
  0
LINE
  5
222
330
1F
100
AcDbEntity
  8
IGES_LEVEL_0
 62
     7
100
AcDbLine
 10
52.92216760453557
 20
26.52183966862896
 30
0.0
 11
52.88539228622557
 21
26.52906612377896
 31
0.0
  0
SPLINE
  5
223
330
1F
100
AcDbEntity
  8
IGES_LEVEL_0
 62
     7
100
AcDbSpline
210
0.0
220
0.0
230
1.0
 70
     8
 71
     3
 72
    21
 73
    17
 74
     0
 42
0.0000000001
 43
0.0000000001
 40
1.0
 40
1.0
 40
1.0
 40
1.0
 40
1.02916804508292
 40
1.07970590204531
 40
1.1330517219565
 40
1.1894100735068
 40
1.2488755322536
 40
1.3116954273912
 40
1.3782403039187
 40
1.4489577883424
 40
1.5243834018831
 40
1.6051823746562
 40
1.6922306376266
 40
1.7867152158956
 40
1.8903774223166
 40
2.0
 40
2.0
 40
2.0
 40
2.0
 10
52.88539228622557
 20
26.52906612377896
 30
0.0
 10
52.75418346090557
 20
26.55423798385896
 30
0.0
 10
52.39203889029557
 20
26.60607230902896
 30
0.0
 10
51.78407757354557
 20
26.64156042664896
 30
0.0
 10
51.05114394986556
 20
26.66893654839896
 30
0.0
 10
50.27688802343558
 20
26.67839509747896
 30
0.0
 10
49.45926179558556
 20
26.67137920639896
 30
0.0
 10
48.59535986561558
 20
26.64563067223896
 30
0.0
 10
47.68076554146556
 20
26.59853423585896
 30
0.0
 10
46.71014545943557
 20
26.52351751652896
 30
0.0
 10
45.67662914770557
 20
26.41959597059896
 30
0.0
 10
44.57111735961557
 20
26.28706097737896
 30
0.0
 10
43.38037048829557
 20
26.13341906435896
 30
0.0
 10
42.08563208752558
 20
25.96811797359896
 30
0.0
 10
40.68826694045556
 20
25.79051397213896
 30
0.0
 10
39.72250709213729
 20
25.64816856987257
 30
0.0
 10
39.22615589658058
 20
25.57447040135896
 30
0.0
  0
ARC
  5
224
330
1F
100
AcDbEntity
  8
IGES_LEVEL_0
 62
     7
100
AcDbCircle
 10
39.26395468367101
 20
25.29596559000019
 30
0.0
 40
0.281058140347316
100
AcDbArc
 50
97.72898152633213
 51
144.2819064853925
  0
LINE
  5
225
330
1F
100
AcDbEntity
  8
IGES_LEVEL_0
 62
     7
100
AcDbLine
 10
39.03576380181058
 20
25.46004666657896
 30
0.0
 11
38.92431907127558
 21
25.30505821897896
 31
0.0
  0
LINE
  5
226
330
1F
100
AcDbEntity
  8
IGES_LEVEL_0
 62
     7
100
AcDbLine
 10
38.92431907127558
 20
25.30505821897896
 30
0.0
 11
38.48300200747558
 21
24.68361501832896
 31
0.0
  0
LINE
  5
227
330
1F
100
AcDbEntity
  8
IGES_LEVEL_0
 62
     7
100
AcDbLine
 10
56.16223981059557
 20
24.02742772505896
 30
0.0
 11
56.16080295261557
 21
24.03327591623896
 31
0.0
  0
LINE
  5
228
330
1F
100
AcDbEntity
  8
IGES_LEVEL_0
 62
     7
100
AcDbLine
 10
56.16080295261557
 20
24.03327591623896
 30
0.0
 11
56.15788514385056
 21
24.04417545982896
 31
0.0
  0
LINE
  5
229
330
1F
100
AcDbEntity
  8
IGES_LEVEL_0
 62
     7
100
AcDbLine
 10
56.15788514385056
 20
24.04417545982896
 30
0.0
 11
56.17181998160886
 21
23.96605859829547
 31
0.0
  0
ARC
  5
22A
330
1F
100
AcDbEntity
  8
IGES_LEVEL_0
 62
     7
100
AcDbCircle
 10
55.84186491356493
 20
23.94283130543362
 30
0.0
 40
0.3307716040738161
100
AcDbArc
 50
4.026712086937406
 51
10.04202753355878
  0
LINE
  5
22B
330
1F
100
AcDbEntity
  8
IGES_LEVEL_0
 62
     7
100
AcDbLine
 10
56.16756913433143
 20
24.00050811738133
 30
0.0
 11
56.16843756724556
 21
23.99582979099896
 31
0.0
  0
LINE
  5
22C
330
1F
100
AcDbEntity
  8
IGES_LEVEL_0
 62
     7
100
AcDbLine
 10
38.17378988277558
 20
23.70304969749896
 30
0.0
 11
38.18984902501057
 21
23.72494740567896
 31
0.0
  0
LINE
  5
22D
330
1F
100
AcDbEntity
  8
IGES_LEVEL_0
 62
     7
100
AcDbLine
 10
38.18984902501057
 20
23.72494740567896
 30
0.0
 11
38.17370898268557
 21
23.70294027942896
 31
0.0
  0
LINE
  5
22E
330
1F
100
AcDbEntity
  8
IGES_LEVEL_0
 62
     7
100
AcDbLine
 10
38.17370898268557
 20
23.70294027942896
 30
0.0
 11
38.14496925622557
 21
23.66477417929896
 31
0.0
  0
LINE
  5
22F
330
1F
100
AcDbEntity
  8
IGES_LEVEL_0
 62
     7
100
AcDbLine
 10
38.14496925622557
 20
23.66477417929896
 30
0.0
 11
38.12384094827557
 21
23.63763213951396
 31
0.0
  0
LINE
  5
230
330
1F
100
AcDbEntity
  8
IGES_LEVEL_0
 62
     7
100
AcDbLine
 10
38.12384094827557
 20
23.63763213951396
 30
0.0
 11
38.12315500486557
 21
23.63676426602396
 31
0.0
  0
LINE
  5
231
330
1F
100
AcDbEntity
  8
IGES_LEVEL_0
 62
     7
100
AcDbLine
 10
38.12315500486557
 20
23.63676426602396
 30
0.0
 11
38.12315327390871
 21
23.6367626800937
 31
0.0
  0
ARC
  5
232
330
1F
100
AcDbEntity
  8
IGES_LEVEL_0
 62
     7
100
AcDbCircle
 10
38.2006577098059
 20
23.5735846182801
 30
0.0
 40
0.0999920250733229
100
AcDbArc
 50
140.8146595863074
 51
176.6723823789906
  0
LINE
  5
233
330
1F
100
AcDbEntity
  8
IGES_LEVEL_0
 62
     7
100
AcDbLine
 10
38.10083427591492
 20
23.57938867931327
 30
0.0
 11
38.09967338697759
 21
23.55942267285181
 31
0.0
  0
ARC
  5
234
330
1F
100
AcDbEntity
  8
IGES_LEVEL_0
 62
     7
100
AcDbCircle
 10
38.19834359950926
 20
23.55257930173227
 30
0.0
 40
0.0989072422491168
100
AcDbArc
 50
176.0325473439656
 51
267.4436448159807
  0
LINE
  5
235
330
1F
100
AcDbEntity
  8
IGES_LEVEL_0
 62
     7
100
AcDbLine
 10
38.19393213735862
 20
23.45377048850683
 30
0.0
 11
39.11816101632557
 21
23.41250695557896
 31
0.0
  0
LINE
  5
236
330
1F
100
AcDbEntity
  8
IGES_LEVEL_0
 62
     7
100
AcDbLine
 10
39.11816101632557
 20
23.41250695557896
 30
0.0
 11
39.15171055131557
 21
23.41159356938396
 31
0.0
  0
ARC
  5
237
330
1F
100
AcDbEntity
  8
IGES_LEVEL_0
 62
     7
100
AcDbCircle
 10
43.05104661258496
 20
26.56380675254876
 30
0.0
 40
5.014107066151851
100
AcDbArc
 50
218.9519846657214
 51
243.5031127613295
  0
ARC
  5
238
330
1F
100
AcDbEntity
  8
IGES_LEVEL_0
 62
     7
100
AcDbCircle
 10
41.17105153764844
 20
22.79263526079583
 30
0.0
 40
0.800306418162728
100
AcDbArc
 50
243.5040181751942
 51
273.5141841801975
  0
SPLINE
  5
239
330
1F
100
AcDbEntity
  8
IGES_LEVEL_0
 62
     7
100
AcDbSpline
210
0.0
220
0.0
230
1.0
 70
     8
 71
     3
 72
    19
 73
    15
 74
     0
 42
0.0000000001
 43
0.0000000001
 40
12.19894526897861
 40
12.19894526897861
 40
12.19894526897861
 40
12.19894526897861
 40
12.24364656232146
 40
12.35684033320608
 40
12.4700341040907
 40
12.69642343085663
 40
12.81183238245325
 40
12.92724311904637
 40
12.98494759484468
 40
13.04265207064299
 40
13.10035743893957
 40
13.15806280723615
 40
13.19542992490258
 40
13.19894526897861
 40
13.19894526897861
 40
13.19894526897861
 40
13.19894526897861
 10
41.22010682899057
 20
21.99383369510896
 30
0.0
 10
41.39958068579686
 20
22.00485538398905
 30
0.0
 10
42.02962893362621
 20
22.04886949257902
 30
0.0
 10
43.08547159735558
 20
22.15491698721896
 30
0.0
 10
44.80447207812557
 20
22.38577916326896
 30
0.0
 10
46.49577058170557
 20
22.67699661386896
 30
0.0
 10
48.21497466367556
 20
22.99643111596896
 30
0.0
 10
49.28256019808556
 20
23.18428299084896
 30
0.0
 10
50.10880295330557
 20
23.30941274371896
 30
0.0
 10
50.70897170685556
 20
23.38572799891896
 30
0.0
 10
51.28376487148557
 20
23.43960588121896
 30
0.0
 10
51.76170119986557
 20
23.46193778335896
 30
0.0
 10
52.05053668773557
 20
23.46022788938896
 30
0.0
 10
52.16583384681028
 20
23.45583601330734
 30
0.0
 10
52.17571355224557
 20
23.45585110176896
 30
0.0
  0
LINE
  5
23A
330
1F
100
AcDbEntity
  8
IGES_LEVEL_0
 62
     7
100
AcDbLine
 10
52.17571355224557
 20
23.45585110176896
 30
0.0
 11
52.85569738066558
 21
23.45688958514896
 31
0.0
  0
ARC
  5
23B
330
1F
100
AcDbEntity
  8
IGES_LEVEL_0
 62
     7
100
AcDbCircle
 10
52.1800163270623
 20
23.8420682679568
 30
0.0
 40
0.0246078282975019
100
AcDbArc
 50
149.4935904550774
 51
256.2036538110825
  0
ARC
  5
23C
330
1F
100
AcDbEntity
  8
IGES_LEVEL_0
 62
     7
100
AcDbCircle
 10
38.40684835620348
 20
17.08514368138507
 30
0.0
 40
15.32780421119147
100
AcDbArc
 50
26.20875365403193
 51
33.94880650841181
  0
SPLINE
  5
23D
330
1F
100
AcDbEntity
  8
IGES_LEVEL_0
 62
     7
100
AcDbSpline
210
0.0
220
0.0
230
1.0
 70
     8
 71
     3
 72
    16
 73
    12
 74
     0
 42
0.0000000001
 43
0.0000000001
 40
0.0
 40
0.0
 40
0.0
 40
0.0
 40
0.04923155530717
 40
0.1379510509981
 40
0.2361907941937
 40
0.3447393548084
 40
0.4638361274633
 40
0.5937511185583
 40
0.7352955985553
 40
0.8895806340131
 40
1.0
 40
1.0
 40
1.0
 40
1.0
 10
52.65250780323557
 20
24.96060780431896
 30
0.0
 10
52.64912136561557
 20
24.98490516951896
 30
0.0
 10
52.63279106960557
 20
25.05223498577896
 30
0.0
 10
52.57673854500557
 20
25.15668205430896
 30
0.0
 10
52.47891590577557
 20
25.26712513883896
 30
0.0
 10
52.35221082959556
 20
25.36844306422896
 30
0.0
 10
52.19988835725557
 20
25.46011813166896
 30
0.0
 10
52.02350241233557
 20
25.54107181681896
 30
0.0
 10
51.82314473535557
 20
25.60905525797896
 30
0.0
 10
51.62611298092557
 20
25.65294972509896
 30
0.0
 10
51.49513368074558
 20
25.66750565792896
 30
0.0
 10
51.44038777656557
 20
25.67037716007896
 30
0.0
  0
ARC
  5
23E
330
1F
100
AcDbEntity
  8
IGES_LEVEL_0
 62
     7
100
AcDbCircle
 10
52.56127798385698
 20
32.84116694189668
 30
0.0
 40
9.38424795498644
100
AcDbArc
 50
277.9086672219504
 51
285.1421183664495
  0
SPLINE
  5
23F
330
1F
100
AcDbEntity
  8
IGES_LEVEL_0
 62
     7
100
AcDbSpline
210
0.0
220
0.0
230
1.0
 70
     8
 71
     3
 72
    24
 73
    20
 74
     0
 42
0.0000000001
 43
0.0000000001
 40
0.0
 40
0.0
 40
0.0
 40
0.0
 40
0.03005257183674
 40
0.08831926330997
 40
0.1555719482769
 40
0.2222403856673
 40
0.2838676669376
 40
0.3405736968514
 40
0.3972906125329
 40
0.4536367395051
 40
0.5081712989353
 40
0.5593808772438
 40
0.6097122778949
 40
0.6624217823459
 40
0.7181361557631
 40
0.7782015444817
 40
0.8445263187554
 40
0.9188127646193
 40
1.0
 40
1.0
 40
1.0
 40
1.0
 10
56.14173745773557
 20
24.09835518821896
 30
0.0
 10
56.12948620505557
 20
24.13864416323896
 30
0.0
 10
56.09207108951557
 20
24.25661796391896
 30
0.0
 10
56.01661558731557
 20
24.46130490958896
 30
0.0
 10
55.90183363068557
 20
24.70545455665896
 30
0.0
 10
55.75739680148557
 20
24.93905701186896
 30
0.0
 10
55.59624661876556
 20
25.14276967488896
 30
0.0
 10
55.42480010895557
 20
25.31866722198896
 30
0.0
 10
55.24439377872557
 20
25.47409668964896
 30
0.0
 10
55.05567056335556
 20
25.61412331033896
 30
0.0
 10
54.86567870027557
 20
25.73873381887896
 30
0.0
 10
54.67772434610556
 20
25.85061573944896
 30
0.0
 10
54.48855501694557
 20
25.95521198709896
 30
0.0
 10
54.29063605318557
 20
26.05682602694896
 30
0.0
 10
54.07695305534557
 20
26.15732199018896
 30
0.0
 10
53.84172802269556
 20
26.25640093269896
 30
0.0
 10
53.57751615582556
 20
26.35297385015896
 30
0.0
 10
53.27979424507556
 20
26.44279090422896
 30
0.0
 10
53.06755657138557
 20
26.49248433017896
 30
0.0
 10
52.95609414737557
 20
26.51531341464896
 30
0.0
  0
ARC
  5
240
330
1F
100
AcDbEntity
  8
IGES_LEVEL_0
 62
     7
100
AcDbCircle
 10
51.99418981003467
 20
22.46500585394137
 30
0.0
 40
3.187566298809875
100
AcDbArc
 50
71.59320636152761
 51
82.8144606356876
  0
LINE
  5
241
330
1F
100
AcDbEntity
  8
IGES_LEVEL_0
 62
     7
100
AcDbLine
 10
52.78039927478557
 20
25.08368867937896
 30
0.0
 11
52.62036927478557
 21
25.06968767937896
 31
0.0
  0
LINE
  5
242
330
1F
100
AcDbEntity
  8
IGES_LEVEL_0
 62
     7
100
AcDbLine
 10
17.80589588063451
 20
6.724998420636144
 30
0.0
 11
17.43764988063451
 21
6.724998420636144
 31
0.0
  0
LINE
  5
243
330
1F
100
AcDbEntity
  8
IGES_LEVEL_0
 62
     7
100
AcDbLine
 10
17.18764988063451
 20
6.724998420636144
 30
0.0
 11
2.437649880634506
 21
6.724998420636144
 31
0.0
  0
LINE
  5
244
330
1F
100
AcDbEntity
  8
IGES_LEVEL_0
 62
     7
100
AcDbLine
 10
2.187649880634507
 20
6.724998420636144
 30
0.0
 11
1.819403880634507
 21
6.724998420636144
 31
0.0
  0
LINE
  5
245
330
1F
100
AcDbEntity
  8
IGES_LEVEL_0
 62
     7
100
AcDbLine
 10
17.78848888063451
 20
7.724998420636143
 30
0.0
 11
1.836810880634507
 21
7.724998420636143
 31
0.0
  0
LINE
  5
246
330
1F
100
AcDbEntity
  8
IGES_LEVEL_0
 62
     7
100
AcDbLine
 10
0.0167108806345072
 20
0.2144244206361449
 30
0.0
 11
0.0149658806345075
 21
0.1144454206361437
 31
0.0
  0
LINE
  5
247
330
1F
100
AcDbEntity
  8
IGES_LEVEL_0
 62
     7
100
AcDbLine
 10
0.406028880634507
 20
22.51842542063615
 30
0.0
 11
0.5427258806345073
 21
30.34983542063615
 31
0.0
  0
LINE
  5
248
330
1F
100
AcDbEntity
  8
IGES_LEVEL_0
 62
     7
100
AcDbLine
 10
0.5427258806345073
 20
30.34983542063615
 30
0.0
 11
0.544419880634507
 21
30.44685142063615
 31
0.0
  0
LINE
  5
249
330
1F
100
AcDbEntity
  8
IGES_LEVEL_0
 62
     7
100
AcDbLine
 10
0.7062708806345069
 20
0.2144254206361441
 30
0.0
 11
0.7045278806345071
 21
0.1145784206361437
 31
0.0
  0
LINE
  5
24A
330
1F
100
AcDbEntity
  8
IGES_LEVEL_0
 62
     7
100
AcDbLine
 10
0.7062708806345069
 20
0.2144254206361441
 30
0.0
 11
1.149199880634507
 21
25.58982242063614
 31
0.0
  0
LINE
  5
24B
330
1F
100
AcDbEntity
  8
IGES_LEVEL_0
 62
     7
100
AcDbLine
 10
1.535299880634507
 20
29.91563342063614
 30
0.0
 11
1.542573880634507
 21
30.33238242063614
 31
0.0
  0
LINE
  5
24C
330
1F
100
AcDbEntity
  8
IGES_LEVEL_0
 62
     7
100
AcDbLine
 10
1.542573880634507
 20
30.33238242063614
 30
0.0
 11
1.544269880634507
 21
30.42955842063615
 31
0.0
  0
LINE
  5
24D
330
1F
100
AcDbEntity
  8
IGES_LEVEL_0
 62
     7
100
AcDbLine
 10
1.706118880634507
 20
0.1969734206361437
 30
0.0
 11
1.820129880634507
 21
6.728694420636145
 31
0.0
  0
LINE
  5
24E
330
1F
100
AcDbEntity
  8
IGES_LEVEL_0
 62
     7
100
AcDbLine
 10
1.706118880634507
 20
0.1969734206361437
 30
0.0
 11
1.704375880634507
 21
0.0971254206361439
 31
0.0
  0
LINE
  5
24F
330
1F
100
AcDbEntity
  8
IGES_LEVEL_0
 62
     7
100
AcDbLine
 10
1.837507880634507
 20
7.724246420636145
 30
0.0
 11
2.122214880634507
 21
24.03513242063615
 31
0.0
  0
LINE
  5
250
330
1F
100
AcDbEntity
  8
IGES_LEVEL_0
 62
     7
100
AcDbLine
 10
18.5739008806345
 20
24.09902642063615
 30
0.0
 11
18.5024598806345
 21
24.07970142063615
 31
0.0
  0
LINE
  5
251
330
1F
100
AcDbEntity
  8
IGES_LEVEL_0
 62
     7
100
AcDbLine
 10
17.50700688063451
 20
23.81043642063615
 30
0.0
 11
15.68754288063451
 21
23.31827942063615
 31
0.0
  0
LINE
  5
252
330
1F
100
AcDbEntity
  8
IGES_LEVEL_0
 62
     7
100
AcDbLine
 10
3.937756880634507
 20
23.31827942063615
 30
0.0
 11
2.118292880634507
 21
23.81043642063615
 31
0.0
  0
LINE
  5
253
330
1F
100
AcDbEntity
  8
IGES_LEVEL_0
 62
     7
100
AcDbLine
 10
1.122840880634507
 20
24.07970142063615
 30
0.0
 11
1.051537880634507
 21
24.09898842063614
 31
0.0
  0
LINE
  5
254
330
1F
100
AcDbEntity
  8
IGES_LEVEL_0
 62
     7
100
AcDbLine
 10
17.50308488063451
 20
24.03512242063615
 30
0.0
 11
17.78779288063451
 21
7.724246420636145
 31
0.0
  0
LINE
  5
255
330
1F
100
AcDbEntity
  8
IGES_LEVEL_0
 62
     7
100
AcDbLine
 10
17.80516988063451
 20
6.728694420636145
 30
0.0
 11
17.9191818806345
 21
0.1969734206361435
 31
0.0
  0
LINE
  5
256
330
1F
100
AcDbEntity
  8
IGES_LEVEL_0
 62
     7
100
AcDbLine
 10
17.9191818806345
 20
0.1969734206361437
 30
0.0
 11
17.92092488063451
 21
0.0971254206361439
 31
0.0
  0
LINE
  5
257
330
1F
100
AcDbEntity
  8
IGES_LEVEL_0
 62
     7
100
AcDbLine
 10
18.08102988063451
 20
30.42955842063615
 30
0.0
 11
18.08272588063451
 21
30.33238242063614
 31
0.0
  0
LINE
  5
258
330
1F
100
AcDbEntity
  8
IGES_LEVEL_0
 62
     7
100
AcDbLine
 10
18.08272588063451
 20
30.33238242063614
 30
0.0
 11
18.09000088063451
 21
29.91563342063614
 31
0.0
  0
LINE
  5
259
330
1F
100
AcDbEntity
  8
IGES_LEVEL_0
 62
     7
100
AcDbLine
 10
18.47609988063451
 20
25.58982242063614
 30
0.0
 11
18.91902888063451
 21
0.2144254206361431
 31
0.0
  0
LINE
  5
25A
330
1F
100
AcDbEntity
  8
IGES_LEVEL_0
 62
     7
100
AcDbLine
 10
18.91902888063451
 20
0.2144254206361441
 30
0.0
 11
18.9207718806345
 21
0.1145784206361437
 31
0.0
  0
LINE
  5
25B
330
1F
100
AcDbEntity
  8
IGES_LEVEL_0
 62
     7
100
AcDbLine
 10
19.08088088063451
 20
30.44685142063615
 30
0.0
 11
19.08257388063451
 21
30.34983542063615
 31
0.0
  0
LINE
  5
25C
330
1F
100
AcDbEntity
  8
IGES_LEVEL_0
 62
     7
100
AcDbLine
 10
19.08257388063451
 20
30.34983542063615
 30
0.0
 11
19.21927188063451
 21
22.51842542063615
 31
0.0
  0
LINE
  5
25D
330
1F
100
AcDbEntity
  8
IGES_LEVEL_0
 62
     7
100
AcDbLine
 10
19.6085898806345
 20
0.2144244206361449
 30
0.0
 11
19.6103348806345
 21
0.1144454206361437
 31
0.0
  0
ARC
  5
25E
330
1F
100
AcDbEntity
  8
IGES_LEVEL_0
 62
     7
100
AcDbCircle
 10
0.0861096820022827
 20
0.1136681167855271
 30
0.0
 40
0.0711483698205183
100
AcDbArc
 50
179.3741809587683
 51
270.372319363778
  0
ARC
  5
25F
330
1F
100
AcDbEntity
  8
IGES_LEVEL_0
 62
     7
100
AcDbCircle
 10
1.018364286347035
 20
27.40955924492969
 30
0.0
 40
27.38289622191477
100
AcDbArc
 50
268.0499479449261
 51
269.6964923515988
  0
LINE
  5
260
330
1F
100
AcDbEntity
  8
IGES_LEVEL_0
 62
     7
100
AcDbLine
 10
0.7061429297965071
 20
0.2070988887661446
 30
0.0
 11
0.6575645469795072
 21
0.2081194927761444
 31
0.0
  0
LINE
  5
261
330
1F
100
AcDbEntity
  8
IGES_LEVEL_0
 62
     7
100
AcDbLine
 10
0.6575645469795072
 20
0.2081194927761444
 30
0.0
 11
0.5797142351315071
 21
0.2096439120361452
 31
0.0
  0
LINE
  5
262
330
1F
100
AcDbEntity
  8
IGES_LEVEL_0
 62
     7
100
AcDbLine
 10
0.5797142351315071
 20
0.2096439120361452
 30
0.0
 11
0.4537309883765069
 21
0.2118429577861437
 31
0.0
  0
LINE
  5
263
330
1F
100
AcDbEntity
  8
IGES_LEVEL_0
 62
     7
100
AcDbLine
 10
0.4537309883765069
 20
0.2118429577861437
 30
0.0
 11
0.2907561856395072
 21
0.2141777528761441
 31
0.0
  0
LINE
  5
264
330
1F
100
AcDbEntity
  8
IGES_LEVEL_0
 62
     7
100
AcDbLine
 10
0.2907561856395072
 20
0.2141777528761441
 30
0.0
 11
0.1388754476045068
 21
0.2156236204261443
 31
0.0
  0
LINE
  5
265
330
1F
100
AcDbEntity
  8
IGES_LEVEL_0
 62
     7
100
AcDbLine
 10
0.1365344510435075
 20
0.2156430528861445
 30
0.0
 11
0.0167107066035069
 21
0.2144248232161444
 31
0.0
  0
ARC
  5
266
330
1F
100
AcDbEntity
  8
IGES_LEVEL_0
 62
     7
100
AcDbCircle
 10
18.60528369495134
 20
27.53956896390111
 30
0.0
 40
27.51291284553181
100
AcDbArc
 50
270.3054992942285
 51
271.9428972009503
  0
ARC
  5
267
330
1F
100
AcDbEntity
  8
IGES_LEVEL_0
 62
     7
100
AcDbCircle
 10
19.53909084750972
 20
0.1137131222098417
 30
0.0
 40
0.0712475418660086
100
AcDbArc
 50
269.1762064270503
 51
0.5887534569004689
  0
LINE
  5
268
330
1F
100
AcDbEntity
  8
IGES_LEVEL_0
 62
     7
100
AcDbLine
 10
19.6085894775645
 20
0.2144248232161444
 30
0.0
 11
19.48876573312451
 21
0.2156430528861445
 31
0.0
  0
LINE
  5
269
330
1F
100
AcDbEntity
  8
IGES_LEVEL_0
 62
     7
100
AcDbLine
 10
19.48642473656451
 20
0.2156236204261443
 30
0.0
 11
19.33454399852451
 21
0.2141777528761441
 31
0.0
  0
LINE
  5
26A
330
1F
100
AcDbEntity
  8
IGES_LEVEL_0
 62
     7
100
AcDbLine
 10
19.33454399852451
 20
0.2141777528761441
 30
0.0
 11
19.17156919578451
 21
0.2118429577861437
 31
0.0
  0
LINE
  5
26B
330
1F
100
AcDbEntity
  8
IGES_LEVEL_0
 62
     7
100
AcDbLine
 10
19.17156919578451
 20
0.2118429577861437
 30
0.0
 11
19.04558594903451
 21
0.2096439120361452
 31
0.0
  0
LINE
  5
26C
330
1F
100
AcDbEntity
  8
IGES_LEVEL_0
 62
     7
100
AcDbLine
 10
19.04558594903451
 20
0.2096439120361452
 30
0.0
 11
18.96773563718451
 21
0.2081194927761444
 31
0.0
  0
LINE
  5
26D
330
1F
100
AcDbEntity
  8
IGES_LEVEL_0
 62
     7
100
AcDbLine
 10
18.96773563718451
 20
0.2081194927761444
 30
0.0
 11
18.91915725436451
 21
0.2070988887661446
 31
0.0
  0
LINE
  5
26E
330
1F
100
AcDbEntity
  8
IGES_LEVEL_0
 62
     7
100
AcDbLine
 10
1.206194661602507
 20
0.2318675011861436
 30
0.0
 11
1.143294594768507
 21
0.2327544634761437
 31
0.0
  0
LINE
  5
26F
330
1F
100
AcDbEntity
  8
IGES_LEVEL_0
 62
     7
100
AcDbLine
 10
1.143294594768507
 20
0.2327544634761437
 30
0.0
 11
0.9803663836875071
 21
0.2329773669561447
 31
0.0
  0
LINE
  5
270
330
1F
100
AcDbEntity
  8
IGES_LEVEL_0
 62
     7
100
AcDbLine
 10
0.9803663836875071
 20
0.2329773669561447
 30
0.0
 11
0.8283772689835071
 21
0.2294126679661438
 31
0.0
  0
ARC
  5
271
330
1F
100
AcDbEntity
  8
IGES_LEVEL_0
 62
     7
100
AcDbCircle
 10
0.8566482494691834
 20
-0.7854866249264326
 30
0.0
 40
1.015292973998871
100
AcDbArc
 50
91.59561555070839
 51
97.7166120329354
  0
ARC
  5
272
330
1F
100
AcDbEntity
  8
IGES_LEVEL_0
 62
     7
100
AcDbCircle
 10
0.7230469442894729
 20
0.1953748488063554
 30
0.0
 40
0.025384080599662
100
AcDbArc
 50
96.16406431106329
 51
131.366221836886
  0
SPLINE
  5
273
330
1F
100
AcDbEntity
  8
IGES_LEVEL_0
 62
     7
100
AcDbSpline
210
0.0
220
0.0
230
1.0
 70
     8
 71
     3
 72
    26
 73
    22
 74
     0
 42
0.0000000001
 43
0.0000000001
 40
0.0
 40
0.0
 40
0.0
 40
0.0
 40
0.03146306147372
 40
0.06419043125301
 40
0.09971045617637
 40
0.1286908713141
 40
0.1522773319969
 40
0.1721868934009
 40
0.1905695833906
 40
0.2094585663816
 40
0.2309712241814
 40
0.2571132771179
 40
0.2900546097621
 40
0.3322470874481
 40
0.3866531241149
 40
0.4569375582487
 40
0.547381902771
 40
0.6520512011119
 40
0.7639179407664
 40
0.8807125752824
 40
1.0
 40
1.0
 40
1.0
 40
1.0
 10
0.704527964445507
 20
0.1145779407661439
 30
0.0
 10
0.7044286841085071
 20
0.1088901740561453
 30
0.0
 10
0.7056304382235069
 20
0.0972140102461437
 30
0.0
 10
0.7118330174785069
 20
0.0800980785261444
 30
0.0
 10
0.7219826507985071
 20
0.0654738039561443
 30
0.0
 10
0.7340110553775071
 20
0.0548562762461443
 30
0.0
 10
0.7453295992965073
 20
0.0481403167461451
 30
0.0
 10
0.7556794966015071
 20
0.0438260713661452
 30
0.0
 10
0.7655819547785073
 20
0.0408165818961442
 30
0.0
 10
0.7759420929455073
 20
0.038420677506145
 30
0.0
 10
0.7877799335365071
 20
0.0362553053461446
 30
0.0
 10
0.8021956208935069
 20
0.0341129325661448
 30
0.0
 10
0.8203717223415071
 20
0.0318816302161437
 30
0.0
 10
0.8436726419475072
 20
0.0294977935761437
 30
0.0
 10
0.873737242461507
 20
0.0269283134961437
 30
0.0
 10
0.9125376261915069
 20
0.0241702450161451
 30
0.0
 10
0.9604421733725069
 20
0.021374146216144
 30
0.0
 10
1.015884346068507
 20
0.018752508716145
 30
0.0
 10
1.076109666314507
 20
0.0164801083161442
 30
0.0
 10
1.138993847187507
 20
0.0146418568861445
 30
0.0
 10
1.181669166157507
 20
0.0137332550461436
 30
0.0
 10
1.203233488781507
 20
0.0133578793961436
 30
0.0
  0
SPLINE
  5
274
330
1F
100
AcDbEntity
  8
IGES_LEVEL_0
 62
     7
100
AcDbSpline
210
0.0
220
0.0
230
1.0
 70
     8
 71
     3
 72
    29
 73
    25
 74
     0
 42
0.0000000001
 43
0.0000000001
 40
0.0
 40
0.0
 40
0.0
 40
0.0
 40
0.1173359085939
 40
0.2322712090577
 40
0.3424917335726
 40
0.4452669451014
 40
0.5302751527754001
 40
0.5973396622062001
 40
0.6502288000835
 40
0.6920092295372
 40
0.7251611694562
 40
0.7517176594915001
 40
0.773368730965
 40
0.7915949376569
 40
0.8077906369792
 40
0.8233573825827
 40
0.8396404424084
 40
0.857538730446
 40
0.8770415836565
 40
0.8970268251606
 40
0.9211567585526
 40
0.9444699738402
 40
0.9701434247428
 40
1.0
 40
1.0
 40
1.0
 40
1.0
 10
1.203233488781507
 20
0.0133578793961436
 30
0.0
 10
1.224417135530507
 20
0.0129891302661448
 30
0.0
 10
1.266353996019507
 20
0.0124191332861453
 30
0.0
 10
1.328195895307507
 20
0.0120607913961442
 30
0.0
 10
1.387409602514507
 20
0.0122106827361438
 30
0.0
 10
1.441216081291507
 20
0.0128468426861438
 30
0.0
 10
1.487222425555507
 20
0.0138713106261444
 30
0.0
 10
1.524211432040507
 20
0.0151169782261437
 30
0.0
 10
1.553384745250507
 20
0.0164663303561446
 30
0.0
 10
1.576423668867507
 20
0.0178607942561452
 30
0.0
 10
1.594695729329507
 20
0.0192710303761451
 30
0.0
 10
1.609318761105507
 20
0.0206918902361447
 30
0.0
 10
1.621227734208507
 20
0.0221436578961437
 30
0.0
 10
1.631237224825507
 20
0.0236814324761446
 30
0.0
 10
1.640098152732507
 20
0.0254182566761446
 30
0.0
 10
1.648510298900507
 20
0.0275635733361447
 30
0.0
 10
1.657027682699507
 20
0.0304545117961449
 30
0.0
 10
1.665856569806507
 20
0.0345083424861442
 30
0.0
 10
1.674676486822507
 20
0.0400103086861449
 30
0.0
 10
1.683492157485507
 20
0.0474367041861444
 30
0.0
 10
1.691447415074507
 20
0.0567439873861445
 30
0.0
 10
1.698138905198507
 20
0.0682039814661436
 30
0.0
 10
1.702955774353507
 20
0.0816901519161447
 30
0.0
 10
1.704281572328507
 20
0.0917352780661452
 30
0.0
 10
1.704375659601507
 20
0.0971255343261436
 30
0.0
  0
LINE
  5
275
330
1F
100
AcDbEntity
  8
IGES_LEVEL_0
 62
     7
100
AcDbLine
 10
1.706117944326507
 20
0.196973424296144
 30
0.0
 11
1.660941578293507
 21
0.2086541986861451
 31
0.0
  0
LINE
  5
276
330
1F
100
AcDbEntity
  8
IGES_LEVEL_0
 62
     7
100
AcDbLine
 10
1.660941578293507
 20
0.2086541986861451
 30
0.0
 11
1.639135710634507
 21
0.2113101729461447
 31
0.0
  0
LINE
  5
277
330
1F
100
AcDbEntity
  8
IGES_LEVEL_0
 62
     7
100
AcDbLine
 10
1.639135710634507
 20
0.2113101729461447
 30
0.0
 11
1.584012054221507
 21
0.2162591408761446
 31
0.0
  0
LINE
  5
278
330
1F
100
AcDbEntity
  8
IGES_LEVEL_0
 62
     7
100
AcDbLine
 10
1.584012054221507
 20
0.2162591408761446
 30
0.0
 11
1.432268292590507
 21
0.2251044591661443
 31
0.0
  0
LINE
  5
279
330
1F
100
AcDbEntity
  8
IGES_LEVEL_0
 62
     7
100
AcDbLine
 10
1.432268292590507
 20
0.2251044591661443
 30
0.0
 11
1.269275578431507
 21
0.230560278616145
 31
0.0
  0
LINE
  5
27A
330
1F
100
AcDbEntity
  8
IGES_LEVEL_0
 62
     7
100
AcDbLine
 10
1.269275578431507
 20
0.230560278616145
 30
0.0
 11
1.206194661602507
 21
0.2318675011861436
 31
0.0
  0
LINE
  5
27B
330
1F
100
AcDbEntity
  8
IGES_LEVEL_0
 62
     7
100
AcDbLine
 10
18.4191055225645
 20
0.2318675011861436
 30
0.0
 11
18.3560246057345
 21
0.230560278616145
 31
0.0
  0
LINE
  5
27C
330
1F
100
AcDbEntity
  8
IGES_LEVEL_0
 62
     7
100
AcDbLine
 10
18.3560246057345
 20
0.230560278616145
 30
0.0
 11
18.19303189157451
 21
0.2251044591661443
 31
0.0
  0
LINE
  5
27D
330
1F
100
AcDbEntity
  8
IGES_LEVEL_0
 62
     7
100
AcDbLine
 10
18.19303189157451
 20
0.2251044591661443
 30
0.0
 11
18.04128812994451
 21
0.2162591408761446
 31
0.0
  0
LINE
  5
27E
330
1F
100
AcDbEntity
  8
IGES_LEVEL_0
 62
     7
100
AcDbLine
 10
18.04128812994451
 20
0.2162591408761446
 30
0.0
 11
17.98616447353451
 21
0.2113101729461447
 31
0.0
  0
LINE
  5
27F
330
1F
100
AcDbEntity
  8
IGES_LEVEL_0
 62
     7
100
AcDbLine
 10
17.98616447353451
 20
0.2113101729461447
 30
0.0
 11
17.91918223983451
 21
0.196973424296144
 31
0.0
  0
SPLINE
  5
280
330
1F
100
AcDbEntity
  8
IGES_LEVEL_0
 62
     7
100
AcDbSpline
210
0.0
220
0.0
230
1.0
 70
     8
 71
     3
 72
    26
 73
    22
 74
     0
 42
0.0000000001
 43
0.0000000001
 40
0.0
 40
0.0
 40
0.0
 40
0.0
 40
0.03148815618987
 40
0.06424117390338
 40
0.0997931450704
 40
0.1288053601301
 40
0.1524226919082
 40
0.1723593042557
 40
0.1907607926847
 40
0.2096580193882
 40
0.231168828222
 40
0.2572976058283
 40
0.2902122932877
 40
0.332361076823
 40
0.386700694312
 40
0.456888097598
 40
0.5472179303696
 40
0.6518905557972
 40
0.7637833668557
 40
0.8806307266161
 40
1.0
 40
1.0
 40
1.0
 40
1.0
 10
17.92092452456451
 20
0.0971255343261436
 30
0.0
 10
17.92102373901451
 20
0.0914415419361446
 30
0.0
 10
17.92263022372451
 20
0.0798222745561442
 30
0.0
 10
17.92941784046451
 20
0.0629424741261452
 30
0.0
 10
17.94006000385451
 20
0.0486849558861443
 30
0.0
 10
17.95244161600451
 20
0.0384913957661449
 30
0.0
 10
17.96398176506451
 20
0.0321698849361446
 30
0.0
 10
17.97447177091451
 20
0.0282154022261444
 30
0.0
 10
17.9844670980445
 20
0.0255509473561438
 30
0.0
 10
17.99489319938451
 20
0.0235171691261452
 30
0.0
 10
18.00678040093451
 20
0.0217663161761436
 30
0.0
 10
18.02123313995451
 20
0.0201289276561446
 30
0.0
 10
18.03943411866451
 20
0.0185341083561436
 30
0.0
 10
18.0627450672145
 20
0.0169656307961442
 30
0.0
 10
18.09279948680451
 20
0.015447272596144
 30
0.0
 10
18.13156541860451
 20
0.0140442887461446
 30
0.0
 10
18.17943061811451
 20
0.0129188904461436
 30
0.0
 10
18.23483404689451
 20
0.0122292594061452
 30
0.0
 10
18.29502880441451
 20
0.0120545824861448
 30
0.0
 10
18.35787601794451
 20
0.0124059622261444
 30
0.0
 10
18.40051908227451
 20
0.0129827946061446
 30
0.0
 10
18.42206669540451
 20
0.0133578793961436
 30
0.0
  0
SPLINE
  5
281
330
1F
100
AcDbEntity
  8
IGES_LEVEL_0
 62
     7
100
AcDbSpline
210
0.0
220
0.0
230
1.0
 70
     8
 71
     3
 72
    29
 73
    25
 74
     0
 42
0.0000000001
 43
0.0000000001
 40
0.0
 40
0.0
 40
0.0
 40
0.0
 40
0.1172440224078
 40
0.2321162982092
 40
0.3423009667223
 40
0.4450962888001
 40
0.5302328233331
 40
0.5973894711991
 40
0.6503435920089
 40
0.6921685346056
 40
0.7253495467454
 40
0.7519233693532
 40
0.7735826081689
 40
0.7918092566447
 40
0.807998520816
 40
0.8235525991198001
 40
0.8398173849183001
 40
0.85769495532
 40
0.8771819407667
 40
0.8971378515728
 40
0.9212497953025
 40
0.9445223224663
 40
0.9701686441358
 40
1.0
 40
1.0
 40
1.0
 40
1.0
 10
18.42206669540451
 20
0.0133578793961436
 30
0.0
 10
18.44326470395451
 20
0.0137268785261436
 30
0.0
 10
18.4852292995945
 20
0.0146176108761448
 30
0.0
 10
18.54710210623451
 20
0.0164136275161449
 30
0.0
 10
18.60634701254451
 20
0.0186269440161438
 30
0.0
 10
18.66019770412451
 20
0.0211395656061441
 30
0.0
 10
18.70625117071451
 20
0.0237702578461444
 30
0.0
 10
18.74327994332451
 20
0.0263091452561436
 30
0.0
 10
18.77246757681451
 20
0.0286787914961436
 30
0.0
 10
18.79550261613451
 20
0.0308791538561436
 30
0.0
 10
18.81375757754451
 20
0.0329285388861439
 30
0.0
 10
18.82835348803451
 20
0.034860754906144
 30
0.0
 10
18.84022682683451
 20
0.0367286455861439
 30
0.0
 10
18.85019186661451
 20
0.0386156182061451
 30
0.0
 10
18.8589968425545
 20
0.0406607251361449
 30
0.0
 10
18.86733538090451
 20
0.043097569206144
 30
0.0
 10
18.8757512915945
 20
0.0462825258261442
 30
0.0
 10
18.88443868763451
 20
0.0506408143661449
 30
0.0
 10
18.89306582141451
 20
0.056446280456144
 30
0.0
 10
18.90162316790451
 20
0.0641769371861446
 30
0.0
 10
18.90925223544451
 20
0.0737559957861446
 30
0.0
 10
18.91554373141451
 20
0.0854446242261445
 30
0.0
 10
18.91989071825451
 20
0.0990937975461438
 30
0.0
 10
18.9208663649745
 20
0.1091843625161452
 30
0.0
 10
18.9207722197145
 20
0.1145779407661439
 30
0.0
  0
LINE
  5
282
330
1F
100
AcDbEntity
  8
IGES_LEVEL_0
 62
     7
100
AcDbLine
 10
18.91902880528451
 20
0.2144256218361448
 30
0.0
 11
18.81205709589451
 21
0.228693994426144
 31
0.0
  0
LINE
  5
283
330
1F
100
AcDbEntity
  8
IGES_LEVEL_0
 62
     7
100
AcDbLine
 10
18.79692291518451
 20
0.2294126679661438
 30
0.0
 11
18.6449338004745
 21
0.2329773669561447
 31
0.0
  0
LINE
  5
284
330
1F
100
AcDbEntity
  8
IGES_LEVEL_0
 62
     7
100
AcDbLine
 10
18.6449338004745
 20
0.2329773669561447
 30
0.0
 11
18.4820055893945
 21
0.2327544634761437
 31
0.0
  0
LINE
  5
285
330
1F
100
AcDbEntity
  8
IGES_LEVEL_0
 62
     7
100
AcDbLine
 10
18.4820055893945
 20
0.2327544634761437
 30
0.0
 11
18.4191055225645
 21
0.2318675011861436
 31
0.0
  0
LINE
  5
286
330
1F
100
AcDbEntity
  8
IGES_LEVEL_0
 62
     7
100
AcDbLine
 10
0.7363436411045069
 20
30.25117763501615
 30
0.0
 11
0.692271284336507
 21
30.26145840249615
 31
0.0
  0
LINE
  5
287
330
1F
100
AcDbEntity
  8
IGES_LEVEL_0
 62
     7
100
AcDbLine
 10
0.692271284336507
 20
30.26145840249615
 30
0.0
 11
0.6531539491135073
 21
30.27168005883615
 31
0.0
  0
LINE
  5
288
330
1F
100
AcDbEntity
  8
IGES_LEVEL_0
 62
     7
100
AcDbLine
 10
0.6531539491135073
 20
30.27168005883615
 30
0.0
 11
0.6190970763045071
 21
30.28210289352614
 31
0.0
  0
ARC
  5
289
330
1F
100
AcDbEntity
  8
IGES_LEVEL_0
 62
     7
100
AcDbCircle
 10
0.6716870896949558
 20
30.43442783106595
 30
0.0
 40
0.1611477461986741
100
AcDbArc
 50
230.6238343615466
 51
250.9528238214095
  0
ARC
  5
28A
330
1F
100
AcDbEntity
  8
IGES_LEVEL_0
 62
     7
100
AcDbCircle
 10
0.6059829347972769
 20
30.36305327488734
 30
0.0
 40
0.0645276312243843
100
AcDbArc
 50
191.786369731817
 51
235.5209267007632
  0
LINE
  5
28B
330
1F
100
AcDbEntity
  8
IGES_LEVEL_0
 62
     7
100
AcDbLine
 10
0.4060284825915071
 20
22.51842572334614
 30
0.0
 11
0.0870239662445068
 21
4.242669221840146
 31
0.0
  0
LINE
  5
28C
330
1F
100
AcDbEntity
  8
IGES_LEVEL_0
 62
     7
100
AcDbLine
 10
0.0870239662445068
 20
4.242669221840145
 30
0.0
 11
0.081035601010507
 21
3.899596007326145
 31
0.0
  0
LINE
  5
28D
330
1F
100
AcDbEntity
  8
IGES_LEVEL_0
 62
     7
100
AcDbLine
 10
0.081035601010507
 20
3.899596007326145
 30
0.0
 11
0.0485881703735068
 21
2.040683951196145
 31
0.0
  0
LINE
  5
28E
330
1F
100
AcDbEntity
  8
IGES_LEVEL_0
 62
     7
100
AcDbLine
 10
0.0485881703735068
 20
2.040683951196145
 30
0.0
 11
0.0167107144845068
 21
0.2144257262761444
 31
0.0
  0
LINE
  5
28F
330
1F
100
AcDbEntity
  8
IGES_LEVEL_0
 62
     7
100
AcDbLine
 10
0.0810356010325072
 20
3.899596007325145
 30
0.0
 11
0.0485881724485074
 21
2.040684068806145
 31
0.0
  0
LINE
  5
290
330
1F
100
AcDbEntity
  8
IGES_LEVEL_0
 62
     7
100
AcDbLine
 10
0.0485881724485074
 20
2.040684068806145
 30
0.0
 11
0.0167107144845068
 21
0.2144257262761444
 31
0.0
  0
LINE
  5
291
330
1F
100
AcDbEntity
  8
IGES_LEVEL_0
 62
     7
100
AcDbLine
 10
19.60858946968451
 20
0.2144257262761445
 30
0.0
 11
19.57678808625451
 21
2.036325761566144
 31
0.0
  0
LINE
  5
292
330
1F
100
AcDbEntity
  8
IGES_LEVEL_0
 62
     7
100
AcDbLine
 10
19.60858946968451
 20
0.2144257262761445
 30
0.0
 11
19.57678808657451
 21
2.036325744146144
 31
0.0
  0
LINE
  5
293
330
1F
100
AcDbEntity
  8
IGES_LEVEL_0
 62
     7
100
AcDbLine
 10
19.57678808657451
 20
2.036325744146144
 30
0.0
 11
19.5631153060345
 21
2.819638817074144
 31
0.0
  0
LINE
  5
294
330
1F
100
AcDbEntity
  8
IGES_LEVEL_0
 62
     7
100
AcDbLine
 10
19.5631153060345
 20
2.819638817074144
 30
0.0
 11
19.21927170157451
 21
22.51842572334614
 31
0.0
  0
ARC
  5
295
330
1F
100
AcDbEntity
  8
IGES_LEVEL_0
 62
     7
100
AcDbCircle
 10
2.314314893643799
 20
6.230153269199913
 30
0.0
 40
0.5107509044931294
100
AcDbArc
 50
91.30397828515066
 51
103.097827635194
  0
ARC
  5
296
330
1F
100
AcDbEntity
  8
IGES_LEVEL_0
 62
     7
100
AcDbCircle
 10
2.311033970029054
 20
6.230437133784702
 30
0.0
 40
0.5104637933606061
100
AcDbArc
 50
76.88634213585635
 51
88.8155294126711
  0
ARC
  5
297
330
1F
100
AcDbEntity
  8
IGES_LEVEL_0
 62
     7
100
AcDbCircle
 10
17.3143148936336
 20
6.23015326932018
 30
0.0
 40
0.5107509043727748
100
AcDbArc
 50
91.30397828487533
 51
103.0978276367007
  0
ARC
  5
298
330
1F
100
AcDbEntity
  8
IGES_LEVEL_0
 62
     7
100
AcDbCircle
 10
17.31103397002687
 20
6.23043713373059
 30
0.0
 40
0.5104637934147098
100
AcDbArc
 50
76.88634213655826
 51
88.81552941277592
  0
SPLINE
  5
299
330
1F
100
AcDbEntity
  8
IGES_LEVEL_0
 62
     7
100
AcDbSpline
210
0.0
220
0.0
230
1.0
 70
     8
 71
     3
 72
    33
 73
    29
 74
     0
 42
0.0000000001
 43
0.0000000001
 40
0.0
 40
0.0
 40
0.0
 40
0.0
 40
0.06061821435762
 40
0.1304116875441
 40
0.1921528210272
 40
0.2460843546182
 40
0.2930622998061
 40
0.3343051665943
 40
0.370488114347
 40
0.4022836691898
 40
0.4304284527106
 40
0.4555640783153
 40
0.4784892732232
 40
0.5002293769616
 40
0.5219177373277
 40
0.5447722679481
 40
0.5683889093426
 40
0.5938221105552
 40
0.6213811045042
 40
0.6509156982106
 40
0.6835651430436001
 40
0.7195194859428
 40
0.7586957268341
 40
0.8014853425469
 40
0.8486762756691
 40
0.9007618271565
 40
0.9581742174934
 40
1.0
 40
1.0
 40
1.0
 40
1.0
 10
18.48584293573451
 20
25.03614002664614
 30
0.0
 10
18.51418725698451
 20
25.02795046482614
 30
0.0
 10
18.57396679342451
 20
25.00662788961614
 30
0.0
 10
18.65855159959451
 20
24.96666534498614
 30
0.0
 10
18.73668869491451
 20
24.92157078426614
 30
0.0
 10
18.80246721962451
 20
24.87763600556615
 30
0.0
 10
18.85773514099451
 20
24.83612420657615
 30
0.0
 10
18.90425909076451
 20
24.79746961273615
 30
0.0
 10
18.9435221806145
 20
24.76171606714614
 30
0.0
 10
18.97667417934451
 20
24.72877718319615
 30
0.0
 10
19.0047030118745
 20
24.69835552131615
 30
0.0
 10
19.02847814041451
 20
24.66993931096615
 30
0.0
 10
19.0486288167845
 20
24.64258960626615
 30
0.0
 10
19.06535938847451
 20
24.61501351855614
 30
0.0
 10
19.07591302030451
 20
24.58371565262614
 30
0.0
 10
19.07089796221451
 20
24.55002356976614
 30
0.0
 10
19.0576321012445
 20
24.51767169118615
 30
0.0
 10
19.04042529857451
 20
24.48459564555614
 30
0.0
 10
19.01959668267451
 20
24.45029583766614
 30
0.0
 10
18.9950256415345
 20
24.41423332844614
 30
0.0
 10
18.9661865376545
 20
24.37621416382615
 30
0.0
 10
18.93236338466451
 20
24.33617821614615
 30
0.0
 10
18.89293882920451
 20
24.29453267525615
 30
0.0
 10
18.84698794419451
 20
24.25169664387614
 30
0.0
 10
18.7931905246745
 20
24.20830079092615
 30
0.0
 10
18.7299767763845
 20
24.16563565881615
 30
0.0
 10
18.66485200029451
 20
24.13106388956615
 30
0.0
 10
18.61987582521451
 20
24.11337574984615
 30
0.0
 10
18.60054270774451
 20
24.10701464263615
 30
0.0
  0
LINE
  5
29A
330
1F
100
AcDbEntity
  8
IGES_LEVEL_0
 62
     7
100
AcDbLine
 10
18.60054270774451
 20
24.10701464263615
 30
0.0
 11
18.57404615746451
 21
24.09906458158615
 31
0.0
  0
ARC
  5
29B
330
1F
100
AcDbEntity
  8
IGES_LEVEL_0
 62
     7
100
AcDbCircle
 10
1.00871989511852
 20
7.200578828632942
 30
0.0
 40
0.272796176370772
100
AcDbArc
 50
130.4038184735704
 51
174.864153459588
  0
ARC
  5
29C
330
1F
100
AcDbEntity
  8
IGES_LEVEL_0
 62
     7
100
AcDbCircle
 10
18.64822180092109
 20
7.216719777908241
 30
0.0
 40
0.2402020112464062
100
AcDbArc
 50
309.2085192136777
 51
1.975210596886114
  0
LINE
  5
29D
330
1F
100
AcDbEntity
  8
IGES_LEVEL_0
 62
     7
100
AcDbLine
 10
1.328716987012507
 20
7.251166822846145
 30
0.0
 11
1.815760215992507
 21
7.710539364534145
 31
0.0
  0
ARC
  5
29E
330
1F
100
AcDbEntity
  8
IGES_LEVEL_0
 62
     7
100
AcDbCircle
 10
1.843432266650832
 20
7.692806094489388
 30
0.0
 40
0.0328665674221869
100
AcDbArc
 50
101.6218771508401
 51
147.3467541546401
  0
LINE
  5
29F
330
1F
100
AcDbEntity
  8
IGES_LEVEL_0
 62
     7
100
AcDbLine
 10
17.78848895115451
 20
7.724998844724143
 30
0.0
 11
17.8829564977345
 21
7.647257494415144
 31
0.0
  0
ARC
  5
2A0
330
1F
100
AcDbEntity
  8
IGES_LEVEL_0
 62
     7
100
AcDbCircle
 10
4.5209721843563
 20
-6.720313647793939
 30
0.0
 40
19.62064538483391
100
AcDbArc
 50
45.40444984560783
 51
47.07686865599902
  0
LINE
  5
2A1
330
1F
100
AcDbEntity
  8
IGES_LEVEL_0
 62
     7
100
AcDbLine
 10
18.2965831971545
 20
7.251166822846145
 30
0.0
 11
17.82694744152451
 21
6.753722016948144
 31
0.0
  0
LINE
  5
2A2
330
1F
100
AcDbEntity
  8
IGES_LEVEL_0
 62
     7
100
AcDbLine
 10
17.82694744152451
 20
6.753722016948144
 30
0.0
 11
17.8051343975545
 21
6.725050528755144
 31
0.0
  0
ARC
  5
2A3
330
1F
100
AcDbEntity
  8
IGES_LEVEL_0
 62
     7
100
AcDbCircle
 10
18.61659797564812
 20
7.20058492225139
 30
0.0
 40
0.272778014105023
100
AcDbArc
 50
5.134904321735164
 51
49.59408661095227
  0
ARC
  5
2A4
330
1F
100
AcDbEntity
  8
IGES_LEVEL_0
 62
     7
100
AcDbCircle
 10
0.9770769978401599
 20
7.216719319280728
 30
0.0
 40
0.2402006377357186
100
AcDbArc
 50
178.0246686411843
 51
230.7879908766174
  0
ARC
  5
2A5
330
1F
100
AcDbEntity
  8
IGES_LEVEL_0
 62
     7
100
AcDbCircle
 10
0.6087506205816845
 20
30.36333722738738
 30
0.0
 40
0.0674993320401241
100
AcDbArc
 50
191.9815227419692
 51
248.0734973955357
  0
ARC
  5
2A6
330
1F
100
AcDbEntity
  8
IGES_LEVEL_0
 62
     7
100
AcDbCircle
 10
1.058467711981324
 20
31.93224375142557
 30
0.0
 40
1.712168710091006
100
AcDbArc
 50
261.0862247266511
 51
269.4706738017432
  0
LINE
  5
2A7
330
1F
100
AcDbEntity
  8
IGES_LEVEL_0
 62
     7
100
AcDbLine
 10
1.042650092082507
 20
30.22014810727615
 30
0.0
 11
1.111169438525507
 21
30.22003922145614
 31
0.0
  0
LINE
  5
2A8
330
1F
100
AcDbEntity
  8
IGES_LEVEL_0
 62
     7
100
AcDbLine
 10
18.91810391146451
 20
0.2159774086261442
 30
0.0
 11
18.80529910533451
 21
0.229039002286144
 31
0.0
  0
ARC
  5
2A9
330
1F
100
AcDbEntity
  8
IGES_LEVEL_0
 62
     7
100
AcDbCircle
 10
18.57770491101406
 20
-5.828741984813399
 30
0.0
 40
6.062054899533085
100
AcDbArc
 50
87.84837775008609
 51
90.33102192498842
  0
LINE
  5
2AA
330
1F
100
AcDbEntity
  8
IGES_LEVEL_0
 62
     7
100
AcDbLine
 10
18.5426820535545
 20
0.2332117435161446
 30
0.0
 11
18.48203123549451
 21
0.2328413763961442
 31
0.0
  0
LINE
  5
2AB
330
1F
100
AcDbEntity
  8
IGES_LEVEL_0
 62
     7
100
AcDbLine
 10
18.48203123549451
 20
0.2328413763961442
 30
0.0
 11
18.44095586972451
 21
0.2322951783761439
 31
0.0
  0
LINE
  5
2AC
330
1F
100
AcDbEntity
  8
IGES_LEVEL_0
 62
     7
100
AcDbLine
 10
18.44095586972451
 20
0.2322951783761439
 30
0.0
 11
18.38869713956451
 21
0.231289721686145
 31
0.0
  0
LINE
  5
2AD
330
1F
100
AcDbEntity
  8
IGES_LEVEL_0
 62
     7
100
AcDbLine
 10
18.38869713956451
 20
0.231289721686145
 30
0.0
 11
18.35599496499451
 21
0.2305015616261442
 31
0.0
  0
LINE
  5
2AE
330
1F
100
AcDbEntity
  8
IGES_LEVEL_0
 62
     7
100
AcDbLine
 10
18.35599496499451
 20
0.2305015616261442
 30
0.0
 11
17.93471900532451
 21
0.2037363632161436
 31
0.0
  0
ARC
  5
2AF
330
1F
100
AcDbEntity
  8
IGES_LEVEL_0
 62
     7
100
AcDbCircle
 10
17.93508671573028
 20
0.1813953468197384
 30
0.0
 40
0.0223440422611255
100
AcDbArc
 50
90.9429451113248
 51
135.7515204773787
  0
LINE
  5
2B0
330
1F
100
AcDbEntity
  8
IGES_LEVEL_0
 62
     7
100
AcDbLine
 10
0.7071962727005071
 20
0.2159774086261442
 30
0.0
 11
0.8200010788295072
 21
0.229039002286144
 31
0.0
  0
ARC
  5
2B1
330
1F
100
AcDbEntity
  8
IGES_LEVEL_0
 62
     7
100
AcDbCircle
 10
1.04759527315068
 20
-5.828741984901165
 30
0.0
 40
6.062054899620817
100
AcDbArc
 50
89.66897807507054
 51
92.15162224988966
  0
LINE
  5
2B2
330
1F
100
AcDbEntity
  8
IGES_LEVEL_0
 62
     7
100
AcDbLine
 10
1.082618130604507
 20
0.2332117435161446
 30
0.0
 11
1.143268948669507
 21
0.2328413763961442
 31
0.0
  0
LINE
  5
2B3
330
1F
100
AcDbEntity
  8
IGES_LEVEL_0
 62
     7
100
AcDbLine
 10
1.143268948669507
 20
0.2328413763961442
 30
0.0
 11
1.184344314438507
 21
0.2322951783761439
 31
0.0
  0
LINE
  5
2B4
330
1F
100
AcDbEntity
  8
IGES_LEVEL_0
 62
     7
100
AcDbLine
 10
1.184344314438507
 20
0.2322951783761439
 30
0.0
 11
1.236603044600507
 21
0.231289721686145
 31
0.0
  0
LINE
  5
2B5
330
1F
100
AcDbEntity
  8
IGES_LEVEL_0
 62
     7
100
AcDbLine
 10
1.236603044600507
 20
0.231289721686145
 30
0.0
 11
1.269305219174507
 21
0.2305015616261442
 31
0.0
  0
LINE
  5
2B6
330
1F
100
AcDbEntity
  8
IGES_LEVEL_0
 62
     7
100
AcDbLine
 10
1.269305219174507
 20
0.2305015616261442
 30
0.0
 11
1.690581178841507
 21
0.2037363632161436
 31
0.0
  0
ARC
  5
2B7
330
1F
100
AcDbEntity
  8
IGES_LEVEL_0
 62
     7
100
AcDbCircle
 10
1.690213468444438
 20
0.1813953468541439
 30
0.0
 40
0.0223440422265814
100
AcDbArc
 50
44.24847948574266
 51
89.0570549095462
  0
ARC
  5
2B8
330
1F
100
AcDbEntity
  8
IGES_LEVEL_0
 62
     7
100
AcDbCircle
 10
19.42351396252635
 20
-4.65062261239482
 30
0.0
 40
4.868566472485661
100
AcDbArc
 50
87.82141178583962
 51
92.9663151396656
  0
LINE
  5
2B9
330
1F
100
AcDbEntity
  8
IGES_LEVEL_0
 62
     7
100
AcDbLine
 10
19.17157128915451
 20
0.2114206192461438
 30
0.0
 11
19.04382871134451
 21
0.209169443396145
 31
0.0
  0
LINE
  5
2BA
330
1F
100
AcDbEntity
  8
IGES_LEVEL_0
 62
     7
100
AcDbLine
 10
19.04382871134451
 20
0.209169443396145
 30
0.0
 11
18.91918201374451
 21
0.207048076046145
 31
0.0
  0
LINE
  5
2BB
330
1F
100
AcDbEntity
  8
IGES_LEVEL_0
 62
     7
100
AcDbLine
 10
0.0167107066035069
 20
0.2144248232161444
 30
0.0
 11
0.0352130952795074
 21
0.2205413022261445
 31
0.0
  0
SPLINE
  5
2BC
330
1F
100
AcDbEntity
  8
IGES_LEVEL_0
 62
     7
100
AcDbSpline
210
0.0
220
0.0
230
1.0
 70
     8
 71
     3
 72
    11
 73
     7
 74
     0
 42
0.0000000001
 43
0.0000000001
 40
0.0
 40
0.0
 40
0.0
 40
0.0
 40
0.0342512111085
 40
0.2972649316198
 40
0.6909141478393001
 40
1.0
 40
1.0
 40
1.0
 40
1.0
 10
0.0352130952795074
 20
0.2205413022261445
 30
0.0
 10
0.0413342821045067
 20
0.2193296461161448
 30
0.0
 10
0.1013390541695073
 20
0.2020605528061444
 30
0.0
 10
0.1713399228405067
 20
0.2244575737061442
 30
0.0
 10
0.3153039055295074
 20
0.2121575066661442
 30
0.0
 10
0.4118136130525073
 20
0.211677080376144
 30
0.0
 10
0.4537288950065069
 20
0.2114206192461438
 30
0.0
  0
LINE
  5
2BD
330
1F
100
AcDbEntity
  8
IGES_LEVEL_0
 62
     7
100
AcDbLine
 10
0.4537288950065069
 20
0.2114206192461438
 30
0.0
 11
0.581471472823507
 21
0.209169443396145
 31
0.0
  0
LINE
  5
2BE
330
1F
100
AcDbEntity
  8
IGES_LEVEL_0
 62
     7
100
AcDbLine
 10
0.581471472823507
 20
0.209169443396145
 30
0.0
 11
0.7061181704225071
 21
0.207048076046145
 31
0.0
  0
LINE
  5
2BF
330
1F
100
AcDbEntity
  8
IGES_LEVEL_0
 62
     7
100
AcDbLine
 10
1.051529523274507
 20
24.09899115266614
 30
0.0
 11
1.019719156981507
 21
24.10869934900615
 31
0.0
  0
LINE
  5
2C0
330
1F
100
AcDbEntity
  8
IGES_LEVEL_0
 62
     7
100
AcDbLine
 10
1.019719156981507
 20
24.10869934900615
 30
0.0
 11
0.9895508030645072
 21
24.11992906423614
 31
0.0
  0
SPLINE
  5
2C1
330
1F
100
AcDbEntity
  8
IGES_LEVEL_0
 62
     7
100
AcDbSpline
210
0.0
220
0.0
230
1.0
 70
     8
 71
     3
 72
    32
 73
    28
 74
     0
 42
0.0000000001
 43
0.0000000001
 40
0.0
 40
0.0
 40
0.0
 40
0.0
 40
0.02190557876849
 40
0.08298290824987
 40
0.1382834833099
 40
0.1882601138656
 40
0.2335259011176
 40
0.2749325009257
 40
0.3126948069999
 40
0.3467266137606
 40
0.3772596444116
 40
0.40497417538
 40
0.4309655417467
 40
0.4564901837638
 40
0.4803458704193
 40
0.5030608137942
 40
0.5266876895588
 40
0.5528784430056
 40
0.5824475182992001
 40
0.6157460166814001
 40
0.6532904237076
 40
0.6958850330076
 40
0.7443247386244
 40
0.7999183477048
 40
0.8636784401932
 40
0.9359032649115
 40
1.0
 40
1.0
 40
1.0
 40
1.0
 10
0.9895508030645072
 20
24.11992906423614
 30
0.0
 10
0.979927068735507
 20
24.12382053934615
 30
0.0
 10
0.943859623761507
 20
24.13951678124615
 30
0.0
 10
0.8862822311855071
 20
24.17105534888615
 30
0.0
 10
0.8215542905645069
 20
24.21614976384614
 30
0.0
 10
0.766741892167507
 20
24.26184102854615
 30
0.0
 10
0.7201504619355069
 20
24.30681233538614
 30
0.0
 10
0.6804301617615071
 20
24.35038330173614
 30
0.0
 10
0.646664714600507
 20
24.39204887452614
 30
0.0
 10
0.6182422125315069
 20
24.43132480132615
 30
0.0
 10
0.594564597577507
 20
24.46805986211615
 30
0.0
 10
0.5749258622985071
 20
24.50286037802615
 30
0.0
 10
0.5592200110945073
 20
24.53683726397615
 30
0.0
 10
0.5490295602095071
 20
24.57184199937614
 30
0.0
 10
0.5556214388265069
 20
24.60650633074615
 30
0.0
 10
0.5720586708105072
 20
24.63559468316614
 30
0.0
 10
0.5918802230545069
 20
24.66365851646615
 30
0.0
 10
0.6157050422475073
 20
24.69277339133614
 30
0.0
 10
0.6440408203885072
 20
24.72402292718614
 30
0.0
 10
0.6775913788385072
 20
24.75773815735615
 30
0.0
 10
0.7171573707385072
 20
24.79409354509614
 30
0.0
 10
0.763856492290507
 20
24.83319482804615
 30
0.0
 10
0.8192535538175071
 20
24.87510091618615
 30
0.0
 10
0.8852230484255069
 20
24.91946910716615
 30
0.0
 10
0.9637181952605073
 20
24.96508992387615
 30
0.0
 10
1.049408847090507
 20
25.00587786138614
 30
0.0
 10
1.110251796936507
 20
25.02770012327614
 30
0.0
 10
1.139453587753507
 20
25.03613825978615
 30
0.0
  0
SPLINE
  5
2C2
330
1F
100
AcDbEntity
  8
IGES_LEVEL_0
 62
     7
100
AcDbSpline
210
0.0
220
0.0
230
1.0
 70
     8
 71
     3
 72
    10
 73
     6
 74
     0
 42
0.0000000001
 43
0.0000000001
 40
0.0
 40
0.0
 40
0.0
 40
0.0
 40
0.1200725922183
 40
0.5436525330797
 40
1.0
 40
1.0
 40
1.0
 40
1.0
 10
1.820165786609507
 20
6.725050528755144
 30
0.0
 10
1.825033680945507
 20
6.725789178888144
 30
0.0
 10
1.787083128658507
 20
6.764349525522144
 30
0.0
 10
1.770901050476507
 20
6.788780168258144
 30
0.0
 10
1.739901737507507
 20
6.822606283143144
 30
0.0
 10
1.722863863494507
 20
6.840750841212144
 30
0.0
  0
ARC
  5
2C3
330
1F
100
AcDbEntity
  8
IGES_LEVEL_0
 62
     7
100
AcDbCircle
 10
-13.89520621645623
 20
-7.763741400330839
 30
0.0
 40
21.38259354371077
100
AcDbArc
 50
43.07918422599002
 51
44.60396996368699
  0
ARC
  5
2C4
330
1F
100
AcDbEntity
  8
IGES_LEVEL_0
 62
     7
100
AcDbCircle
 10
1.40573111256305
 20
30.41402576456102
 30
0.0
 40
0.1592894515780305
100
AcDbArc
 50
274.7517731670658
 51
329.1508742910571
  0
ARC
  5
2C5
330
1F
100
AcDbEntity
  8
DEFAULT
 62
     7
100
AcDbCircle
 10
1.102987051444037
 20
31.65278386334296
 30
0.0
 40
1.432768006452452
100
AcDbArc
 50
270.3272119368874
 51
282.7389802660941
  0
LINE
  5
2C6
330
1F
100
AcDbEntity
  8
DEFAULT
 62
     7
100
AcDbLine
 10
0.7931707471325072
 20
30.24075351726615
 30
0.0
 11
0.7363436411045069
 21
30.25117763501615
 31
0.0
  0
LINE
  5
2C7
330
1F
100
AcDbEntity
  8
DEFAULT
 62
     7
100
AcDbLine
 10
1.533198880634507
 20
29.79527942063615
 30
0.0
 11
1.535299880634507
 21
29.91563342063614
 31
0.0
  0
LINE
  5
2C8
330
1F
100
AcDbEntity
  8
DEFAULT
 62
     7
100
AcDbLine
 10
18.09210188063451
 20
29.79528042063615
 30
0.0
 11
18.09000088063451
 21
29.91563342063614
 31
0.0
  0
LINE
  5
2C9
330
1F
100
AcDbEntity
  8
DEFAULT
 62
     7
100
AcDbLine
 10
18.83212943269851
 20
30.24075351726615
 30
0.0
 11
18.88895653872651
 21
30.25117763501615
 31
0.0
  0
ARC
  5
2CA
330
1F
100
AcDbEntity
  8
DEFAULT
 62
     7
100
AcDbCircle
 10
18.52231312838698
 20
31.65278386334301
 30
0.0
 40
1.432768006452499
100
AcDbArc
 50
257.2610197339061
 51
269.6727880631124
  0
ARC
  5
2CB
330
1F
100
AcDbEntity
  8
IGES_LEVEL_0
 62
     7
100
AcDbCircle
 10
18.21956906726798
 20
30.41402576456104
 30
0.0
 40
0.1592894515780492
100
AcDbArc
 50
210.8491257089464
 51
265.2482268329304
  0
LINE
  5
2CC
330
1F
100
AcDbEntity
  8
IGES_LEVEL_0
 62
     7
100
AcDbLine
 10
18.58265008774851
 20
30.22014810727615
 30
0.0
 11
18.51413074130551
 21
30.22003922145614
 31
0.0
  0
ARC
  5
2CD
330
1F
100
AcDbEntity
  8
IGES_LEVEL_0
 62
     7
100
AcDbCircle
 10
18.5668324678497
 20
31.93224375142549
 30
0.0
 40
1.71216871009092
100
AcDbArc
 50
270.5293261982565
 51
278.913775273349
  0
ARC
  5
2CE
330
1F
100
AcDbEntity
  8
IGES_LEVEL_0
 62
     7
100
AcDbCircle
 10
19.01654955924934
 20
30.36333722738737
 30
0.0
 40
0.0674993320401092
100
AcDbArc
 50
291.9265026044621
 51
348.0184772580404
  0
ARC
  5
2CF
330
1F
100
AcDbEntity
  8
IGES_LEVEL_0
 62
     7
100
AcDbCircle
 10
19.01931724503374
 20
30.36305327488734
 30
0.0
 40
0.0645276312243751
100
AcDbArc
 50
304.4790732992361
 51
348.2136302681882
  0
ARC
  5
2D0
330
1F
100
AcDbEntity
  8
IGES_LEVEL_0
 62
     7
100
AcDbCircle
 10
18.95361309013607
 20
30.43442783106592
 30
0.0
 40
0.1611477461986441
100
AcDbArc
 50
289.0471761785906
 51
309.3761656384564
  0
LINE
  5
2D1
330
1F
100
AcDbEntity
  8
IGES_LEVEL_0
 62
     7
100
AcDbLine
 10
18.97214623071751
 20
30.27168005883615
 30
0.0
 11
19.00620310352651
 21
30.28210289352614
 31
0.0
  0
LINE
  5
2D2
330
1F
100
AcDbEntity
  8
IGES_LEVEL_0
 62
     7
100
AcDbLine
 10
18.93302889549451
 20
30.26145840249615
 30
0.0
 11
18.97214623071751
 21
30.27168005883615
 31
0.0
  0
LINE
  5
2D3
330
1F
100
AcDbEntity
  8
IGES_LEVEL_0
 62
     7
100
AcDbLine
 10
18.88895653872651
 20
30.25117763501615
 30
0.0
 11
18.93302889549451
 21
30.26145840249615
 31
0.0
  0
ARC
  5
2D4
330
1F
100
AcDbEntity
  8
IGES_LEVEL_0
 62
     7
100
AcDbCircle
 10
18.61427569514974
 20
66.11217293156024
 30
0.0
 40
0.4683027689458683
100
AcDbArc
 50
0.0309855823120585
 51
8.020452011866611
  0
ARC
  5
2D5
330
1F
100
AcDbEntity
  8
IGES_LEVEL_0
 62
     7
100
AcDbCircle
 10
18.60128815745813
 20
66.11016852558311
 30
0.0
 40
0.4814429656619487
100
AcDbArc
 50
8.041003926747914
 51
45.92944000678725
  0
ARC
  5
2D6
330
1F
100
AcDbEntity
  8
IGES_LEVEL_0
 62
     7
100
AcDbCircle
 10
18.58711375538648
 20
66.09736484470334
 30
0.0
 40
0.5005027520279703
100
AcDbArc
 50
45.78307503599062
 51
56.22733153653221
  0
ARC
  5
2D7
330
1F
100
AcDbEntity
  8
IGES_LEVEL_0
 62
     7
100
AcDbCircle
 10
1.011024487942087
 20
66.11217293162152
 30
0.0
 40
0.4683027678726546
100
AcDbArc
 50
171.979547977203
 51
179.969014425114
  0
ARC
  5
2D8
330
1F
100
AcDbEntity
  8
IGES_LEVEL_0
 62
     7
100
AcDbCircle
 10
1.024012026707866
 20
66.11016852558964
 30
0.0
 40
0.4814429656600185
100
AcDbArc
 50
134.0705599940939
 51
171.9589960740053
  0
ARC
  5
2D9
330
1F
100
AcDbEntity
  8
IGES_LEVEL_0
 62
     7
100
AcDbCircle
 10
18.41881659440298
 20
48.81580475248781
 30
0.0
 40
0.5001979451804278
100
AcDbArc
 50
356.5421741533549
 51
18.35685905499514
  0
ARC
  5
2DA
330
1F
100
AcDbEntity
  8
IGES_LEVEL_0
 62
     7
100
AcDbCircle
 10
1.206483589846348
 20
48.8158047524869
 30
0.0
 40
0.5001979452645374
100
AcDbArc
 50
161.643140948092
 51
183.4578258459586
  0
ARC
  5
2DB
330
1F
100
AcDbEntity
  8
IGES_LEVEL_0
 62
     7
100
AcDbCircle
 10
47.85721885185648
 20
66.28635189193454
 30
0.0
 40
29.69221366709555
100
AcDbArc
 50
172.3810496053793
 51
176.4942707763832
  0
SPLINE
  5
2DC
330
1F
100
AcDbEntity
  8
IGES_LEVEL_0
 62
     7
100
AcDbSpline
210
0.0
220
0.0
230
1.0
 70
     8
 71
     3
 72
    16
 73
    12
 74
     0
 42
0.0000000001
 43
0.0000000001
 40
0.0
 40
0.0
 40
0.0
 40
0.0
 40
0.0701891100207
 40
0.2947428047509
 40
0.4452835353314
 40
0.5432279146017
 40
0.6237707321842
 40
0.7035403214267
 40
0.7903128444787
 40
0.888281132988
 40
1.0
 40
1.0
 40
1.0
 40
1.0
 10
19.20135260445451
 20
71.18367915642764
 30
0.0
 10
19.16880248973451
 20
71.19058138194765
 30
0.0
 10
19.02931032759451
 20
71.20687839132765
 30
0.0
 10
18.81738035711451
 20
71.14367552998765
 30
0.0
 10
18.65714857247451
 20
70.98489073827766
 30
0.0
 10
18.58143990441451
 20
70.85039931280765
 30
0.0
 10
18.53807424505451
 20
70.73776635067765
 30
0.0
 10
18.50576736600451
 20
70.62703788632766
 30
0.0
 10
18.47763427177451
 20
70.50685029922765
 30
0.0
 10
18.4511963681345
 20
70.37107596760765
 30
0.0
 10
18.43516558389451
 20
70.27456783143765
 30
0.0
 10
18.42713568798451
 20
70.22307101069765
 30
0.0
  0
ARC
  5
2DD
330
1F
100
AcDbEntity
  8
IGES_LEVEL_0
 62
     7
100
AcDbCircle
 10
19.08889887529087
 20
70.65366323500716
 30
0.0
 40
0.5418142838298137
100
AcDbArc
 50
60.34740443798966
 51
78.02116662771407
  0
ARC
  5
2DE
330
1F
100
AcDbEntity
  8
IGES_LEVEL_0
 62
     7
100
AcDbCircle
 10
19.10884677455471
 20
70.6907068616821
 30
0.0
 40
0.4997427073793073
100
AcDbArc
 50
359.992423291071
 51
60.23381621581906
  0
ARC
  5
2DF
330
1F
100
AcDbEntity
  8
IGES_LEVEL_0
 62
     7
100
AcDbCircle
 10
20.12041692482909
 20
70.19824838869894
 30
0.0
 40
0.6699484712325379
100
AcDbArc
 50
161.0097399756836
 51
169.392939325407
  0
ARC
  5
2E0
330
1F
100
AcDbEntity
  8
IGES_LEVEL_0
 62
     7
100
AcDbCircle
 10
40.47233005351983
 20
66.94383359475137
 30
0.0
 40
21.28019222982981
100
AcDbArc
 50
170.8670051639134
 51
176.7737715345346
  0
LINE
  5
2E1
330
1F
100
AcDbEntity
  8
IGES_LEVEL_0
 62
     7
100
AcDbLine
 10
19.21812713374451
 20
68.03214707824765
 30
0.0
 11
19.22586467297451
 21
68.14145213660765
 31
0.0
  0
LINE
  5
2E2
330
1F
100
AcDbEntity
  8
IGES_LEVEL_0
 62
     7
100
AcDbLine
 10
0.3994526194225071
 20
68.14121312472766
 30
0.0
 11
0.4071730501415071
 21
68.03214708110765
 31
0.0
  0
ARC
  5
2E3
330
1F
100
AcDbEntity
  8
IGES_LEVEL_0
 62
     7
100
AcDbCircle
 10
-20.17983942240933
 20
67.00193646609763
 30
0.0
 40
20.61080328972896
100
AcDbArc
 50
3.168679538021001
 51
9.343018261536086
  0
ARC
  5
2E4
330
1F
100
AcDbEntity
  8
IGES_LEVEL_0
 62
     7
100
AcDbCircle
 10
-0.316766995294657
 20
70.25270913628924
 30
0.0
 40
0.4837859002365026
100
AcDbArc
 50
11.35874699396802
 51
20.57924261176771
  0
ARC
  5
2E5
330
1F
100
AcDbEntity
  8
IGES_LEVEL_0
 62
     7
100
AcDbCircle
 10
0.5167996893814117
 20
70.69064762212507
 30
0.0
 40
0.5000889828247598
100
AcDbArc
 50
180.0007843172665
 51
224.9921630333935
  0
ARC
  5
2E6
330
1F
100
AcDbEntity
  8
IGES_LEVEL_0
 62
     7
100
AcDbCircle
 10
0.5335512923070027
 20
70.65881068103388
 30
0.0
 40
0.5359266202089988
100
AcDbArc
 50
111.3472261962894
 51
119.5863672392457
  0
SPLINE
  5
2E7
330
1F
100
AcDbEntity
  8
IGES_LEVEL_0
 62
     7
100
AcDbSpline
210
0.0
220
0.0
230
1.0
 70
     8
 71
     3
 72
    16
 73
    12
 74
     0
 42
0.0000000001
 43
0.0000000001
 40
0.0
 40
0.0
 40
0.0
 40
0.0
 40
0.03874681665527
 40
0.1446759733796
 40
0.2371748350652
 40
0.3201451057162
 40
0.4007562478912
 40
0.494439417973
 40
0.6365954396017
 40
0.8594430110224
 40
1.0
 40
1.0
 40
1.0
 40
1.0
 10
1.194449177510507
 20
70.24666330732765
 30
0.0
 10
1.191478424327507
 20
70.26531908752764
 30
0.0
 10
1.180114680624507
 20
70.33493438551766
 30
0.0
 10
1.159630446875507
 20
70.44875340247765
 30
0.0
 10
1.130655883589507
 20
70.58288887883765
 30
0.0
 10
1.098259513447507
 20
70.70353429364765
 30
0.0
 10
1.056491216795507
 20
70.82199923760766
 30
0.0
 10
0.985923812756507
 20
70.96000901919766
 30
0.0
 10
0.8328796766055072
 20
71.12920555272766
 30
0.0
 10
0.584427977986507
 20
71.21728355486765
 30
0.0
 10
0.4031329972295071
 20
71.18327221460766
 30
0.0
 10
0.3384637899735069
 20
71.15796817990766
 30
0.0
  0
ARC
  5
2E8
330
1F
100
AcDbEntity
  8
IGES_LEVEL_0
 62
     7
100
AcDbCircle
 10
-27.7183367322688
 20
66.32916311983706
 30
0.0
 40
29.17697717008604
100
AcDbArc
 50
3.483486755522538
 51
7.716226276674573
  0
ARC
  5
2E9
330
1F
100
AcDbEntity
  8
IGES_LEVEL_0
 62
     7
100
AcDbCircle
 10
19.10850049479781
 20
70.69064762212342
 30
0.0
 40
0.500088982813553
100
AcDbArc
 50
315.0078369655897
 51
359.9992156829223
  0
ARC
  5
2EA
330
1F
100
AcDbEntity
  8
IGES_LEVEL_0
 62
     7
100
AcDbCircle
 10
0.5164360079480183
 20
70.69071227532021
 30
0.0
 40
0.4997253064594074
100
AcDbArc
 50
120.4487781501976
 51
180.0081976709975
  0
LINE
  5
2EB
330
1F
100
AcDbEntity
  8
IGES_LEVEL_0
 62
     7
100
AcDbLine
 10
9.812650092082508
 20
66.21935125856766
 30
0.0
 11
9.562650092082508
 21
65.97190254465765
 31
0.0
  0
LINE
  5
2EC
330
1F
100
AcDbEntity
  8
IGES_LEVEL_0
 62
     7
100
AcDbLine
 10
10.06265009208251
 20
65.97190254465765
 30
0.0
 11
9.812650092082508
 21
66.21935125856766
 31
0.0
  0
ARC
  5
2ED
330
1F
100
AcDbEntity
  8
IGES_LEVEL_0
 62
     7
100
AcDbCircle
 10
18.58807323406372
 20
66.09896135359374
 30
0.0
 40
0.4986839562370972
100
AcDbArc
 50
41.95553232159972
 51
56.6395213359117
  0
LINE
  5
2EE
330
1F
100
AcDbEntity
  8
IGES_LEVEL_0
 62
     7
100
AcDbLine
 10
18.98253572682451
 20
66.40397103624765
 30
0.0
 11
18.95892649921451
 21
66.43235833008765
 31
0.0
  0
ARC
  5
2EF
330
1F
100
AcDbEntity
  8
IGES_LEVEL_0
 62
     7
100
AcDbCircle
 10
18.60165651986733
 20
66.10975146855685
 30
0.0
 40
0.4812838292572163
100
AcDbArc
 50
14.99887735260788
 51
37.6851799440908
  0
ARC
  5
2F0
330
1F
100
AcDbEntity
  8
IGES_LEVEL_0
 62
     7
100
AcDbCircle
 10
18.60623434793307
 20
66.11153638748851
 30
0.0
 40
0.4764003317809601
100
AcDbArc
 50
8.069581377192247
 51
14.93400880799099
  0
ARC
  5
2F1
330
1F
100
AcDbEntity
  8
IGES_LEVEL_0
 62
     7
100
AcDbCircle
 10
18.61241186846815
 20
66.11236232283792
 30
0.0
 40
0.4701680404803353
100
AcDbArc
 50
1.224006277896812
 51
8.075603322948737
  0
LINE
  5
2F2
330
1F
100
AcDbEntity
  8
IGES_LEVEL_0
 62
     7
100
AcDbLine
 10
19.08143572592451
 20
66.07987953455765
 30
0.0
 11
19.08247262651451
 21
66.12240573032764
 31
0.0
  0
ARC
  5
2F3
330
1F
100
AcDbEntity
  8
IGES_LEVEL_0
 62
     7
100
AcDbCircle
 10
17.29266580344202
 20
66.15840101742461
 30
0.0
 40
1.790023598874053
100
AcDbArc
 50
343.5069446131967
 51
356.6918080849555
  0
ARC
  5
2F4
330
1F
100
AcDbEntity
  8
IGES_LEVEL_0
 62
     7
100
AcDbCircle
 10
1.037117132796695
 20
66.09907909418567
 30
0.0
 40
0.4985235733686913
100
AcDbArc
 50
123.7173616226164
 51
138.0460928788874
  0
LINE
  5
2F5
330
1F
100
AcDbEntity
  8
IGES_LEVEL_0
 62
     7
100
AcDbLine
 10
0.642764457342507
 20
66.40397103624765
 30
0.0
 11
0.666373684950507
 21
66.43235833008765
 31
0.0
  0
ARC
  5
2F6
330
1F
100
AcDbEntity
  8
IGES_LEVEL_0
 62
     7
100
AcDbCircle
 10
1.023643664237772
 20
66.10975146857929
 30
0.0
 40
0.4812838291945032
100
AcDbArc
 50
142.3148200535175
 51
165.0011226481573
  0
ARC
  5
2F7
330
1F
100
AcDbEntity
  8
IGES_LEVEL_0
 62
     7
100
AcDbCircle
 10
1.019065835626611
 20
66.1115363876368
 30
0.0
 40
0.4764003311588251
100
AcDbArc
 50
165.0659911905106
 51
171.9304186302124
  0
ARC
  5
2F8
330
1F
100
AcDbEntity
  8
IGES_LEVEL_0
 62
     7
100
AcDbCircle
 10
1.01288831444814
 20
66.1123623228893
 30
0.0
 40
0.4701680392348004
100
AcDbArc
 50
171.9243966618382
 51
178.7759937251219
  0
LINE
  5
2F9
330
1F
100
AcDbEntity
  8
IGES_LEVEL_0
 62
     7
100
AcDbLine
 10
0.5438644582375071
 20
66.07987953455765
 30
0.0
 11
0.542827557646507
 21
66.12240573032764
 31
0.0
  0
ARC
  5
2FA
330
1F
100
AcDbEntity
  8
IGES_LEVEL_0
 62
     7
100
AcDbCircle
 10
2.33266290585199
 20
66.15840534118117
 30
0.0
 40
1.790052345489794
100
AcDbArc
 50
183.3082592637453
 51
196.4928718642965
  0
LINE
  5
2FB
330
1F
100
AcDbEntity
  8
IGES_LEVEL_0
 62
     7
100
AcDbLine
 10
1.234783224410507
 20
48.31702934040764
 30
0.0
 11
1.206194661602507
 21
48.31623723556766
 31
0.0
  0
LINE
  5
2FC
330
1F
100
AcDbEntity
  8
IGES_LEVEL_0
 62
     7
100
AcDbLine
 10
0.723447086472507
 20
48.94575204916765
 30
0.0
 11
0.7318075685775071
 21
48.97352851814765
 31
0.0
  0
ARC
  5
2FD
330
1F
100
AcDbEntity
  8
IGES_LEVEL_0
 62
     7
100
AcDbCircle
 10
1.20474052965591
 20
48.81602691822726
 30
0.0
 40
0.4984688364739631
100
AcDbArc
 50
169.0774156037269
 51
177.2723930644317
  0
LINE
  5
2FE
330
1F
100
AcDbEntity
  8
IGES_LEVEL_0
 62
     7
100
AcDbLine
 10
0.707093063396507
 20
48.78738653826765
 30
0.0
 11
0.7068364276585072
 21
48.83974792473765
 31
0.0
  0
ARC
  5
2FF
330
1F
100
AcDbEntity
  8
IGES_LEVEL_0
 62
     7
100
AcDbCircle
 10
1.204969429125083
 20
48.81599251384841
 30
0.0
 40
0.4986973387994165
100
AcDbArc
 50
183.7832805052169
 51
190.9198318964906
  0
ARC
  5
300
330
1F
100
AcDbEntity
  8
IGES_LEVEL_0
 62
     7
100
AcDbCircle
 10
1.206390674812151
 20
48.8164733059149
 30
0.0
 40
0.5001839704101557
100
AcDbArc
 50
190.943068512367
 51
255.6699200175964
  0
ARC
  5
301
330
1F
100
AcDbEntity
  8
IGES_LEVEL_0
 62
     7
100
AcDbCircle
 10
1.206663191316789
 20
48.81696026753571
 30
0.0
 40
0.5007232511711137
100
AcDbArc
 50
255.6534986616069
 51
269.9463879916514
  0
ARC
  5
302
330
1F
100
AcDbEntity
  8
IGES_LEVEL_0
 62
     7
100
AcDbCircle
 10
1.203250750790182
 20
48.81072175568437
 30
0.0
 40
0.4987332752427955
100
AcDbArc
 50
161.579294417043
 51
177.0814159345788
  0
ARC
  5
303
330
1F
100
AcDbEntity
  8
IGES_LEVEL_0
 62
     7
100
AcDbCircle
 10
1.203495825553508
 20
48.81071313666451
 30
0.0
 40
0.4989784709869111
100
AcDbArc
 50
177.0818603808166
 51
189.9961703864634
  0
ARC
  5
304
330
1F
100
AcDbEntity
  8
IGES_LEVEL_0
 62
     7
100
AcDbCircle
 10
1.204731050112748
 20
48.81118539660723
 30
0.0
 40
0.5002769828402165
100
AcDbArc
 50
190.0248800144834
 51
269.9607057028585
  0
ARC
  5
305
330
1F
100
AcDbEntity
  8
IGES_LEVEL_0
 62
     7
100
AcDbCircle
 10
18.41863699284167
 20
48.81696026758748
 30
0.0
 40
0.5007232512228999
100
AcDbArc
 50
270.0536120093212
 51
284.3465013376513
  0
ARC
  5
306
330
1F
100
AcDbEntity
  8
IGES_LEVEL_0
 62
     7
100
AcDbCircle
 10
18.41890950935376
 20
48.81647330590901
 30
0.0
 40
0.5001839704042368
100
AcDbArc
 50
284.3300799824712
 51
349.0569314881876
  0
ARC
  5
307
330
1F
100
AcDbEntity
  8
IGES_LEVEL_0
 62
     7
100
AcDbCircle
 10
18.42033075770771
 20
48.81599251349561
 30
0.0
 40
0.49869733610918
100
AcDbArc
 50
349.08016808516
 51
356.2167195149671
  0
LINE
  5
308
330
1F
100
AcDbEntity
  8
IGES_LEVEL_0
 62
     7
100
AcDbLine
 10
18.9184637565045
 20
48.83974792473765
 30
0.0
 11
18.91820712076451
 21
48.78738653826765
 31
0.0
  0
ARC
  5
309
330
1F
100
AcDbEntity
  8
IGES_LEVEL_0
 62
     7
100
AcDbCircle
 10
18.4205596540249
 20
48.81602691819031
 30
0.0
 40
0.4984688369573815
100
AcDbArc
 50
2.727606937172832
 51
10.92258438987543
  0
LINE
  5
30A
330
1F
100
AcDbEntity
  8
IGES_LEVEL_0
 62
     7
100
AcDbLine
 10
18.89349261558451
 20
48.97352851814765
 30
0.0
 11
18.90185309769451
 21
48.94575204916765
 31
0.0
  0
LINE
  5
30B
330
1F
100
AcDbEntity
  8
IGES_LEVEL_0
 62
     7
100
AcDbLine
 10
18.4191055225645
 20
48.31623723556766
 30
0.0
 11
18.39051695975451
 21
48.31702934040764
 31
0.0
  0
ARC
  5
30C
330
1F
100
AcDbEntity
  8
IGES_LEVEL_0
 62
     7
100
AcDbCircle
 10
18.42056913420176
 20
48.81118539592757
 30
0.0
 40
0.5002769821604368
100
AcDbArc
 50
270.0392942776682
 51
349.975208078818
  0
ARC
  5
30D
330
1F
100
AcDbEntity
  8
IGES_LEVEL_0
 62
     7
100
AcDbCircle
 10
18.42180436442492
 20
48.81071313630206
 30
0.0
 40
0.4989784651696817
100
AcDbArc
 50
350.003917787353
 51
2.918350406610739
  0
ARC
  5
30E
330
1F
100
AcDbEntity
  8
IGES_LEVEL_0
 62
     7
100
AcDbCircle
 10
18.4220494357149
 20
48.81072175617327
 30
0.0
 40
0.4987332728652922
100
AcDbArc
 50
2.918794838487412
 51
18.42070561472733
  0
ARC
  5
30F
330
1F
100
AcDbEntity
  8
IGES_LEVEL_0
 62
     7
100
AcDbCircle
 10
0.5165393044213502
 20
70.69080753175575
 30
0.0
 40
0.499807575674616
100
AcDbArc
 50
120.2396868781377
 51
134.866329546755
  0
ARC
  5
310
330
1F
100
AcDbEntity
  8
IGES_LEVEL_0
 62
     7
100
AcDbCircle
 10
0.5165593978988846
 20
70.6907854931017
 30
0.0
 40
0.4998373656643131
100
AcDbArc
 50
135.1442745149222
 51
157.3599342800181
  0
ARC
  5
311
330
1F
100
AcDbEntity
  8
IGES_LEVEL_0
 62
     7
100
AcDbCircle
 10
0.516662740199372
 20
70.69073517564502
 30
0.0
 40
0.4999520425079284
100
AcDbArc
 50
157.6200961424677
 51
180.0108183889068
  0
LINE
  5
312
330
1F
100
AcDbEntity
  8
IGES_LEVEL_0
 62
     7
100
AcDbLine
 10
0.2705727949915068
 20
71.12590287392764
 30
0.0
 11
0.308877939436507
 21
71.14543324283766
 31
0.0
  0
LINE
  5
313
330
1F
100
AcDbEntity
  8
IGES_LEVEL_0
 62
     7
100
AcDbLine
 10
0.0171368379185067
 20
70.64304893493765
 30
0.0
 11
0.0149548960195068
 21
70.68961112993765
 31
0.0
  0
ARC
  5
314
330
1F
100
AcDbEntity
  8
IGES_LEVEL_0
 62
     7
100
AcDbCircle
 10
0.5150291730863937
 20
70.68970381981094
 30
0.0
 40
0.5000734503065176
100
AcDbArc
 50
185.3532559079842
 51
220.0816397016876
  0
LINE
  5
315
330
1F
100
AcDbEntity
  8
IGES_LEVEL_0
 62
     7
100
AcDbLine
 10
0.1598612216955074
 20
70.33766858226765
 30
0.0
 11
0.1324090894425075
 21
70.36771728702765
 31
0.0
  0
ARC
  5
316
330
1F
100
AcDbEntity
  8
IGES_LEVEL_0
 62
     7
100
AcDbCircle
 10
0.5148418554646298
 20
70.68972998357154
 30
0.0
 40
0.4998841092123095
100
AcDbArc
 50
120.2386251558042
 51
172.5411438853987
  0
LINE
  5
317
330
1F
100
AcDbEntity
  8
IGES_LEVEL_0
 62
     7
100
AcDbLine
 10
0.0168357592535074
 20
70.73302003841765
 30
0.0
 11
0.019187597567507
 21
70.75462204218765
 31
0.0
  0
LINE
  5
318
330
1F
100
AcDbEntity
  8
IGES_LEVEL_0
 62
     7
100
AcDbLine
 10
0.0149548960195068
 20
70.68961112993765
 30
0.0
 11
0.0168357592535074
 21
70.73302003841765
 31
0.0
  0
ARC
  5
319
330
1F
100
AcDbEntity
  8
IGES_LEVEL_0
 62
     7
100
AcDbCircle
 10
19.10863744392195
 20
70.69073517562609
 30
0.0
 40
0.4999520425546142
100
AcDbArc
 50
359.9891816132635
 51
22.37990385767528
  0
ARC
  5
31A
330
1F
100
AcDbEntity
  8
IGES_LEVEL_0
 62
     7
100
AcDbCircle
 10
19.10874078613945
 20
70.69078549300842
 30
0.0
 40
0.4998373658199055
100
AcDbArc
 50
22.64006572412851
 51
44.85572548241571
  0
ARC
  5
31B
330
1F
100
AcDbEntity
  8
IGES_LEVEL_0
 62
     7
100
AcDbCircle
 10
19.10876087979512
 20
70.69080753181297
 30
0.0
 40
0.4998075755977611
100
AcDbArc
 50
45.13367045279949
 51
59.76031312395285
  0
ARC
  5
31C
330
1F
100
AcDbEntity
  8
IGES_LEVEL_0
 62
     7
100
AcDbCircle
 10
19.10849068791047
 20
70.69074019589012
 30
0.0
 40
0.5000987995363088
100
AcDbArc
 50
319.0882138196779
 51
359.9886096217438
  0
LINE
  5
31D
330
1F
100
AcDbEntity
  8
IGES_LEVEL_0
 62
     7
100
AcDbLine
 10
19.4902182248445
 20
70.36456760714765
 30
0.0
 11
19.46544002402451
 21
70.33766965331765
 31
0.0
  0
ARC
  5
31E
330
1F
100
AcDbEntity
  8
IGES_LEVEL_0
 62
     7
100
AcDbCircle
 10
19.11027101086122
 20
70.68970381985707
 30
0.0
 40
0.5000734505080821
100
AcDbArc
 50
319.918178664359
 51
354.6467198801967
  0
LINE
  5
31F
330
1F
100
AcDbEntity
  8
IGES_LEVEL_0
 62
     7
100
AcDbLine
 10
19.6103452881445
 20
70.68961112993765
 30
0.0
 11
19.60816332651451
 21
70.64304872456765
 31
0.0
  0
ARC
  5
320
330
1F
100
AcDbEntity
  8
IGES_LEVEL_0
 62
     7
100
AcDbCircle
 10
19.1099250287472
 20
70.68967282232043
 30
0.0
 40
0.5004203170603753
100
AcDbArc
 50
0.1151080724894345
 51
7.457413481634354
  0
ARC
  5
321
330
1F
100
AcDbEntity
  8
IGES_LEVEL_0
 62
     7
100
AcDbCircle
 10
19.11045832867847
 20
70.68972998355724
 30
0.0
 40
0.4998841092346916
100
AcDbArc
 50
7.45885066092885
 51
59.76137484304928
  0
ARC
  5
322
330
1F
100
AcDbEntity
  8
IGES_LEVEL_0
 62
     7
100
AcDbCircle
 10
19.10882127374801
 20
70.69092916135776
 30
0.0
 40
0.4996718400298197
100
AcDbArc
 50
60.52094682380846
 51
67.59822259081284
  0
ARC
  5
323
330
1F
100
AcDbEntity
  8
IGES_LEVEL_0
 62
     7
100
AcDbCircle
 10
9.812649880634508
 20
78.21935130779765
 30
0.0
 40
12.24999960771528
100
AcDbArc
 50
225.940845666891
 51
234.6616835881245
  0
ARC
  5
324
330
1F
100
AcDbEntity
  8
IGES_LEVEL_0
 62
     7
100
AcDbCircle
 10
9.812649880634508
 20
78.21935130779765
 30
0.0
 40
12.24999985298377
100
AcDbArc
 50
305.3383735034155
 51
314.0592370583781
  0
ARC
  5
325
330
1F
100
AcDbEntity
  8
IGES_LEVEL_0
 62
     7
100
AcDbCircle
 10
9.812649880634508
 20
78.21935130779765
 30
0.0
 40
11.75000002591223
100
AcDbArc
 50
303.5549588199054
 51
317.1758476457725
  0
ARC
  5
326
330
1F
100
AcDbEntity
  8
IGES_LEVEL_0
 62
     7
100
AcDbCircle
 10
9.812649880634508
 20
78.21935130779765
 30
0.0
 40
11.75000018010306
100
AcDbArc
 50
222.8241005403085
 51
236.4451601867536
  0
LINE
  5
327
330
1F
100
AcDbEntity
  8
IGES_LEVEL_0
 62
     7
100
AcDbLine
 10
19.08372488063451
 20
66.11234630779765
 30
0.0
 11
19.2181268806345
 21
68.03214530779765
 31
0.0
  0
LINE
  5
328
330
1F
100
AcDbEntity
  8
IGES_LEVEL_0
 62
     7
100
AcDbLine
 10
19.07973588063451
 20
66.05536730779765
 30
0.0
 11
19.08142888063451
 21
66.07955630779765
 31
0.0
  0
LINE
  5
329
330
1F
100
AcDbEntity
  8
IGES_LEVEL_0
 62
     7
100
AcDbLine
 10
18.20452588063451
 20
67.87282230779765
 30
0.0
 11
18.22056888063451
 21
68.10198330779765
 31
0.0
  0
LINE
  5
32A
330
1F
100
AcDbEntity
  8
IGES_LEVEL_0
 62
     7
100
AcDbLine
 10
18.45112388063451
 20
50.30171430779765
 30
0.0
 11
18.8934858806345
 21
48.97355030779765
 31
0.0
  0
LINE
  5
32B
330
1F
100
AcDbEntity
  8
IGES_LEVEL_0
 62
     7
100
AcDbLine
 10
10.06264988063451
 20
65.97190230779765
 30
0.0
 11
10.06264988063451
 21
65.31202330779765
 31
0.0
  0
LINE
  5
32C
330
1F
100
AcDbEntity
  8
IGES_LEVEL_0
 62
     7
100
AcDbLine
 10
9.562649880634508
 20
65.97190230779765
 30
0.0
 11
9.562649880634508
 21
65.31085430779766
 31
0.0
  0
LINE
  5
32D
330
1F
100
AcDbEntity
  8
IGES_LEVEL_0
 62
     7
100
AcDbLine
 10
0.731814880634507
 20
48.97355030779765
 30
0.0
 11
1.115991880634507
 21
50.12702030779765
 31
0.0
  0
LINE
  5
32E
330
1F
100
AcDbEntity
  8
IGES_LEVEL_0
 62
     7
100
AcDbLine
 10
0.5438708806345071
 20
66.07955630779765
 30
0.0
 11
0.545563880634507
 21
66.05536730779765
 31
0.0
  0
LINE
  5
32F
330
1F
100
AcDbEntity
  8
IGES_LEVEL_0
 62
     7
100
AcDbLine
 10
0.4071728806345071
 20
68.03214530779765
 30
0.0
 11
0.5415748806345072
 21
66.11234630779765
 31
0.0
  0
ARC
  5
330
330
1F
100
AcDbEntity
  8
DEFAULT
 62
     7
100
AcDbCircle
 10
51.88064344865948
 20
28.89310279926577
 30
0.0
 40
14.02920874803318
100
AcDbArc
 50
166.4402498698426
 51
168.7017882648293
  0
LINE
  5
331
330
1F
100
AcDbEntity
  8
IGES_LEVEL_0
 62
     7
100
AcDbLine
 10
54.57439770138566
 20
0.2131963975961436
 30
0.0
 11
54.62763703393566
 21
0.2159774086261442
 31
0.0
  0
LINE
  5
332
330
1F
100
AcDbEntity
  8
IGES_LEVEL_0
 62
     7
100
AcDbLine
 10
54.53435173204566
 20
0.2110391322361443
 30
0.0
 11
54.57439770138566
 21
0.2131963975961436
 31
0.0
  0
ARC
  5
333
330
1F
100
AcDbEntity
  8
IGES_LEVEL_0
 62
     7
100
AcDbCircle
 10
54.95870854788375
 20
-8.83994508430113
 30
0.0
 40
9.060926773523509
100
AcDbArc
 50
92.68435583552034
 51
95.44285139310148
  0
ARC
  5
334
330
1F
100
AcDbEntity
  8
IGES_LEVEL_0
 62
     7
100
AcDbCircle
 10
53.30826491000575
 20
24.67991944278727
 30
0.0
 40
0.5104671178169498
100
AcDbArc
 50
180.100536907582
 51
197.7017145527294
  0
ARC
  5
335
330
1F
100
AcDbEntity
  8
IGES_LEVEL_0
 62
     7
100
AcDbCircle
 10
36.23382394255692
 20
25.02075605029616
 30
0.0
 40
0.2462666501853347
100
AcDbArc
 50
331.0890000516291
 51
344.8102712404784
  0
SPLINE
  5
336
330
1F
100
AcDbEntity
  8
IGES_LEVEL_0
 62
     7
100
AcDbSpline
210
0.0
220
0.0
230
1.0
 70
     8
 71
     3
 72
    26
 73
    22
 74
     0
 42
0.0000000001
 43
0.0000000001
 40
0.0
 40
0.0
 40
0.0
 40
0.0
 40
0.02048474623042
 40
0.0815839406645
 40
0.1419021328672
 40
0.2004478162518
 40
0.2559895249744
 40
0.3079660409139
 40
0.3567761207023
 40
0.4037563623118
 40
0.4511289511624
 40
0.5000271251779
 40
0.5502673746659
 40
0.601994804534
 40
0.6570722576546
 40
0.7159328485288
 40
0.7779588466942
 40
0.8426271396586
 40
0.9094712750224
 40
0.9773440778016
 40
1.0
 40
1.0
 40
1.0
 40
1.0
 10
36.26959508289566
 20
24.24883515472614
 30
0.0
 10
36.26883843212566
 20
24.25388232397615
 30
0.0
 10
36.26552202426566
 20
24.27393802655615
 30
0.0
 10
36.25798102627566
 20
24.30849361215615
 30
0.0
 10
36.24602661453566
 20
24.35171037715615
 30
0.0
 10
36.23277926940566
 20
24.39308736149615
 30
0.0
 10
36.21908646708566
 20
24.43212558582615
 30
0.0
 10
36.20566326736566
 20
24.46865614280614
 30
0.0
 10
36.19314117515566
 20
24.50333147927615
 30
0.0
 10
36.18243114741566
 20
24.53713472098615
 30
0.0
 10
36.17764028833566
 20
24.57378839005615
 30
0.0
 10
36.19498854655566
 20
24.60772667136614
 30
0.0
 10
36.22031057804566
 20
24.63533751582615
 30
0.0
 10
36.24792232277566
 20
24.66310010549615
 30
0.0
 10
36.27741577861566
 20
24.69194132403615
 30
0.0
 10
36.30839630144566
 20
24.72294950801615
 30
0.0
 10
36.34032093215566
 20
24.75637510965614
 30
0.0
 10
36.37242384800566
 20
24.79234922622615
 30
0.0
 10
36.40374621989566
 20
24.83092772447614
 30
0.0
 10
36.42642899378566
 20
24.86291378175615
 30
0.0
 10
36.43828337404566
 20
24.88215002065615
 30
0.0
 10
36.44115320590566
 20
24.88701916330615
 30
0.0
  0
ARC
  5
337
330
1F
100
AcDbEntity
  8
IGES_LEVEL_0
 62
     7
100
AcDbCircle
 10
35.98780823219353
 20
24.19776281750389
 30
0.0
 40
0.286377745046583
100
AcDbArc
 50
349.3871228381333
 51
10.2730295458509
  0
LINE
  5
338
330
1F
100
AcDbEntity
  8
IGES_LEVEL_0
 62
     7
100
AcDbLine
 10
32.65561869599566
 20
0.2137056662761437
 30
0.0
 11
32.72263216205566
 21
0.2144248232161444
 31
0.0
  0
LINE
  5
339
330
1F
100
AcDbEntity
  8
IGES_LEVEL_0
 62
     7
100
AcDbLine
 10
32.53012668578566
 20
0.2117906185261439
 30
0.0
 11
32.65561869599566
 21
0.2137056662761437
 31
0.0
  0
LINE
  5
33A
330
1F
100
AcDbEntity
  8
IGES_LEVEL_0
 62
     7
100
AcDbLine
 10
32.36832627739566
 20
0.208257620096144
 30
0.0
 11
32.53012668578566
 21
0.2117906185261439
 31
0.0
  0
ARC
  5
33B
330
1F
100
AcDbEntity
  8
IGES_LEVEL_0
 62
     7
100
AcDbCircle
 10
32.39113488487912
 20
-1.895756753923399
 30
0.0
 40
2.104137998957337
100
AcDbArc
 50
90.62109164905493
 51
93.55491273748064
  0
ARC
  5
33C
330
1F
100
AcDbEntity
  8
IGES_LEVEL_0
 62
     7
100
AcDbCircle
 10
32.2641832819051
 20
-0.0266508967534397
 30
0.0
 40
0.2310101785496384
100
AcDbArc
 50
90.87201988489051
 51
100.3331100392008
  0
LINE
  5
33D
330
1F
100
AcDbEntity
  8
IGES_LEVEL_0
 62
     7
100
AcDbLine
 10
33.18310371793566
 20
0.2137993761661444
 30
0.0
 11
33.20526177828566
 21
0.212757972796145
 31
0.0
  0
ARC
  5
33E
330
1F
100
AcDbEntity
  8
IGES_LEVEL_0
 62
     7
100
AcDbCircle
 10
33.09561297792365
 20
-1.945251888090656
 30
0.0
 40
2.160823220737119
100
AcDbArc
 50
87.67948585859364
 51
90.57579877216169
  0
LINE
  5
33F
330
1F
100
AcDbEntity
  8
IGES_LEVEL_0
 62
     7
100
AcDbLine
 10
32.91223979400566
 20
0.2157061392161445
 30
0.0
 11
33.07389796810566
 21
0.2154622183161453
 31
0.0
  0
LINE
  5
340
330
1F
100
AcDbEntity
  8
IGES_LEVEL_0
 62
     7
100
AcDbLine
 10
32.85311015187566
 20
0.2155222333261452
 30
0.0
 11
32.91223979400566
 21
0.2157061392161445
 31
0.0
  0
LINE
  5
341
330
1F
100
AcDbEntity
  8
IGES_LEVEL_0
 62
     7
100
AcDbLine
 10
32.78561317997566
 20
0.2150339581261448
 30
0.0
 11
32.85311015187566
 21
0.2155222333261452
 31
0.0
  0
LINE
  5
342
330
1F
100
AcDbEntity
  8
IGES_LEVEL_0
 62
     7
100
AcDbLine
 10
32.72263216205566
 20
0.2144248232161444
 30
0.0
 11
32.78561317997566
 21
0.2150339581261448
 31
0.0
  0
LINE
  5
343
330
1F
100
AcDbEntity
  8
IGES_LEVEL_0
 62
     7
100
AcDbLine
 10
54.66018641168566
 20
0.2176155837761452
 30
0.0
 11
55.08131453085566
 21
0.2331825401161441
 31
0.0
  0
LINE
  5
344
330
1F
100
AcDbEntity
  8
IGES_LEVEL_0
 62
     7
100
AcDbLine
 10
54.62763703393566
 20
0.2159774086261442
 30
0.0
 11
54.66018641168566
 21
0.2176155837761452
 31
0.0
  0
LINE
  5
345
330
1F
100
AcDbEntity
  8
IGES_LEVEL_0
 62
     7
100
AcDbLine
 10
40.58503952354566
 20
23.30856748434615
 30
0.0
 11
40.61010310351566
 21
23.30418720586615
 31
0.0
  0
ARC
  5
346
330
1F
100
AcDbEntity
  8
IGES_LEVEL_0
 62
     7
100
AcDbCircle
 10
53.29706088839055
 20
25.14597405973219
 30
0.0
 40
0.4479377927180823
100
AcDbArc
 50
89.92645448606504
 51
130.4343619672867
  0
ARC
  5
347
330
1F
100
AcDbEntity
  8
IGES_LEVEL_0
 62
     7
100
AcDbCircle
 10
53.41325392970506
 20
25.02490782322817
 30
0.0
 40
0.6155273058829156
100
AcDbArc
 50
131.3577544819235
 51
180.894038735508
  0
LINE
  5
348
330
1F
100
AcDbEntity
  8
IGES_LEVEL_0
 62
     7
100
AcDbLine
 10
36.81365051509566
 20
30.46207000287615
 30
0.0
 11
37.30084674861566
 21
30.34932461997614
 31
0.0
  0
ARC
  5
349
330
1F
100
AcDbEntity
  8
IGES_LEVEL_0
 62
     7
100
AcDbCircle
 10
121.1925013889831
 20
1.105814615197623
 30
0.0
 40
88.97435932952192
100
AcDbArc
 50
165.9999998779476
 51
180.582922395838
  0
ARC
  5
34A
330
1F
100
AcDbEntity
  8
IGES_LEVEL_0
 62
     7
100
AcDbCircle
 10
121.1926827659791
 20
1.105788416190304
 30
0.0
 40
87.97454165682898
100
AcDbArc
 50
166.0000118980776
 51
175.853728755557
  0
LINE
  5
34B
330
1F
100
AcDbEntity
  8
IGES_LEVEL_0
 62
     7
100
AcDbLine
 10
33.41363351129566
 20
6.967409010686144
 30
0.0
 11
33.44839534885566
 21
7.466606397423145
 31
0.0
  0
ARC
  5
34C
330
1F
100
AcDbEntity
  8
IGES_LEVEL_0
 62
     7
100
AcDbCircle
 10
121.2030276306171
 20
1.105519763626879
 30
0.0
 40
87.98488202743894
100
AcDbArc
 50
176.1799064755239
 51
180.5826606617217
  0
LINE
  5
34D
330
1F
100
AcDbEntity
  8
IGES_LEVEL_0
 62
     7
100
AcDbLine
 10
37.30084674861566
 20
30.34932461997614
 30
0.0
 11
37.77986703616566
 21
30.22220068084615
 31
0.0
  0
ARC
  5
34E
330
1F
100
AcDbEntity
  8
IGES_LEVEL_0
 62
     7
100
AcDbCircle
 10
53.24614145961974
 20
25.04558294247318
 30
0.0
 40
0.5507411939744987
100
AcDbArc
 50
359.4899096918855
 51
84.63499717520074
  0
ARC
  5
34F
330
1F
100
AcDbEntity
  8
IGES_LEVEL_0
 62
     7
100
AcDbCircle
 10
37.19350077970032
 20
7.22287718165315
 30
0.0
 40
0.2478786942754482
100
AcDbArc
 50
270.0972887917607
 51
0.4904165895454611
  0
ARC
  5
350
330
1F
100
AcDbEntity
  8
IGES_LEVEL_0
 62
     7
100
AcDbCircle
 10
37.1935002096097
 20
7.227119943522367
 30
0.0
 40
0.247879259516071
100
AcDbArc
 50
359.5097149617693
 51
89.90257965692659
  0
ARC
  5
351
330
1F
100
AcDbEntity
  8
IGES_LEVEL_0
 62
     7
100
AcDbCircle
 10
36.38720203458797
 20
32.77281838452826
 30
0.0
 40
1.946970425881121
100
AcDbArc
 50
342.3465054207965
 51
350.3609565680754
  0
LINE
  5
352
330
1F
100
AcDbEntity
  8
IGES_LEVEL_0
 62
     7
100
AcDbLine
 10
38.31445647014566
 20
32.49563968600614
 30
0.0
 11
38.30841558373566
 21
32.45707311333614
 31
0.0
  0
ARC
  5
353
330
1F
100
AcDbEntity
  8
IGES_LEVEL_0
 62
     7
100
AcDbCircle
 10
36.01526022918628
 20
32.83277400661304
 30
0.0
 40
2.32378202604565
100
AcDbArc
 50
351.6580875573783
 51
354.8372689501653
  0
LINE
  5
354
330
1F
100
AcDbEntity
  8
IGES_LEVEL_0
 62
     7
100
AcDbLine
 10
38.20346039536566
 20
32.10699201709615
 30
0.0
 11
38.20691920589566
 21
32.08099779769614
 31
0.0
  0
ARC
  5
355
330
1F
100
AcDbEntity
  8
IGES_LEVEL_0
 62
     7
100
AcDbCircle
 10
37.77844148159372
 20
32.03773480338755
 30
0.0
 40
0.4306247075059146
100
AcDbArc
 50
9.255054360507536
 51
19.59022419391813
  0
ARC
  5
356
330
1F
100
AcDbEntity
  8
IGES_LEVEL_0
 62
     7
100
AcDbCircle
 10
37.85312666127397
 20
32.06735452997867
 30
0.0
 40
0.3503431870084912
100
AcDbArc
 50
19.12184764218946
 51
57.98857357360966
  0
ARC
  5
357
330
1F
100
AcDbEntity
  8
IGES_LEVEL_0
 62
     7
100
AcDbCircle
 10
37.9000872639536
 20
32.16132656148048
 30
0.0
 40
0.2459701477814172
100
AcDbArc
 50
55.66004502651983
 51
88.85719149213169
  0
ARC
  5
358
330
1F
100
AcDbEntity
  8
IGES_LEVEL_0
 62
     7
100
AcDbCircle
 10
38.00963409026369
 20
31.9820799312821
 30
0.0
 40
0.4782729582395107
100
AcDbArc
 50
147.9003886698957
 51
159.2296303163618
  0
ARC
  5
359
330
1F
100
AcDbEntity
  8
IGES_LEVEL_0
 62
     7
100
AcDbCircle
 10
37.96085787249933
 20
32.01072018774683
 30
0.0
 40
0.4217374089887271
100
AcDbArc
 50
138.064188986366
 51
147.6752140197552
  0
ARC
  5
35A
330
1F
100
AcDbEntity
  8
IGES_LEVEL_0
 62
     7
100
AcDbCircle
 10
37.89535527324576
 20
32.08167308220438
 30
0.0
 40
0.3257173035252833
100
AcDbArc
 50
88.3044141555596
 51
139.6486396918897
  0
ARC
  5
35B
330
1F
100
AcDbEntity
  8
IGES_LEVEL_0
 62
     7
100
AcDbCircle
 10
30.57355525441729
 20
33.75167117852136
 30
0.0
 40
7.826190558669909
100
AcDbArc
 50
350.949130266351
 51
352.8010244630542
  0
LINE
  5
35C
330
1F
100
AcDbEntity
  8
IGES_LEVEL_0
 62
     7
100
AcDbLine
 10
38.28403470949566
 20
32.39683102367614
 30
0.0
 11
38.30230073428566
 21
32.52052610027614
 31
0.0
  0
ARC
  5
35D
330
1F
100
AcDbEntity
  8
IGES_LEVEL_0
 62
     7
100
AcDbCircle
 10
35.30824377467935
 20
32.80320569738869
 30
0.0
 40
3.003410072429315
100
AcDbArc
 50
348.8556924865767
 51
352.2237763104067
  0
ARC
  5
35E
330
1F
100
AcDbEntity
  8
IGES_LEVEL_0
 62
     7
100
AcDbCircle
 10
26.98623216653783
 20
37.16294609089719
 30
0.0
 40
11.70337507774872
100
AcDbArc
 50
329.7644801404996
 51
334.6472987324763
  0
LINE
  5
35F
330
1F
100
AcDbEntity
  8
IGES_LEVEL_0
 62
     7
100
AcDbLine
 10
37.81656078213566
 20
33.11011784870614
 30
0.0
 11
37.76517627175566
 21
33.08883083572614
 31
0.0
  0
ARC
  5
360
330
1F
100
AcDbEntity
  8
IGES_LEVEL_0
 62
     7
100
AcDbCircle
 10
38.09805902950729
 20
32.45425161919763
 30
0.0
 40
0.713723878179096
100
AcDbArc
 50
71.54565993774506
 51
113.2290436794268
  0
LINE
  5
361
330
1F
100
AcDbEntity
  8
IGES_LEVEL_0
 62
     7
100
AcDbLine
 10
37.56262163704566
 20
32.15215138759614
 30
0.0
 11
37.59849573308566
 21
32.25233761596614
 31
0.0
  0
ARC
  5
362
330
1F
100
AcDbEntity
  8
IGES_LEVEL_0
 62
     7
100
AcDbCircle
 10
34.90392852730355
 20
33.13362930774113
 30
0.0
 40
2.835330008865558
100
AcDbArc
 50
343.4667810153638
 51
350.5532918006801
  0
LINE
  5
363
330
1F
100
AcDbEntity
  8
IGES_LEVEL_0
 62
     7
100
AcDbLine
 10
37.61470479954566
 20
32.30271202011615
 30
0.0
 11
37.62203155361566
 21
32.32677603884614
 31
0.0
  0
LINE
  5
364
330
1F
100
AcDbEntity
  8
IGES_LEVEL_0
 62
     7
100
AcDbLine
 10
37.59849399002566
 20
32.25233819775615
 30
0.0
 11
37.61470479954566
 21
32.30271202011615
 31
0.0
  0
LINE
  5
365
330
1F
100
AcDbEntity
  8
IGES_LEVEL_0
 62
     7
100
AcDbLine
 10
37.70080523262566
 20
32.66826652187614
 30
0.0
 11
37.76102915678566
 21
33.07853357023615
 31
0.0
  0
ARC
  5
366
330
1F
100
AcDbEntity
  8
IGES_LEVEL_0
 62
     7
100
AcDbCircle
 10
37.78119324921802
 20
33.07493387850737
 30
0.0
 40
0.0204799476655735
100
AcDbArc
 50
139.4285334158278
 51
169.8782281788481
  0
LINE
  5
367
330
1F
100
AcDbEntity
  8
IGES_LEVEL_0
 62
     7
100
AcDbLine
 10
37.09748996634566
 20
31.26967655671615
 30
0.0
 11
37.04331554753566
 21
31.14573527109615
 31
0.0
  0
ARC
  5
368
330
1F
100
AcDbEntity
  8
IGES_LEVEL_0
 62
     7
100
AcDbCircle
 10
42.43633307753588
 20
30.37276822557371
 30
0.0
 40
4.495799313922304
100
AcDbArc
 50
163.6063231106143
 51
166.6036033229391
  0
LINE
  5
369
330
1F
100
AcDbEntity
  8
IGES_LEVEL_0
 62
     7
100
AcDbLine
 10
37.82472512400566
 20
30.38447684144614
 30
0.0
 11
38.06286243589566
 21
31.41438524625615
 31
0.0
  0
ARC
  5
36A
330
1F
100
AcDbEntity
  8
IGES_LEVEL_0
 62
     7
100
AcDbCircle
 10
40.32152541293581
 20
29.66850963078877
 30
0.0
 40
3.595663554484043
100
AcDbArc
 50
155.7548751731276
 51
165.6874689138746
  0
LINE
  5
36B
330
1F
100
AcDbEntity
  8
IGES_LEVEL_0
 62
     7
100
AcDbLine
 10
54.22006535130566
 20
0.1916218827861452
 30
0.0
 11
54.09840616818566
 21
0.1795315449461451
 31
0.0
  0
LINE
  5
36C
330
1F
100
AcDbEntity
  8
IGES_LEVEL_0
 62
     7
100
AcDbLine
 10
54.36853409023566
 20
0.201443657696145
 30
0.0
 11
54.22006535130566
 21
0.1916218827861452
 31
0.0
  0
LINE
  5
36D
330
1F
100
AcDbEntity
  8
IGES_LEVEL_0
 62
     7
100
AcDbLine
 10
54.50279554959566
 20
0.2092932116961449
 30
0.0
 11
54.37161887630566
 21
0.2016330374761451
 31
0.0
  0
LINE
  5
36E
330
1F
100
AcDbEntity
  8
IGES_LEVEL_0
 62
     7
100
AcDbLine
 10
54.53435126765566
 20
0.2110351336761439
 30
0.0
 11
54.50279554959566
 21
0.2092932116961449
 31
0.0
  0
LINE
  5
36F
330
1F
100
AcDbEntity
  8
IGES_LEVEL_0
 62
     7
100
AcDbLine
 10
54.57352517057566
 20
0.213147851216145
 30
0.0
 11
54.53435194846566
 21
0.2110351708661443
 31
0.0
  0
LINE
  5
370
330
1F
100
AcDbEntity
  8
IGES_LEVEL_0
 62
     7
100
AcDbLine
 10
54.62100559133566
 20
0.2156361946261437
 30
0.0
 11
54.57439781323566
 21
0.2131942954561438
 31
0.0
  0
LINE
  5
371
330
1F
100
AcDbEntity
  8
IGES_LEVEL_0
 62
     7
100
AcDbLine
 10
54.66018573462566
 20
0.2176298386461443
 30
0.0
 11
54.62100559133566
 21
0.2156361946261437
 31
0.0
  0
LINE
  5
372
330
1F
100
AcDbEntity
  8
IGES_LEVEL_0
 62
     7
100
AcDbLine
 10
54.82300944757566
 20
0.2252894149061443
 30
0.0
 11
54.66832940955566
 21
0.2180373430361452
 31
0.0
  0
LINE
  5
373
330
1F
100
AcDbEntity
  8
IGES_LEVEL_0
 62
     7
100
AcDbLine
 10
54.97477919713566
 20
0.2311747594361445
 30
0.0
 11
54.82300944757566
 21
0.2252894149061443
 31
0.0
  0
LINE
  5
374
330
1F
100
AcDbEntity
  8
IGES_LEVEL_0
 62
     7
100
AcDbLine
 10
55.09703570294566
 20
0.2318675011861436
 30
0.0
 11
54.97477919713566
 21
0.2311747594361445
 31
0.0
  0
ARC
  5
375
330
1F
100
AcDbEntity
  8
IGES_LEVEL_0
 62
     7
100
AcDbCircle
 10
55.03009974727523
 20
0.1291246677117783
 30
0.0
 40
0.0722268004186255
100
AcDbArc
 50
271.8288826430081
 51
2.297187148080315
  0
LINE
  5
376
330
1F
100
AcDbEntity
  8
IGES_LEVEL_0
 62
     7
100
AcDbLine
 10
54.18105376662566
 20
0.0123102738061444
 30
0.0
 11
55.03240483697566
 21
0.0569346596761441
 31
0.0
  0
ARC
  5
377
330
1F
100
AcDbEntity
  8
IGES_LEVEL_0
 62
     7
100
AcDbCircle
 10
54.17573016337676
 20
0.0843563171821996
 30
0.0
 40
0.0722424606287464
100
AcDbArc
 50
183.7084125941778
 51
274.2260013296128
  0
LINE
  5
378
330
1F
100
AcDbEntity
  8
IGES_LEVEL_0
 62
     7
100
AcDbLine
 10
32.77022892942566
 20
0.2148693154361442
 30
0.0
 11
32.72263216205566
 21
0.2144248232161444
 31
0.0
  0
LINE
  5
379
330
1F
100
AcDbEntity
  8
IGES_LEVEL_0
 62
     7
100
AcDbLine
 10
32.94860170865566
 20
0.2157814925661451
 30
0.0
 11
32.78561493305566
 21
0.2149959131961438
 31
0.0
  0
LINE
  5
37A
330
1F
100
AcDbEntity
  8
IGES_LEVEL_0
 62
     7
100
AcDbLine
 10
33.10048739873566
 20
0.2152562958861451
 30
0.0
 11
32.94860170865566
 21
0.2157814925661451
 31
0.0
  0
ARC
  5
37B
330
1F
100
AcDbEntity
  8
IGES_LEVEL_0
 62
     7
100
AcDbCircle
 10
33.11137021264221
 20
-1.15753750208545
 30
0.0
 40
1.372836934012122
100
AcDbArc
 50
85.35243402689105
 51
90.45420240486534
  0
SPLINE
  5
37C
330
1F
100
AcDbEntity
  8
IGES_LEVEL_0
 62
     7
100
AcDbSpline
210
0.0
220
0.0
230
1.0
 70
     8
 71
     3
 72
    36
 73
    32
 74
     0
 42
0.0000000001
 43
0.0000000001
 40
0.0
 40
0.0
 40
0.0
 40
0.0
 40
0.1171721263234
 40
0.2318570768288
 40
0.3414174222309
 40
0.435298700805
 40
0.5109327771660001
 40
0.5717639135074
 40
0.6206541751404
 40
0.6599418790143
 40
0.6915201611992
 40
0.7169184350041
 40
0.7373733993952
 40
0.7538914128345
 40
0.7672966669152
 40
0.7782819921499
 40
0.7874371073205
 40
0.7953064571766
 40
0.802430423042
 40
0.8093934292726001
 40
0.81692671579
 40
0.8258058089626
 40
0.8361439191868
 40
0.8490327404036
 40
0.8638073187351
 40
0.8824252135085
 40
0.9005115516225
 40
0.9247945030612
 40
0.9467708824325
 40
0.9716850958625
 40
1.0
 40
1.0
 40
1.0
 40
1.0
 10
32.72436132562566
 20
0.0282181092861445
 30
0.0
 10
32.74546078891566
 20
0.0284327154161438
 30
0.0
 10
32.78721132344566
 20
0.0289105642261439
 30
0.0
 10
32.84868835323566
 20
0.0297742376361444
 30
0.0
 10
32.90596910237566
 20
0.030737892476144
 30
0.0
 10
32.95621575720566
 20
0.0317327446761438
 30
0.0
 10
32.99768613940566
 20
0.0326823894061451
 30
0.0
 10
33.03105393993566
 20
0.0335542276261452
 30
0.0
 10
33.05787608073566
 20
0.0343474745761451
 30
0.0
 10
33.07943007613566
 20
0.0350658342361437
 30
0.0
 10
33.09675339199566
 20
0.0357153039961445
 30
0.0
 10
33.11068505914566
 20
0.0363029838461443
 30
0.0
 10
33.12190436169566
 20
0.0368365305461441
 30
0.0
 10
33.13096352121566
 20
0.0373240055761449
 30
0.0
 10
33.13831672305566
 20
0.0377741548161438
 30
0.0
 10
33.14434296762566
 20
0.0381970038061442
 30
0.0
 10
33.14937058186566
 20
0.0386054134861445
 30
0.0
 10
33.15369983578566
 20
0.039017977746144
 30
0.0
 10
33.15762869903566
 20
0.0394650249461438
 30
0.0
 10
33.16148554763566
 20
0.0400012221361435
 30
0.0
 10
33.16563333177566
 20
0.0407259006961446
 30
0.0
 10
33.17033470555566
 20
0.041788386976145
 30
0.0
 10
33.17588306577566
 20
0.0434323211161437
 30
0.0
 10
33.18226647421566
 20
0.0459283327661445
 30
0.0
 10
33.18968683476566
 20
0.0497597080061453
 30
0.0
 10
33.19734533074566
 20
0.0550420376961444
 30
0.0
 10
33.20544673539566
 20
0.062505308136145
 30
0.0
 10
33.21262744993566
 20
0.0716913960961448
 30
0.0
 10
33.21863227615566
 20
0.0830820809361451
 30
0.0
 10
33.22271898714566
 20
0.096076659806145
 30
0.0
 10
33.22367537982566
 20
0.1057071603761443
 30
0.0
 10
33.22362350398566
 20
0.1108058923061438
 30
0.0
  0
SPLINE
  5
37D
330
1F
100
AcDbEntity
  8
IGES_LEVEL_0
 62
     7
100
AcDbSpline
210
0.0
220
0.0
230
1.0
 70
     8
 71
     3
 72
    32
 73
    28
 74
     0
 42
0.0000000001
 43
0.0000000001
 40
0.0
 40
0.0
 40
0.0
 40
0.0
 40
0.03056683180704
 40
0.06073237984847
 40
0.09303593291702
 40
0.1191310825344
 40
0.1423956630226
 40
0.1614366912962
 40
0.1750970402875
 40
0.1854950009349
 40
0.1941988267485
 40
0.2025116703994
 40
0.211499272978
 40
0.2219806346182
 40
0.2347415013823
 40
0.250603481264
 40
0.2705075721729
 40
0.2955786122978
 40
0.3271930574019
 40
0.3670564138786
 40
0.4172873217868
 40
0.4805159609503
 40
0.5599783525117
 40
0.6588790083843999
 40
0.7684941395039
 40
0.8830080260957
 40
1.0
 40
1.0
 40
1.0
 40
1.0
 10
32.22367525778566
 20
0.100632154686145
 30
0.0
 10
32.22373123693566
 20
0.0951301206161449
 30
0.0
 10
32.22514220051566
 20
0.0841670227161436
 30
0.0
 10
32.23113168067566
 20
0.0683760975461453
 30
0.0
 10
32.24027719028566
 20
0.055105132626145
 30
0.0
 10
32.25117931336566
 20
0.0451026560561437
 30
0.0
 10
32.26171082547566
 20
0.0385970574761451
 30
0.0
 10
32.27105001124566
 20
0.0347281091561441
 30
0.0
 10
32.27853385986566
 20
0.0326379199861445
 30
0.0
 10
32.28432872992566
 20
0.0315204794661447
 30
0.0
 10
32.28921929013566
 20
0.0308497937361444
 30
0.0
 10
32.29387696069566
 20
0.0303769985961441
 30
0.0
 10
32.29886317846566
 20
0.0299889624061446
 30
0.0
 10
32.30465425256566
 20
0.0296352621361439
 30
0.0
 10
32.31168522719566
 20
0.0292937338661449
 30
0.0
 10
32.32041406384566
 20
0.028954769766144
 30
0.0
 10
32.33136015575566
 20
0.0286155765661437
 30
0.0
 10
32.34514294825566
 20
0.0282779030361439
 30
0.0
 10
32.36251958782566
 20
0.0279475847661451
 30
0.0
 10
32.38442614965566
 20
0.0276351098761448
 30
0.0
 10
32.41202439297566
 20
0.0273570086361438
 30
0.0
 10
32.44675155229566
 20
0.0271381772261449
 30
0.0
 10
32.49024025104566
 20
0.0270157700861439
 30
0.0
 10
32.54207913203566
 20
0.0270408915661441
 30
0.0
 10
32.60022724915566
 20
0.0272461395061444
 30
0.0
 10
32.66163110454566
 20
0.0276330649061453
 30
0.0
 10
32.70330275303566
 20
0.0280039190661451
 30
0.0
 10
32.72436132562566
 20
0.0282181092861445
 30
0.0
  0
ARC
  5
37E
330
1F
100
AcDbEntity
  8
IGES_LEVEL_0
 62
     7
100
AcDbCircle
 10
32.36386009310566
 20
-1.222915757541154
 30
0.0
 40
1.430612879670695
100
AcDbArc
 50
90.76429998158218
 51
95.66257903026657
  0
LINE
  5
37F
330
1F
100
AcDbEntity
  8
IGES_LEVEL_0
 62
     7
100
AcDbLine
 10
32.49354850871566
 20
0.2111253544961446
 30
0.0
 11
32.34477692538566
 21
0.2075698397961442
 31
0.0
  0
LINE
  5
380
330
1F
100
AcDbEntity
  8
IGES_LEVEL_0
 62
     7
100
AcDbLine
 10
32.65961424181566
 20
0.2137142615161444
 30
0.0
 11
32.49661493678566
 21
0.2111838345061453
 31
0.0
  0
LINE
  5
381
330
1F
100
AcDbEntity
  8
IGES_LEVEL_0
 62
     7
100
AcDbLine
 10
32.72263216205566
 20
0.2144248232161444
 30
0.0
 11
32.67503539358566
 21
0.2139010864161445
 31
0.0
  0
ARC
  5
382
330
1F
100
AcDbEntity
  8
IGES_LEVEL_0
 62
     7
100
AcDbCircle
 10
54.22985529600566
 20
7.224998420636144
 30
0.0
 40
0.5000001779184591
100
AcDbArc
 50
172.346609768422
 51
193.7023422511536
  0
ARC
  5
383
330
1F
100
AcDbEntity
  8
IGES_LEVEL_0
 62
     7
100
AcDbCircle
 10
54.22985529600566
 20
7.224998420636144
 30
0.0
 40
0.4999996276093272
100
AcDbArc
 50
351.4107366329953
 51
13.72949545196454
  0
LINE
  5
384
330
1F
100
AcDbEntity
  8
IGES_LEVEL_0
 62
     7
100
AcDbLine
 10
55.09703529600566
 20
0.231867420636145
 30
0.0
 11
55.10226829600566
 21
0.1320194206361453
 31
0.0
  0
LINE
  5
385
330
1F
100
AcDbEntity
  8
IGES_LEVEL_0
 62
     7
100
AcDbLine
 10
55.09703529600566
 20
0.231867420636145
 30
0.0
 11
53.79871829600566
 21
25.00523242063614
 31
0.0
  0
LINE
  5
386
330
1F
100
AcDbEntity
  8
IGES_LEVEL_0
 62
     7
100
AcDbLine
 10
52.79779829600566
 20
24.67846442063614
 30
0.0
 11
52.79779829600566
 21
24.88232042063615
 31
0.0
  0
LINE
  5
387
330
1F
100
AcDbEntity
  8
IGES_LEVEL_0
 62
     7
100
AcDbLine
 10
52.79849629600566
 20
24.98360242063615
 30
0.0
 11
52.79777029600566
 21
25.01530342063615
 31
0.0
  0
LINE
  5
388
330
1F
100
AcDbEntity
  8
IGES_LEVEL_0
 62
     7
100
AcDbLine
 10
54.09840629600566
 20
0.1795314206361446
 30
0.0
 11
52.79849629600566
 21
24.98360242063615
 31
0.0
  0
LINE
  5
389
330
1F
100
AcDbEntity
  8
IGES_LEVEL_0
 62
     7
100
AcDbLine
 10
54.09840629600566
 20
0.1795314206361446
 30
0.0
 11
54.10363929600566
 21
0.0796834206361449
 31
0.0
  0
LINE
  5
38A
330
1F
100
AcDbEntity
  8
IGES_LEVEL_0
 62
     7
100
AcDbLine
 10
40.75775729600566
 20
24.28846142063614
 30
0.0
 11
36.49252429600566
 21
25.04053742063615
 31
0.0
  0
LINE
  5
38B
330
1F
100
AcDbEntity
  8
IGES_LEVEL_0
 62
     7
100
AcDbLine
 10
40.58497729600566
 20
23.30857842063615
 30
0.0
 11
36.25122429600566
 21
24.07273542063615
 31
0.0
  0
LINE
  5
38C
330
1F
100
AcDbEntity
  8
IGES_LEVEL_0
 62
     7
100
AcDbLine
 10
37.78394629600566
 20
30.22014842063615
 30
0.0
 11
37.80813529600566
 21
30.31716342063615
 31
0.0
  0
LINE
  5
38D
330
1F
100
AcDbEntity
  8
IGES_LEVEL_0
 62
     7
100
AcDbLine
 10
36.47146729600566
 20
24.95608342063614
 30
0.0
 11
37.78394629600566
 21
30.22014842063615
 31
0.0
  0
LINE
  5
38E
330
1F
100
AcDbEntity
  8
IGES_LEVEL_0
 62
     7
100
AcDbLine
 10
35.83135629600566
 20
22.38873842063615
 30
0.0
 11
36.26930429600566
 21
24.14525242063614
 31
0.0
  0
LINE
  5
38F
330
1F
100
AcDbEntity
  8
IGES_LEVEL_0
 62
     7
100
AcDbLine
 10
36.81365029600566
 20
30.46207042063615
 30
0.0
 11
36.83765829600566
 21
30.55835942063614
 31
0.0
  0
LINE
  5
390
330
1F
100
AcDbEntity
  8
IGES_LEVEL_0
 62
     7
100
AcDbLine
 10
34.86106129600566
 20
22.63066042063614
 30
0.0
 11
36.81365029600566
 21
30.46207042063615
 31
0.0
  0
LINE
  5
391
330
1F
100
AcDbEntity
  8
IGES_LEVEL_0
 62
     7
100
AcDbLine
 10
33.22260629600566
 20
0.2107854206361451
 30
0.0
 11
33.22362329600566
 21
0.1108054206361447
 31
0.0
  0
LINE
  5
392
330
1F
100
AcDbEntity
  8
IGES_LEVEL_0
 62
     7
100
AcDbLine
 10
33.45066129600566
 20
7.474998420636143
 30
0.0
 11
53.71606729600566
 21
7.474998420636143
 31
0.0
  0
LINE
  5
393
330
1F
100
AcDbEntity
  8
IGES_LEVEL_0
 62
     7
100
AcDbLine
 10
32.22265829600566
 20
0.2006114206361441
 30
0.0
 11
32.22367529600566
 21
0.1006324206361448
 31
0.0
  0
LINE
  5
394
330
1F
100
AcDbEntity
  8
IGES_LEVEL_0
 62
     7
100
AcDbLine
 10
33.41876229600566
 20
6.974998420636144
 30
0.0
 11
53.74227129600566
 21
6.974998420636144
 31
0.0
  0
ENDSEC
  0
SECTION
  2
OBJECTS
  0
DICTIONARY
  5
C
330
0
100
AcDbDictionary
  3
ACAD_GROUP
350
D
  3
ACAD_LAYOUT
350
1A
  3
ACAD_MLINESTYLE
350
17
  3
ACAD_PLOTSETTINGS
350
19
  3
ACDBHEADERROUNDTRIPXREC
350
395
  0
DICTIONARY
  5
3B5
330
29
100
AcDbDictionary
280
     1
  3
ACAD_XREC_ROUNDTRIP
360
3B6
  0
DICTIONARY
  5
D
102
{ACAD_REACTORS
330
C
102
}
330
C
100
AcDbDictionary
  0
DICTIONARY
  5
1A
102
{ACAD_REACTORS
330
C
102
}
330
C
100
AcDbDictionary
  0
DICTIONARY
  5
17
102
{ACAD_REACTORS
330
C
102
}
330
C
100
AcDbDictionary
  3
STANDARD
350
18
  0
DICTIONARY
  5
19
102
{ACAD_REACTORS
330
C
102
}
330
C
100
AcDbDictionary
  0
DICTIONARY
  5
395
102
{ACAD_REACTORS
330
C
102
}
330
C
100
AcDbDictionary
  3
CEPSNTYPE
350
39E
  3
DIMSTYLEDATA
350
3B4
  3
FINGERPRINTGUID
350
39F
  3
HYPERLINKBASE
350
398
  3
INSUNITS
350
39D
  3
LAYOUTDICT
350
39A
  3
LWETCUNION
350
39C
  3
PLOTSETDICT
350
39B
  3
PSVPSCALE
350
3A1
  3
PUCSBASE
350
3A4
  3
PUCSORGBACK
350
3AA
  3
PUCSORGBOTTOM
350
3A6
  3
PUCSORGFRONT
350
3A9
  3
PUCSORGLEFT
350
3A7
  3
PUCSORGRIGHT
350
3A8
  3
PUCSORGTOP
350
3A5
  3
PUCSORTHOREF
350
3A2
  3
PUCSORTHOVIEW
350
3A3
  3
STYLESHEET
350
399
  3
TSTACKALIGN
350
396
  3
TSTACKSIZE
350
397
  3
UCSBASE
350
3AD
  3
UCSORGBACK
350
3B3
  3
UCSORGBOTTOM
350
3AF
  3
UCSORGFRONT
350
3B2
  3
UCSORGLEFT
350
3B0
  3
UCSORGRIGHT
350
3B1
  3
UCSORGTOP
350
3AE
  3
UCSORTHOREF
350
3AB
  3
UCSORTHOVIEW
350
3AC
  3
VERSIONGUID
350
3A0
  0
XRECORD
  5
3B6
102
{ACAD_REACTORS
330
3B5
102
}
330
3B5
100
AcDbXrecord
102
UCS
 74
     0
 71
     1
 10
0.0
 20
0.0
 30
0.0
 10
1.0
 20
0.0
 30
0.0
 10
0.0
 20
1.0
 30
0.0
146
0.0
 79
     0
102
VIEW
281
     0
  0
MLINESTYLE
  5
18
102
{ACAD_REACTORS
330
17
102
}
330
17
100
AcDbMlineStyle
  2
Standard
 70
     0
  3

 62
   256
 51
90.0
 52
90.0
 71
     2
 49
0.5
 62
   256
  6
BYLAYER
 49
-0.5
 62
   256
  6
BYLAYER
  0
XRECORD
  5
39E
102
{ACAD_REACTORS
330
395
102
}
330
395
100
AcDbXrecord
 90
        0
  0
XRECORD
  5
3B4
102
{ACAD_REACTORS
330
395
102
}
330
395
100
AcDbXrecord
1000
DSTYLE
1002
{
1070
   340
340
11
1002
}
  0
XRECORD
  5
39F
102
{ACAD_REACTORS
330
395
102
}
330
395
100
AcDbXrecord
  1
{FAEB1C30-E019-11D5-929B-00C0DF256EC4}
  0
XRECORD
  5
398
102
{ACAD_REACTORS
330
395
102
}
330
395
100
AcDbXrecord
  1

  0
XRECORD
  5
39D
102
{ACAD_REACTORS
330
395
102
}
330
395
100
AcDbXrecord
 90
        1
  0
XRECORD
  5
39A
102
{ACAD_REACTORS
330
395
102
}
330
395
100
AcDbXrecord
340
1A
  0
XRECORD
  5
39C
102
{ACAD_REACTORS
330
395
102
}
330
395
100
AcDbXrecord
 90
     2560
  0
XRECORD
  5
39B
102
{ACAD_REACTORS
330
395
102
}
330
395
100
AcDbXrecord
340
19
  0
XRECORD
  5
3A1
102
{ACAD_REACTORS
330
395
102
}
330
395
100
AcDbXrecord
 40
0.0
  0
XRECORD
  5
3A4
102
{ACAD_REACTORS
330
395
102
}
330
395
100
AcDbXrecord
340
0
  0
XRECORD
  5
3AA
102
{ACAD_REACTORS
330
395
102
}
330
395
100
AcDbXrecord
 10
0.0
 20
0.0
 30
0.0
  0
XRECORD
  5
3A6
102
{ACAD_REACTORS
330
395
102
}
330
395
100
AcDbXrecord
 10
0.0
 20
0.0
 30
0.0
  0
XRECORD
  5
3A9
102
{ACAD_REACTORS
330
395
102
}
330
395
100
AcDbXrecord
 10
0.0
 20
0.0
 30
0.0
  0
XRECORD
  5
3A7
102
{ACAD_REACTORS
330
395
102
}
330
395
100
AcDbXrecord
 10
0.0
 20
0.0
 30
0.0
  0
XRECORD
  5
3A8
102
{ACAD_REACTORS
330
395
102
}
330
395
100
AcDbXrecord
 10
0.0
 20
0.0
 30
0.0
  0
XRECORD
  5
3A5
102
{ACAD_REACTORS
330
395
102
}
330
395
100
AcDbXrecord
 10
0.0
 20
0.0
 30
0.0
  0
XRECORD
  5
3A2
102
{ACAD_REACTORS
330
395
102
}
330
395
100
AcDbXrecord
340
0
  0
XRECORD
  5
3A3
102
{ACAD_REACTORS
330
395
102
}
330
395
100
AcDbXrecord
 70
     0
  0
XRECORD
  5
399
102
{ACAD_REACTORS
330
395
102
}
330
395
100
AcDbXrecord
  1

  0
XRECORD
  5
396
102
{ACAD_REACTORS
330
395
102
}
330
395
100
AcDbXrecord
 90
        1
  0
XRECORD
  5
397
102
{ACAD_REACTORS
330
395
102
}
330
395
100
AcDbXrecord
 90
       70
  0
XRECORD
  5
3AD
102
{ACAD_REACTORS
330
395
102
}
330
395
100
AcDbXrecord
340
0
  0
XRECORD
  5
3B3
102
{ACAD_REACTORS
330
395
102
}
330
395
100
AcDbXrecord
 10
0.0
 20
0.0
 30
0.0
  0
XRECORD
  5
3AF
102
{ACAD_REACTORS
330
395
102
}
330
395
100
AcDbXrecord
 10
0.0
 20
0.0
 30
0.0
  0
XRECORD
  5
3B2
102
{ACAD_REACTORS
330
395
102
}
330
395
100
AcDbXrecord
 10
0.0
 20
0.0
 30
0.0
  0
XRECORD
  5
3B0
102
{ACAD_REACTORS
330
395
102
}
330
395
100
AcDbXrecord
 10
0.0
 20
0.0
 30
0.0
  0
XRECORD
  5
3B1
102
{ACAD_REACTORS
330
395
102
}
330
395
100
AcDbXrecord
 10
0.0
 20
0.0
 30
0.0
  0
XRECORD
  5
3AE
102
{ACAD_REACTORS
330
395
102
}
330
395
100
AcDbXrecord
 10
0.0
 20
0.0
 30
0.0
  0
XRECORD
  5
3AB
102
{ACAD_REACTORS
330
395
102
}
330
395
100
AcDbXrecord
340
0
  0
XRECORD
  5
3AC
102
{ACAD_REACTORS
330
395
102
}
330
395
100
AcDbXrecord
 70
     0
  0
XRECORD
  5
3A0
102
{ACAD_REACTORS
330
395
102
}
330
395
100
AcDbXrecord
  1
{FAEB1C32-E019-11D5-929B-00C0DF256EC4}
  0
ENDSEC
  0
EOF
