  0
SECTION
  2
HEADER
  9
$ACADVER
  1
AC1014
  9
$ACADMAINTVER
 70
     9
  9
$DWGCODEPAGE
  3
ANSI_1252
  9
$INSBASE
 10
0.0
 20
0.0
 30
0.0
  9
$EXTMIN
 10
1.000000000000000E+20
 20
1.000000000000000E+20
 30
1.000000000000000E+20
  9
$EXTMAX
 10
-1.000000000000000E+20
 20
-1.000000000000000E+20
 30
-1.000000000000000E+20
  9
$LIMMIN
 10
0.0
 20
0.0
  9
$LIMMAX
 10
12.0
 20
9.0
  9
$ORTHOMODE
 70
     0
  9
$REGENMODE
 70
     1
  9
$FILLMODE
 70
     1
  9
$QTEXTMODE
 70
     0
  9
$MIRRTEXT
 70
     1
  9
$DRAGMODE
 70
     2
  9
$LTSCALE
 40
1.0
  9
$OSMODE
 70
    37
  9
$ATTMODE
 70
     1
  9
$TEXTSIZE
 40
0.2
  9
$TRACEWID
 40
0.05
  9
$TEXTSTYLE
  7
STANDARD
  9
$CLAYER
  8
DEFAULT
  9
$CELTYPE
  6
BYLAYER
  9
$CECOLOR
 62
   256
  9
$CELTSCALE
 40
1.0
  9
$DELOBJ
 70
     1
  9
$DISPSILH
 70
     0
  9
$DIMSCALE
 40
1.0
  9
$DIMASZ
 40
0.18
  9
$DIMEXO
 40
0.0625
  9
$DIMDLI
 40
0.38
  9
$DIMRND
 40
0.0
  9
$DIMDLE
 40
0.0
  9
$DIMEXE
 40
0.18
  9
$DIMTP
 40
0.0
  9
$DIMTM
 40
0.0
  9
$DIMTXT
 40
0.18
  9
$DIMCEN
 40
0.09
  9
$DIMTSZ
 40
0.0
  9
$DIMTOL
 70
     0
  9
$DIMLIM
 70
     0
  9
$DIMTIH
 70
     1
  9
$DIMTOH
 70
     1
  9
$DIMSE1
 70
     0
  9
$DIMSE2
 70
     0
  9
$DIMTAD
 70
     0
  9
$DIMZIN
 70
     0
  9
$DIMBLK
  1

  9
$DIMASO
 70
     1
  9
$DIMSHO
 70
     1
  9
$DIMPOST
  1

  9
$DIMAPOST
  1

  9
$DIMALT
 70
     0
  9
$DIMALTD
 70
     2
  9
$DIMALTF
 40
25.4
  9
$DIMLFAC
 40
1.0
  9
$DIMTOFL
 70
     0
  9
$DIMTVP
 40
0.0
  9
$DIMTIX
 70
     0
  9
$DIMSOXD
 70
     0
  9
$DIMSAH
 70
     0
  9
$DIMBLK1
  1

  9
$DIMBLK2
  1

  9
$DIMSTYLE
  2
STANDARD
  9
$DIMCLRD
 70
     0
  9
$DIMCLRE
 70
     0
  9
$DIMCLRT
 70
     0
  9
$DIMTFAC
 40
1.0
  9
$DIMGAP
 40
0.09
  9
$DIMJUST
 70
     0
  9
$DIMSD1
 70
     0
  9
$DIMSD2
 70
     0
  9
$DIMTOLJ
 70
     1
  9
$DIMTZIN
 70
     0
  9
$DIMALTZ
 70
     0
  9
$DIMALTTZ
 70
     0
  9
$DIMFIT
 70
     3
  9
$DIMUPT
 70
     0
  9
$DIMUNIT
 70
     2
  9
$DIMDEC
 70
     4
  9
$DIMTDEC
 70
     4
  9
$DIMALTU
 70
     2
  9
$DIMALTTD
 70
     2
  9
$DIMTXSTY
  7
STANDARD
  9
$DIMAUNIT
 70
     0
  9
$LUNITS
 70
     2
  9
$LUPREC
 70
     1
  9
$SKETCHINC
 40
0.1
  9
$FILLETRAD
 40
0.5
  9
$AUNITS
 70
     0
  9
$AUPREC
 70
     0
  9
$MENU
  1
.
  9
$ELEVATION
 40
0.0
  9
$PELEVATION
 40
0.0
  9
$THICKNESS
 40
0.0
  9
$LIMCHECK
 70
     0
  9
$CHAMFERA
 40
0.5
  9
$CHAMFERB
 40
0.5
  9
$CHAMFERC
 40
1.0
  9
$CHAMFERD
 40
0.0
  9
$SKPOLY
 70
     0
  9
$TDCREATE
 40
2453721.42864316
  9
$TDUPDATE
 40
2453721.428643171
  9
$TDINDWG
 40
0.0000000116
  9
$TDUSRTIMER
 40
0.0000000116
  9
$USRTIMER
 70
     1
  9
$ANGBASE
 50
0.0
  9
$ANGDIR
 70
     0
  9
$PDMODE
 70
     0
  9
$PDSIZE
 40
0.0
  9
$PLINEWID
 40
0.0
  9
$COORDS
 70
     1
  9
$SPLFRAME
 70
     0
  9
$SPLINETYPE
 70
     6
  9
$SPLINESEGS
 70
     8
  9
$ATTDIA
 70
     0
  9
$ATTREQ
 70
     1
  9
$HANDLING
 70
     1
  9
$HANDSEED
  5
3E1
  9
$SURFTAB1
 70
     6
  9
$SURFTAB2
 70
     6
  9
$SURFTYPE
 70
     6
  9
$SURFU
 70
     6
  9
$SURFV
 70
     6
  9
$UCSNAME
  2

  9
$UCSORG
 10
0.0
 20
0.0
 30
0.0
  9
$UCSXDIR
 10
1.0
 20
0.0
 30
0.0
  9
$UCSYDIR
 10
0.0
 20
1.0
 30
0.0
  9
$PUCSNAME
  2

  9
$PUCSORG
 10
0.0
 20
0.0
 30
0.0
  9
$PUCSXDIR
 10
1.0
 20
0.0
 30
0.0
  9
$PUCSYDIR
 10
0.0
 20
1.0
 30
0.0
  9
$USERI1
 70
     0
  9
$USERI2
 70
     0
  9
$USERI3
 70
     0
  9
$USERI4
 70
     0
  9
$USERI5
 70
     0
  9
$USERR1
 40
0.0
  9
$USERR2
 40
0.0
  9
$USERR3
 40
0.0
  9
$USERR4
 40
0.0
  9
$USERR5
 40
0.0
  9
$WORLDVIEW
 70
     1
  9
$SHADEDGE
 70
     3
  9
$SHADEDIF
 70
    70
  9
$TILEMODE
 70
     1
  9
$MAXACTVP
 70
    64
  9
$PINSBASE
 10
0.0
 20
0.0
 30
0.0
  9
$PLIMCHECK
 70
     0
  9
$PEXTMIN
 10
1.000000000000000E+20
 20
1.000000000000000E+20
 30
1.000000000000000E+20
  9
$PEXTMAX
 10
-1.000000000000000E+20
 20
-1.000000000000000E+20
 30
-1.000000000000000E+20
  9
$PLIMMIN
 10
0.0
 20
0.0
  9
$PLIMMAX
 10
12.0
 20
9.0
  9
$UNITMODE
 70
     0
  9
$VISRETAIN
 70
     1
  9
$PLINEGEN
 70
     0
  9
$PSLTSCALE
 70
     1
  9
$TREEDEPTH
 70
  3020
  9
$PICKSTYLE
 70
     1
  9
$CMLSTYLE
  2
STANDARD
  9
$CMLJUST
 70
     0
  9
$CMLSCALE
 40
1.0
  9
$PROXYGRAPHICS
 70
     1
  9
$MEASUREMENT
 70
     0
  0
ENDSEC
  0
SECTION
  2
CLASSES
  0
CLASS
  1
ACDBDICTIONARYWDFLT
  2
AcDbDictionaryWithDefault
  3
ObjectDBX Classes
 90
        0
280
     0
281
     0
  0
CLASS
  1
XRECORD
  2
AcDbXrecord
  3
AutoCAD 2000
 90
        0
280
     0
281
     0
  0
CLASS
  1
LWPOLYLINE
  2
AcDbPolyline
  3
AutoCAD 2000
 90
        0
280
     0
281
     1
  0
CLASS
  1
HATCH
  2
AcDbHatch
  3
AutoCAD 2000
 90
        0
280
     0
281
     1
  0
CLASS
  1
ACDBPLACEHOLDER
  2
AcDbPlaceHolder
  3
ObjectDBX Classes
 90
        0
280
     0
281
     0
  0
CLASS
  1
LAYOUT
  2
AcDbLayout
  3
ObjectDBX Classes
 90
        0
280
     0
281
     0
  0
ENDSEC
  0
SECTION
  2
TABLES
  0
TABLE
  2
VPORT
  5
8
330
0
100
AcDbSymbolTable
 70
     2
  0
VPORT
  5
29
102
{ACAD_XDICTIONARY
360
3DF
102
}
330
8
100
AcDbSymbolTableRecord
100
AcDbViewportTableRecord
  2
*ACTIVE
 70
     0
 10
0.0
 20
0.0
 11
1.0
 21
1.0
 12
28.75013405113416
 22
38.76645789772022
 13
0.0
 23
0.0
 14
0.5
 24
0.5
 15
0.5
 25
0.5
 16
0.0
 26
0.0
 36
1.0
 17
0.0
 27
0.0
 37
0.0
 40
77.52375375151864
 41
1.972972972850329
 42
50.0
 43
0.0
 44
0.0
 50
0.0
 51
0.0
 71
     0
 72
   100
 73
     1
 74
     3
 75
     0
 76
     0
 77
     0
 78
     0
  0
ENDTAB
  0
TABLE
  2
LTYPE
  5
5
330
0
100
AcDbSymbolTable
 70
     1
  0
LTYPE
  5
14
330
5
100
AcDbSymbolTableRecord
100
AcDbLinetypeTableRecord
  2
BYBLOCK
 70
     0
  3

 72
    65
 73
     0
 40
0.0
  0
LTYPE
  5
15
330
5
100
AcDbSymbolTableRecord
100
AcDbLinetypeTableRecord
  2
BYLAYER
 70
     0
  3

 72
    65
 73
     0
 40
0.0
  0
LTYPE
  5
16
330
5
100
AcDbSymbolTableRecord
100
AcDbLinetypeTableRecord
  2
CONTINUOUS
 70
     0
  3
Solid line
 72
    65
 73
     0
 40
0.0
  0
ENDTAB
  0
TABLE
  2
LAYER
  5
2
330
0
100
AcDbSymbolTable
 70
     3
  0
LAYER
  5
10
330
2
100
AcDbSymbolTableRecord
100
AcDbLayerTableRecord
  2
0
 70
     0
 62
     7
  6
CONTINUOUS
  0
LAYER
  5
2A
330
2
100
AcDbSymbolTableRecord
100
AcDbLayerTableRecord
  2
IGES_LEVEL_0
 70
     0
 62
   255
  6
CONTINUOUS
  0
LAYER
  5
8A
330
2
100
AcDbSymbolTableRecord
100
AcDbLayerTableRecord
  2
DEFAULT
 70
     0
 62
     7
  6
CONTINUOUS
  0
ENDTAB
  0
TABLE
  2
STYLE
  5
3
330
0
100
AcDbSymbolTable
 70
     1
  0
STYLE
  5
11
330
3
100
AcDbSymbolTableRecord
100
AcDbTextStyleTableRecord
  2
STANDARD
 70
     0
 40
0.0
 41
1.0
 50
0.0
 71
     0
 42
0.2
  3
txt
  4

  0
ENDTAB
  0
TABLE
  2
VIEW
  5
6
330
0
100
AcDbSymbolTable
 70
     0
  0
ENDTAB
  0
TABLE
  2
UCS
  5
7
330
0
100
AcDbSymbolTable
 70
     0
  0
ENDTAB
  0
TABLE
  2
APPID
  5
9
330
0
100
AcDbSymbolTable
 70
     1
  0
APPID
  5
12
330
9
100
AcDbSymbolTableRecord
100
AcDbRegAppTableRecord
  2
ACAD
 70
     0
  0
ENDTAB
  0
TABLE
  2
DIMSTYLE
  5
A
330
0
100
AcDbSymbolTable
 70
     1
  0
DIMSTYLE
105
27
330
A
100
AcDbSymbolTableRecord
100
AcDbDimStyleTableRecord
  2
STANDARD
 70
     0
  3

  4

  5

  6

  7

 40
1.0
 41
0.18
 42
0.0625
 43
0.38
 44
0.18
 45
0.0
 46
0.0
 47
0.0
 48
0.0
140
0.18
141
0.09
142
0.0
143
25.4
144
1.0
145
0.0
146
1.0
147
0.09
 71
     0
 72
     0
 73
     1
 74
     1
 75
     0
 76
     0
 77
     0
 78
     0
170
     0
171
     2
172
     0
173
     0
174
     0
175
     0
176
     0
177
     0
178
     0
270
     2
271
     4
272
     4
273
     2
274
     2
340
11
275
     0
280
     0
281
     0
282
     0
283
     1
284
     0
285
     0
286
     0
287
     3
288
     0
  0
ENDTAB
  0
TABLE
  2
BLOCK_RECORD
  5
1
330
0
100
AcDbSymbolTable
 70
     1
  0
BLOCK_RECORD
  5
1F
330
1
100
AcDbSymbolTableRecord
100
AcDbBlockTableRecord
  2
*MODEL_SPACE
  0
BLOCK_RECORD
  5
1B
330
1
100
AcDbSymbolTableRecord
100
AcDbBlockTableRecord
  2
*PAPER_SPACE
  0
ENDTAB
  0
ENDSEC
  0
SECTION
  2
BLOCKS
  0
BLOCK
  5
20
330
1F
100
AcDbEntity
  8
0
100
AcDbBlockBegin
  2
*MODEL_SPACE
 70
     0
 71
     0
 10
0.0
 20
0.0
 30
0.0
  3
*MODEL_SPACE
  1

  0
ENDBLK
  5
21
330
1F
100
AcDbEntity
  8
0
100
AcDbBlockEnd
  0
BLOCK
  5
1C
330
1B
100
AcDbEntity
 67
     1
  8
0
100
AcDbBlockBegin
  2
*PAPER_SPACE
 70
     0
 71
     0
 10
0.0
 20
0.0
 30
0.0
  3
*PAPER_SPACE
  1

  0
ENDBLK
  5
1D
330
1B
100
AcDbEntity
 67
     1
  8
0
100
AcDbBlockEnd
  0
ENDSEC
  0
SECTION
  2
ENTITIES
  0
ARC
  5
2B
330
1F
100
AcDbEntity
  8
IGES_LEVEL_0
 62
     7
100
AcDbCircle
 10
9.875926268921848
 20
84.26440942595693
 30
0.0
 40
12.24999929214341
100
AcDbArc
 50
250.4949888683825
 51
268.8306171262404
  0
ARC
  5
2C
330
1F
100
AcDbEntity
  8
IGES_LEVEL_0
 62
     7
100
AcDbCircle
 10
9.875926268921848
 20
84.26440942595693
 30
0.0
 40
12.24999929214341
100
AcDbArc
 50
271.1693828737596
 51
289.8654639923585
  0
ARC
  5
2D
330
1F
100
AcDbEntity
  8
IGES_LEVEL_0
 62
     7
100
AcDbCircle
 10
9.875926268921848
 20
84.26440942595693
 30
0.0
 40
11.74999967716502
100
AcDbArc
 50
253.2227303650828
 51
287.1378070401694
  0
LINE
  5
2E
330
1F
100
AcDbEntity
  8
IGES_LEVEL_0
 62
     7
100
AcDbLine
 10
17.35501332329972
 20
70.94638038273757
 30
0.0
 11
16.88619626892185
 21
70.25397942595693
 31
0.0
  0
LINE
  5
2F
330
1F
100
AcDbEntity
  8
IGES_LEVEL_0
 62
     7
100
AcDbLine
 10
16.43616462043937
 20
71.3640151545588
 30
0.0
 11
16.21311026892185
 21
71.03458342595692
 31
0.0
  0
LINE
  5
30
330
1F
100
AcDbEntity
  8
IGES_LEVEL_0
 62
     7
100
AcDbLine
 10
3.538742268921847
 20
71.03458342595692
 30
0.0
 11
3.358183098919889
 21
71.30125329942916
 31
0.0
  0
LINE
  5
31
330
1F
100
AcDbEntity
  8
IGES_LEVEL_0
 62
     7
100
AcDbLine
 10
2.865647268921847
 20
70.25399242595692
 30
0.0
 11
2.438085070906069
 21
70.88546460837732
 31
0.0
  0
LINE
  5
32
330
1F
100
AcDbEntity
  8
IGES_LEVEL_0
 62
     7
100
AcDbLine
 10
0.6736590230578465
 20
72.31743117072692
 30
0.0
 11
0.7017408630898467
 21
72.23471115706693
 31
0.0
  0
LINE
  5
33
330
1F
100
AcDbEntity
  8
IGES_LEVEL_0
 62
     7
100
AcDbLine
 10
0.7017408630898467
 20
72.23471115706693
 30
0.0
 11
0.7250311473988469
 21
72.16925733290692
 31
0.0
  0
LINE
  5
34
330
1F
100
AcDbEntity
  8
IGES_LEVEL_0
 62
     7
100
AcDbLine
 10
0.7250311473988469
 20
72.16925733290692
 30
0.0
 11
0.7510832444388469
 21
72.09006076181692
 31
0.0
  0
LINE
  5
35
330
1F
100
AcDbEntity
  8
IGES_LEVEL_0
 62
     7
100
AcDbLine
 10
0.9259153420216961
 20
73.86772737053845
 30
0.0
 11
0.9098154882376974
 21
73.67791925520844
 31
0.0
  0
LINE
  5
36
330
1F
100
AcDbEntity
  8
IGES_LEVEL_0
 62
     7
100
AcDbLine
 10
0.9098154882376974
 20
73.67791925520844
 30
0.0
 11
0.9072574723906968
 21
73.64854006726843
 31
0.0
  0
LINE
  5
37
330
1F
100
AcDbEntity
  8
IGES_LEVEL_0
 62
     7
100
AcDbLine
 10
0.9072574723906968
 20
73.64854006726843
 30
0.0
 11
0.90474177052171
 21
73.61966290213844
 31
0.0
  0
LINE
  5
38
330
1F
100
AcDbEntity
  8
IGES_LEVEL_0
 62
     7
100
AcDbLine
 10
0.90474177052171
 20
73.61966290213844
 30
0.0
 11
0.9022731125026979
 21
73.59127914476842
 31
0.0
  0
LINE
  5
39
330
1F
100
AcDbEntity
  8
IGES_LEVEL_0
 62
     7
100
AcDbLine
 10
0.9022731125026979
 20
73.59127914476842
 30
0.0
 11
0.9015854377957027
 21
73.58336020101844
 31
0.0
  0
LINE
  5
3A
330
1F
100
AcDbEntity
  8
IGES_LEVEL_0
 62
     7
100
AcDbLine
 10
0.9015854377957027
 20
73.58336020101844
 30
0.0
 11
0.8998545109617027
 21
73.56339959667842
 31
0.0
  0
LINE
  5
3B
330
1F
100
AcDbEntity
  8
IGES_LEVEL_0
 62
     7
100
AcDbLine
 10
0.8998545109617027
 20
73.56339959667842
 30
0.0
 11
0.8974800518137016
 21
73.53594254767843
 31
0.0
  0
LINE
  5
3C
330
1F
100
AcDbEntity
  8
IGES_LEVEL_0
 62
     7
100
AcDbLine
 10
0.8974800518137016
 20
73.53594254767843
 30
0.0
 11
0.890622764395701
 21
73.45602100240843
 31
0.0
  0
LINE
  5
3D
330
1F
100
AcDbEntity
  8
IGES_LEVEL_0
 62
     7
100
AcDbLine
 10
0.890622764395701
 20
73.45602100240843
 30
0.0
 11
0.8775899884546874
 21
73.28819615087843
 31
0.0
  0
LINE
  5
3E
330
1F
100
AcDbEntity
  8
IGES_LEVEL_0
 62
     7
100
AcDbLine
 10
0.8775899884546874
 20
73.28819615087843
 30
0.0
 11
0.8919905231266938
 21
73.45466810238843
 31
0.0
  0
LINE
  5
3F
330
1F
100
AcDbEntity
  8
IGES_LEVEL_0
 62
     7
100
AcDbLine
 10
0.8919905231266938
 20
73.45466810238843
 30
0.0
 11
0.8983697058917102
 21
73.53286235123842
 31
0.0
  0
LINE
  5
40
330
1F
100
AcDbEntity
  8
IGES_LEVEL_0
 62
     7
100
AcDbLine
 10
0.8983697058917102
 20
73.53286235123842
 30
0.0
 11
0.9003760940826879
 21
73.55729817877842
 31
0.0
  0
LINE
  5
41
330
1F
100
AcDbEntity
  8
IGES_LEVEL_0
 62
     7
100
AcDbLine
 10
0.9003760940826879
 20
73.55729817877842
 30
0.0
 11
0.9023257676617078
 21
73.58098036116844
 31
0.0
  0
LINE
  5
42
330
1F
100
AcDbEntity
  8
IGES_LEVEL_0
 62
     7
100
AcDbLine
 10
0.9023257676617078
 20
73.58098036116844
 30
0.0
 11
0.9042171439127031
 21
73.60390104021845
 31
0.0
  0
LINE
  5
43
330
1F
100
AcDbEntity
  8
IGES_LEVEL_0
 62
     7
100
AcDbLine
 10
0.9042171439127031
 20
73.60390104021845
 30
0.0
 11
0.906056473499703
 21
73.62614605576844
 31
0.0
  0
LINE
  5
44
330
1F
100
AcDbEntity
  8
IGES_LEVEL_0
 62
     7
100
AcDbLine
 10
0.906056473499703
 20
73.62614605576844
 30
0.0
 11
0.9078431515927008
 21
73.64771942836843
 31
0.0
  0
LINE
  5
45
330
1F
100
AcDbEntity
  8
IGES_LEVEL_0
 62
     7
100
AcDbLine
 10
0.9078431515927008
 20
73.64771942836843
 30
0.0
 11
0.9095750519006884
 21
73.66861534939842
 31
0.0
  0
LINE
  5
46
330
1F
100
AcDbEntity
  8
IGES_LEVEL_0
 62
     7
100
AcDbLine
 10
0.9095750519006884
 20
73.66861534939842
 30
0.0
 11
0.9259486262667025
 21
73.86843567556842
 31
0.0
  0
LINE
  5
47
330
1F
100
AcDbEntity
  8
IGES_LEVEL_0
 62
     7
100
AcDbLine
 10
0.9259486262667025
 20
73.86843567556842
 30
0.0
 11
0.9269280528321957
 21
73.88068884407844
 31
0.0
  0
LINE
  5
48
330
1F
100
AcDbEntity
  8
IGES_LEVEL_0
 62
     7
100
AcDbLine
 10
0.9269280528321957
 20
73.88068884407844
 30
0.0
 11
0.9274153034621975
 21
73.88685688119844
 31
0.0
  0
LINE
  5
49
330
1F
100
AcDbEntity
  8
IGES_LEVEL_0
 62
     7
100
AcDbLine
 10
0.9274153034621975
 20
73.88685688119844
 30
0.0
 11
0.9275647407096841
 21
73.88891990201843
 31
0.0
  0
LINE
  5
4A
330
1F
100
AcDbEntity
  8
IGES_LEVEL_0
 62
     7
100
AcDbLine
 10
0.9275647407096841
 20
73.88891990201843
 30
0.0
 11
0.9282311283471927
 21
73.89790721001343
 31
0.0
  0
LINE
  5
4B
330
1F
100
AcDbEntity
  8
IGES_LEVEL_0
 62
     7
100
AcDbLine
 10
0.9282311283471927
 20
73.89790721001343
 30
0.0
 11
0.9297933911577019
 21
73.91741841786843
 31
0.0
  0
LINE
  5
4C
330
1F
100
AcDbEntity
  8
IGES_LEVEL_0
 62
     7
100
AcDbLine
 10
0.9297933911577019
 20
73.91741841786843
 30
0.0
 11
0.9347899997141838
 21
73.96391747319343
 31
0.0
  0
SPLINE
  5
4D
330
1F
100
AcDbEntity
  8
IGES_LEVEL_0
 62
     7
100
AcDbSpline
210
0.0
220
0.0
230
1.0
 70
     8
 71
     3
 72
    15
 73
    11
 74
     0
 42
0.0000000001
 43
0.0000000001
 40
24.0
 40
24.0
 40
24.0
 40
24.0
 40
24.08082912345469
 40
24.18872216839074
 40
24.30859074911436
 40
24.43942917878159
 40
24.58035003551237
 40
24.73026533359424
 40
24.88894627416992
 40
25.0
 40
25.0
 40
25.0
 40
25.0
 10
0.9347899997141838
 20
73.96391747319343
 30
0.0
 10
0.9377406599158604
 20
73.9869272976361
 30
0.0
 10
0.9513122443038213
 20
74.03996974028979
 30
0.0
 10
0.9908203923227035
 20
74.11964523960843
 30
0.0
 10
1.051414439282709
 20
74.20321989236844
 30
0.0
 10
1.130145921102709
 20
74.28375530590843
 30
0.0
 10
1.225438331646686
 20
74.35867996630843
 30
0.0
 10
1.336552592753705
 20
74.42471148616842
 30
0.0
 10
1.447665402063691
 20
74.47179625672844
 30
0.0
 10
1.52220034861662
 20
74.49342823395978
 30
0.0
 10
1.553371224132704
 20
74.50004961834843
 30
0.0
  0
LINE
  5
4E
330
1F
100
AcDbEntity
  8
IGES_LEVEL_0
 62
     7
100
AcDbLine
 10
1.553371224132704
 20
74.50004961834843
 30
0.0
 11
1.576919210627693
 21
74.50505173226344
 31
0.0
  0
LINE
  5
4F
330
1F
100
AcDbEntity
  8
IGES_LEVEL_0
 62
     7
100
AcDbLine
 10
1.576919210627693
 20
74.50505173226344
 30
0.0
 11
1.580895578369692
 21
74.50584402227842
 31
0.0
  0
LINE
  5
50
330
1F
100
AcDbEntity
  8
IGES_LEVEL_0
 62
     7
100
AcDbLine
 10
1.580895578369692
 20
74.50584402227842
 30
0.0
 11
1.591241311298703
 21
74.50790313836843
 31
0.0
  0
LINE
  5
51
330
1F
100
AcDbEntity
  8
IGES_LEVEL_0
 62
     7
100
AcDbLine
 10
1.591241311298703
 20
74.50790313836843
 30
0.0
 11
1.597992387066199
 21
74.50925331303344
 31
0.0
  0
LINE
  5
52
330
1F
100
AcDbEntity
  8
IGES_LEVEL_0
 62
     7
100
AcDbLine
 10
1.597992387066199
 20
74.50925331303344
 30
0.0
 11
1.601735613903699
 21
74.51000389838843
 31
0.0
  0
SPLINE
  5
53
330
1F
100
AcDbEntity
  8
IGES_LEVEL_0
 62
     7
100
AcDbSpline
210
0.0
220
0.0
230
1.0
 70
     8
 71
     3
 72
    15
 73
    11
 74
     0
 42
0.0000000001
 43
0.0000000001
 40
30.0
 40
30.0
 40
30.0
 40
30.0
 40
30.10148004770081
 40
30.21093536649794
 40
30.32567957946884
 40
30.44631540390893
 40
30.5736283112494
 40
30.70837683248858
 40
30.85121643647827
 40
31.0
 40
31.0
 40
31.0
 40
31.0
 10
1.601735613903699
 20
74.51000389838843
 30
0.0
 10
1.88514346494371
 20
74.56697907999843
 30
0.0
 10
2.466981667497706
 20
74.72180188418842
 30
0.0
 10
3.344954047904693
 20
75.02145489228845
 30
0.0
 10
4.274180225367601
 20
75.34032297043844
 30
0.0
 10
5.26543478138781
 20
75.63291061406842
 30
0.0
 10
6.323382121047686
 20
75.89736910193842
 30
0.0
 10
7.4556609852077
 20
76.12033639264844
 30
0.0
 10
8.660902324215286
 20
76.27860843345327
 30
0.0
 10
9.492113642784055
 20
76.31725453527361
 30
0.0
 10
9.915949198687699
 20
76.31724831163344
 30
0.0
  0
SPLINE
  5
54
330
1F
100
AcDbEntity
  8
IGES_LEVEL_0
 62
     7
100
AcDbSpline
210
0.0
220
0.0
230
1.0
 70
     8
 71
     3
 72
    15
 73
    11
 74
     0
 42
0.0000000001
 43
0.0000000001
 40
31.0
 40
31.0
 40
31.0
 40
31.0
 40
31.14853441565796
 40
31.29137459809915
 40
31.42612386220672
 40
31.55343770364569
 40
31.67407352295147
 40
31.78881767202046
 40
31.89827412711169
 40
32.0
 40
32.0
 40
32.0
 40
32.0
 10
9.915949198687699
 20
76.31724831163344
 30
0.0
 10
10.33908866100595
 20
76.31724209821476
 30
0.0
 10
11.16961702808799
 20
76.27870750890327
 30
0.0
 10
12.3742162120287
 20
76.12068020234842
 30
0.0
 10
13.5065565721317
 20
75.89780928860843
 30
0.0
 10
14.56456504975169
 20
75.63343712955843
 30
0.0
 10
15.5558668906547
 20
75.34089181126844
 30
0.0
 10
16.4851611782147
 20
75.02212101365844
 30
0.0
 10
17.36379734709469
 20
74.72215022995844
 30
0.0
 10
17.94629382237957
 20
74.56695416708902
 30
0.0
 10
18.23042679734469
 20
74.50998944535844
 30
0.0
  0
LINE
  5
55
330
1F
100
AcDbEntity
  8
IGES_LEVEL_0
 62
     7
100
AcDbLine
 10
18.23042679734469
 20
74.50998944535844
 30
0.0
 11
18.23416860209969
 21
74.50923926538843
 31
0.0
  0
LINE
  5
56
330
1F
100
AcDbEntity
  8
IGES_LEVEL_0
 62
     7
100
AcDbLine
 10
18.23416860209969
 20
74.50923926538843
 30
0.0
 11
18.24071430878469
 21
74.50793037262842
 31
0.0
  0
LINE
  5
57
330
1F
100
AcDbEntity
  8
IGES_LEVEL_0
 62
     7
100
AcDbLine
 10
18.24071430878469
 20
74.50793037262842
 30
0.0
 11
18.2549596164297
 21
74.50509912103843
 31
0.0
  0
LINE
  5
58
330
1F
100
AcDbEntity
  8
IGES_LEVEL_0
 62
     7
100
AcDbLine
 10
18.2549596164297
 20
74.50509912103843
 30
0.0
 11
18.27643229272469
 21
74.50056944261844
 31
0.0
  0
SPLINE
  5
59
330
1F
100
AcDbEntity
  8
IGES_LEVEL_0
 62
     7
100
AcDbSpline
210
0.0
220
0.0
230
1.0
 70
     8
 71
     3
 72
    15
 73
    11
 74
     0
 42
0.0000000001
 43
0.0000000001
 40
36.0
 40
36.0
 40
36.0
 40
36.0
 40
36.1111196321796
 40
36.2698598150629
 40
36.4198596389136
 40
36.5608561434335
 40
36.6917247693824
 40
36.8115282052835
 40
36.91928441351947
 40
37.0
 40
37.0
 40
37.0
 40
37.0
 10
18.27643229272469
 20
74.50056944261844
 30
0.0
 10
18.3076273615047
 20
74.49357957813844
 30
0.0
 10
18.3825217782347
 20
74.47246579919845
 30
0.0
 10
18.49404450730469
 20
74.42541054141843
 30
0.0
 10
18.60557152269469
 20
74.35931165771844
 30
0.0
 10
18.70121538456469
 20
74.28425007913843
 30
0.0
 10
18.7802020961247
 20
74.20355167601842
 30
0.0
 10
18.8409656815647
 20
74.11983905909843
 30
0.0
 10
18.88055134583469
 20
74.04005540514844
 30
0.0
 10
18.894715546457
 20
73.98701107934006
 30
0.0
 10
18.89712257362969
 20
73.96381326449843
 30
0.0
  0
LINE
  5
5A
330
1F
100
AcDbEntity
  8
IGES_LEVEL_0
 62
     7
100
AcDbLine
 10
18.89712257362969
 20
73.96381326449843
 30
0.0
 11
18.9028310359047
 21
73.90879774477843
 31
0.0
  0
LINE
  5
5B
330
1F
100
AcDbEntity
  8
IGES_LEVEL_0
 62
     7
100
AcDbLine
 10
18.9028310359047
 20
73.90879774477843
 30
0.0
 11
18.9036793413247
 21
73.89772985212343
 31
0.0
  0
LINE
  5
5C
330
1F
100
AcDbEntity
  8
IGES_LEVEL_0
 62
     7
100
AcDbLine
 10
18.9036793413247
 20
73.89772985212343
 30
0.0
 11
18.90402212155469
 21
73.89307445778844
 31
0.0
  0
LINE
  5
5D
330
1F
100
AcDbEntity
  8
IGES_LEVEL_0
 62
     7
100
AcDbLine
 10
18.90402212155469
 20
73.89307445778844
 30
0.0
 11
18.90448295592969
 21
73.88685626715844
 31
0.0
  0
LINE
  5
5E
330
1F
100
AcDbEntity
  8
IGES_LEVEL_0
 62
     7
100
AcDbLine
 10
18.90448295592969
 20
73.88685626715844
 30
0.0
 11
18.9049701560547
 21
73.88068828929843
 31
0.0
  0
LINE
  5
5F
330
1F
100
AcDbEntity
  8
IGES_LEVEL_0
 62
     7
100
AcDbLine
 10
18.9049701560547
 20
73.88068828929843
 30
0.0
 11
18.90521534903469
 21
73.87758004205843
 31
0.0
  0
LINE
  5
60
330
1F
100
AcDbEntity
  8
IGES_LEVEL_0
 62
     7
100
AcDbLine
 10
18.90521534903469
 20
73.87758004205843
 30
0.0
 11
18.90595230206471
 21
73.86840290628844
 31
0.0
  0
LINE
  5
61
330
1F
100
AcDbEntity
  8
IGES_LEVEL_0
 62
     7
100
AcDbLine
 10
18.90595230206471
 20
73.86840290628844
 30
0.0
 11
18.9275825535547
 21
73.60509500043843
 31
0.0
  0
LINE
  5
62
330
1F
100
AcDbEntity
  8
IGES_LEVEL_0
 62
     7
100
AcDbLine
 10
18.9275825535547
 20
73.60509500043843
 30
0.0
 11
18.9552190125047
 21
73.26328578668843
 31
0.0
  0
LINE
  5
63
330
1F
100
AcDbEntity
  8
IGES_LEVEL_0
 62
     7
100
AcDbLine
 10
18.9552190125047
 20
73.26328578668843
 30
0.0
 11
18.95768890789469
 21
73.23185613118842
 31
0.0
  0
LINE
  5
64
330
1F
100
AcDbEntity
  8
IGES_LEVEL_0
 62
     7
100
AcDbLine
 10
18.95768890789469
 20
73.23185613118842
 30
0.0
 11
18.9611588470297
 21
73.20264969250343
 31
0.0
  0
LINE
  5
65
330
1F
100
AcDbEntity
  8
IGES_LEVEL_0
 62
     7
100
AcDbLine
 10
18.9611588470297
 20
73.20264969250343
 30
0.0
 11
18.9618207665647
 21
73.20885545626844
 31
0.0
  0
LINE
  5
66
330
1F
100
AcDbEntity
  8
IGES_LEVEL_0
 62
     7
100
AcDbLine
 10
18.9618207665647
 20
73.20885545626844
 30
0.0
 11
18.9598525357347
 21
73.23311121979843
 31
0.0
  0
LINE
  5
67
330
1F
100
AcDbEntity
  8
IGES_LEVEL_0
 62
     7
100
AcDbLine
 10
18.9598525357347
 20
73.23311121979843
 30
0.0
 11
18.9579413319747
 21
73.25653891167845
 31
0.0
  0
LINE
  5
68
330
1F
100
AcDbEntity
  8
IGES_LEVEL_0
 62
     7
100
AcDbLine
 10
18.9579413319747
 20
73.25653891167845
 30
0.0
 11
18.9270893665947
 21
73.62043496311843
 31
0.0
  0
ARC
  5
69
330
1F
100
AcDbEntity
  8
IGES_LEVEL_0
 62
     7
100
AcDbCircle
 10
18.0831773071067
 20
73.26944043279551
 30
0.0
 40
0.8467326632249149
100
AcDbArc
 50
18.87114942884784
 51
76.15974994862737
  0
SPLINE
  5
6A
330
1F
100
AcDbEntity
  8
IGES_LEVEL_0
 62
     7
100
AcDbSpline
210
0.0
220
0.0
230
1.0
 70
     8
 71
     3
 72
    16
 73
    12
 74
     0
 42
0.0000000001
 43
0.0000000001
 40
1.0
 40
1.0
 40
1.0
 40
1.0
 40
1.09097114537574
 40
1.1876084434776
 40
1.2881936694339
 40
1.3932190980135
 40
1.5031087993536
 40
1.6184092558226
 40
1.7397728081457
 40
1.8676814846905
 40
2.0
 40
2.0
 40
2.0
 40
2.0
 10
18.2857289831797
 20
74.09158945912344
 30
0.0
 10
18.03096947467469
 20
74.15435419372842
 30
0.0
 10
17.51247583644469
 20
74.31202728249842
 30
0.0
 10
16.7341259067647
 20
74.60389761454844
 30
0.0
 10
15.9231856551347
 20
74.92385619089843
 30
0.0
 10
15.0613774889747
 20
75.21765611932842
 30
0.0
 10
14.1409790666457
 20
75.46521277013842
 30
0.0
 10
13.16115011026069
 20
75.66491174099842
 30
0.0
 10
12.1221405854197
 20
75.82857846356843
 30
0.0
 10
11.0271808601817
 20
75.94521302309845
 30
0.0
 10
10.27626505154279
 20
75.97306191812993
 30
0.0
 10
9.894633320452201
 20
75.97184435942843
 30
0.0
  0
SPLINE
  5
6B
330
1F
100
AcDbEntity
  8
IGES_LEVEL_0
 62
     7
100
AcDbSpline
210
0.0
220
0.0
230
1.0
 70
     8
 71
     3
 72
    16
 73
    12
 74
     0
 42
0.0000000001
 43
0.0000000001
 40
2.0
 40
2.0
 40
2.0
 40
2.0
 40
2.1325154544299
 40
2.2604160496743
 40
2.3817788902669
 40
2.4970856143515
 40
2.6069809515464
 40
2.7120105568247
 40
2.8125977436757
 40
2.9092353253226
 40
3.0
 40
3.0
 40
3.0
 40
3.0
 10
9.894633320452201
 20
75.97184435942843
 30
0.0
 10
9.512389328460685
 20
75.97062484736843
 30
0.0
 10
8.7610324397847
 20
75.93796830518842
 30
0.0
 10
7.666179649224702
 20
75.81421682243844
 30
0.0
 10
6.628117236356687
 20
75.64392598576843
 30
0.0
 10
5.649448956013501
 20
75.43789589836844
 30
0.0
 10
4.730480752647409
 20
75.18447935526844
 30
0.0
 10
3.870476638411603
 20
74.88501421302844
 30
0.0
 10
3.061430635241706
 20
74.55997948974844
 30
0.0
 10
2.285365985017691
 20
74.26345777098844
 30
0.0
 10
1.770445471898933
 20
74.09296329092682
 30
0.0
 10
1.514553147469684
 20
74.03851379363844
 30
0.0
  0
ARC
  5
6C
330
1F
100
AcDbEntity
  8
IGES_LEVEL_0
 62
     7
100
AcDbCircle
 10
1.679086812465819
 20
73.26526694877335
 30
0.0
 40
0.7905580370920853
100
AcDbArc
 50
102.0124041671355
 51
163.7721017002066
  0
LINE
  5
6D
330
1F
100
AcDbEntity
  8
IGES_LEVEL_0
 62
     7
100
AcDbLine
 10
0.9200264050787013
 20
73.48619523566343
 30
0.0
 11
0.9145468361976867
 21
73.45456648294844
 31
0.0
  0
LINE
  5
6E
330
1F
100
AcDbEntity
  8
IGES_LEVEL_0
 62
     7
100
AcDbLine
 10
0.9145468361976867
 20
73.45456648294844
 30
0.0
 11
0.9070080836186918
 21
73.41490441354843
 31
0.0
  0
LINE
  5
6F
330
1F
100
AcDbEntity
  8
IGES_LEVEL_0
 62
     7
100
AcDbLine
 10
0.9070080836186918
 20
73.41490441354843
 30
0.0
 11
0.8544272186387047
 21
73.18193946593344
 31
0.0
  0
LINE
  5
70
330
1F
100
AcDbEntity
  8
IGES_LEVEL_0
 62
     7
100
AcDbLine
 10
0.8544272186387047
 20
73.18193946593344
 30
0.0
 11
0.8365204004616942
 21
73.09694448960843
 31
0.0
  0
SPLINE
  5
71
330
1F
100
AcDbEntity
  8
IGES_LEVEL_0
 62
     7
100
AcDbSpline
210
0.0
220
0.0
230
1.0
 70
     8
 71
     3
 72
    49
 73
    45
 74
     0
 42
0.0000000001
 43
0.0000000001
 40
8.0
 40
8.0
 40
8.0
 40
8.0
 40
8.00967951062332
 40
8.0509169176415
 40
8.089750613087789
 40
8.126596468403946
 40
8.16177863436349
 40
8.195602585412512
 40
8.228322883767302
 40
8.260174862931315
 40
8.291285909581008
 40
8.32168975918604
 40
8.351405353323013
 40
8.380444316027708
 40
8.408833702845769
 40
8.436601655242519
 40
8.46380241790235
 40
8.490461617384433
 40
8.516604749496583
 40
8.542269034995295
 40
8.567489673490117
 40
8.592300205879083
 40
8.616735939405023
 40
8.640823593713176
 40
8.664559221897081
 40
8.687937754929079
 40
8.710944771548572
 40
8.733551323311396
 40
8.755728407427938
 40
8.777468340708305
 40
8.798707864078605
 40
8.819081012331457
 40
8.838064011392449
 40
8.855223740688256
 40
8.870499028393228
 40
8.884028847619851
 40
8.896026135358394
 40
8.907169249346167
 40
8.918460871704147
 40
8.931258407348384
 40
8.947163367172585
 40
8.966668299734698
 40
8.988100711604341
 40
9.0
 40
9.0
 40
9.0
 40
9.0
 10
0.8365204004616942
 20
73.09694448960843
 30
0.0
 10
0.83487038720871
 20
73.08941325331843
 30
0.0
 10
0.8264843647746858
 20
73.05051684044842
 30
0.0
 10
0.8128699201017042
 20
72.98171142063843
 30
0.0
 10
0.7971998805256959
 20
72.89169732270842
 30
0.0
 10
0.7839508699477022
 20
72.80608301393845
 30
0.0
 10
0.7725369185977087
 20
72.72415711408844
 30
0.0
 10
0.762520103550699
 20
72.64529831715844
 30
0.0
 10
0.7535698687267001
 20
72.56893145899842
 30
0.0
 10
0.7454236802077077
 20
72.49460730905842
 30
0.0
 10
0.7378906003456933
 20
72.42203835252845
 30
0.0
 10
0.7308374467927052
 20
72.35109876280843
 30
0.0
 10
0.7241718257617009
 20
72.28174824661842
 30
0.0
 10
0.7178136962186983
 20
72.21394979778843
 30
0.0
 10
0.7117077783467067
 20
72.14765641048844
 30
0.0
 10
0.7058173564036991
 20
72.08278571308843
 30
0.0
 10
0.7001633130336842
 20
72.01925118576843
 30
0.0
 10
0.6947873266446862
 20
71.95696677935844
 30
0.0
 10
0.6897095296416893
 20
71.89586201500843
 30
0.0
 10
0.6849476463867035
 20
71.83585936570843
 30
0.0
 10
0.6805244375816955
 20
71.77687493969843
 30
0.0
 10
0.6764605670687018
 20
71.71882693811843
 30
0.0
 10
0.6727762443317005
 20
71.66164069179844
 30
0.0
 10
0.6694948807116958
 20
71.60527118986843
 30
0.0
 10
0.6666423153966861
 20
71.54970546708843
 30
0.0
 10
0.6642488760576981
 20
71.49496320052843
 30
0.0
 10
0.6623440603616899
 20
71.44108447799843
 30
0.0
 10
0.6609505401637108
 20
71.38812917340844
 30
0.0
 10
0.6600829007916929
 20
71.33615282080844
 30
0.0
 10
0.6597624378666893
 20
71.28523826376843
 30
0.0
 10
0.6600230881796989
 20
71.23573292932844
 30
0.0
 10
0.6608246733996879
 20
71.18838800101842
 30
0.0
 10
0.6621356031756847
 20
71.14424352112843
 30
0.0
 10
0.6639269165136881
 20
71.10410273762842
 30
0.0
 10
0.6661942307726889
 20
71.06825380984843
 30
0.0
 10
0.6690312646247065
 20
71.03649171956843
 30
0.0
 10
0.6725727092117069
 20
71.00804927999843
 30
0.0
 10
0.6771375377446844
 20
70.98152015685844
 30
0.0
 10
0.6836518202026838
 20
70.95473978843843
 30
0.0
 10
0.6941719611596824
 20
70.92522654101843
 30
0.0
 10
0.712309851189687
 20
70.89196342567844
 30
0.0
 10
0.7418768526826938
 20
70.85818280459843
 30
0.0
 10
0.7767572363092086
 20
70.83510388485767
 30
0.0
 10
0.8013215881379587
 20
70.82580531126948
 30
0.0
 10
0.8102852373301914
 20
70.82320120884343
 30
0.0
  0
SPLINE
  5
72
330
1F
100
AcDbEntity
  8
IGES_LEVEL_0
 62
     7
100
AcDbSpline
210
0.0
220
0.0
230
1.0
 70
     8
 71
     3
 72
    27
 73
    23
 74
     0
 42
0.0000000001
 43
0.0000000001
 40
9.0
 40
9.0
 40
9.0
 40
9.0
 40
9.028345236421114
 40
9.060781796762333
 40
9.093405464911767
 40
9.126540566670807
 40
9.161353273093106
 40
9.197847357524205
 40
9.236158459941256
 40
9.276298583084861
 40
9.318147510449959
 40
9.361869713154658
 40
9.407428410900121
 40
9.455609787936716
 40
9.506727725664817
 40
9.56132899229981
 40
9.620137337828355
 40
9.683700694348103
 40
9.752666409786125
 40
9.82789360154675
 40
9.910883214643718
 40
10.0
 40
10.0
 40
10.0
 40
10.0
 10
0.8102852373301914
 20
70.82320120884343
 30
0.0
 10
0.8985282355977518
 20
70.79756501972651
 30
0.0
 10
1.091080431612497
 20
70.75339990069141
 30
0.0
 10
1.392994229142701
 20
70.72228926727844
 30
0.0
 10
1.711942641360693
 20
70.72940505661843
 30
0.0
 10
2.035418344592685
 20
70.77446873022844
 30
0.0
 10
2.364407834690709
 20
70.85653127062842
 30
0.0
 10
2.699692224640685
 20
70.97541940251843
 30
0.0
 10
3.039652246250697
 20
71.12858494666843
 30
0.0
 10
3.383915229741703
 20
71.31204213792843
 30
0.0
 10
3.733882711584684
 20
71.52081890400844
 30
0.0
 10
4.093011308679294
 20
71.74805661796843
 30
0.0
 10
4.470651654746106
 20
71.98441201386844
 30
0.0
 10
4.872309416810325
 20
72.22751850570843
 30
0.0
 10
5.305496733660206
 20
72.47492466113845
 30
0.0
 10
5.779130809874701
 20
72.72032804995844
 30
0.0
 10
6.30368832956971
 20
72.95341372046845
 30
0.0
 10
6.888762668502707
 20
73.16099021341843
 30
0.0
 10
7.540392083651696
 20
73.33328985717843
 30
0.0
 10
8.264968462549703
 20
73.46765861370842
 30
0.0
 10
9.062257519747689
 20
73.55659464028842
 30
0.0
 10
9.620205856783647
 20
73.57863591597327
 30
0.0
 10
9.909030238569699
 20
73.57955400997344
 30
0.0
  0
SPLINE
  5
73
330
1F
100
AcDbEntity
  8
IGES_LEVEL_0
 62
     7
100
AcDbSpline
210
0.0
220
0.0
230
1.0
 70
     8
 71
     3
 72
    27
 73
    23
 74
     0
 42
0.0000000001
 43
0.0000000001
 40
10.0
 40
10.0
 40
10.0
 40
10.0
 40
10.0891139092528
 40
10.1721272592168
 40
10.24739690146337
 40
10.31639425512171
 40
10.37995768859583
 40
10.43875332689834
 40
10.49334284416869
 40
10.54445129795112
 40
10.59262520786426
 40
10.63817690404443
 40
10.68189188051921
 40
10.72373164880066
 40
10.76386291332311
 40
10.80216995983693
 40
10.83866990134965
 40
10.8734998392478
 40
10.90666333395777
 40
10.93930189185319
 40
10.97171810801654
 40
11.0
 40
11.0
 40
11.0
 40
11.0
 10
9.909030238569699
 20
73.57955400997344
 30
0.0
 10
10.19782157406569
 20
73.58047199892845
 30
0.0
 10
10.7559197824467
 20
73.56195653198843
 30
0.0
 10
11.55389655650269
 20
73.47807889638843
 30
0.0
 10
12.27956896407069
 20
73.34829729918845
 30
0.0
 10
12.93246845688469
 20
73.18012930141843
 30
0.0
 10
13.5188636240557
 20
72.97627901265842
 30
0.0
 10
14.0447688297787
 20
72.74656425531843
 30
0.0
 10
14.51980258679269
 20
72.50421947319843
 30
0.0
 10
14.9544210204147
 20
72.25960904874843
 30
0.0
 10
15.3574981322447
 20
72.01908982120843
 30
0.0
 10
15.7365233480847
 20
71.78516503969844
 30
0.0
 10
16.09696886089471
 20
71.56023117950844
 30
0.0
 10
16.44812076868469
 20
71.35368067678844
 30
0.0
 10
16.7934086456447
 20
71.17238351504842
 30
0.0
 10
17.13424331697469
 20
71.02130725723843
 30
0.0
 10
17.4702728284247
 20
70.90444213897844
 30
0.0
 10
17.7998947204447
 20
70.82436087747844
 30
0.0
 10
18.12381794031469
 20
70.78130655028843
 30
0.0
 10
18.4428569275247
 20
70.77626611483844
 30
0.0
 10
18.74431144372413
 20
70.80934752397414
 30
0.0
 10
18.93631132284493
 20
70.85462324801792
 30
0.0
 10
19.0241642127247
 20
70.88083031810844
 30
0.0
  0
SPLINE
  5
74
330
1F
100
AcDbEntity
  8
IGES_LEVEL_0
 62
     7
100
AcDbSpline
210
0.0
220
0.0
230
1.0
 70
     8
 71
     3
 72
    51
 73
    47
 74
     0
 42
0.0000000001
 43
0.0000000001
 40
11.0
 40
11.0
 40
11.0
 40
11.0
 40
11.01156565176146
 40
11.03262700031979
 40
11.05179252079168
 40
11.06752894491668
 40
11.08010237033393
 40
11.09095949646357
 40
11.10143272177246
 40
11.11252059885752
 40
11.12482128305115
 40
11.13865432322942
 40
11.15421206617111
 40
11.17149835530741
 40
11.19026929200161
 40
11.21011231544835
 40
11.23057687745504
 40
11.25146653146867
 40
11.27274427806378
 40
11.2944074179427
 40
11.31642936058338
 40
11.33878545436074
 40
11.36146483748471
 40
11.3844663026318
 40
11.40778452729708
 40
11.43144223493306
 40
11.45547211236223
 40
11.47990230619294
 40
11.50476121426931
 40
11.53008258166793
 40
11.55589352537823
 40
11.58221304606863
 40
11.60907120040071
 40
11.63651649753319
 40
11.66456314606254
 40
11.69322768280344
 40
11.72252258876514
 40
11.75246495897174
 40
11.78309892641449
 40
11.81457733162272
 40
11.84711290169767
 40
11.88093713438129
 40
11.91632384493963
 40
11.95356053585854
 40
11.99301781059497
 40
12.0
 40
12.0
 40
12.0
 40
12.0
 10
19.0241642127247
 20
70.88083031810844
 30
0.0
 10
19.03283399267019
 20
70.88341656804298
 30
0.0
 10
19.05676982645483
 20
70.89258392981392
 30
0.0
 10
19.09086197779469
 20
70.91512600935843
 30
0.0
 10
19.1200198080047
 20
70.94816778509843
 30
0.0
 10
19.1380031428447
 20
70.98074848758843
 30
0.0
 10
19.1483672844647
 20
71.00954508696843
 30
0.0
 10
19.1546339311747
 20
71.03524390372844
 30
0.0
 10
19.15888874027469
 20
71.06016013051844
 30
0.0
 10
19.16207159264469
 20
71.08636344631843
 30
0.0
 10
19.16454576043469
 20
71.11526911266843
 30
0.0
 10
19.16648365182469
 20
71.14770435133843
 30
0.0
 10
19.16793100190471
 20
71.18405315360843
 30
0.0
 10
19.1689124973547
 20
71.22426630562843
 30
0.0
 10
19.1694338448347
 20
71.26782760220844
 30
0.0
 10
19.16946630270469
 20
71.31386886232843
 30
0.0
 10
19.1689617298747
 20
71.36155858216843
 30
0.0
 10
19.1679316970547
 20
71.41035805039844
 30
0.0
 10
19.16639940873471
 20
71.46007873582843
 30
0.0
 10
19.16438530905469
 20
71.51066526704842
 30
0.0
 10
19.1619025887447
 20
71.56207226101843
 30
0.0
 10
19.1589706899647
 20
71.61424874216844
 30
0.0
 10
19.15561803253469
 20
71.66716469583844
 30
0.0
 10
19.15186952440469
 20
71.72080566616843
 30
0.0
 10
19.1477475356747
 20
71.77518380395843
 30
0.0
 10
19.1432721355947
 20
71.83033806731844
 30
0.0
 10
19.1384599419347
 20
71.88633373192845
 30
0.0
 10
19.13332713432469
 20
71.94324084407843
 30
0.0
 10
19.1278922294847
 20
72.00113083274844
 30
0.0
 10
19.12217266159469
 20
72.06007453822842
 30
0.0
 10
19.11618234401469
 20
72.12013534229844
 30
0.0
 10
19.1099455672247
 20
72.18137496766845
 30
0.0
 10
19.1035029350047
 20
72.24387381970844
 30
0.0
 10
19.0968328525047
 20
72.30770226975842
 30
0.0
 10
19.08989497064469
 20
72.37291803694843
 30
0.0
 10
19.0826304304547
 20
72.43954841885842
 30
0.0
 10
19.0749674868547
 20
72.50762112448844
 30
0.0
 10
19.0668143437447
 20
72.57718252823842
 30
0.0
 10
19.0580397992447
 20
72.64838331098842
 30
0.0
 10
19.04845835864469
 20
72.72151904209842
 30
0.0
 10
19.0378226028247
 20
72.79702102883844
 30
0.0
 10
19.0258272839847
 20
72.87540252496844
 30
0.0
 10
19.0120677600347
 20
72.95721248217843
 30
0.0
 10
18.99601861879469
 20
73.04307667218843
 30
0.0
 10
18.9826313539147
 20
73.10690282601844
 30
0.0
 10
18.97461615994009
 20
73.14219704718735
 30
0.0
 10
18.9734256422697
 20
73.14761015380343
 30
0.0
  0
LINE
  5
75
330
1F
100
AcDbEntity
  8
IGES_LEVEL_0
 62
     7
100
AcDbLine
 10
18.9734256422697
 20
73.14761015380343
 30
0.0
 11
18.9547546916647
 21
73.23250418667844
 31
0.0
  0
LINE
  5
76
330
1F
100
AcDbEntity
  8
IGES_LEVEL_0
 62
     7
100
AcDbLine
 10
18.9547546916647
 20
73.23250418667844
 30
0.0
 11
18.89817349627469
 21
73.47205954116843
 31
0.0
  0
LINE
  5
77
330
1F
100
AcDbEntity
  8
IGES_LEVEL_0
 62
     7
100
AcDbLine
 10
18.89817349627469
 20
73.47205954116843
 30
0.0
 11
18.8900895928647
 21
73.51235232111843
 31
0.0
  0
LINE
  5
78
330
1F
100
AcDbEntity
  8
IGES_LEVEL_0
 62
     7
100
AcDbLine
 10
18.8900895928647
 20
73.51235232111843
 30
0.0
 11
18.8843966870147
 21
73.54330848173844
 31
0.0
  0
LINE
  5
79
330
1F
100
AcDbEntity
  8
IGES_LEVEL_0
 62
     7
100
AcDbLine
 10
18.9245724931147
 20
73.64932477199842
 30
0.0
 11
18.9059852116947
 21
73.86768797859843
 31
0.0
  0
ARC
  5
7A
330
1F
100
AcDbEntity
  8
IGES_LEVEL_0
 62
     7
100
AcDbCircle
 10
2.527999602282073
 20
34.64580033657787
 30
0.0
 40
16.61618206030145
100
AcDbArc
 50
0.1529581323388022
 51
5.994484584079999
  0
SPLINE
  5
7B
330
1F
100
AcDbEntity
  8
IGES_LEVEL_0
 62
     7
100
AcDbSpline
210
0.0
220
0.0
230
1.0
 70
     8
 71
     3
 72
    16
 73
    12
 74
     0
 42
0.0000000001
 43
0.0000000001
 40
0.316972004731609
 40
0.316972004731609
 40
0.316972004731609
 40
0.316972004731609
 40
0.3279016626154
 40
0.4093864871977
 40
0.4857860618019
 40
0.5606891859225001
 40
0.6385638981489
 40
0.7234777341319
 40
0.8161150871086
 40
0.9142026228958
 40
1.0
 40
1.0
 40
1.0
 40
1.0
 10
17.9117088734085
 20
35.07158605760754
 30
0.0
 10
17.91455684575846
 20
35.07176036867698
 30
0.0
 10
17.93865677409322
 20
35.07300811816617
 30
0.0
 10
17.98297196890185
 20
35.07155872269692
 30
0.0
 10
18.04183133359185
 20
35.05118738547692
 30
0.0
 10
18.08585392624185
 20
35.00816890465693
 30
0.0
 10
18.11283977562185
 20
34.95154090410692
 30
0.0
 10
18.12896459841185
 20
34.88667636690693
 30
0.0
 10
18.13811249927185
 20
34.81527940533692
 30
0.0
 10
18.14258530308185
 20
34.74327356948692
 30
0.0
 10
18.14390762204185
 20
34.69532810214692
 30
0.0
 10
18.14429641982185
 20
34.67295386587692
 30
0.0
  0
ARC
  5
7C
330
1F
100
AcDbEntity
  8
IGES_LEVEL_0
 62
     7
100
AcDbCircle
 10
16.98689137151161
 20
34.65510197457394
 30
0.0
 40
16.3791985772412
100
AcDbArc
 50
173.8167199394962
 51
179.8773676666561
  0
SPLINE
  5
7D
330
1F
100
AcDbEntity
  8
IGES_LEVEL_0
 62
     7
100
AcDbSpline
210
0.0
220
0.0
230
1.0
 70
     8
 71
     3
 72
    15
 73
    11
 74
     0
 42
0.0000000001
 43
0.0000000001
 40
0.0
 40
0.0
 40
0.0
 40
0.0
 40
0.0859100712083
 40
0.1839755113358
 40
0.2765915216767
 40
0.361486705193
 40
0.4393447099317
 40
0.5142336276944
 40
0.5906213432929
 40
0.6640343921751617
 40
0.6640343921751617
 40
0.6640343921751617
 40
0.6640343921751617
 10
1.607556374600847
 20
34.67295388218692
 30
0.0
 10
1.607945685954847
 20
34.69535751987692
 30
0.0
 10
1.609269220921847
 20
34.74332663819692
 30
0.0
 10
1.613746886011847
 20
34.81535034157692
 30
0.0
 10
1.622898236753847
 20
34.88673061517692
 30
0.0
 10
1.639026682804847
 20
34.95157913231692
 30
0.0
 10
1.666015676937847
 20
35.00819145897692
 30
0.0
 10
1.710036560664847
 20
35.05119466309692
 30
0.0
 10
1.766849040142657
 20
35.0708534315196
 30
0.0
 10
1.806099123593645
 20
35.07274321097262
 30
0.0
 10
1.825276300771107
 20
35.07224207801813
 30
0.0
  0
SPLINE
  5
7E
330
1F
100
AcDbEntity
  8
IGES_LEVEL_0
 62
     7
100
AcDbSpline
210
0.0
220
0.0
230
1.0
 70
     8
 71
     3
 72
    26
 73
    22
 74
     0
 42
0.0000000001
 43
0.0000000001
 40
0.0
 40
0.0
 40
0.0
 40
0.0
 40
0.05180108195353
 40
0.1071915981961
 40
0.1645132123208
 40
0.2239144280844
 40
0.2850319384214
 40
0.3491618588015
 40
0.415365185616
 40
0.4797788674021
 40
0.5407054441474
 40
0.5982352439023
 40
0.6525848620139
 40
0.7041092281777001
 40
0.7531459177423
 40
0.7999258077725
 40
0.84459417629
 40
0.8872838031219
 40
0.9282528464997
 40
0.9673287816662
 40
1.0
 40
1.0
 40
1.0
 40
1.0
 10
19.00092636213083
 20
36.05785871142692
 30
0.0
 10
19.02714834861084
 20
36.17618348292692
 30
0.0
 10
19.06211709761084
 20
36.42522229790693
 30
0.0
 10
19.09271180547083
 20
36.80885311586692
 30
0.0
 10
19.11333739354083
 20
37.21110759430692
 30
0.0
 10
19.12766140614083
 20
37.62697525336692
 30
0.0
 10
19.13469719634082
 20
38.05899011131692
 30
0.0
 10
19.13268195047083
 20
38.50696951220692
 30
0.0
 10
19.12269899201083
 20
38.96254333562692
 30
0.0
 10
19.10781476187083
 20
39.41047386587692
 30
0.0
 10
19.09053509422083
 20
39.83800493365692
 30
0.0
 10
19.07258288371082
 20
40.24193666089693
 30
0.0
 10
19.05507358195084
 20
40.62386668073692
 30
0.0
 10
19.03741982343084
 20
40.98589608997692
 30
0.0
 10
19.01884586995084
 20
41.33014547617692
 30
0.0
 10
18.99838290230083
 20
41.65821766037692
 30
0.0
 10
18.97520769551083
 20
41.97122922607692
 30
0.0
 10
18.94809187747083
 20
42.27026639675692
 30
0.0
 10
18.91693716832083
 20
42.55579839881692
 30
0.0
 10
18.87842520711084
 20
42.81673074022692
 30
0.0
 10
18.85671575622063
 20
42.98319816360046
 30
0.0
 10
18.84594390021083
 20
43.05891987621692
 30
0.0
  0
SPLINE
  5
7F
330
1F
100
AcDbEntity
  8
IGES_LEVEL_0
 62
     7
100
AcDbSpline
210
0.0
220
0.0
230
1.0
 70
     8
 71
     3
 72
    15
 73
    11
 74
     0
 42
0.0000000001
 43
0.0000000001
 40
1.0
 40
1.0
 40
1.0
 40
1.0
 40
1.115642223963397
 40
1.235672516040326
 40
1.351273210694683
 40
1.471608280623501
 40
1.597927179434149
 40
1.73113783136071
 40
1.87212585544457
 40
2.0
 40
2.0
 40
2.0
 40
2.0
 10
18.84594390021083
 20
43.05891987621692
 30
0.0
 10
18.84122433851083
 20
43.09209645176692
 30
0.0
 10
18.82591773589083
 20
43.15897886421692
 30
0.0
 10
18.78424215400082
 20
43.25235386629692
 30
0.0
 10
18.72314516720083
 20
43.33611173169692
 30
0.0
 10
18.64427466205083
 20
43.40623431111693
 30
0.0
 10
18.54801854475083
 20
43.46070179300693
 30
0.0
 10
18.43742214301084
 20
43.49716408106692
 30
0.0
 10
18.32199147679258
 20
43.51432063010893
 30
0.0
 10
18.24407046073711
 20
43.51554371231793
 30
0.0
 10
18.20711202889083
 20
43.51421798160192
 30
0.0
  0
LINE
  5
80
330
1F
100
AcDbEntity
  8
IGES_LEVEL_0
 62
     7
100
AcDbLine
 10
18.20711202889083
 20
43.51421798160192
 30
0.0
 11
18.18357612825083
 21
43.51337372861692
 31
0.0
  0
SPLINE
  5
81
330
1F
100
AcDbEntity
  8
IGES_LEVEL_0
 62
     7
100
AcDbSpline
210
0.0
220
0.0
230
1.0
 70
     8
 71
     3
 72
    15
 73
    11
 74
     0
 42
0.0000000001
 43
0.0000000001
 40
3.0
 40
3.0
 40
3.0
 40
3.0
 40
3.09398622221632
 40
3.201069531642
 40
3.3168753546999
 40
3.4431713848518
 40
3.5780853419495
 40
3.7182166469539
 40
3.8605666809788
 40
4.0
 40
4.0
 40
4.0
 40
4.0
 10
18.18357612825083
 20
43.51337372861692
 30
0.0
 10
17.92245052645083
 20
43.50387558653693
 30
0.0
 10
17.36411000194083
 20
43.47539767481693
 30
0.0
 10
16.48500526268083
 20
43.41802968005693
 30
0.0
 10
15.51692548806084
 20
43.34507487318692
 30
0.0
 10
14.47273946854683
 20
43.25368850522692
 30
0.0
 10
13.36111971938483
 20
43.15703187627693
 30
0.0
 10
12.20283383190584
 20
43.08323337586693
 30
0.0
 10
11.03016160642584
 20
43.04892616006693
 30
0.0
 10
10.246746395602
 20
43.04272257618577
 30
0.0
 10
9.859096726314832
 20
43.04226002078192
 30
0.0
  0
SPLINE
  5
82
330
1F
100
AcDbEntity
  8
IGES_LEVEL_0
 62
     7
100
AcDbSpline
210
0.0
220
0.0
230
1.0
 70
     8
 71
     3
 72
    15
 73
    11
 74
     0
 42
0.0000000001
 43
0.0000000001
 40
4.0
 40
4.0
 40
4.0
 40
4.0
 40
4.1393605044019
 40
4.2818056341164
 40
4.4219917542004
 40
4.5569167723233
 40
4.6831723925599
 40
4.7988933925093
 40
4.9059014967853
 40
5.0
 40
5.0
 40
5.0
 40
5.0
 10
9.859096726314832
 20
43.04226002078192
 30
0.0
 10
9.472239191364821
 20
43.04179841057692
 30
0.0
 10
8.689942456853828
 20
43.04625618340693
 30
0.0
 10
7.518765781596841
 20
43.07782984532692
 30
0.0
 10
6.361630329536837
 20
43.14889674427693
 30
0.0
 10
5.251425579031235
 20
43.24301470998692
 30
0.0
 10
4.208958239185819
 20
43.33207644988693
 30
0.0
 10
3.242759176823824
 20
43.40289299017692
 30
0.0
 10
2.365007216485822
 20
43.45833638105692
 30
0.0
 10
1.807358249418559
 20
43.48571105857188
 30
0.0
 10
1.546294277916843
 20
43.49451076744692
 30
0.0
  0
LINE
  5
83
330
1F
100
AcDbEntity
  8
IGES_LEVEL_0
 62
     7
100
AcDbLine
 10
1.546294277916843
 20
43.49451076744692
 30
0.0
 11
1.522193704361328
 21
43.49532312784192
 31
0.0
  0
SPLINE
  5
84
330
1F
100
AcDbEntity
  8
IGES_LEVEL_0
 62
     7
100
AcDbSpline
210
0.0
220
0.0
230
1.0
 70
     8
 71
     3
 72
    15
 73
    11
 74
     0
 42
0.0000000001
 43
0.0000000001
 40
6.0
 40
6.0
 40
6.0
 40
6.0
 40
6.125911162516983
 40
6.267006916979449
 40
6.400346768727547
 40
6.526801190324339
 40
6.647218019246925
 40
6.762810869683256
 40
6.882703538010463
 40
7.0
 40
7.0
 40
7.0
 40
7.0
 10
1.522193704361328
 20
43.49532312784192
 30
0.0
 10
1.485841182904949
 20
43.49653974871756
 30
0.0
 10
1.408555195816177
 20
43.49521783042564
 30
0.0
 10
1.293762028869821
 20
43.47808915729693
 30
0.0
 10
1.18322954020482
 20
43.44150602124692
 30
0.0
 10
1.087100673005836
 20
43.38685454006692
 30
0.0
 10
1.008494695938822
 20
43.31651803580692
 30
0.0
 10
0.9478039473368369
 20
43.23263115784692
 30
0.0
 10
0.9064244627828373
 20
43.13877358028692
 30
0.0
 10
0.891409270417705
 20
43.07144490039399
 30
0.0
 10
0.8868819573478248
 20
43.03779999392192
 30
0.0
  0
SPLINE
  5
85
330
1F
100
AcDbEntity
  8
IGES_LEVEL_0
 62
     7
100
AcDbSpline
210
0.0
220
0.0
230
1.0
 70
     8
 71
     3
 72
    26
 73
    22
 74
     0
 42
0.0000000001
 43
0.0000000001
 40
7.0
 40
7.0
 40
7.0
 40
7.0
 40
7.03250527581496
 40
7.07168624103602
 40
7.112788628129
 40
7.1556258749788
 40
7.2004506261742
 40
7.247387982935
 40
7.2965763145424
 40
7.34826957632
 40
7.4028616961667
 40
7.4607443235963
 40
7.5219761308525
 40
7.5863826446735
 40
7.6521499060373
 40
7.7156823891385
 40
7.7763079965302
 40
7.8353490127326
 40
7.8924758708678
 40
7.94784209807
 40
8.0
 40
8.0
 40
8.0
 40
8.0
 10
0.8868819573478248
 20
43.03779999392192
 30
0.0
 10
0.8767367509568373
 20
42.96240549062692
 30
0.0
 10
0.855981098784838
 20
42.79601205080692
 30
0.0
 10
0.8187879536198182
 20
42.53479691709693
 30
0.0
 10
0.7890443964288352
 20
42.24829369723693
 30
0.0
 10
0.7634027628918432
 20
41.94819085100693
 30
0.0
 10
0.7417862480878341
 20
41.63408075520692
 30
0.0
 10
0.7229636532108259
 20
41.30491922196693
 30
0.0
 10
0.7061085979178188
 20
40.95956621371693
 30
0.0
 10
0.6902520293858174
 20
40.59624496126692
 30
0.0
 10
0.6746079721658305
 20
40.21256047359692
 30
0.0
 10
0.6586335976408293
 20
39.80655975430693
 30
0.0
 10
0.643517630022842
 20
39.37755245273692
 30
0.0
 10
0.6310119994698198
 20
38.93000752430692
 30
0.0
 10
0.6235019165758331
 20
38.47695799503693
 30
0.0
 10
0.6239171049648178
 20
38.03267879772692
 30
0.0
 10
0.6328529648408221
 20
37.60422468930693
 30
0.0
 10
0.6483430984428367
 20
37.19097882535692
 30
0.0
 10
0.6696161736958288
 20
36.79023748079692
 30
0.0
 10
0.7007079167158281
 20
36.40644860232692
 30
0.0
 10
0.7342727460484003
 20
36.15638552096338
 30
0.0
 10
0.7620098073233379
 20
36.03748525510193
 30
0.0
  0
ARC
  5
86
330
1F
100
AcDbEntity
  8
IGES_LEVEL_0
 62
     7
100
AcDbCircle
 10
1.275540369703051
 20
36.16171169833307
 30
0.0
 40
0.5283425476865207
100
AcDbArc
 50
193.5989802411693
 51
228.2321676165949
  0
SPLINE
  5
87
330
1F
100
AcDbEntity
  8
IGES_LEVEL_0
 62
     7
100
AcDbSpline
210
0.0
220
0.0
230
1.0
 70
     8
 71
     3
 72
    21
 73
    17
 74
     0
 42
0.0000000001
 43
0.0000000001
 40
9.0
 40
9.0
 40
9.0
 40
9.0
 40
9.05098047018806
 40
9.107664448148826
 40
9.166773598756809
 40
9.227189553075816
 40
9.288453181912345
 40
9.351391316648938
 40
9.41869980921603
 40
9.491541988549736
 40
9.569988779538011
 40
9.653037778176666
 40
9.739143024773501
 40
9.826953249953149
 40
9.915131667892084
 40
10.0
 40
10.0
 40
10.0
 40
10.0
 10
0.9236040906438205
 20
35.76764735945193
 30
0.0
 10
1.047985871989226
 20
35.65656280550891
 30
0.0
 10
1.323173629656566
 20
35.43609012448506
 30
0.0
 10
1.762676610466826
 20
35.11288006298693
 30
0.0
 10
2.237735111949831
 20
34.78622765227692
 30
0.0
 10
2.731975344872836
 20
34.46141939657692
 30
0.0
 10
3.241247452322824
 20
34.13674724843692
 30
0.0
 10
3.775338732554843
 20
33.80928055087692
 30
0.0
 10
4.353327917589922
 20
33.48094969417693
 30
0.0
 10
5.002096178007037
 20
33.17812162702693
 30
0.0
 10
5.722135377317841
 20
32.91243676754692
 30
0.0
 10
6.504116451879838
 20
32.69781845010692
 30
0.0
 10
7.329890386139823
 20
32.53724915604693
 30
0.0
 10
8.180485595083837
 20
32.42585097927692
 30
0.0
 10
9.031867605044823
 20
32.36262918348692
 30
0.0
 10
9.598064978708212
 20
32.34958433206214
 30
0.0
 10
9.875692576484823
 20
32.34990200776193
 30
0.0
  0
SPLINE
  5
88
330
1F
100
AcDbEntity
  8
IGES_LEVEL_0
 62
     7
100
AcDbSpline
210
0.0
220
0.0
230
1.0
 70
     8
 71
     3
 72
    21
 73
    17
 74
     0
 42
0.0000000001
 43
0.0000000001
 40
10.0
 40
10.0
 40
10.0
 40
10.0
 40
10.08437424581794
 40
10.17238145067195
 40
10.26013552142077
 40
10.34627092336846
 40
10.42941226940505
 40
10.50799141476531
 40
10.58097908845747
 40
10.64842885222759
 40
10.71148649899018
 40
10.77281722090322
 40
10.83323523248231
 40
10.89229796822399
 40
10.94890269935905
 40
11.0
 40
11.0
 40
11.0
 40
11.0
 10
9.875692576484823
 20
32.34990200776193
 30
0.0
 10
10.15219890400684
 20
32.35021840044692
 30
0.0
 10
10.71719880842983
 20
32.36445465869692
 30
0.0
 10
11.56762002106683
 20
32.42928889207693
 30
0.0
 10
12.41889357632083
 20
32.54233807077692
 30
0.0
 10
13.24609828877382
 20
32.70456200571692
 30
0.0
 10
14.02999244751383
 20
32.92083477442692
 30
0.0
 10
14.75217797744783
 20
33.18816644941693
 30
0.0
 10
15.40313003730083
 20
33.49258374707692
 30
0.0
 10
15.98319387693083
 20
33.82236491910692
 30
0.0
 10
16.51908533900084
 20
34.15110116395692
 30
0.0
 10
17.02965496606083
 20
34.47690386136692
 30
0.0
 10
17.52458857768083
 20
34.80272533718693
 30
0.0
 10
17.99978881848082
 20
35.13028283114692
 30
0.0
 10
18.43958411609022
 20
35.45470102339213
 30
0.0
 10
18.71407910058497
 20
35.67714339812587
 30
0.0
 10
18.83965384641083
 20
35.78790327066692
 30
0.0
  0
ARC
  5
89
330
1F
100
AcDbEntity
  8
IGES_LEVEL_0
 62
     7
100
AcDbCircle
 10
18.49818034266603
 20
36.17505113798794
 30
0.0
 40
0.5162243939712227
100
AcDbArc
 50
311.4130498624818
 51
346.8784052842224
  0
ARC
  5
8B
330
1F
100
AcDbEntity
  8
DEFAULT
 62
     7
100
AcDbCircle
 10
36.69770579258006
 20
42.44494287234437
 30
0.0
 40
0.8571643706493283
100
AcDbArc
 50
31.9616730003213
 51
55.9384591666446
  0
LINE
  5
8C
330
1F
100
AcDbEntity
  8
DEFAULT
 62
     7
100
AcDbLine
 10
37.17778902065186
 20
43.15504909850692
 30
0.0
 11
37.17055012626186
 21
43.15994311528692
 31
0.0
  0
ARC
  5
8D
330
1F
100
AcDbEntity
  8
DEFAULT
 62
     7
100
AcDbCircle
 10
36.96353165774211
 20
42.90913843317105
 30
0.0
 40
0.3252070646211501
100
AcDbArc
 50
50.46315254883287
 51
102.1672644187878
  0
LINE
  5
8E
330
1F
100
AcDbEntity
  8
DEFAULT
 62
     7
100
AcDbLine
 10
36.89498896097187
 20
43.22704020038692
 30
0.0
 11
36.85096022205185
 21
43.20844564059692
 31
0.0
  0
LINE
  5
8F
330
1F
100
AcDbEntity
  8
DEFAULT
 62
     7
100
AcDbLine
 10
36.85096022205185
 20
43.20844564059692
 30
0.0
 11
35.14495904337186
 21
42.71559504394692
 31
0.0
  0
ARC
  5
90
330
1F
100
AcDbEntity
  8
DEFAULT
 62
     7
100
AcDbCircle
 10
35.12897324055309
 20
42.59270819426062
 30
0.0
 40
0.123922248678688
100
AcDbArc
 50
82.58826801143532
 51
156.5346064036469
  0
LINE
  5
91
330
1F
100
AcDbEntity
  8
DEFAULT
 62
     7
100
AcDbLine
 10
35.01529926892185
 20
42.64205342595692
 30
0.0
 11
34.9912242850581
 21
42.53280742240111
 31
0.0
  0
ARC
  5
92
330
1F
100
AcDbEntity
  8
DEFAULT
 62
     7
100
AcDbCircle
 10
35.06723968663811
 20
42.51457683132348
 30
0.0
 40
0.0781709391552294
100
AcDbArc
 50
166.5136070789388
 51
244.8348256827607
  0
ARC
  5
93
330
1F
100
AcDbEntity
  8
DEFAULT
 62
     7
100
AcDbCircle
 10
34.46493772484872
 20
41.07008937470582
 30
0.0
 40
1.486936995251398
100
AcDbArc
 50
28.16661885989799
 51
67.4985302257806
  0
LINE
  5
94
330
1F
100
AcDbEntity
  8
DEFAULT
 62
     7
100
AcDbLine
 10
35.77578958269186
 20
41.77197899183692
 30
0.0
 11
35.93070761219185
 21
41.48265345997692
 31
0.0
  0
LINE
  5
95
330
1F
100
AcDbEntity
  8
DEFAULT
 62
     7
100
AcDbLine
 10
35.93070761219185
 20
41.48265345997692
 30
0.0
 11
36.05826346493187
 21
41.20324806023692
 31
0.0
  0
LINE
  5
96
330
1F
100
AcDbEntity
  8
DEFAULT
 62
     7
100
AcDbLine
 10
36.05826346493187
 20
41.20324806023692
 30
0.0
 11
36.06011703462185
 21
41.19889471233692
 31
0.0
  0
LINE
  5
97
330
1F
100
AcDbEntity
  8
DEFAULT
 62
     7
100
AcDbLine
 10
36.06011703462185
 20
41.19889471233692
 30
0.0
 11
36.17426742259185
 21
40.91356457281692
 31
0.0
  0
ARC
  5
98
330
1F
100
AcDbEntity
  8
DEFAULT
 62
     7
100
AcDbCircle
 10
25.95641724406323
 20
37.09892276225247
 30
0.0
 40
10.90669310165844
100
AcDbArc
 50
11.17293959216857
 51
20.47216998687309
  0
LINE
  5
99
330
1F
100
AcDbEntity
  8
DEFAULT
 62
     7
100
AcDbLine
 10
36.65639340831186
 20
39.21232393057692
 30
0.0
 11
36.70574359358186
 21
38.96246800449691
 31
0.0
  0
LINE
  5
9A
330
1F
100
AcDbEntity
  8
DEFAULT
 62
     7
100
AcDbLine
 10
36.70574359358186
 20
38.96246800449691
 30
0.0
 11
36.74619559484187
 21
38.73584021539692
 31
0.0
  0
LINE
  5
9B
330
1F
100
AcDbEntity
  8
DEFAULT
 62
     7
100
AcDbLine
 10
36.74619559484187
 20
38.73584021539692
 30
0.0
 11
36.75139339500187
 21
38.70495163712692
 31
0.0
  0
ARC
  5
9C
330
1F
100
AcDbEntity
  8
DEFAULT
 62
     7
100
AcDbCircle
 10
23.75593001315974
 20
36.64312874804875
 30
0.0
 40
13.15800828905067
100
AcDbArc
 50
352.5386178728199
 51
9.015240832641563
  0
LINE
  5
9D
330
1F
100
AcDbEntity
  8
DEFAULT
 62
     7
100
AcDbLine
 10
36.80252434070185
 20
34.93445716249692
 30
0.0
 11
36.79718073379186
 21
34.89365595049692
 31
0.0
  0
LINE
  5
9E
330
1F
100
AcDbEntity
  8
DEFAULT
 62
     7
100
AcDbLine
 10
36.79718073379186
 20
34.89365595049692
 30
0.0
 11
36.77213354270187
 21
34.71173805452692
 31
0.0
  0
LINE
  5
9F
330
1F
100
AcDbEntity
  8
DEFAULT
 62
     7
100
AcDbLine
 10
36.77213354270187
 20
34.71173805452692
 30
0.0
 11
36.73859925185185
 21
34.48761209330692
 31
0.0
  0
ARC
  5
A0
330
1F
100
AcDbEntity
  8
DEFAULT
 62
     7
100
AcDbCircle
 10
13.58962820646048
 20
38.21942591830339
 30
0.0
 40
23.44784200912321
100
AcDbArc
 50
347.7546462892958
 51
350.8422151760246
  0
ARC
  5
A1
330
1F
100
AcDbEntity
  8
DEFAULT
 62
     7
100
AcDbCircle
 10
32.24226044439914
 20
34.15870534302493
 30
0.0
 40
4.358333154806136
100
AcDbArc
 50
339.1093962044428
 51
347.9142210650098
  0
ARC
  5
A2
330
1F
100
AcDbEntity
  8
DEFAULT
 62
     7
100
AcDbCircle
 10
36.38883105717123
 20
32.57606404048133
 30
0.0
 40
0.0800000164713356
100
AcDbArc
 50
159.1100087117984
 51
255.8123667253292
  0
LINE
  5
A3
330
1F
100
AcDbEntity
  8
DEFAULT
 62
     7
100
AcDbLine
 10
36.36922320233337
 20
32.4985041625542
 30
0.0
 11
36.45541728768691
 21
32.47671350018257
 31
0.0
  0
ARC
  5
A4
330
1F
100
AcDbEntity
  8
DEFAULT
 62
     7
100
AcDbCircle
 10
36.47508012821938
 20
32.55449160161619
 30
0.0
 40
0.0802250606757165
100
AcDbArc
 50
255.8124935925628
 51
285.5111410056076
  0
LINE
  5
A5
330
1F
100
AcDbEntity
  8
DEFAULT
 62
     7
100
AcDbLine
 10
36.49653437494231
 20
32.47718846029597
 30
0.0
 11
36.50125522999186
 21
32.47528116476692
 31
0.0
  0
LINE
  5
A6
330
1F
100
AcDbEntity
  8
DEFAULT
 62
     7
100
AcDbLine
 10
36.50125522999186
 20
32.47528116476692
 30
0.0
 11
36.50764664407686
 21
32.47328602834692
 31
0.0
  0
LINE
  5
A7
330
1F
100
AcDbEntity
  8
DEFAULT
 62
     7
100
AcDbLine
 10
36.50764664407686
 20
32.47328602834692
 30
0.0
 11
36.59355187503686
 21
32.45038549605692
 31
0.0
  0
ARC
  5
A8
330
1F
100
AcDbEntity
  8
DEFAULT
 62
     7
100
AcDbCircle
 10
36.59063210831939
 20
32.66106549632813
 30
0.0
 40
0.2107002314947986
100
AcDbArc
 50
270.7939984851532
 51
311.3881386314685
  0
ARC
  5
A9
330
1F
100
AcDbEntity
  8
DEFAULT
 62
     7
100
AcDbCircle
 10
31.65426672722477
 20
40.29339224679382
 30
0.0
 40
9.298001692283856
100
AcDbArc
 50
303.0853943749387
 51
310.7566681420441
  0
ARC
  5
AA
330
1F
100
AcDbEntity
  8
IGES_LEVEL_0
 62
     7
100
AcDbCircle
 10
35.00059985367614
 20
36.77557155681586
 30
0.0
 40
1.955009001099485
100
AcDbArc
 50
1.047369269862948
 51
6.684918544883476
  0
LINE
  5
AB
330
1F
100
AcDbEntity
  8
IGES_LEVEL_0
 62
     7
100
AcDbLine
 10
36.95528222102186
 20
36.81130721362692
 30
0.0
 11
36.95586607414187
 21
36.77937139655692
 31
0.0
  0
LINE
  5
AC
330
1F
100
AcDbEntity
  8
IGES_LEVEL_0
 62
     7
100
AcDbLine
 10
36.95586607414187
 20
36.77937139655692
 30
0.0
 11
36.95593641495687
 21
36.77331766396692
 31
0.0
  0
LINE
  5
AD
330
1F
100
AcDbEntity
  8
IGES_LEVEL_0
 62
     7
100
AcDbLine
 10
36.95593641495687
 20
36.77331766396692
 30
0.0
 11
36.95604829965187
 21
36.75951630250692
 31
0.0
  0
LINE
  5
AE
330
1F
100
AcDbEntity
  8
IGES_LEVEL_0
 62
     7
100
AcDbLine
 10
36.95604829965187
 20
36.75951630250692
 30
0.0
 11
36.95609334002187
 21
36.74470161058692
 31
0.0
  0
LINE
  5
AF
330
1F
100
AcDbEntity
  8
IGES_LEVEL_0
 62
     7
100
AcDbLine
 10
36.95609334002187
 20
36.74470161058692
 30
0.0
 11
36.94557517539185
 21
36.53768965932692
 31
0.0
  0
LINE
  5
B0
330
1F
100
AcDbEntity
  8
IGES_LEVEL_0
 62
     7
100
AcDbLine
 10
36.94557517539185
 20
36.53768965932692
 30
0.0
 11
36.94587064695186
 21
36.53905062701692
 31
0.0
  0
ARC
  5
B1
330
1F
100
AcDbEntity
  8
IGES_LEVEL_0
 62
     7
100
AcDbCircle
 10
38.52737522131565
 20
38.12257975977197
 30
0.0
 40
0.7533285630040831
100
AcDbArc
 50
21.88448475540728
 51
37.96686913253889
  0
LINE
  5
B2
330
1F
100
AcDbEntity
  8
IGES_LEVEL_0
 62
     7
100
AcDbLine
 10
39.22641683534185
 20
38.40337282538692
 30
0.0
 11
39.23872526693187
 21
38.37273066595192
 31
0.0
  0
LINE
  5
B3
330
1F
100
AcDbEntity
  8
IGES_LEVEL_0
 62
     7
100
AcDbLine
 10
39.23872526693187
 20
38.37273066595192
 30
0.0
 11
39.24108958662187
 21
38.36647595802692
 31
0.0
  0
LINE
  5
B4
330
1F
100
AcDbEntity
  8
IGES_LEVEL_0
 62
     7
100
AcDbLine
 10
39.24108958662187
 20
38.36647595802692
 30
0.0
 11
39.24912145264186
 21
38.34410213304692
 31
0.0
  0
ARC
  5
B5
330
1F
100
AcDbEntity
  8
IGES_LEVEL_0
 62
     7
100
AcDbCircle
 10
38.89896583306208
 20
38.20044715785541
 30
0.0
 40
0.3784781497267353
100
AcDbArc
 50
354.595536625532
 51
22.30639940708642
  0
SPLINE
  5
B6
330
1F
100
AcDbEntity
  8
IGES_LEVEL_0
 62
     7
100
AcDbSpline
210
0.0
220
0.0
230
1.0
 70
     8
 71
     3
 72
    17
 73
    13
 74
     0
 42
0.0000000001
 43
0.0000000001
 40
0.0
 40
0.0
 40
0.0
 40
0.0
 40
0.0009284085701087
 40
0.02725068436519
 40
0.08695035955722
 40
0.1737825487456
 40
0.2847877832873
 40
0.4187048667787
 40
0.5752944157627
 40
0.7492072411559
 40
0.9355544990521
 40
1.0
 40
1.0
 40
1.0
 40
1.0
 10
38.59883521761186
 20
37.90286491593692
 30
0.0
 10
38.59881908879186
 20
37.90287469273692
 30
0.0
 10
38.59842954823186
 20
37.90309051310692
 30
0.0
 10
38.60552852737186
 20
37.89668764524691
 30
0.0
 10
38.61027015965186
 20
37.89062799757691
 30
0.0
 10
38.62148619321185
 20
37.87697354942692
 30
0.0
 10
38.63287748254186
 20
37.86024283093692
 30
0.0
 10
38.64603230711187
 20
37.83851544595692
 30
0.0
 10
38.65927743172186
 20
37.81262772991692
 30
0.0
 10
38.67220633157186
 20
37.78285911252692
 30
0.0
 10
38.68112004144186
 20
37.75774247278692
 30
0.0
 10
38.68581318584297
 20
37.74272045795692
 30
0.0
 10
38.68679987080186
 20
37.73880312971691
 30
0.0
  0
LINE
  5
B7
330
1F
100
AcDbEntity
  8
IGES_LEVEL_0
 62
     7
100
AcDbLine
 10
38.68679987080186
 20
37.73880312971691
 30
0.0
 11
38.69481710363186
 21
37.70697318005692
 31
0.0
  0
LINE
  5
B8
330
1F
100
AcDbEntity
  8
IGES_LEVEL_0
 62
     7
100
AcDbLine
 10
38.69481710363186
 20
37.70697318005692
 30
0.0
 11
38.69738158001185
 21
37.69410723998692
 31
0.0
  0
LINE
  5
B9
330
1F
100
AcDbEntity
  8
IGES_LEVEL_0
 62
     7
100
AcDbLine
 10
38.69738158001185
 20
37.69410723998692
 30
0.0
 11
38.69973185525187
 21
37.68007664657692
 31
0.0
  0
ARC
  5
BA
330
1F
100
AcDbEntity
  8
IGES_LEVEL_0
 62
     7
100
AcDbCircle
 10
38.47916801254481
 20
37.63334663786835
 30
0.0
 40
0.2254597578806629
100
AcDbArc
 50
335.7206219055078
 51
11.96214612224857
  0
ARC
  5
BB
330
1F
100
AcDbEntity
  8
IGES_LEVEL_0
 62
     7
100
AcDbCircle
 10
36.88884710263138
 20
36.75381274881278
 30
0.0
 40
3.549906614575539
100
AcDbArc
 50
304.4913384545744
 51
329.1776575972457
  0
LINE
  5
BC
330
1F
100
AcDbEntity
  8
IGES_LEVEL_0
 62
     7
100
AcDbLine
 10
39.93736547951686
 20
34.93491949246192
 30
0.0
 11
39.93808128835185
 21
34.93611920903692
 31
0.0
  0
LINE
  5
BD
330
1F
100
AcDbEntity
  8
IGES_LEVEL_0
 62
     7
100
AcDbLine
 10
39.93808128835185
 20
34.93611920903692
 30
0.0
 11
39.95453337519186
 21
34.96435574872692
 31
0.0
  0
SPLINE
  5
BE
330
1F
100
AcDbEntity
  8
IGES_LEVEL_0
 62
     7
100
AcDbSpline
210
0.0
220
0.0
230
1.0
 70
     8
 71
     3
 72
    36
 73
    32
 74
     0
 42
0.0000000001
 43
0.0000000001
 40
3.0
 40
3.0
 40
3.0
 40
3.0
 40
3.01618918618678
 40
3.0620393966223
 40
3.1050243092829
 40
3.1464893081717
 40
3.187974740516
 40
3.2296745247196
 40
3.2693062290088
 40
3.3055165250436
 40
3.3411278585772
 40
3.3802548264878
 40
3.4222995211009
 40
3.4657198727841
 40
3.5091150624667
 40
3.5518782688055
 40
3.5933405909932
 40
3.6330569062548
 40
3.6709785646168
 40
3.7072427043865
 40
3.7422895176906
 40
3.7763621004082
 40
3.8093014603794
 40
3.8409467186116
 40
3.8711508780586
 40
3.8995308761226
 40
3.9252342640666
 40
3.947898228542
 40
3.9681676789982
 40
3.9864888872319
 40
4.0
 40
4.0
 40
4.0
 40
4.0
 10
39.95453337519186
 20
34.96435574872692
 30
0.0
 10
39.97804187305185
 20
35.00488634335692
 30
0.0
 10
40.06680615495186
 20
35.16097443483692
 30
0.0
 10
40.20763691108185
 20
35.43049393838692
 30
0.0
 10
40.35934173877186
 20
35.77612681507692
 30
0.0
 10
40.47407793369186
 20
36.12275971694692
 30
0.0
 10
40.54696418775187
 20
36.47694302943692
 30
0.0
 10
40.57877915943186
 20
36.83146553110692
 30
0.0
 10
40.58286034785185
 20
37.17192349982692
 30
0.0
 10
40.55789063552186
 20
37.49400910701692
 30
0.0
 10
40.49869197896186
 20
37.81026135764692
 30
0.0
 10
40.39862926472186
 20
38.13376008175692
 30
0.0
 10
40.26257543841186
 20
38.46779048906691
 30
0.0
 10
40.11941981305186
 20
38.81208651304692
 30
0.0
 10
39.97200622253186
 20
39.15689124349692
 30
0.0
 10
39.82462290538186
 20
39.49552211976692
 30
0.0
 10
39.67954700255186
 20
39.82354290357692
 30
0.0
 10
39.53877209075186
 20
40.13814041136692
 30
0.0
 10
39.40333194875187
 20
40.43864355402692
 30
0.0
 10
39.27266449301186
 20
40.72647502166691
 30
0.0
 10
39.14528907987186
 20
41.00356551806692
 30
0.0
 10
39.02017709841185
 20
41.27110179202692
 30
0.0
 10
38.89684685988186
 20
41.52859372039691
 30
0.0
 10
38.77539120103187
 20
41.77455214451692
 30
0.0
 10
38.65644006590186
 20
42.00700461029692
 30
0.0
 10
38.54195977126186
 20
42.22239672667692
 30
0.0
 10
38.43472193968186
 20
42.41689501648692
 30
0.0
 10
38.33687100542186
 20
42.58974392715692
 30
0.0
 10
38.24828048536186
 20
42.74329182804692
 30
0.0
 10
38.17497468805186
 20
42.87502558927692
 30
0.0
 10
38.12954139227149
 20
42.95520842361596
 30
0.0
 10
38.10949398207187
 20
42.98877766548692
 30
0.0
  0
LINE
  5
BF
330
1F
100
AcDbEntity
  8
IGES_LEVEL_0
 62
     7
100
AcDbLine
 10
38.10949398207187
 20
42.98877766548692
 30
0.0
 11
38.10508698845186
 21
42.99615714409691
 31
0.0
  0
LINE
  5
C0
330
1F
100
AcDbEntity
  8
IGES_LEVEL_0
 62
     7
100
AcDbLine
 10
38.10508698845186
 20
42.99615714409691
 30
0.0
 11
38.10424533900687
 21
42.99720513836692
 31
0.0
  0
LINE
  5
C1
330
1F
100
AcDbEntity
  8
IGES_LEVEL_0
 62
     7
100
AcDbLine
 10
38.10424533900687
 20
42.99720513836692
 30
0.0
 11
38.10332295163185
 21
42.99836826613692
 31
0.0
  0
LINE
  5
C2
330
1F
100
AcDbEntity
  8
IGES_LEVEL_0
 62
     7
100
AcDbLine
 10
38.10332295163185
 20
42.99836826613692
 30
0.0
 11
38.01371387677686
 21
43.13200265710692
 31
0.0
  0
SPLINE
  5
C3
330
1F
100
AcDbEntity
  8
IGES_LEVEL_0
 62
     7
100
AcDbSpline
210
0.0
220
0.0
230
1.0
 70
     8
 71
     3
 72
    16
 73
    12
 74
     0
 42
0.0000000001
 43
0.0000000001
 40
8.0
 40
8.0
 40
8.0
 40
8.0
 40
8.149813132305813
 40
8.309411413131068
 40
8.452340820994003
 40
8.578142500566697
 40
8.687554806387844
 40
8.783110725242308
 40
8.867881753715533
 40
8.947243929595164
 40
9.0
 40
9.0
 40
9.0
 40
9.0
 10
38.01371387677686
 20
43.13200265710692
 30
0.0
 10
37.99248065229835
 20
43.16035669082606
 30
0.0
 10
37.94659200944465
 20
43.21742468530978
 30
0.0
 10
37.87325784275187
 20
43.29542934958692
 30
0.0
 10
37.79772617379186
 20
43.36307103041692
 30
0.0
 10
37.72600937821186
 20
43.41665646671692
 30
0.0
 10
37.65902060470187
 20
43.45726156515692
 30
0.0
 10
37.59678959112186
 20
43.48625571075692
 30
0.0
 10
37.53802974172186
 20
43.50478977195692
 30
0.0
 10
37.48698306617209
 20
43.51197971460077
 30
0.0
 10
37.455540783699
 20
43.51064804738913
 30
0.0
 10
37.44313739947685
 20
43.50910027199692
 30
0.0
  0
SPLINE
  5
C4
330
1F
100
AcDbEntity
  8
IGES_LEVEL_0
 62
     7
100
AcDbSpline
210
0.0
220
0.0
230
1.0
 70
     8
 71
     3
 72
   110
 73
   106
 74
     0
 42
0.0000000001
 43
0.0000000001
 40
9.0
 40
9.0
 40
9.0
 40
9.0
 40
9.014641501739305
 40
9.032725276344184
 40
9.051432749303137
 40
9.07068466744747
 40
9.090401348866456
 40
9.110503614196164
 40
9.130958149783419
 40
9.15173292787032
 40
9.172758020538382
 40
9.193966467832761
 40
9.215294139228133
 40
9.236679620689257
 40
9.258064119493628
 40
9.279395409857303
 40
9.300653263227732
 40
9.321784427232023
 40
9.342729938088549
 40
9.363435081333543
 40
9.383848851410003
 40
9.403924449079321
 40
9.423619307881292
 40
9.442895100345917
 40
9.461717747467132
 40
9.480037800217723
 40
9.497821939673099
 40
9.515073461504457
 40
9.531803463028789
 40
9.548032579694894
 40
9.563781635472891
 40
9.579070928642402
 40
9.593920211237256
 40
9.60834867077606
 40
9.622374914192857
 40
9.636016953791547
 40
9.649290458475353
 40
9.662188273828315
 40
9.674721373022598
 40
9.686907903833712
 40
9.698760549803248
 40
9.710285814367406
 40
9.721489630534668
 40
9.732377734514209
 40
9.742955671605316
 40
9.753228801654149
 40
9.763202304116541
 40
9.772881182779436
 40
9.78227027020565
 40
9.791374231974114
 40
9.800199536430636
 40
9.808761194165324
 40
9.817065258522257
 40
9.825116080789067
 40
9.832917866292316
 40
9.840474676309666
 40
9.847790429563323
 40
9.854868903391182
 40
9.861713734689451
 40
9.868328420711791
 40
9.874716319818234
 40
9.880880652261304
 40
9.886824500857355
 40
9.892550283128584
 40
9.898059441972313
 40
9.903353475211235
 40
9.908433920739805
 40
9.913302361854221
 40
9.917990864926933
 40
9.922536222602989
 40
9.926938295917058
 40
9.9311970308874
 40
9.935312532742801
 40
9.939285067770923
 40
9.943115064783966
 40
9.946803144360255
 40
9.950351045847306
 40
9.953761714625987
 40
9.957038085001893
 40
9.960182998918874
 40
9.963199202224708
 40
9.966089340895271
 40
9.968855957184312
 40
9.971501485659712
 40
9.974028249073843
 40
9.976438453997828
 40
9.978734186133368
 40
9.980917405180581
 40
9.982989939106995
 40
9.984952530241481
 40
9.986799782745647
 40
9.988530862236189
 40
9.990145922249132
 40
9.991645002968546
 40
9.993027977913922
 40
9.994294483524687
 40
9.995443825112989
 40
9.996474849111158
 40
9.997385766381784
 40
9.998173902997639
 40
9.998835341015541
 40
9.999364387954101
 40
9.999752771442099
 40
9.999988377564133
 40
10.0
 40
10.0
 40
10.0
 40
10.0
 10
37.44313739947685
 20
43.50910027199692
 30
0.0
 10
37.4334671887148
 20
43.507893559862
 30
0.0
 10
37.41186482944581
 20
43.50510359730417
 30
0.0
 10
37.37794433369186
 20
43.50048700490692
 30
0.0
 10
37.34101379082186
 20
43.49523729533691
 30
0.0
 10
37.30303270085186
 20
43.48965887066692
 30
0.0
 10
37.26415302571185
 20
43.48381184983692
 30
0.0
 10
37.22449586397185
 20
43.47775327094691
 30
0.0
 10
37.18415070821186
 20
43.47153505260692
 30
0.0
 10
37.14320754252186
 20
43.46516483584691
 30
0.0
 10
37.10177812361185
 20
43.45865622773692
 30
0.0
 10
37.05999511011186
 20
43.45202750639692
 30
0.0
 10
37.01798531498186
 20
43.44529768657691
 30
0.0
 10
36.97586990115185
 20
43.43848668510692
 30
0.0
 10
36.93376210422186
 20
43.43161379409692
 30
0.0
 10
36.89174733719186
 20
43.42469851745692
 30
0.0
 10
36.84990942198185
 20
43.41774722184692
 30
0.0
 10
36.80833998659186
 20
43.41074712929692
 30
0.0
 10
36.76715245836185
 20
43.40369529795692
 30
0.0
 10
36.72645881490186
 20
43.39658947023692
 30
0.0
 10
36.68636288202187
 20
43.38942828555692
 30
0.0
 10
36.64696043989186
 20
43.38221082578691
 30
0.0
 10
36.60833888504186
 20
43.37493659349692
 30
0.0
 10
36.57057727396186
 20
43.36760524887691
 30
0.0
 10
36.53375903831186
 20
43.36021955152692
 30
0.0
 10
36.49796459122186
 20
43.35278239696692
 30
0.0
 10
36.46324460397186
 20
43.34531864436691
 30
0.0
 10
36.42960965554185
 20
43.33784694522691
 30
0.0
 10
36.39703528742186
 20
43.33037731300692
 30
0.0
 10
36.36548573509187
 20
43.32291614730691
 30
0.0
 10
36.33491945092186
 20
43.31546706389692
 30
0.0
 10
36.30529566426186
 20
43.30803243696692
 30
0.0
 10
36.27657488371186
 20
43.30061356716692
 30
0.0
 10
36.24871893210185
 20
43.29321079274692
 30
0.0
 10
36.22169101143186
 20
43.28582347363692
 30
0.0
 10
36.19545674965185
 20
43.27845072700691
 30
0.0
 10
36.16999876779185
 20
43.27109441623692
 30
0.0
 10
36.14530319822187
 20
43.26376103867692
 30
0.0
 10
36.12135181379186
 20
43.25646533529692
 30
0.0
 10
36.09811407261186
 20
43.24921612395691
 30
0.0
 10
36.07556217423186
 20
43.24202259486692
 30
0.0
 10
36.05367606519185
 20
43.23489560410692
 30
0.0
 10
36.03244003206186
 20
43.22784689302692
 30
0.0
 10
36.01183892724187
 20
43.22088785996692
 30
0.0
 10
35.99185794807185
 20
43.21402947403692
 30
0.0
 10
35.97248265236186
 20
43.20728225629692
 30
0.0
 10
35.95369897211187
 20
43.20065627027692
 30
0.0
 10
35.93549323260186
 20
43.19416110096692
 30
0.0
 10
35.91785215312186
 20
43.18780588552691
 30
0.0
 10
35.90076168218185
 20
43.18159872340692
 30
0.0
 10
35.88420139792186
 20
43.17554515941691
 30
0.0
 10
35.86815082277185
 20
43.16964801072692
 30
0.0
 10
35.85259151027186
 20
43.16390853953692
 30
0.0
 10
35.83751174474186
 20
43.15833046642692
 30
0.0
 10
35.82290119657186
 20
43.15291753160692
 30
0.0
 10
35.80874992022186
 20
43.14767323793691
 30
0.0
 10
35.79504837286186
 20
43.14260081593692
 30
0.0
 10
35.78178742005186
 20
43.13770322478692
 30
0.0
 10
35.76895834454186
 20
43.13298314534691
 30
0.0
 10
35.75655285370186
 20
43.12844297579692
 30
0.0
 10
35.74456308679186
 20
43.12408482693692
 30
0.0
 10
35.73298162160187
 20
43.11991051726692
 30
0.0
 10
35.72180181181186
 20
43.11592168601692
 30
0.0
 10
35.71101832179186
 20
43.11211996474692
 30
0.0
 10
35.70062701912185
 20
43.10850690860691
 30
0.0
 10
35.69062454813185
 20
43.10508379861692
 30
0.0
 10
35.68100768626185
 20
43.10185143541692
 30
0.0
 10
35.67175415030185
 20
43.09880365390691
 30
0.0
 10
35.66281926725186
 20
43.09592752845692
 30
0.0
 10
35.65416176051186
 20
43.09320341571691
 30
0.0
 10
35.64576042360186
 20
43.09061881517692
 30
0.0
 10
35.63761714787187
 20
43.08816896863692
 30
0.0
 10
35.62973346402187
 20
43.08584916621692
 30
0.0
 10
35.62211048712186
 20
43.08365476939692
 30
0.0
 10
35.61474890216185
 20
43.08158120053692
 30
0.0
 10
35.60764835246185
 20
43.07962377988692
 30
0.0
 10
35.60080676801185
 20
43.07777756595692
 30
0.0
 10
35.59422049006186
 20
43.07603742918692
 30
0.0
 10
35.58788504926186
 20
43.07439828138692
 30
0.0
 10
35.58179600964185
 20
43.07285529204692
 30
0.0
 10
35.57594903389186
 20
43.07140388894692
 30
0.0
 10
35.57033989818186
 20
43.07003974602692
 30
0.0
 10
35.56496450655186
 20
43.06875877177691
 30
0.0
 10
35.55981890499186
 20
43.06755709831692
 30
0.0
 10
35.55489929537187
 20
43.06643107121692
 30
0.0
 10
35.55020204945187
 20
43.06537723919692
 30
0.0
 10
35.54572372272186
 20
43.06439234691692
 30
0.0
 10
35.54146107044186
 20
43.06347331983692
 30
0.0
 10
35.53741167544186
 20
43.06261740939692
 30
0.0
 10
35.53357788949187
 20
43.06182290347692
 30
0.0
 10
35.52996373102185
 20
43.06108870863692
 30
0.0
 10
35.52657353871186
 20
43.06041407460692
 30
0.0
 10
35.52340811132186
 20
43.05979745095692
 30
0.0
 10
35.52046777956186
 20
43.05923720801692
 30
0.0
 10
35.51775318677186
 20
43.05873176748692
 30
0.0
 10
35.51526551275187
 20
43.05827963008692
 30
0.0
 10
35.51300640770187
 20
43.05787935965692
 30
0.0
 10
35.51097909648186
 20
43.05752970674692
 30
0.0
 10
35.50918609456186
 20
43.05722931252691
 30
0.0
 10
35.50763791838186
 20
43.05697774072692
 30
0.0
 10
35.50632939635186
 20
43.05677254568692
 30
0.0
 10
35.50531034063185
 20
43.05661780118692
 30
0.0
 10
35.50450408701185
 20
43.05650187038692
 30
0.0
 10
35.50416049349185
 20
43.05645294942691
 30
0.0
 10
35.50394994988186
 20
43.05642537469691
 30
0.0
 10
35.50394017199186
 20
43.05642409551692
 30
0.0
  0
LINE
  5
C5
330
1F
100
AcDbEntity
  8
IGES_LEVEL_0
 62
     7
100
AcDbLine
 10
36.83098433987186
 20
34.93039592307692
 30
0.0
 11
36.83095723869185
 21
34.93089979309691
 31
0.0
  0
LINE
  5
C6
330
1F
100
AcDbEntity
  8
IGES_LEVEL_0
 62
     7
100
AcDbLine
 10
36.83095723869185
 20
34.93089979309691
 30
0.0
 11
36.81268410437185
 21
34.70606717488692
 31
0.0
  0
LINE
  5
C7
330
1F
100
AcDbEntity
  8
IGES_LEVEL_0
 62
     7
100
AcDbLine
 10
36.81268410437185
 20
34.70606717488692
 30
0.0
 11
36.81043154730186
 21
34.69029737893692
 31
0.0
  0
LINE
  5
C8
330
1F
100
AcDbEntity
  8
IGES_LEVEL_0
 62
     7
100
AcDbLine
 10
36.81043154730186
 20
34.69029737893692
 30
0.0
 11
36.80919776262185
 21
34.68196022720692
 31
0.0
  0
LINE
  5
C9
330
1F
100
AcDbEntity
  8
IGES_LEVEL_0
 62
     7
100
AcDbLine
 10
36.80919776262185
 20
34.68196022720692
 30
0.0
 11
36.76717517397186
 21
34.48318893245692
 31
0.0
  0
ARC
  5
CA
330
1F
100
AcDbEntity
  8
IGES_LEVEL_0
 62
     7
100
AcDbCircle
 10
33.76725580666738
 20
40.24507519228433
 30
0.0
 40
2.51166200383172
100
AcDbArc
 50
23.75850236045837
 51
29.74125767214939
  0
LINE
  5
CB
330
1F
100
AcDbEntity
  8
IGES_LEVEL_0
 62
     7
100
AcDbLine
 10
36.06605873498187
 20
41.25697989049692
 30
0.0
 11
36.08457614691186
 21
41.21491280567692
 31
0.0
  0
LINE
  5
CC
330
1F
100
AcDbEntity
  8
IGES_LEVEL_0
 62
     7
100
AcDbLine
 10
36.08457614691186
 20
41.21491280567692
 30
0.0
 11
36.08671569347186
 21
41.20995034321192
 31
0.0
  0
LINE
  5
CD
330
1F
100
AcDbEntity
  8
IGES_LEVEL_0
 62
     7
100
AcDbLine
 10
36.08671569347186
 20
41.20995034321192
 30
0.0
 11
36.19207783370186
 21
40.92028202378692
 31
0.0
  0
LINE
  5
CE
330
1F
100
AcDbEntity
  8
IGES_LEVEL_0
 62
     7
100
AcDbLine
 10
36.70250901280186
 20
41.64577256131692
 30
0.0
 11
36.83362847079185
 21
41.44630828535692
 31
0.0
  0
LINE
  5
CF
330
1F
100
AcDbEntity
  8
IGES_LEVEL_0
 62
     7
100
AcDbLine
 10
36.83362847079185
 20
41.44630828535692
 30
0.0
 11
36.84878539564686
 21
41.41551038322191
 31
0.0
  0
LINE
  5
D0
330
1F
100
AcDbEntity
  8
IGES_LEVEL_0
 62
     7
100
AcDbLine
 10
36.84878539564686
 20
41.41551038322191
 30
0.0
 11
36.85411500029186
 21
41.40409853376691
 31
0.0
  0
LINE
  5
D1
330
1F
100
AcDbEntity
  8
IGES_LEVEL_0
 62
     7
100
AcDbLine
 10
36.85411500029186
 20
41.40409853376691
 30
0.0
 11
36.86256198521186
 21
41.38527889589692
 31
0.0
  0
ARC
  5
D2
330
1F
100
AcDbEntity
  8
IGES_LEVEL_0
 62
     7
100
AcDbCircle
 10
36.38912683581988
 20
41.15246457691045
 30
0.0
 40
0.5275825507017191
100
AcDbArc
 50
3.218099792228877
 51
26.18590439364268
  0
LINE
  5
D3
330
1F
100
AcDbEntity
  8
IGES_LEVEL_0
 62
     7
100
AcDbLine
 10
37.95419763791186
 20
35.57851955123692
 30
0.0
 11
37.97261393951186
 21
35.42787698539692
 31
0.0
  0
LINE
  5
D4
330
1F
100
AcDbEntity
  8
IGES_LEVEL_0
 62
     7
100
AcDbLine
 10
37.97261393951186
 20
35.42787698539692
 30
0.0
 11
37.97023852179686
 21
35.40538411584691
 31
0.0
  0
LINE
  5
D5
330
1F
100
AcDbEntity
  8
IGES_LEVEL_0
 62
     7
100
AcDbLine
 10
37.97023852179686
 20
35.40538411584691
 30
0.0
 11
37.96858295015186
 21
35.39385896387692
 31
0.0
  0
LINE
  5
D6
330
1F
100
AcDbEntity
  8
IGES_LEVEL_0
 62
     7
100
AcDbLine
 10
37.96858295015186
 20
35.39385896387692
 30
0.0
 11
37.96381070136185
 21
35.36821753425691
 31
0.0
  0
LINE
  5
D7
330
1F
100
AcDbEntity
  8
IGES_LEVEL_0
 62
     7
100
AcDbLine
 10
37.96381070136185
 20
35.36821753425691
 30
0.0
 11
37.91312891778186
 21
35.25159770886692
 31
0.0
  0
ARC
  5
D8
330
1F
100
AcDbEntity
  8
IGES_LEVEL_0
 62
     7
100
AcDbCircle
 10
36.94487137578695
 20
35.11373071627153
 30
0.0
 40
0.4537970855612752
100
AcDbArc
 50
355.0881246022567
 51
14.66007725458908
  0
LINE
  5
D9
330
1F
100
AcDbEntity
  8
IGES_LEVEL_0
 62
     7
100
AcDbLine
 10
37.39700192371187
 20
35.07487505391692
 30
0.0
 11
37.39400306982186
 21
35.03997992228692
 31
0.0
  0
LINE
  5
DA
330
1F
100
AcDbEntity
  8
IGES_LEVEL_0
 62
     7
100
AcDbLine
 10
37.39400306982186
 20
35.03997992228692
 30
0.0
 11
37.39335938070185
 21
35.03441928454691
 31
0.0
  0
LINE
  5
DB
330
1F
100
AcDbEntity
  8
IGES_LEVEL_0
 62
     7
100
AcDbLine
 10
37.39335938070185
 20
35.03441928454691
 30
0.0
 11
37.38998825009186
 21
35.00998075240692
 31
0.0
  0
LINE
  5
DC
330
1F
100
AcDbEntity
  8
IGES_LEVEL_0
 62
     7
100
AcDbLine
 10
37.38998825009186
 20
35.00998075240692
 30
0.0
 11
37.34137294127186
 21
34.86103693330692
 31
0.0
  0
LINE
  5
DD
330
1F
100
AcDbEntity
  8
IGES_LEVEL_0
 62
     7
100
AcDbLine
 10
37.13652647641186
 20
41.80904081122692
 30
0.0
 11
37.28155742045186
 21
41.61232431605691
 31
0.0
  0
LINE
  5
DE
330
1F
100
AcDbEntity
  8
IGES_LEVEL_0
 62
     7
100
AcDbLine
 10
37.28155742045186
 20
41.61232431605691
 30
0.0
 11
37.30017116894686
 21
41.57793436120192
 31
0.0
  0
LINE
  5
DF
330
1F
100
AcDbEntity
  8
IGES_LEVEL_0
 62
     7
100
AcDbLine
 10
37.30017116894686
 20
41.57793436120192
 30
0.0
 11
37.30369892846186
 21
41.57103981922692
 31
0.0
  0
LINE
  5
E0
330
1F
100
AcDbEntity
  8
IGES_LEVEL_0
 62
     7
100
AcDbLine
 10
37.30369892846186
 20
41.57103981922692
 30
0.0
 11
37.31479080116186
 21
41.54841449856691
 31
0.0
  0
ARC
  5
E1
330
1F
100
AcDbEntity
  8
IGES_LEVEL_0
 62
     7
100
AcDbCircle
 10
36.92523255891806
 20
41.33856296117871
 30
0.0
 40
0.4424853577738734
100
AcDbArc
 50
2.091793419304314
 51
28.31094895583396
  0
LINE
  5
E2
330
1F
100
AcDbEntity
  8
IGES_LEVEL_0
 62
     7
100
AcDbLine
 10
37.41176838379185
 20
37.23726337782692
 30
0.0
 11
37.45162348586186
 21
37.06945805744692
 31
0.0
  0
LINE
  5
E3
330
1F
100
AcDbEntity
  8
IGES_LEVEL_0
 62
     7
100
AcDbLine
 10
37.45162348586186
 20
37.06945805744692
 30
0.0
 11
37.45378674286186
 21
37.04195388778692
 31
0.0
  0
LINE
  5
E4
330
1F
100
AcDbEntity
  8
IGES_LEVEL_0
 62
     7
100
AcDbLine
 10
37.45378674286186
 20
37.04195388778692
 30
0.0
 11
37.45438710313185
 21
37.03042881985692
 31
0.0
  0
LINE
  5
E5
330
1F
100
AcDbEntity
  8
IGES_LEVEL_0
 62
     7
100
AcDbLine
 10
37.45438710313185
 20
37.03042881985692
 30
0.0
 11
37.45502204555186
 21
37.00828247553692
 31
0.0
  0
LINE
  5
E6
330
1F
100
AcDbEntity
  8
IGES_LEVEL_0
 62
     7
100
AcDbLine
 10
37.45502204555186
 20
37.00828247553692
 30
0.0
 11
37.43074880909187
 21
36.85154749926691
 31
0.0
  0
ARC
  5
E7
330
1F
100
AcDbEntity
  8
IGES_LEVEL_0
 62
     7
100
AcDbCircle
 10
36.97955950825092
 20
36.53213298388998
 30
0.0
 40
2.958424431707975
100
AcDbArc
 50
315.5166789060754
 51
329.1978089607204
  0
LINE
  5
E8
330
1F
100
AcDbEntity
  8
IGES_LEVEL_0
 62
     7
100
AcDbLine
 10
39.52066952255686
 20
35.01719568706191
 30
0.0
 11
39.59609617199186
 21
35.14371406813692
 31
0.0
  0
LINE
  5
E9
330
1F
100
AcDbEntity
  8
IGES_LEVEL_0
 62
     7
100
AcDbLine
 10
39.59609617199186
 20
35.14371406813692
 30
0.0
 11
39.59674217282186
 21
35.14483749807692
 31
0.0
  0
LINE
  5
EA
330
1F
100
AcDbEntity
  8
IGES_LEVEL_0
 62
     7
100
AcDbLine
 10
39.59674217282186
 20
35.14483749807692
 30
0.0
 11
39.60628136887186
 21
35.16133609085692
 31
0.0
  0
ARC
  5
EB
330
1F
100
AcDbEntity
  8
IGES_LEVEL_0
 62
     7
100
AcDbCircle
 10
37.90243126575004
 20
36.13143177578285
 30
0.0
 40
1.960660809987326
100
AcDbArc
 50
330.3447580393726
 51
354.7719900652387
  0
LINE
  5
EC
330
1F
100
AcDbEntity
  8
IGES_LEVEL_0
 62
     7
100
AcDbLine
 10
39.85493567278186
 20
35.95277749416192
 30
0.0
 11
39.91984295774186
 21
36.18497489983692
 31
0.0
  0
SPLINE
  5
ED
330
1F
100
AcDbEntity
  8
IGES_LEVEL_0
 62
     7
100
AcDbSpline
210
0.0
220
0.0
230
1.0
 70
     8
 71
     3
 72
    28
 73
    24
 74
     0
 42
0.0000000001
 43
0.0000000001
 40
6.0
 40
6.0
 40
6.0
 40
6.0
 40
6.0446815907816
 40
6.0920256819597
 40
6.1396762652608
 40
6.1874666200622
 40
6.2364781681475
 40
6.2886355133088
 40
6.3443020525145
 40
6.4030185015127
 40
6.4628858703021
 40
6.5214837028511
 40
6.5773019946183
 40
6.6305735201159
 40
6.6817153137422
 40
6.7310464927876
 40
6.7785142321805
 40
6.8239780888404
 40
6.8672924016037
 40
6.90832149652427
 40
6.94691412940756
 40
6.98310761185624
 40
7.0
 40
7.0
 40
7.0
 40
7.0
 10
39.91984295774186
 20
36.18497489983692
 30
0.0
 10
39.95936231867187
 20
36.28236197114692
 30
0.0
 10
40.03037877964185
 20
36.48778472522692
 30
0.0
 10
40.08193484917186
 20
36.81322258332692
 30
0.0
 10
40.10214254267186
 20
37.14886499797692
 30
0.0
 10
40.07266108066186
 20
37.48893400191692
 30
0.0
 10
39.97904134141186
 20
37.82820497230692
 30
0.0
 10
39.83245724659186
 20
38.16687420040692
 30
0.0
 10
39.67625776404186
 20
38.52579779735692
 30
0.0
 10
39.51217475993185
 20
38.90118828660692
 30
0.0
 10
39.34528790794185
 20
39.28283675210692
 30
0.0
 10
39.18075239905186
 20
39.65808702104692
 30
0.0
 10
39.02229815659186
 20
40.01906923421691
 30
0.0
 10
38.87076635424187
 20
40.36394739234692
 30
0.0
 10
38.72519126805186
 20
40.69478443034691
 30
0.0
 10
38.58481176372186
 20
41.01300033871692
 30
0.0
 10
38.44935404983185
 20
41.31879797487692
 30
0.0
 10
38.31891852736186
 20
41.61134608879692
 30
0.0
 10
38.19361033008185
 20
41.88961308188692
 30
0.0
 10
38.07362802660187
 20
42.15253086724692
 30
0.0
 10
37.95843529661185
 20
42.39932237002692
 30
0.0
 10
37.86594751172186
 20
42.59378237676692
 30
0.0
 10
37.80999734455382
 20
42.70572120612723
 30
0.0
 10
37.79052830426186
 20
42.74036816606692
 30
0.0
  0
LINE
  5
EE
330
1F
100
AcDbEntity
  8
IGES_LEVEL_0
 62
     7
100
AcDbLine
 10
37.79052830426186
 20
42.74036816606692
 30
0.0
 11
37.77204136615686
 21
42.77326738422692
 31
0.0
  0
LINE
  5
EF
330
1F
100
AcDbEntity
  8
IGES_LEVEL_0
 62
     7
100
AcDbLine
 10
37.77204136615686
 20
42.77326738422692
 30
0.0
 11
37.75499472286187
 21
42.80169636801692
 31
0.0
  0
LINE
  5
F0
330
1F
100
AcDbEntity
  8
IGES_LEVEL_0
 62
     7
100
AcDbLine
 10
37.75499472286187
 20
42.80169636801692
 30
0.0
 11
37.74780986651186
 21
42.81344209376692
 31
0.0
  0
LINE
  5
F1
330
1F
100
AcDbEntity
  8
IGES_LEVEL_0
 62
     7
100
AcDbLine
 10
37.74780986651186
 20
42.81344209376692
 30
0.0
 11
37.72930009405685
 21
42.84305559389692
 31
0.0
  0
LINE
  5
F2
330
1F
100
AcDbEntity
  8
IGES_LEVEL_0
 62
     7
100
AcDbLine
 10
37.72930009405685
 20
42.84305559389692
 30
0.0
 11
37.72878885618187
 21
42.84391689996192
 31
0.0
  0
SPLINE
  5
F3
330
1F
100
AcDbEntity
  8
IGES_LEVEL_0
 62
     7
100
AcDbSpline
210
0.0
220
0.0
230
1.0
 70
     8
 71
     3
 72
    17
 73
    13
 74
     0
 42
0.0000000001
 43
0.0000000001
 40
12.0
 40
12.0
 40
12.0
 40
12.0
 40
12.08815648248206
 40
12.25142676907921
 40
12.39828543179338
 40
12.52749796641023
 40
12.63922304380039
 40
12.73483782467666
 40
12.81679039156805
 40
12.88785694382852
 40
12.95337386249396
 40
13.0
 40
13.0
 40
13.0
 40
13.0
 10
37.72878885618187
 20
42.84391689996192
 30
0.0
 10
37.71815127248186
 20
42.86042237926692
 30
0.0
 10
37.68658296923185
 20
42.90671131923692
 30
0.0
 10
37.63098069972186
 20
42.97598052807692
 30
0.0
 10
37.56199896560186
 20
43.04556931632692
 30
0.0
 10
37.49510202687186
 20
43.10038560574692
 30
0.0
 10
37.43230934275185
 20
43.14153600437692
 30
0.0
 10
37.37457891056185
 20
43.17044532767692
 30
0.0
 10
37.32208969377186
 20
43.18857934543692
 30
0.0
 10
37.27393711894186
 20
43.19712146247692
 30
0.0
 10
37.23283604507719
 20
43.19603560396955
 30
0.0
 10
37.20851495801901
 20
43.18885443400849
 30
0.0
 10
37.19882353523686
 20
43.18502748078192
 30
0.0
  0
LINE
  5
F4
330
1F
100
AcDbEntity
  8
IGES_LEVEL_0
 62
     7
100
AcDbLine
 10
37.19882353523686
 20
43.18502748078192
 30
0.0
 11
37.15705349892185
 21
43.16853331074692
 31
0.0
  0
LINE
  5
F5
330
1F
100
AcDbEntity
  8
IGES_LEVEL_0
 62
     7
100
AcDbLine
 10
37.98418325585186
 20
39.84264090810692
 30
0.0
 11
38.09990012639186
 21
39.66256740402692
 31
0.0
  0
LINE
  5
F6
330
1F
100
AcDbEntity
  8
IGES_LEVEL_0
 62
     7
100
AcDbLine
 10
38.09990012639186
 20
39.66256740402692
 30
0.0
 11
38.11427220236686
 21
39.62879096660691
 31
0.0
  0
LINE
  5
F7
330
1F
100
AcDbEntity
  8
IGES_LEVEL_0
 62
     7
100
AcDbLine
 10
38.11427220236686
 20
39.62879096660691
 30
0.0
 11
38.11706701137186
 21
39.62167328669692
 31
0.0
  0
LINE
  5
F8
330
1F
100
AcDbEntity
  8
IGES_LEVEL_0
 62
     7
100
AcDbLine
 10
38.11706701137186
 20
39.62167328669692
 30
0.0
 11
38.12853568024185
 21
39.58977596770691
 31
0.0
  0
ARC
  5
F9
330
1F
100
AcDbEntity
  8
IGES_LEVEL_0
 62
     7
100
AcDbCircle
 10
37.83977202797115
 20
39.47457934377889
 30
0.0
 40
0.3108934046214703
100
AcDbArc
 50
351.5654785387821
 51
21.74856356332665
  0
LINE
  5
FA
330
1F
100
AcDbEntity
  8
IGES_LEVEL_0
 62
     7
100
AcDbLine
 10
37.09888633175186
 20
39.36212176781692
 30
0.0
 11
37.16629061140186
 21
39.18055964637692
 31
0.0
  0
LINE
  5
FB
330
1F
100
AcDbEntity
  8
IGES_LEVEL_0
 62
     7
100
AcDbLine
 10
37.16629061140186
 20
39.18055964637692
 30
0.0
 11
37.17349847210686
 21
39.14990798623192
 31
0.0
  0
LINE
  5
FC
330
1F
100
AcDbEntity
  8
IGES_LEVEL_0
 62
     7
100
AcDbLine
 10
37.17349847210686
 20
39.14990798623192
 30
0.0
 11
37.17577803318186
 21
39.13922442847692
 31
0.0
  0
LINE
  5
FD
330
1F
100
AcDbEntity
  8
IGES_LEVEL_0
 62
     7
100
AcDbLine
 10
37.17577803318186
 20
39.13922442847692
 30
0.0
 11
37.18091195264186
 21
39.11268222220691
 31
0.0
  0
LINE
  5
FE
330
1F
100
AcDbEntity
  8
IGES_LEVEL_0
 62
     7
100
AcDbLine
 10
37.18091195264186
 20
39.11268222220691
 30
0.0
 11
37.18601492067187
 21
38.93355316523692
 31
0.0
  0
SPLINE
  5
FF
330
1F
100
AcDbEntity
  8
IGES_LEVEL_0
 62
     7
100
AcDbSpline
210
0.0
220
0.0
230
1.0
 70
     8
 71
     3
 72
    17
 73
    13
 74
     0
 42
0.0000000001
 43
0.0000000001
 40
0.0
 40
0.0
 40
0.0
 40
0.0
 40
0.0005712845157628
 40
0.02525979155847
 40
0.08348009514071
 40
0.170856651104
 40
0.2843706917377
 40
0.4190911825191
 40
0.5688302081341
 40
0.7273661233741
 40
0.8904236212562
 40
1.0
 40
1.0
 40
1.0
 40
1.0
 10
37.49172750095185
 20
39.55442705208692
 30
0.0
 10
37.49171747632185
 20
39.55443602202692
 30
0.0
 10
37.49132452742187
 20
39.55477625216692
 30
0.0
 10
37.49771856656186
 20
39.54726647556691
 30
0.0
 10
37.50184346704187
 20
39.54077116101692
 30
0.0
 10
37.51233809542187
 20
39.52518259463692
 30
0.0
 10
37.52308938668186
 20
39.50668909518691
 30
0.0
 10
37.53566117117187
 20
39.48345602490691
 30
0.0
 10
37.54836279147186
 20
39.45731106733692
 30
0.0
 10
37.56088616495187
 20
39.42892513321692
 30
0.0
 10
37.57132576428187
 20
39.40255954063692
 30
0.0
 10
37.57754791919803
 20
39.38573485449163
 30
0.0
 10
37.57975469583185
 20
39.37887596067692
 30
0.0
  0
LINE
  5
100
330
1F
100
AcDbEntity
  8
IGES_LEVEL_0
 62
     7
100
AcDbLine
 10
37.57975469583185
 20
39.37887596067692
 30
0.0
 11
37.59053700049687
 21
39.34536342404692
 31
0.0
  0
LINE
  5
101
330
1F
100
AcDbEntity
  8
IGES_LEVEL_0
 62
     7
100
AcDbLine
 10
37.59053700049687
 20
39.34536342404692
 30
0.0
 11
37.59394903594186
 21
39.33357434809692
 31
0.0
  0
LINE
  5
102
330
1F
100
AcDbEntity
  8
IGES_LEVEL_0
 62
     7
100
AcDbLine
 10
37.59394903594186
 20
39.33357434809692
 30
0.0
 11
37.60026344947185
 21
39.30955042619692
 31
0.0
  0
ARC
  5
103
330
1F
100
AcDbEntity
  8
IGES_LEVEL_0
 62
     7
100
AcDbCircle
 10
37.25769723484664
 20
39.20783164265795
 30
0.0
 40
0.3573490203250834
100
AcDbArc
 50
349.8813787900886
 51
16.53782566787653
  0
ARC
  5
104
330
1F
100
AcDbEntity
  8
IGES_LEVEL_0
 62
     7
100
AcDbCircle
 10
34.43997325641266
 20
38.56674501239337
 30
0.0
 40
2.330852187115903
100
AcDbArc
 50
11.05463987019898
 51
16.19640452669857
  0
LINE
  5
105
330
1F
100
AcDbEntity
  8
IGES_LEVEL_0
 62
     7
100
AcDbLine
 10
36.72757595196187
 20
39.01367434181692
 30
0.0
 11
36.73642625524686
 21
38.96837416499191
 31
0.0
  0
LINE
  5
106
330
1F
100
AcDbEntity
  8
IGES_LEVEL_0
 62
     7
100
AcDbLine
 10
36.73642625524686
 20
38.96837416499191
 30
0.0
 11
36.77175252972187
 21
38.70824841733692
 31
0.0
  0
SPLINE
  5
107
330
1F
100
AcDbEntity
  8
IGES_LEVEL_0
 62
     7
100
AcDbSpline
210
0.0
220
0.0
230
1.0
 70
     8
 71
     3
 72
    22
 73
    18
 74
     0
 42
0.0000000001
 43
0.0000000001
 40
0.0
 40
0.0
 40
0.0
 40
0.0
 40
0.001753997099867
 40
0.0197344150152
 40
0.05984854108613
 40
0.1144434620911
 40
0.1785065086673
 40
0.2502909366013
 40
0.3278415940714
 40
0.4094241177735
 40
0.4939588403938
 40
0.5809142813699
 40
0.6709177544666
 40
0.7650457312427
 40
0.8635211077294001
 40
0.9653438154491
 40
1.0
 40
1.0
 40
1.0
 40
1.0
 10
37.48615660234187
 20
42.10432122434692
 30
0.0
 10
37.48609455635186
 20
42.10437443994692
 30
0.0
 10
37.48559642630185
 20
42.10478650163692
 30
0.0
 10
37.49222601055186
 20
42.09841380162692
 30
0.0
 10
37.49685102952186
 20
42.09323507205691
 30
0.0
 10
37.50712339070186
 20
42.08203012815692
 30
0.0
 10
37.51767553342187
 20
42.06970588961691
 30
0.0
 10
37.52969909764185
 20
42.05521443261692
 30
0.0
 10
37.54227933620186
 20
42.03943978332691
 30
0.0
 10
37.55532264367186
 20
42.02253860446692
 30
0.0
 10
37.56859033729187
 20
42.00479409841692
 30
0.0
 10
37.58203718385185
 20
41.98626018126691
 30
0.0
 10
37.59569798831187
 20
41.96684830191692
 30
0.0
 10
37.60964798845187
 20
41.94640916969692
 30
0.0
 10
37.62387599309186
 20
41.92491004686691
 30
0.0
 10
37.63497509297186
 20
41.90758744664691
 30
0.0
 10
37.64132999559148
 20
41.89746690822529
 30
0.0
 10
37.64292384119186
 20
41.89488469651692
 30
0.0
  0
LINE
  5
108
330
1F
100
AcDbEntity
  8
IGES_LEVEL_0
 62
     7
100
AcDbLine
 10
37.64292384119186
 20
41.89488469651692
 30
0.0
 11
37.65042371638187
 21
41.88273404307692
 31
0.0
  0
LINE
  5
109
330
1F
100
AcDbEntity
  8
IGES_LEVEL_0
 62
     7
100
AcDbLine
 10
37.93322606598186
 20
37.49944597417692
 30
0.0
 11
37.99398349087186
 21
37.34435266866691
 31
0.0
  0
LINE
  5
10A
330
1F
100
AcDbEntity
  8
IGES_LEVEL_0
 62
     7
100
AcDbLine
 10
37.99398349087186
 20
37.34435266866691
 30
0.0
 11
37.99942037187186
 21
37.30985873179692
 31
0.0
  0
LINE
  5
10B
330
1F
100
AcDbEntity
  8
IGES_LEVEL_0
 62
     7
100
AcDbLine
 10
37.99942037187186
 20
37.30985873179692
 30
0.0
 11
38.00076867699185
 21
37.29756629664692
 31
0.0
  0
LINE
  5
10C
330
1F
100
AcDbEntity
  8
IGES_LEVEL_0
 62
     7
100
AcDbLine
 10
38.00076867699185
 20
37.29756629664692
 30
0.0
 11
38.00193715710186
 21
37.28340890546691
 31
0.0
  0
ARC
  5
10D
330
1F
100
AcDbEntity
  8
IGES_LEVEL_0
 62
     7
100
AcDbCircle
 10
37.74009616753938
 20
37.25268978634458
 30
0.0
 40
0.2636368109629427
100
AcDbArc
 50
334.9173876714886
 51
6.691338643402779
  0
LINE
  5
10E
330
1F
100
AcDbEntity
  8
IGES_LEVEL_0
 62
     7
100
AcDbLine
 10
36.35338228592185
 20
41.54028770899691
 30
0.0
 11
36.47831448252187
 21
41.33577590688692
 31
0.0
  0
LINE
  5
10F
330
1F
100
AcDbEntity
  8
IGES_LEVEL_0
 62
     7
100
AcDbLine
 10
36.47831448252187
 20
41.33577590688692
 30
0.0
 11
36.49433863317186
 21
41.30214632725692
 31
0.0
  0
LINE
  5
110
330
1F
100
AcDbEntity
  8
IGES_LEVEL_0
 62
     7
100
AcDbLine
 10
36.49433863317186
 20
41.30214632725692
 30
0.0
 11
36.50015488255185
 21
41.28936387384692
 31
0.0
  0
LINE
  5
111
330
1F
100
AcDbEntity
  8
IGES_LEVEL_0
 62
     7
100
AcDbLine
 10
36.50015488255185
 20
41.28936387384692
 30
0.0
 11
36.51005140460187
 21
41.26679651295692
 31
0.0
  0
LINE
  5
112
330
1F
100
AcDbEntity
  8
IGES_LEVEL_0
 62
     7
100
AcDbLine
 10
36.51005140460187
 20
41.26679651295692
 30
0.0
 11
36.57115088894186
 21
41.04927066839692
 31
0.0
  0
ARC
  5
113
330
1F
100
AcDbEntity
  8
IGES_LEVEL_0
 62
     7
100
AcDbCircle
 10
34.73288698072773
 20
40.57995785491488
 30
0.0
 40
1.639694662399197
100
AcDbArc
 50
23.57600274358187
 51
33.58594747082765
  0
LINE
  5
114
330
1F
100
AcDbEntity
  8
IGES_LEVEL_0
 62
     7
100
AcDbLine
 10
36.23571686718685
 20
41.23577865228692
 30
0.0
 11
36.32308636274186
 21
40.96713999469692
 31
0.0
  0
LINE
  5
115
330
1F
100
AcDbEntity
  8
IGES_LEVEL_0
 62
     7
100
AcDbLine
 10
37.09434114985186
 20
37.07577986722691
 30
0.0
 11
37.12190148644186
 21
36.86116303630192
 31
0.0
  0
LINE
  5
116
330
1F
100
AcDbEntity
  8
IGES_LEVEL_0
 62
     7
100
AcDbLine
 10
37.12190148644186
 20
36.86116303630192
 30
0.0
 11
37.10348606258187
 21
36.64718114105692
 31
0.0
  0
LINE
  5
117
330
1F
100
AcDbEntity
  8
IGES_LEVEL_0
 62
     7
100
AcDbLine
 10
37.02274087547185
 20
35.01140391312691
 30
0.0
 11
37.02068739610687
 21
34.80931524200692
 31
0.0
  0
LINE
  5
118
330
1F
100
AcDbEntity
  8
IGES_LEVEL_0
 62
     7
100
AcDbLine
 10
37.02068739610687
 20
34.80931524200692
 30
0.0
 11
36.97134717456186
 21
34.61180839569692
 31
0.0
  0
SPLINE
  5
119
330
1F
100
AcDbEntity
  8
IGES_LEVEL_0
 62
     7
100
AcDbSpline
210
0.0
220
0.0
230
1.0
 70
     8
 71
     3
 72
    20
 73
    16
 74
     0
 42
0.0000000001
 43
0.0000000001
 40
0.0
 40
0.0
 40
0.0
 40
0.0
 40
0.0038105868591945
 40
0.0204002716071707
 40
0.0606462146744104
 40
0.1180551265605925
 40
0.1889505099354893
 40
0.271771919481938
 40
0.3646966459391999
 40
0.4662236688346435
 40
0.574715610609434
 40
0.6888575763635438
 40
0.8073908693040464
 40
0.9288520687333108
 40
1.0
 40
1.0
 40
1.0
 40
1.0
 10
36.82505816798185
 20
39.25122623761692
 30
0.0
 10
36.82494731500186
 20
39.25141132808692
 30
0.0
 10
36.82456677983187
 20
39.25200831577692
 30
0.0
 10
36.82816188702186
 20
39.24494023457692
 30
0.0
 10
36.83056811581186
 20
39.23877055056692
 30
0.0
 10
36.83601139395186
 20
39.22541474771692
 30
0.0
 10
36.84149548683186
 20
39.21013960152692
 30
0.0
 10
36.84778224282185
 20
39.19158367299691
 30
0.0
 10
36.85430128338186
 20
39.17075995136692
 30
0.0
 10
36.86099109843185
 20
39.14781178798692
 30
0.0
 10
36.86767585706186
 20
39.12314297003692
 30
0.0
 10
36.87423806354185
 20
39.09705075875692
 30
0.0
 10
36.88056460503186
 20
39.06985093596692
 30
0.0
 10
36.88570124401151
 20
39.04585867788855
 30
0.0
 10
36.8886679774112
 20
39.03096300153018
 30
0.0
 10
36.88973368793686
 20
39.02545483336692
 30
0.0
  0
LINE
  5
11A
330
1F
100
AcDbEntity
  8
IGES_LEVEL_0
 62
     7
100
AcDbLine
 10
36.88973368793686
 20
39.02545483336692
 30
0.0
 11
36.90953570324186
 21
38.79053494461692
 31
0.0
  0
ARC
  5
11B
330
1F
100
AcDbEntity
  8
IGES_LEVEL_0
 62
     7
100
AcDbCircle
 10
36.86762140966903
 20
32.53973390633849
 30
0.0
 40
0.1564577217964474
100
AcDbArc
 50
196.4828683290682
 51
252.6404077998816
  0
LINE
  5
11C
330
1F
100
AcDbEntity
  8
IGES_LEVEL_0
 62
     7
100
AcDbLine
 10
36.82093947269186
 20
32.39040267896192
 30
0.0
 11
36.83468832140686
 21
32.38610469721692
 31
0.0
  0
LINE
  5
11D
330
1F
100
AcDbEntity
  8
IGES_LEVEL_0
 62
     7
100
AcDbLine
 10
36.83468832140686
 20
32.38610469721692
 30
0.0
 11
36.89266482947686
 21
32.37065074289691
 31
0.0
  0
SPLINE
  5
11E
330
1F
100
AcDbEntity
  8
IGES_LEVEL_0
 62
     7
100
AcDbSpline
210
0.0
220
0.0
230
1.0
 70
     8
 71
     3
 72
    68
 73
    64
 74
     0
 42
0.0000000001
 43
0.0000000001
 40
3.0
 40
3.0
 40
3.0
 40
3.0
 40
3.017829133765257
 40
3.0540178708794
 40
3.083465087907011
 40
3.104102266686271
 40
3.117339084159351
 40
3.126135701896723
 40
3.132552599443224
 40
3.137661901450545
 40
3.142025597412269
 40
3.145959084209555
 40
3.149653680701471
 40
3.153274005520875
 40
3.156932802707027
 40
3.160712844986937
 40
3.164681566801562
 40
3.16889808097963
 40
3.173413798654808
 40
3.178260092345249
 40
3.183458997627626
 40
3.189028264603134
 40
3.194981573963482
 40
3.201330892000991
 40
3.208093271854205
 40
3.215285785601988
 40
3.222922884346167
 40
3.231020323581381
 40
3.239593396591841
 40
3.248656598463314
 40
3.25822369185009
 40
3.268307756293221
 40
3.27892122519976
 40
3.290075913501784
 40
3.30178382604135
 40
3.314062829468856
 40
3.326934275880944
 40
3.340420398736973
 40
3.354544328438033
 40
3.369330119861977
 40
3.384802776967938
 40
3.400988857127291
 40
3.417926453501932
 40
3.435646479823085
 40
3.454185526186649
 40
3.473619355110319
 40
3.494039312484173
 40
3.515544249368159
 40
3.53824071418178
 40
3.562243185481705
 40
3.587676902678404
 40
3.614729329916763
 40
3.643653981440641
 40
3.674704496028111
 40
3.707898335339499
 40
3.743098059354298
 40
3.780156898505036
 40
3.818905944559666
 40
3.85917478789455
 40
3.900946988499311
 40
3.944284349883575
 40
3.989252307311944
 40
4.0
 40
4.0
 40
4.0
 40
4.0
 10
36.89266482947686
 20
32.37065074289691
 30
0.0
 10
36.89738602077936
 20
32.36939320556283
 30
0.0
 10
36.91185644141428
 20
32.3661924569731
 30
0.0
 10
36.93469884133187
 20
32.36420243862692
 30
0.0
 10
36.95830950981186
 20
32.36588277919692
 30
0.0
 10
36.97533420435185
 20
32.36917742839692
 30
0.0
 10
36.98658139150186
 20
32.37230616004692
 30
0.0
 10
36.99396221066186
 20
32.37476884334691
 30
0.0
 10
36.99917230737187
 20
32.37670236928692
 30
0.0
 10
37.00320928653186
 20
32.37830882036692
 30
0.0
 10
37.00659131102186
 20
32.37972281753692
 30
0.0
 10
37.00959933753187
 20
32.38102766586692
 30
0.0
 10
37.01240781699185
 20
32.38228128763691
 30
0.0
 10
37.01513702153186
 20
32.38352793914692
 30
0.0
 10
37.01787817274186
 20
32.38480445088692
 30
0.0
 10
37.02069718270185
 20
32.38613925627692
 30
0.0
 10
37.02364596024187
 20
32.38755619678692
 30
0.0
 10
37.02676817479185
 20
32.38907651239692
 30
0.0
 10
37.03009826352185
 20
32.39071790321692
 30
0.0
 10
37.03366132593186
 20
32.39249409026692
 30
0.0
 10
37.03747407555186
 20
32.39441498568692
 30
0.0
 10
37.04154881307186
 20
32.39648850313692
 30
0.0
 10
37.04589531867187
 20
32.39872143002692
 30
0.0
 10
37.05052314590186
 20
32.40112056729691
 30
0.0
 10
37.05544260864185
 20
32.40369325205692
 30
0.0
 10
37.06066454455187
 20
32.40644727230692
 30
0.0
 10
37.06619942370186
 20
32.40939033742691
 30
0.0
 10
37.07205723701186
 20
32.41253000677692
 30
0.0
 10
37.07824790781186
 20
32.41587397524692
 30
0.0
 10
37.08478080742187
 20
32.41942979563692
 30
0.0
 10
37.09166470178185
 20
32.42320484807692
 30
0.0
 10
37.09890779017185
 20
32.42720635377692
 30
0.0
 10
37.10651773351187
 20
32.43144138590692
 30
0.0
 10
37.11450186369186
 20
32.43591698230692
 30
0.0
 10
37.12286873200186
 20
32.44064101999692
 30
0.0
 10
37.13162906874186
 20
32.44562279568692
 30
0.0
 10
37.14079592211185
 20
32.45087316108692
 30
0.0
 10
37.15038345872186
 20
32.45640388240692
 30
0.0
 10
37.16040634265185
 20
32.46222731139692
 30
0.0
 10
37.17087974343185
 20
32.46835640437692
 30
0.0
 10
37.18181946620186
 20
32.47480485016692
 30
0.0
 10
37.19324448165186
 20
32.48158848702692
 30
0.0
 10
37.20517476779186
 20
32.48872457982692
 30
0.0
 10
37.21763188993187
 20
32.49623302419692
 30
0.0
 10
37.23064596760186
 20
32.50413939690692
 30
0.0
 10
37.24426074992185
 20
32.51247858005692
 30
0.0
 10
37.25853386000186
 20
32.52129529879692
 30
0.0
 10
37.27352926950185
 20
32.53063990327692
 30
0.0
 10
37.28931537150186
 20
32.54056747167692
 30
0.0
 10
37.30596557252186
 20
32.55113850135692
 30
0.0
 10
37.32357065217185
 20
32.56242720907692
 30
0.0
 10
37.34225167547186
 20
32.57453077497692
 30
0.0
 10
37.36215682072186
 20
32.58756880802692
 30
0.0
 10
37.38339264276186
 20
32.60163927169692
 30
0.0
 10
37.40597428875186
 20
32.61678409793692
 30
0.0
 10
37.42982650281185
 20
32.63298295671692
 30
0.0
 10
37.45483301686186
 20
32.65018474707692
 30
0.0
 10
37.48087170747185
 20
32.66833055168692
 30
0.0
 10
37.50785148019186
 20
32.68737888724692
 30
0.0
 10
37.53573401232187
 20
32.70732259570691
 30
0.0
 10
37.56453365694186
 20
32.72819144844692
 30
0.0
 10
37.58636636737187
 20
32.74421728320692
 30
0.0
 10
37.59861298820185
 20
32.75327744279691
 30
0.0
 10
37.60097415302185
 20
32.75502684457692
 30
0.0
  0
ARC
  5
11F
330
1F
100
AcDbEntity
  8
IGES_LEVEL_0
 62
     7
100
AcDbCircle
 10
36.44903365360533
 20
42.21245616587981
 30
0.0
 40
0.9423579312614744
100
AcDbArc
 50
25.21121974337472
 51
46.15257133842935
  0
LINE
  5
120
330
1F
100
AcDbEntity
  8
IGES_LEVEL_0
 62
     7
100
AcDbLine
 10
37.30162601585185
 20
42.61385962183192
 30
0.0
 11
37.33959069401686
 21
42.53322156513692
 31
0.0
  0
SPLINE
  5
121
330
1F
100
AcDbEntity
  8
IGES_LEVEL_0
 62
     7
100
AcDbSpline
210
0.0
220
0.0
230
1.0
 70
     8
 71
     3
 72
    22
 73
    18
 74
     0
 42
0.0000000001
 43
0.0000000001
 40
2.0
 40
2.0
 40
2.0
 40
2.0
 40
2.09005394919865
 40
2.1787428682879
 40
2.262666381834
 40
2.3422771697574
 40
2.4180274294559
 40
2.4903433668392
 40
2.5594794897616
 40
2.6256012181994
 40
2.6888298175294
 40
2.7494064659468
 40
2.8081312300267
 40
2.8651144594446
 40
2.9205350679723
 40
2.9751581531979
 40
3.0
 40
3.0
 40
3.0
 40
3.0
 10
37.33959069401686
 20
42.53322156513692
 30
0.0
 10
37.41969417085186
 20
42.36853860641692
 30
0.0
 10
37.57660176545186
 20
42.04065459262692
 30
0.0
 10
37.80344042482186
 20
41.55706022746692
 30
0.0
 10
38.01855575409185
 20
41.09143460307692
 30
0.0
 10
38.22141367712186
 20
40.64913398256692
 30
0.0
 10
38.41385264655186
 20
40.22802443990692
 30
0.0
 10
38.59715221421186
 20
39.82615792260692
 30
0.0
 10
38.77208671093186
 20
39.44199826965692
 30
0.0
 10
38.93903067093186
 20
39.07450082739692
 30
0.0
 10
39.09854786954186
 20
38.72276477421691
 30
0.0
 10
39.25125574259185
 20
38.38439816303692
 30
0.0
 10
39.39955470828186
 20
38.05818901072692
 30
0.0
 10
39.53630189872186
 20
37.73751201800692
 30
0.0
 10
39.61232915516186
 20
37.40376785817692
 30
0.0
 10
39.61749490552187
 20
37.12838922852691
 30
0.0
 10
39.60770896577186
 20
36.96686111812691
 30
0.0
 10
39.60312719343186
 20
36.91652353255692
 30
0.0
  0
ARC
  5
122
330
1F
100
AcDbEntity
  8
IGES_LEVEL_0
 62
     7
100
AcDbCircle
 10
35.53107136034999
 20
42.88440508221865
 30
0.0
 40
0.1828654542590922
100
AcDbArc
 50
88.48220995710989
 51
166.8323362107783
  0
LINE
  5
123
330
1F
100
AcDbEntity
  8
IGES_LEVEL_0
 62
     7
100
AcDbLine
 10
35.35301387356186
 20
42.92606208355192
 30
0.0
 11
35.33915474326186
 21
42.86682301613692
 31
0.0
  0
LINE
  5
124
330
1F
100
AcDbEntity
  8
IGES_LEVEL_0
 62
     7
100
AcDbLine
 10
35.33915474326186
 20
42.86682301613692
 30
0.0
 11
35.34651740939187
 21
42.76577251051692
 31
0.0
  0
LINE
  5
125
330
1F
100
AcDbEntity
  8
IGES_LEVEL_0
 62
     7
100
AcDbLine
 10
37.77362875609187
 20
41.61980073200692
 30
0.0
 11
37.77639523220186
 21
41.59645592896692
 31
0.0
  0
ARC
  5
126
330
1F
100
AcDbEntity
  8
IGES_LEVEL_0
 62
     7
100
AcDbCircle
 10
43.38416422829799
 20
35.92062268855437
 30
0.0
 40
8.498290771591593
100
AcDbArc
 50
260.1815657953005
 51
265.6440431981711
  0
ARC
  5
127
330
1F
100
AcDbEntity
  8
IGES_LEVEL_0
 62
     7
100
AcDbCircle
 10
43.38408310752165
 20
35.92001340034159
 30
0.0
 40
7.50267709212053
100
AcDbArc
 50
259.9996803696993
 51
264.7543176068912
  0
LINE
  5
128
330
1F
100
AcDbEntity
  8
IGES_LEVEL_0
 62
     7
100
AcDbLine
 10
18.15546626892185
 20
34.03242542595692
 30
0.0
 11
18.20993812619734
 21
30.91173337738308
 31
0.0
  0
LINE
  5
129
330
1F
100
AcDbEntity
  8
IGES_LEVEL_0
 62
     7
100
AcDbLine
 10
1.541902382394947
 20
30.9110442217144
 30
0.0
 11
1.596386268921847
 21
34.03242542595692
 31
0.0
  0
ARC
  5
12A
330
1F
100
AcDbEntity
  8
IGES_LEVEL_0
 62
     7
100
AcDbCircle
 10
1.195452556232176
 20
55.15377686530266
 30
0.0
 40
0.5001099998927608
100
AcDbArc
 50
183.5246574572517
 51
316.7689906591795
  0
ARC
  5
12B
330
1F
100
AcDbEntity
  8
IGES_LEVEL_0
 62
     7
100
AcDbCircle
 10
18.55640022972222
 20
55.1537768653008
 30
0.0
 40
0.5001099998909461
100
AcDbArc
 50
227.2562252700171
 51
356.47534254295
  0
ARC
  5
12C
330
1F
100
AcDbEntity
  8
IGES_LEVEL_0
 62
     7
100
AcDbCircle
 10
1.196313837359277
 20
55.15276800754546
 30
0.0
 40
0.4989942501580746
100
AcDbArc
 50
303.7532103916119
 51
316.7868244285584
  0
ARC
  5
12D
330
1F
100
AcDbEntity
  8
IGES_LEVEL_0
 62
     7
100
AcDbCircle
 10
1.19416934754501
 20
55.14770802462233
 30
0.0
 40
0.4994048130077466
100
AcDbArc
 50
269.9209385448274
 51
317.3919980488571
  0
ARC
  5
12E
330
1F
100
AcDbEntity
  8
IGES_LEVEL_0
 62
     7
100
AcDbCircle
 10
18.55553894861939
 20
55.15276800759169
 30
0.0
 40
0.4989942502081625
100
AcDbArc
 50
227.245829914711
 51
236.2467896093353
  0
ARC
  5
12F
330
1F
100
AcDbEntity
  8
IGES_LEVEL_0
 62
     7
100
AcDbCircle
 10
18.55768343835647
 20
55.14770802455259
 30
0.0
 40
0.4994048129380523
100
AcDbArc
 50
226.6151206003974
 51
270.0790614586492
  0
LINE
  5
130
330
1F
100
AcDbEntity
  8
IGES_LEVEL_0
 62
     7
100
AcDbLine
 10
18.61509599979623
 20
56.55951061027887
 30
0.0
 11
19.03094626892185
 21
55.31094542595692
 31
0.0
  0
LINE
  5
131
330
1F
100
AcDbEntity
  8
IGES_LEVEL_0
 62
     7
100
AcDbLine
 10
16.63095677093935
 20
70.94730376771193
 30
0.0
 11
16.62517377093936
 21
70.94946176771191
 31
0.0
  0
LINE
  5
132
330
1F
100
AcDbEntity
  8
IGES_LEVEL_0
 62
     7
100
AcDbLine
 10
18.59488584884936
 20
57.88715537155192
 30
0.0
 11
18.59680719857936
 21
57.93016396395192
 31
0.0
  0
SPLINE
  5
133
330
1F
100
AcDbEntity
  8
IGES_LEVEL_0
 62
     7
100
AcDbSpline
210
0.0
220
0.0
230
1.0
 70
     8
 71
     3
 72
     8
 73
     4
 74
     0
 42
0.0000000001
 43
0.0000000001
 40
1.0
 40
1.0
 40
1.0
 40
1.0
 40
2.0
 40
2.0
 40
2.0
 40
2.0
 10
18.59680719857936
 20
57.93016396395192
 30
0.0
 10
18.59676620307656
 20
57.92905632033859
 30
0.0
 10
18.59666866525231
 20
57.92795121295751
 30
0.0
 10
18.59699738231435
 20
57.93530129292692
 30
0.0
  0
SPLINE
  5
134
330
1F
100
AcDbEntity
  8
IGES_LEVEL_0
 62
     7
100
AcDbSpline
210
0.0
220
0.0
230
1.0
 70
     8
 71
     3
 72
    22
 73
    18
 74
     0
 42
0.0000000001
 43
0.0000000001
 40
2.0
 40
2.0
 40
2.0
 40
2.0
 40
2.020372838226296
 40
2.068219315394171
 40
2.118222747659476
 40
2.170084140297332
 40
2.224289133912193
 40
2.281372625717016
 40
2.341734183334407
 40
2.405642195434727
 40
2.473417773450677
 40
2.545641091900555
 40
2.622992929980827
 40
2.706324547157508
 40
2.796643456638744
 40
2.895208231007072
 40
3.0
 40
3.0
 40
3.0
 40
3.0
 10
18.59699738231435
 20
57.93530129292692
 30
0.0
 10
18.60132405508935
 20
58.03204525474192
 30
0.0
 10
18.61194090133935
 20
58.32779839332192
 30
0.0
 10
18.61580226100935
 20
58.84065945926192
 30
0.0
 10
18.60415185885935
 20
59.48998084847192
 30
0.0
 10
18.57777893183935
 20
60.16646459888192
 30
0.0
 10
18.53730169977935
 20
60.87300696921192
 30
0.0
 10
18.48147651850935
 20
61.61548520923192
 30
0.0
 10
18.40783367673936
 20
62.39870319215192
 30
0.0
 10
18.31223579460935
 20
63.22626654177192
 30
0.0
 10
18.19095795746935
 20
64.10243436209191
 30
0.0
 10
18.04160470935936
 20
65.03335779133192
 30
0.0
 10
17.86200608967936
 20
66.02755850642191
 30
0.0
 10
17.65061799626936
 20
67.09560281834192
 30
0.0
 10
17.40500267836936
 20
68.25056634230192
 30
0.0
 10
17.11793863385745
 20
69.49166622292145
 30
0.0
 10
16.90005296507235
 20
70.34659224624168
 30
0.0
 10
16.77867047546935
 20
70.78462034991192
 30
0.0
  0
LINE
  5
135
330
1F
100
AcDbEntity
  8
IGES_LEVEL_0
 62
     7
100
AcDbLine
 10
16.77867047546935
 20
70.78462034991192
 30
0.0
 11
16.76963855760936
 21
70.81128546312192
 31
0.0
  0
LINE
  5
136
330
1F
100
AcDbEntity
  8
IGES_LEVEL_0
 62
     7
100
AcDbLine
 10
16.76963855760936
 20
70.81128546312192
 30
0.0
 11
16.75981229202935
 21
70.83265876072193
 31
0.0
  0
LINE
  5
137
330
1F
100
AcDbEntity
  8
IGES_LEVEL_0
 62
     7
100
AcDbLine
 10
16.75981229202935
 20
70.83265876072193
 30
0.0
 11
16.68382353447935
 21
70.91954427022192
 31
0.0
  0
LINE
  5
138
330
1F
100
AcDbEntity
  8
IGES_LEVEL_0
 62
     7
100
AcDbLine
 10
16.68382353447935
 20
70.91954427022192
 30
0.0
 11
16.63053545775935
 21
70.94742048108691
 31
0.0
  0
LINE
  5
139
330
1F
100
AcDbEntity
  8
IGES_LEVEL_0
 62
     7
100
AcDbLine
 10
16.63053545775935
 20
70.94742048108691
 30
0.0
 11
16.62517312834935
 21
70.94946041684193
 31
0.0
  0
LINE
  5
13A
330
1F
100
AcDbEntity
  8
IGES_LEVEL_0
 62
     7
100
AcDbLine
 10
16.62517312834935
 20
70.94946041684193
 30
0.0
 11
16.61921662993935
 21
70.95158900336192
 31
0.0
  0
LINE
  5
13B
330
1F
100
AcDbEntity
  8
IGES_LEVEL_0
 62
     7
100
AcDbLine
 10
16.61921662993935
 20
70.95158900336192
 30
0.0
 11
16.61368872102935
 21
70.95339980821191
 31
0.0
  0
LINE
  5
13C
330
1F
100
AcDbEntity
  8
IGES_LEVEL_0
 62
     7
100
AcDbLine
 10
16.61368872102935
 20
70.95339980821191
 30
0.0
 11
16.60753741237935
 21
70.95523302913192
 31
0.0
  0
LINE
  5
13D
330
1F
100
AcDbEntity
  8
IGES_LEVEL_0
 62
     7
100
AcDbLine
 10
16.60753741237935
 20
70.95523302913192
 30
0.0
 11
16.55135777649936
 21
70.97108633468193
 31
0.0
  0
LINE
  5
13E
330
1F
100
AcDbEntity
  8
IGES_LEVEL_0
 62
     7
100
AcDbLine
 10
3.855097930283662
 20
71.12760808984191
 30
0.0
 11
3.821713122696352
 21
71.12028409689192
 31
0.0
  0
LINE
  5
13F
330
1F
100
AcDbEntity
  8
IGES_LEVEL_0
 62
     7
100
AcDbLine
 10
3.821713122696352
 20
71.12028409689192
 30
0.0
 11
3.36253891465735
 21
71.01420124116692
 31
0.0
  0
LINE
  5
140
330
1F
100
AcDbEntity
  8
IGES_LEVEL_0
 62
     7
100
AcDbLine
 10
3.36253891465735
 20
71.01420124116692
 30
0.0
 11
3.346792328402344
 21
71.00981652389692
 31
0.0
  0
LINE
  5
141
330
1F
100
AcDbEntity
  8
IGES_LEVEL_0
 62
     7
100
AcDbLine
 10
3.346792328402344
 20
71.00981652389692
 30
0.0
 11
3.338148871300362
 21
71.00696033698192
 31
0.0
  0
LINE
  5
142
330
1F
100
AcDbEntity
  8
IGES_LEVEL_0
 62
     7
100
AcDbLine
 10
3.338148871300362
 20
71.00696033698192
 30
0.0
 11
3.334575536605357
 21
71.00569066488691
 31
0.0
  0
LINE
  5
143
330
1F
100
AcDbEntity
  8
IGES_LEVEL_0
 62
     7
100
AcDbLine
 10
3.334575536605357
 20
71.00569066488691
 30
0.0
 11
3.321587078603344
 21
71.00093351220193
 31
0.0
  0
LINE
  5
144
330
1F
100
AcDbEntity
  8
IGES_LEVEL_0
 62
     7
100
AcDbLine
 10
3.321587078603344
 20
71.00093351220193
 30
0.0
 11
3.309274653395349
 21
70.99640588882193
 31
0.0
  0
LINE
  5
145
330
1F
100
AcDbEntity
  8
IGES_LEVEL_0
 62
     7
100
AcDbLine
 10
3.309274653395349
 20
70.99640588882193
 30
0.0
 11
3.302116347576359
 21
70.99373612048692
 31
0.0
  0
LINE
  5
146
330
1F
100
AcDbEntity
  8
IGES_LEVEL_0
 62
     7
100
AcDbLine
 10
3.302116347576359
 20
70.99373612048692
 30
0.0
 11
3.29039464695434
 21
70.98899274639192
 31
0.0
  0
ARC
  5
147
330
1F
100
AcDbEntity
  8
IGES_LEVEL_0
 62
     7
100
AcDbCircle
 10
3.390876723465318
 20
70.75541605700096
 30
0.0
 40
0.2542729193736488
100
AcDbArc
 50
113.2768337632904
 51
150.0210737712782
  0
LINE
  5
148
330
1F
100
AcDbEntity
  8
IGES_LEVEL_0
 62
     7
100
AcDbLine
 10
3.170623169048341
 20
70.88247151455192
 30
0.0
 11
3.14696687330634
 21
70.82732590904192
 31
0.0
  0
LINE
  5
149
330
1F
100
AcDbEntity
  8
IGES_LEVEL_0
 62
     7
100
AcDbLine
 10
3.14696687330634
 20
70.82732590904192
 30
0.0
 11
3.14357510678235
 21
70.81467359543692
 31
0.0
  0
SPLINE
  5
14A
330
1F
100
AcDbEntity
  8
IGES_LEVEL_0
 62
     7
100
AcDbSpline
210
0.0
220
0.0
230
1.0
 70
     8
 71
     3
 72
    22
 73
    18
 74
     0
 42
0.0000000001
 43
0.0000000001
 40
12.0
 40
12.0
 40
12.0
 40
12.0
 40
12.10338281003966
 40
12.20071698736234
 40
12.29013451005046
 40
12.37285278479739
 40
12.4498363965599
 40
12.52189357044873
 40
12.58965707960573
 40
12.65367465215999
 40
12.7142969078758
 40
12.77174669035302
 40
12.82632194883411
 40
12.87843170518683
 40
12.92852231061663
 40
12.97689719752877
 40
13.0
 40
13.0
 40
13.0
 40
13.0
 10
3.14357510678235
 20
70.81467359543692
 30
0.0
 10
3.038278214280609
 20
70.37741402153176
 30
0.0
 10
2.827522702602167
 20
69.53000797516916
 30
0.0
 10
2.539315745592361
 20
68.30110909541192
 30
0.0
 10
2.282930168562345
 20
67.15716064999192
 30
0.0
 10
2.05831820576536
 20
66.09688048518191
 30
0.0
 10
1.865742505402366
 20
65.10712601546192
 30
0.0
 10
1.705641271337342
 20
64.17754144211192
 30
0.0
 10
1.575195497507352
 20
63.30031852871192
 30
0.0
 10
1.472551137688342
 20
62.46951463218192
 30
0.0
 10
1.39366992727436
 20
61.68122234650192
 30
0.0
 10
1.33370166161636
 20
60.93248931454192
 30
0.0
 10
1.288762763891342
 20
60.21981715099192
 30
0.0
 10
1.256365840970361
 20
59.53852203156192
 30
0.0
 10
1.234097520124365
 20
58.88381602656192
 30
0.0
 10
1.222058610063343
 20
58.35507324261192
 30
0.0
 10
1.215773548254249
 20
58.04417910110011
 30
0.0
 10
1.213849340024339
 20
57.94369057875192
 30
0.0
  0
LINE
  5
14B
330
1F
100
AcDbEntity
  8
IGES_LEVEL_0
 62
     7
100
AcDbLine
 10
1.213849340024339
 20
57.94369057875192
 30
0.0
 11
1.213574750192365
 21
57.92935058891192
 31
0.0
  0
LINE
  5
14C
330
1F
100
AcDbEntity
  8
IGES_LEVEL_0
 62
     7
100
AcDbLine
 10
1.213574750192365
 20
57.92935058891192
 30
0.0
 11
1.213525990786351
 21
57.92679666127192
 31
0.0
  0
LINE
  5
14D
330
1F
100
AcDbEntity
  8
IGES_LEVEL_0
 62
     7
100
AcDbLine
 10
1.213525990786351
 20
57.92679666127192
 30
0.0
 11
1.211656130382863
 21
57.83279774534192
 31
0.0
  0
LINE
  5
14E
330
1F
100
AcDbEntity
  8
IGES_LEVEL_0
 62
     7
100
AcDbLine
 10
1.211656130382863
 20
57.83279774534192
 30
0.0
 11
1.211178662367345
 21
57.81808116292192
 31
0.0
  0
LINE
  5
14F
330
1F
100
AcDbEntity
  8
IGES_LEVEL_0
 62
     7
100
AcDbLine
 10
1.211178662367345
 20
57.81808116292192
 30
0.0
 11
1.186642265821362
 21
56.90925232102192
 31
0.0
  0
ARC
  5
150
330
1F
100
AcDbEntity
  8
IGES_LEVEL_0
 62
     7
100
AcDbCircle
 10
10.01470891396545
 20
56.96133154862935
 30
0.0
 40
8.828220261752769
100
AcDbArc
 50
180.3379998641721
 51
192.0913789670781
  0
ARC
  5
151
330
1F
100
AcDbEntity
  8
IGES_LEVEL_0
 62
     7
100
AcDbCircle
 10
2.02158281513557
 20
55.2896689707889
 30
0.0
 40
0.6634501503694521
100
AcDbArc
 50
195.5267150841703
 51
260.9642023314277
  0
LINE
  5
152
330
1F
100
AcDbEntity
  8
IGES_LEVEL_0
 62
     7
100
AcDbLine
 10
1.917386954285362
 20
54.63445196505192
 30
0.0
 11
1.934186143303847
 21
54.62992266019192
 31
0.0
  0
LINE
  5
153
330
1F
100
AcDbEntity
  8
IGES_LEVEL_0
 62
     7
100
AcDbLine
 10
1.934186143303847
 20
54.62992266019192
 30
0.0
 11
1.953455378684353
 21
54.62486313571192
 31
0.0
  0
SPLINE
  5
154
330
1F
100
AcDbEntity
  8
IGES_LEVEL_0
 62
     7
100
AcDbSpline
210
0.0
220
0.0
230
1.0
 70
     8
 71
     3
 72
    11
 73
     7
 74
     0
 42
0.0000000001
 43
0.0000000001
 40
22.0
 40
22.0
 40
22.0
 40
22.0
 40
22.21735295552227
 40
22.46152254636755
 40
22.72420440785231
 40
23.0
 40
23.0
 40
23.0
 40
23.0
 10
1.953455378684353
 20
54.62486313571192
 30
0.0
 10
2.515303585127342
 20
54.47760466566192
 30
0.0
 10
3.719231943773352
 20
54.20551318148192
 30
0.0
 10
5.636406322357843
 20
53.92096094110192
 30
0.0
 10
7.728122980112637
 20
53.8271276113624
 30
0.0
 10
9.166895909137219
 20
53.82587744695381
 30
0.0
 10
9.90388185343636
 20
53.82584941111692
 30
0.0
  0
SPLINE
  5
155
330
1F
100
AcDbEntity
  8
IGES_LEVEL_0
 62
     7
100
AcDbSpline
210
0.0
220
0.0
230
1.0
 70
     8
 71
     3
 72
    11
 73
     7
 74
     0
 42
0.0000000001
 43
0.0000000001
 40
23.0
 40
23.0
 40
23.0
 40
23.0
 40
23.2753566736486
 40
23.53803888258821
 40
23.78221036370215
 40
24.0
 40
24.0
 40
24.0
 40
24.0
 10
9.90388185343636
 20
53.82584941111692
 30
0.0
 10
10.63969454617978
 20
53.82582141991193
 30
0.0
 10
12.07729508088656
 20
53.82713756957233
 30
0.0
 10
14.16785090511236
 20
53.92064689474192
 30
0.0
 10
16.08624027996935
 20
54.20502016598192
 30
0.0
 10
17.29139157214375
 20
54.47707365925974
 30
0.0
 10
17.85430625087936
 20
54.62486334822192
 30
0.0
  0
LINE
  5
156
330
1F
100
AcDbEntity
  8
IGES_LEVEL_0
 62
     7
100
AcDbLine
 10
17.85430625087936
 20
54.62486334822192
 30
0.0
 11
17.87357473633436
 21
54.62992216722192
 31
0.0
  0
LINE
  5
157
330
1F
100
AcDbEntity
  8
IGES_LEVEL_0
 62
     7
100
AcDbLine
 10
17.87357473633436
 20
54.62992216722192
 30
0.0
 11
17.88739183512935
 21
54.63363011041192
 31
0.0
  0
ARC
  5
158
330
1F
100
AcDbEntity
  8
IGES_LEVEL_0
 62
     7
100
AcDbCircle
 10
17.78480232061601
 20
55.29073720611729
 30
0.0
 40
0.6650671723325546
100
AcDbArc
 50
278.8735544535612
 51
344.4158424720105
  0
ARC
  5
159
330
1F
100
AcDbEntity
  8
IGES_LEVEL_0
 62
     7
100
AcDbCircle
 10
11.92893230360915
 20
56.72870746867997
 30
0.0
 40
6.694615806246679
100
AcDbArc
 50
346.0258537474668
 51
1.544764590682428
  0
LINE
  5
15A
330
1F
100
AcDbEntity
  8
IGES_LEVEL_0
 62
     7
100
AcDbLine
 10
18.62111507291935
 20
56.90918066723192
 30
0.0
 11
18.59660420328935
 21
57.81807584233192
 31
0.0
  0
LINE
  5
15B
330
1F
100
AcDbEntity
  8
IGES_LEVEL_0
 62
     7
100
AcDbLine
 10
18.59660420328935
 20
57.81807584233192
 30
0.0
 11
18.59609935463435
 21
57.83298674051191
 31
0.0
  0
LINE
  5
15C
330
1F
100
AcDbEntity
  8
IGES_LEVEL_0
 62
     7
100
AcDbLine
 10
18.59609935463435
 20
57.83298674051191
 30
0.0
 11
18.59422112797935
 21
57.92679673276192
 31
0.0
  0
LINE
  5
15D
330
1F
100
AcDbEntity
  8
IGES_LEVEL_0
 62
     7
100
AcDbLine
 10
18.59422112797935
 20
57.92679673276192
 30
0.0
 11
18.59414444599936
 21
57.93081447277192
 31
0.0
  0
LINE
  5
15E
330
1F
100
AcDbEntity
  8
IGES_LEVEL_0
 62
     7
100
AcDbLine
 10
18.59414444599936
 20
57.93081447277192
 30
0.0
 11
18.59389798919935
 21
57.94368968646192
 31
0.0
  0
SPLINE
  5
15F
330
1F
100
AcDbEntity
  8
IGES_LEVEL_0
 62
     7
100
AcDbSpline
210
0.0
220
0.0
230
1.0
 70
     8
 71
     3
 72
    22
 73
    18
 74
     0
 42
0.0000000001
 43
0.0000000001
 40
33.0
 40
33.0
 40
33.0
 40
33.0
 40
33.0231233086374
 40
33.07150788144456
 40
33.12160787165963
 40
33.17372703736832
 40
33.22831107578334
 40
33.28577051588967
 40
33.34640430786424
 40
33.4104339409025
 40
33.47821198286889
 40
33.55028434700805
 40
33.62728837269805
 40
33.71002706895933
 40
33.79946954304555
 40
33.89683379116745
 40
34.0
 40
34.0
 40
34.0
 40
34.0
 10
18.59389798919935
 20
57.94368968646192
 30
0.0
 10
18.59196840467935
 20
58.04426964225192
 30
0.0
 10
18.58569142056935
 20
58.35530251172192
 30
0.0
 10
18.57367079130935
 20
58.88423008601192
 30
0.0
 10
18.55136781261935
 20
59.53907397722192
 30
0.0
 10
18.51896715487935
 20
60.22050449510192
 30
0.0
 10
18.47400799129936
 20
60.93331341467192
 30
0.0
 10
18.41399015878936
 20
61.68219025810192
 30
0.0
 10
18.33511519372935
 20
62.47064701074192
 30
0.0
 10
18.23237616763935
 20
63.30162588590192
 30
0.0
 10
18.10188759830935
 20
64.17904651431192
 30
0.0
 10
17.94168923781935
 20
65.10885767776192
 30
0.0
 10
17.74905881173935
 20
66.09887317472192
 30
0.0
 10
17.52433793705936
 20
67.15944819437192
 30
0.0
 10
17.26788528734936
 20
68.30374562776191
 30
0.0
 10
16.97971134563682
 20
69.5319597804306
 30
0.0
 10
16.78745372529756
 20
70.38383362086573
 30
0.0
 10
16.66411297907935
 20
70.81496185686191
 30
0.0
  0
LINE
  5
160
330
1F
100
AcDbEntity
  8
IGES_LEVEL_0
 62
     7
100
AcDbLine
 10
16.66411297907935
 20
70.81496185686191
 30
0.0
 11
16.65813436101935
 21
70.83585966344192
 31
0.0
  0
LINE
  5
161
330
1F
100
AcDbEntity
  8
IGES_LEVEL_0
 62
     7
100
AcDbLine
 10
16.65813436101935
 20
70.83585966344192
 30
0.0
 11
16.63582342438936
 21
70.88490372908191
 31
0.0
  0
ARC
  5
162
330
1F
100
AcDbEntity
  8
IGES_LEVEL_0
 62
     7
100
AcDbCircle
 10
16.42328719986727
 20
70.76326140029008
 30
0.0
 40
0.2448846726277644
100
AcDbArc
 50
29.78409965519098
 51
70.37723948247066
  0
LINE
  5
163
330
1F
100
AcDbEntity
  8
IGES_LEVEL_0
 62
     7
100
AcDbLine
 10
16.50552578405436
 20
70.99392418046692
 30
0.0
 11
16.46798902525435
 21
71.00730722343691
 31
0.0
  0
LINE
  5
164
330
1F
100
AcDbEntity
  8
IGES_LEVEL_0
 62
     7
100
AcDbLine
 10
16.46798902525435
 20
71.00730722343691
 30
0.0
 11
16.46430623687935
 21
71.00889851976191
 31
0.0
  0
LINE
  5
165
330
1F
100
AcDbEntity
  8
IGES_LEVEL_0
 62
     7
100
AcDbLine
 10
16.46430623687935
 20
71.00889851976191
 30
0.0
 11
16.45375344326435
 21
71.01236660456192
 31
0.0
  0
LINE
  5
166
330
1F
100
AcDbEntity
  8
IGES_LEVEL_0
 62
     7
100
AcDbLine
 10
16.45375344326435
 20
71.01236660456192
 30
0.0
 11
15.95621013127435
 21
71.12731760230692
 31
0.0
  0
ARC
  5
167
330
1F
100
AcDbEntity
  8
IGES_LEVEL_0
 62
     7
100
AcDbCircle
 10
10.0339774902955
 20
48.01698030564384
 30
0.0
 40
23.85708551813091
100
AcDbArc
 50
75.62673576363969
 51
90.31244253759773
  0
ARC
  5
168
330
1F
100
AcDbEntity
  8
IGES_LEVEL_0
 62
     7
100
AcDbCircle
 10
10.40588016016538
 20
42.84972185857555
 30
0.0
 40
29.02833020030788
100
AcDbArc
 50
90.99088781145079
 51
103.042921311634
  0
LINE
  5
169
330
1F
100
AcDbEntity
  8
IGES_LEVEL_0
 62
     7
100
AcDbLine
 10
3.854740198917241
 20
71.12915819359192
 30
0.0
 11
3.823561458679265
 21
71.12193540850191
 31
0.0
  0
LINE
  5
16A
330
1F
100
AcDbEntity
  8
IGES_LEVEL_0
 62
     7
100
AcDbLine
 10
3.701723400621361
 20
71.09354806621192
 30
0.0
 11
3.846662905446451
 21
71.13208706579192
 31
0.0
  0
LINE
  5
16B
330
1F
100
AcDbEntity
  8
IGES_LEVEL_0
 62
     7
100
AcDbLine
 10
3.846662905446451
 20
71.13208706579192
 30
0.0
 11
3.944637085996064
 21
71.15765722789192
 31
0.0
  0
ARC
  5
16C
330
1F
100
AcDbEntity
  8
IGES_LEVEL_0
 62
     7
100
AcDbCircle
 10
9.85642240596628
 20
47.94959333793468
 30
0.0
 40
23.94918443683944
100
AcDbArc
 50
89.95257338795656
 51
104.2910144423882
  0
LINE
  5
16D
330
1F
100
AcDbEntity
  8
IGES_LEVEL_0
 62
     7
100
AcDbLine
 10
3.257166643567345
 20
70.97130039920192
 30
0.0
 11
3.20022630670185
 21
70.95523300185693
 31
0.0
  0
LINE
  5
16E
330
1F
100
AcDbEntity
  8
IGES_LEVEL_0
 62
     7
100
AcDbLine
 10
3.20022630670185
 20
70.95523300185693
 30
0.0
 11
3.189114723654356
 21
70.95178210264191
 31
0.0
  0
LINE
  5
16F
330
1F
100
AcDbEntity
  8
IGES_LEVEL_0
 62
     7
100
AcDbLine
 10
3.189114723654356
 20
70.95178210264191
 30
0.0
 11
3.182590157341352
 21
70.94946108123192
 31
0.0
  0
LINE
  5
170
330
1F
100
AcDbEntity
  8
IGES_LEVEL_0
 62
     7
100
AcDbLine
 10
3.182590157341352
 20
70.94946108123192
 30
0.0
 11
3.176862365333363
 21
70.94732311221193
 31
0.0
  0
LINE
  5
171
330
1F
100
AcDbEntity
  8
IGES_LEVEL_0
 62
     7
100
AcDbLine
 10
3.176862365333363
 20
70.94732311221193
 30
0.0
 11
3.16384179511634
 21
70.94201320350192
 31
0.0
  0
LINE
  5
172
330
1F
100
AcDbEntity
  8
IGES_LEVEL_0
 62
     7
100
AcDbLine
 10
3.16384179511634
 20
70.94201320350192
 30
0.0
 11
3.123171717528365
 21
70.91900563795193
 31
0.0
  0
LINE
  5
173
330
1F
100
AcDbEntity
  8
IGES_LEVEL_0
 62
     7
100
AcDbLine
 10
3.123171717528365
 20
70.91900563795193
 30
0.0
 11
3.058536502892352
 21
70.85106410393192
 31
0.0
  0
LINE
  5
174
330
1F
100
AcDbEntity
  8
IGES_LEVEL_0
 62
     7
100
AcDbLine
 10
3.058536502892352
 20
70.85106410393192
 30
0.0
 11
3.046790333618347
 21
70.83039144159193
 31
0.0
  0
LINE
  5
175
330
1F
100
AcDbEntity
  8
IGES_LEVEL_0
 62
     7
100
AcDbLine
 10
3.046790333618347
 20
70.83039144159193
 30
0.0
 11
3.031306704849342
 21
70.79213830432192
 31
0.0
  0
LINE
  5
176
330
1F
100
AcDbEntity
  8
IGES_LEVEL_0
 62
     7
100
AcDbLine
 10
3.031306704849342
 20
70.79213830432192
 30
0.0
 11
3.030316584289366
 21
70.78887358863193
 31
0.0
  0
LINE
  5
177
330
1F
100
AcDbEntity
  8
IGES_LEVEL_0
 62
     7
100
AcDbLine
 10
3.030316584289366
 20
70.78887358863193
 30
0.0
 11
3.02909308193486
 21
70.78461924329193
 31
0.0
  0
SPLINE
  5
178
330
1F
100
AcDbEntity
  8
IGES_LEVEL_0
 62
     7
100
AcDbSpline
210
0.0
220
0.0
230
1.0
 70
     8
 71
     3
 72
    22
 73
    18
 74
     0
 42
0.0000000001
 43
0.0000000001
 40
11.0
 40
11.0
 40
11.0
 40
11.0
 40
11.10501383102569
 40
11.20354394101351
 40
11.29383190869224
 40
11.37713979994495
 40
11.45446872911156
 40
11.52667316617173
 40
11.59443204444288
 40
11.65832543108932
 40
11.71867420422697
 40
11.77574564400307
 40
11.82993863749743
 40
11.88178875923651
 40
11.93178368548006
 40
11.97962731526341
 40
12.0
 40
12.0
 40
12.0
 40
12.0
 10
3.02909308193486
 20
70.78461924329193
 30
0.0
 10
2.907455022510803
 20
70.3456624986118
 30
0.0
 10
2.689391732705971
 20
69.4899428205992
 30
0.0
 10
2.402250361700354
 20
68.24816463878193
 30
0.0
 10
2.156697459940361
 20
67.09358407675191
 30
0.0
 10
1.945447985225357
 20
66.02585533464192
 30
0.0
 10
1.765912541849346
 20
65.03193226191192
 30
0.0
 10
1.616633583291346
 20
64.10125385310192
 30
0.0
 10
1.495405564404351
 20
63.22529916970192
 30
0.0
 10
1.39984900423535
 20
62.39792371110192
 30
0.0
 10
1.326237631027354
 20
61.61487481690192
 30
0.0
 10
1.270432432748365
 20
60.87255539397192
 30
0.0
 10
1.229971361215362
 20
60.16616563675192
 30
0.0
 10
1.203607940454347
 20
59.48981953644192
 30
0.0
 10
1.19196162054935
 20
58.84059630116192
 30
0.0
 10
1.195823112567339
 20
58.32778520010192
 30
0.0
 10
1.20650995736461
 20
58.03204820144718
 30
0.0
 10
1.210766378947852
 20
57.93530140344192
 30
0.0
  0
ARC
  5
179
330
1F
100
AcDbEntity
  8
IGES_LEVEL_0
 62
     7
100
AcDbCircle
 10
0.6043779576730063
 20
57.90862305524478
 30
0.0
 40
0.606975000900966
100
AcDbArc
 50
1.832057216207668
 51
2.519130676647254
  0
LINE
  5
17A
330
1F
100
AcDbEntity
  8
IGES_LEVEL_0
 62
     7
100
AcDbLine
 10
1.21104269084536
 20
57.92802803511192
 30
0.0
 11
1.210957366009851
 21
57.93013170640693
 31
0.0
  0
LINE
  5
17B
330
1F
100
AcDbEntity
  8
IGES_LEVEL_0
 62
     7
100
AcDbLine
 10
1.210957366009851
 20
57.93013170640693
 30
0.0
 11
1.21288939622734
 21
57.88688189775192
 31
0.0
  0
LINE
  5
17C
330
1F
100
AcDbEntity
  8
IGES_LEVEL_0
 62
     7
100
AcDbLine
 10
16.06937805413935
 20
71.10307711795193
 30
0.0
 11
15.98130515833935
 21
71.12632924073192
 31
0.0
  0
LINE
  5
17D
330
1F
100
AcDbEntity
  8
IGES_LEVEL_0
 62
     7
100
AcDbLine
 10
15.98130515833935
 20
71.12632924073192
 30
0.0
 11
15.96222551861935
 21
71.13132677867192
 31
0.0
  0
LINE
  5
17E
330
1F
100
AcDbEntity
  8
IGES_LEVEL_0
 62
     7
100
AcDbLine
 10
15.96222551861935
 20
71.13132677867192
 30
0.0
 11
15.95721196153936
 21
71.13263757878193
 31
0.0
  0
LINE
  5
17F
330
1F
100
AcDbEntity
  8
IGES_LEVEL_0
 62
     7
100
AcDbLine
 10
15.95721196153936
 20
71.13263757878193
 30
0.0
 11
15.94217874407936
 21
71.13656198414192
 31
0.0
  0
LINE
  5
180
330
1F
100
AcDbEntity
  8
IGES_LEVEL_0
 62
     7
100
AcDbLine
 10
15.94217874407936
 20
71.13656198414192
 30
0.0
 11
15.78271285819936
 21
71.17761305065193
 31
0.0
  0
LINE
  5
181
330
1F
100
AcDbEntity
  8
IGES_LEVEL_0
 62
     7
100
AcDbLine
 10
15.78271285819936
 20
71.17761305065193
 30
0.0
 11
15.42226046122936
 21
71.26626581673192
 31
0.0
  0
LINE
  5
182
330
1F
100
AcDbEntity
  8
IGES_LEVEL_0
 62
     7
100
AcDbLine
 10
15.42226046122936
 20
71.26626581673192
 30
0.0
 11
15.09501221763935
 21
71.34144098315193
 31
0.0
  0
LINE
  5
183
330
1F
100
AcDbEntity
  8
IGES_LEVEL_0
 62
     7
100
AcDbLine
 10
15.09501221763935
 20
71.34144098315193
 30
0.0
 11
14.93815192092936
 21
71.37565929213193
 31
0.0
  0
ARC
  5
184
330
1F
100
AcDbEntity
  8
IGES_LEVEL_0
 62
     7
100
AcDbCircle
 10
10.28962793044321
 20
50.57524556023657
 30
0.0
 40
21.31351652609551
100
AcDbArc
 50
77.40241186798134
 51
89.08621757405012
  0
LINE
  5
185
330
1F
100
AcDbEntity
  8
IGES_LEVEL_0
 62
     7
100
AcDbLine
 10
10.62953239425936
 20
71.88605154367193
 30
0.0
 11
9.90388185557434
 21
71.89762557130192
 31
0.0
  0
LINE
  5
186
330
1F
100
AcDbEntity
  8
IGES_LEVEL_0
 62
     7
100
AcDbLine
 10
15.56000057059686
 20
27.41599898635693
 30
0.0
 11
16.15254355716685
 21
28.07120076450692
 31
0.0
  0
ARC
  5
187
330
1F
100
AcDbEntity
  8
IGES_LEVEL_0
 62
     7
100
AcDbCircle
 10
9.991857640657962
 20
41.51152908222835
 30
0.0
 40
15.28250972888965
100
AcDbArc
 50
269.580735832206
 51
290.1637303465539
  0
LINE
  5
188
330
1F
100
AcDbEntity
  8
IGES_LEVEL_0
 62
     7
100
AcDbLine
 10
15.33616762129685
 20
27.20878716530692
 30
0.0
 11
15.55987888625685
 21
27.41586907026692
 31
0.0
  0
LINE
  5
189
330
1F
100
AcDbEntity
  8
IGES_LEVEL_0
 62
     7
100
AcDbLine
 10
15.31339223795685
 20
27.19233204442692
 30
0.0
 11
15.33613362650685
 21
27.20876152640692
 31
0.0
  0
LINE
  5
18A
330
1F
100
AcDbEntity
  8
IGES_LEVEL_0
 62
     7
100
AcDbLine
 10
15.28221441292685
 20
27.17494343801693
 30
0.0
 11
15.31339223795685
 21
27.19233204442692
 31
0.0
  0
LINE
  5
18B
330
1F
100
AcDbEntity
  8
IGES_LEVEL_0
 62
     7
100
AcDbLine
 10
15.25980230854685
 20
27.16566081061692
 30
0.0
 11
15.28221441292685
 21
27.17494343801693
 31
0.0
  0
LINE
  5
18C
330
1F
100
AcDbEntity
  8
IGES_LEVEL_0
 62
     7
100
AcDbLine
 10
3.607637553676852
 20
28.07120022991693
 30
0.0
 11
4.200160357002744
 21
27.41601985497692
 31
0.0
  0
ARC
  5
18D
330
1F
100
AcDbEntity
  8
IGES_LEVEL_0
 62
     7
100
AcDbCircle
 10
9.768312825796803
 20
41.51148648866109
 30
0.0
 40
15.28246623596575
100
AcDbArc
 50
249.8362504435198
 51
270.4188723113787
  0
LINE
  5
18E
330
1F
100
AcDbEntity
  8
IGES_LEVEL_0
 62
     7
100
AcDbLine
 10
4.200302212062752
 20
27.41586778588692
 30
0.0
 11
4.424013404142244
 21
27.20878686271692
 31
0.0
  0
LINE
  5
18F
330
1F
100
AcDbEntity
  8
IGES_LEVEL_0
 62
     7
100
AcDbLine
 10
4.497391216944749
 20
27.16675563420692
 30
0.0
 11
4.500378107835559
 21
27.16566085413692
 31
0.0
  0
LINE
  5
190
330
1F
100
AcDbEntity
  8
IGES_LEVEL_0
 62
     7
100
AcDbLine
 10
4.445899801172544
 20
27.19291182134693
 30
0.0
 11
4.497391216944749
 21
27.16675563420692
 31
0.0
  0
LINE
  5
191
330
1F
100
AcDbEntity
  8
IGES_LEVEL_0
 62
     7
100
AcDbLine
 10
4.424062676888241
 20
27.20874914360692
 30
0.0
 11
4.445899801172544
 21
27.19291182134693
 31
0.0
  0
ARC
  5
192
330
1F
100
AcDbEntity
  8
IGES_LEVEL_0
 62
     7
100
AcDbCircle
 10
10.18554942873787
 20
77.20446312276518
 30
0.0
 40
47.0779787489318
100
AcDbArc
 50
259.5483092781133
 51
269.6282414674857
  0
ARC
  5
193
330
1F
100
AcDbEntity
  8
IGES_LEVEL_0
 62
     7
100
AcDbCircle
 10
9.574631311663229
 20
77.20446082145894
 30
0.0
 40
47.07797644707972
100
AcDbArc
 50
270.3717584392163
 51
280.4516902616954
  0
LINE
  5
194
330
1F
100
AcDbEntity
  8
IGES_LEVEL_0
 62
     7
100
AcDbLine
 10
18.30116640942686
 20
28.73692151320692
 30
0.0
 11
18.31468471730685
 21
28.75985489225693
 31
0.0
  0
LINE
  5
195
330
1F
100
AcDbEntity
  8
IGES_LEVEL_0
 62
     7
100
AcDbLine
 10
1.445502887543853
 20
28.75984294790693
 30
0.0
 11
1.459005386009864
 21
28.73693648832693
 31
0.0
  0
LINE
  5
196
330
1F
100
AcDbEntity
  8
IGES_LEVEL_0
 62
     7
100
AcDbLine
 10
1.26290945177584
 20
29.68394207242692
 30
0.0
 11
1.355963515833849
 21
29.03088427757692
 31
0.0
  0
LINE
  5
197
330
1F
100
AcDbEntity
  8
IGES_LEVEL_0
 62
     7
100
AcDbLine
 10
1.262253213734851
 20
29.68754678083692
 30
0.0
 11
1.26290945177584
 21
29.68394207242692
 31
0.0
  0
LINE
  5
198
330
1F
100
AcDbEntity
  8
IGES_LEVEL_0
 62
     7
100
AcDbLine
 10
1.242656815664844
 20
29.79325319594692
 30
0.0
 11
1.262253213734851
 21
29.68754678083692
 31
0.0
  0
LINE
  5
199
330
1F
100
AcDbEntity
  8
IGES_LEVEL_0
 62
     7
100
AcDbLine
 10
1.193228597324861
 20
30.06918134485692
 30
0.0
 11
1.242656815664844
 21
29.79325319594692
 31
0.0
  0
LINE
  5
19A
330
1F
100
AcDbEntity
  8
IGES_LEVEL_0
 62
     7
100
AcDbLine
 10
1.190399574338841
 20
30.08706149605692
 30
0.0
 11
1.193228597324861
 21
30.06918134485692
 31
0.0
  0
LINE
  5
19B
330
1F
100
AcDbEntity
  8
IGES_LEVEL_0
 62
     7
100
AcDbLine
 10
1.188633573218851
 20
30.09850340557692
 30
0.0
 11
1.190399574338841
 21
30.08706149605692
 31
0.0
  0
SPLINE
  5
19C
330
1F
100
AcDbEntity
  8
IGES_LEVEL_0
 62
     7
100
AcDbSpline
210
0.0
220
0.0
230
1.0
 70
     8
 71
     3
 72
    14
 73
    10
 74
     0
 42
0.0000000001
 43
0.0000000001
 40
0.0
 40
0.0
 40
0.0
 40
0.0
 40
0.1221215208161
 40
0.2910656106337
 40
0.4083349103063
 40
0.4933923736365
 40
0.6456720777499
 40
0.8397554858372001
 40
1.0
 40
1.0
 40
1.0
 40
1.0
 10
1.645426405933847
 20
30.90754040550692
 30
0.0
 10
1.600845391283855
 20
30.91442837351692
 30
0.0
 10
1.491836785329838
 20
30.91519199048693
 30
0.0
 10
1.348135800776845
 20
30.85051250658692
 30
0.0
 10
1.258030075278839
 20
30.74526046080692
 30
0.0
 10
1.195725351242857
 20
30.63008284373692
 30
0.0
 10
1.15852785309184
 20
30.47328632491692
 30
0.0
 10
1.163191331318842
 20
30.28599973943692
 30
0.0
 10
1.179736939166844
 20
30.15674625614692
 30
0.0
 10
1.188633573218851
 20
30.09850340557692
 30
0.0
  0
LINE
  5
19D
330
1F
100
AcDbEntity
  8
IGES_LEVEL_0
 62
     7
100
AcDbLine
 10
1.436077605808862
 20
28.77617108397692
 30
0.0
 11
1.445487779031851
 21
28.75988174271692
 31
0.0
  0
ARC
  5
19E
330
1F
100
AcDbEntity
  8
IGES_LEVEL_0
 62
     7
100
AcDbCircle
 10
2.006131133550718
 20
29.09520898868956
 30
0.0
 40
0.6532581489230449
100
AcDbArc
 50
185.6507994589658
 51
209.2341280189185
  0
ARC
  5
19F
330
1F
100
AcDbEntity
  8
IGES_LEVEL_0
 62
     7
100
AcDbCircle
 10
17.75392199983463
 20
29.09525410119389
 30
0.0
 40
0.6533918200727398
100
AcDbArc
 50
330.6665448107906
 51
354.3469238990998
  0
LINE
  5
1A0
330
1F
100
AcDbEntity
  8
IGES_LEVEL_0
 62
     7
100
AcDbLine
 10
18.31470193388685
 20
28.75989715004693
 30
0.0
 11
18.32353812384685
 21
28.77516295510692
 31
0.0
  0
SPLINE
  5
1A1
330
1F
100
AcDbEntity
  8
IGES_LEVEL_0
 62
     7
100
AcDbSpline
210
0.0
220
0.0
230
1.0
 70
     8
 71
     3
 72
    14
 73
    10
 74
     0
 42
0.0000000001
 43
0.0000000001
 40
0.0
 40
0.0
 40
0.0
 40
0.0
 40
0.1627265140382
 40
0.3587804501216
 40
0.5110675223601
 40
0.5943300949671
 40
0.7131584501302
 40
0.8813893173375
 40
1.0
 40
1.0
 40
1.0
 40
1.0
 10
18.57204553500685
 20
30.10171851811692
 30
0.0
 10
18.58100378724686
 20
30.16070104285693
 30
0.0
 10
18.59749926669684
 20
30.29123328906692
 30
0.0
 10
18.60128475288686
 20
30.47976194460692
 30
0.0
 10
18.56217755864685
 20
30.63573533148692
 30
0.0
 10
18.49897301342685
 20
30.74985352488692
 30
0.0
 10
18.40797611169685
 20
30.85349086283692
 30
0.0
 10
18.26483092146685
 20
30.91549773176692
 30
0.0
 10
18.15785289584684
 20
30.91420807324692
 30
0.0
 10
18.11468602922685
 20
30.90752803608692
 30
0.0
  0
LINE
  5
1A2
330
1F
100
AcDbEntity
  8
IGES_LEVEL_0
 62
     7
100
AcDbLine
 10
18.56978787898686
 20
30.08705355371692
 30
0.0
 11
18.57204553500685
 21
30.10171851811692
 31
0.0
  0
LINE
  5
1A3
330
1F
100
AcDbEntity
  8
IGES_LEVEL_0
 62
     7
100
AcDbLine
 10
18.56695678700686
 20
30.06916703539692
 30
0.0
 11
18.56978787898686
 21
30.08705355371692
 31
0.0
  0
LINE
  5
1A4
330
1F
100
AcDbEntity
  8
IGES_LEVEL_0
 62
     7
100
AcDbLine
 10
18.55597015373685
 20
30.00351986889692
 30
0.0
 11
18.56695678700686
 21
30.06916703539692
 31
0.0
  0
LINE
  5
1A5
330
1F
100
AcDbEntity
  8
IGES_LEVEL_0
 62
     7
100
AcDbLine
 10
18.51725343607686
 20
29.79179727765692
 30
0.0
 11
18.55597015373685
 21
30.00351986889692
 31
0.0
  0
LINE
  5
1A6
330
1F
100
AcDbEntity
  8
IGES_LEVEL_0
 62
     7
100
AcDbLine
 10
18.49790695561686
 20
29.68744847447692
 30
0.0
 11
18.51725343607686
 21
29.79179727765692
 31
0.0
  0
LINE
  5
1A7
330
1F
100
AcDbEntity
  8
IGES_LEVEL_0
 62
     7
100
AcDbLine
 10
18.49673012355686
 20
29.68098170226692
 30
0.0
 11
18.49790695561686
 21
29.68744847447692
 31
0.0
  0
LINE
  5
1A8
330
1F
100
AcDbEntity
  8
IGES_LEVEL_0
 62
     7
100
AcDbLine
 10
18.40421753894685
 20
29.03087383567692
 30
0.0
 11
18.49673012355686
 21
29.68098170226692
 31
0.0
  0
LINE
  5
1A9
330
1F
100
AcDbEntity
  8
IGES_LEVEL_0
 62
     7
100
AcDbLine
 10
1.897906723131854
 20
28.41366751978692
 30
0.0
 11
1.956983937292847
 21
28.40160937912692
 31
0.0
  0
ARC
  5
1AA
330
1F
100
AcDbEntity
  8
IGES_LEVEL_0
 62
     7
100
AcDbCircle
 10
2.06093892951462
 20
29.0952196807065
 30
0.0
 40
0.7007801712178887
100
AcDbArc
 50
213.6490518430545
 51
256.5472228297639
  0
LINE
  5
1AB
330
1F
100
AcDbEntity
  8
IGES_LEVEL_0
 62
     7
100
AcDbLine
 10
1.458902879994838
 20
28.73711763785692
 30
0.0
 11
1.477576460538842
 21
28.70691428779692
 31
0.0
  0
SPLINE
  5
1AC
330
1F
100
AcDbEntity
  8
IGES_LEVEL_0
 62
     7
100
AcDbSpline
210
0.0
220
0.0
230
1.0
 70
     8
 71
     3
 72
    11
 73
     7
 74
     0
 42
0.0000000001
 43
0.0000000001
 40
0.0
 40
0.0
 40
0.0
 40
0.0
 40
0.2353078582519
 40
0.4850242327006
 40
0.7421266515132
 40
1.0
 40
1.0
 40
1.0
 40
1.0
 10
1.957008399938843
 20
28.40159061006693
 30
0.0
 10
2.572564024381848
 20
28.30147943309692
 30
0.0
 10
3.845773245207539
 20
28.11953628746692
 30
0.0
 10
5.807174806592855
 20
27.95992628929692
 30
0.0
 10
7.832087004069848
 20
27.87615733569692
 30
0.0
 10
9.196656436721838
 20
27.83408403177693
 30
0.0
 10
9.880090218101856
 20
27.83400515152692
 30
0.0
  0
SPLINE
  5
1AD
330
1F
100
AcDbEntity
  8
IGES_LEVEL_0
 62
     7
100
AcDbSpline
210
0.0
220
0.0
230
1.0
 70
     8
 71
     3
 72
    11
 73
     7
 74
     0
 42
0.0000000001
 43
0.0000000001
 40
0.0
 40
0.0
 40
0.0
 40
0.0
 40
0.2583003502166
 40
0.5153944786894
 40
0.7651130529818
 40
1.0
 40
1.0
 40
1.0
 40
1.0
 10
9.880090217555846
 20
27.83400472848692
 30
0.0
 10
10.56465595373486
 20
27.83407400030692
 30
0.0
 10
11.93033129990685
 20
27.87624955483692
 30
0.0
 10
13.95635868661785
 20
27.96008544287692
 30
0.0
 10
15.91661309311685
 20
28.11983823332692
 30
0.0
 10
17.18871625065685
 20
28.30164867964692
 30
0.0
 10
17.80316995909685
 20
28.40158962957693
 30
0.0
  0
LINE
  5
1AE
330
1F
100
AcDbEntity
  8
IGES_LEVEL_0
 62
     7
100
AcDbLine
 10
18.28342345629685
 20
28.70816313409692
 30
0.0
 11
18.30125775606685
 21
28.73707910559692
 31
0.0
  0
ARC
  5
1AF
330
1F
100
AcDbEntity
  8
IGES_LEVEL_0
 62
     7
100
AcDbCircle
 10
17.69948667795441
 20
29.09491543358901
 30
0.0
 40
0.7003995304562669
100
AcDbArc
 50
283.7464813456307
 51
326.4827430174338
  0
LINE
  5
1B0
330
1F
100
AcDbEntity
  8
IGES_LEVEL_0
 62
     7
100
AcDbLine
 10
17.80319792683685
 20
28.40161303753692
 30
0.0
 11
17.86591998467685
 21
28.41457768167692
 31
0.0
  0
LINE
  5
1B1
330
1F
100
AcDbEntity
  8
IGES_LEVEL_0
 62
     7
100
AcDbLine
 10
18.58680463958686
 20
30.02385321401692
 30
0.0
 11
18.58906490806686
 21
30.06529239092692
 31
0.0
  0
LINE
  5
1B2
330
1F
100
AcDbEntity
  8
IGES_LEVEL_0
 62
     7
100
AcDbLine
 10
18.54025134340685
 20
29.91473555072692
 30
0.0
 11
18.58680463958686
 21
30.02385321401692
 31
0.0
  0
LINE
  5
1B3
330
1F
100
AcDbEntity
  8
IGES_LEVEL_0
 62
     7
100
AcDbLine
 10
18.51290143200686
 20
29.85615419317692
 30
0.0
 11
18.54025134340685
 21
29.91473555072692
 31
0.0
  0
LINE
  5
1B4
330
1F
100
AcDbEntity
  8
IGES_LEVEL_0
 62
     7
100
AcDbLine
 10
18.23289323312685
 20
28.61417060534692
 30
0.0
 11
18.25583197715685
 21
28.65475996735692
 31
0.0
  0
ARC
  5
1B5
330
1F
100
AcDbEntity
  8
IGES_LEVEL_0
 62
     7
100
AcDbCircle
 10
17.65511408022822
 20
28.97804468335441
 30
0.0
 40
0.6828126347469314
100
AcDbArc
 50
284.3560720498762
 51
327.7980738340223
  0
LINE
  5
1B6
330
1F
100
AcDbEntity
  8
IGES_LEVEL_0
 62
     7
100
AcDbLine
 10
17.77215586612685
 20
28.30474317755692
 30
0.0
 11
17.82441557047685
 21
28.31655386741692
 31
0.0
  0
LINE
  5
1B7
330
1F
100
AcDbEntity
  8
IGES_LEVEL_0
 62
     7
100
AcDbLine
 10
17.75811497848684
 20
28.30224085863692
 30
0.0
 11
17.77215586612685
 21
28.30474317755692
 31
0.0
  0
SPLINE
  5
1B8
330
1F
100
AcDbEntity
  8
IGES_LEVEL_0
 62
     7
100
AcDbSpline
210
0.0
220
0.0
230
1.0
 70
     8
 71
     3
 72
    11
 73
     7
 74
     0
 42
0.0000000001
 43
0.0000000001
 40
0.0
 40
0.0
 40
0.0
 40
0.0
 40
0.2423227499167
 40
0.4940888848892
 40
0.7492651854511
 40
1.0
 40
1.0
 40
1.0
 40
1.0
 10
9.880090353825864
 20
27.73558978075693
 30
0.0
 10
10.51860689086685
 20
27.73564093225692
 30
0.0
 10
11.82004588185185
 20
27.79134581591692
 30
0.0
 10
13.79181470068085
 20
27.88069209559692
 30
0.0
 10
15.78608803904686
 20
27.99915996074692
 30
0.0
 10
17.10653846209685
 20
28.19266510849693
 30
0.0
 10
17.75810753206685
 20
28.30222826137693
 30
0.0
  0
SPLINE
  5
1B9
330
1F
100
AcDbEntity
  8
IGES_LEVEL_0
 62
     7
100
AcDbSpline
210
0.0
220
0.0
230
1.0
 70
     8
 71
     3
 72
    11
 73
     7
 74
     0
 42
0.0000000001
 43
0.0000000001
 40
0.0
 40
0.0
 40
0.0
 40
0.0
 40
0.2512996434094
 40
0.5065254998285
 40
0.7582476739369
 40
1.0
 40
1.0
 40
1.0
 40
1.0
 10
2.002072542088854
 20
28.30222862947692
 30
0.0
 10
2.655108229726864
 20
28.19242338153692
 30
0.0
 10
3.977181508325856
 20
27.99876070590693
 30
0.0
 10
5.972973435200856
 20
27.88053274104692
 30
0.0
 10
7.943251290077853
 20
27.79119754652692
 30
0.0
 10
9.243077813781866
 20
27.73563660086693
 30
0.0
 10
9.880090354514863
 20
27.73558942791692
 30
0.0
  0
LINE
  5
1BA
330
1F
100
AcDbEntity
  8
IGES_LEVEL_0
 62
     7
100
AcDbLine
 10
1.99636985051086
 20
28.30322484464692
 30
0.0
 11
2.002065634499843
 21
28.30224339900692
 31
0.0
  0
LINE
  5
1BB
330
1F
100
AcDbEntity
  8
IGES_LEVEL_0
 62
     7
100
AcDbLine
 10
1.993033767316859
 20
28.30382090902693
 30
0.0
 11
1.99636985051086
 21
28.30322484464692
 31
0.0
  0
LINE
  5
1BC
330
1F
100
AcDbEntity
  8
IGES_LEVEL_0
 62
     7
100
AcDbLine
 10
1.938764722094845
 20
28.31576692952692
 30
0.0
 11
1.993033767316859
 21
28.30382090902693
 31
0.0
  0
ARC
  5
1BD
330
1F
100
AcDbEntity
  8
IGES_LEVEL_0
 62
     7
100
AcDbCircle
 10
2.105296953116628
 20
28.97831994256151
 30
0.0
 40
0.6831613858015594
100
AcDbArc
 50
212.2723713498772
 51
255.8910184768725
  0
LINE
  5
1BE
330
1F
100
AcDbEntity
  8
IGES_LEVEL_0
 62
     7
100
AcDbLine
 10
1.504347590325864
 20
28.65476408423692
 30
0.0
 11
1.527670744351838
 21
28.61354954628692
 31
0.0
  0
LINE
  5
1BF
330
1F
100
AcDbEntity
  8
IGES_LEVEL_0
 62
     7
100
AcDbLine
 10
1.173372759171855
 20
30.02386654390692
 30
0.0
 11
1.219940746835846
 21
29.91471282713692
 31
0.0
  0
LINE
  5
1C0
330
1F
100
AcDbEntity
  8
IGES_LEVEL_0
 62
     7
100
AcDbLine
 10
1.170715829284859
 20
30.04724267267692
 30
0.0
 11
1.173372759171855
 21
30.02386654390692
 31
0.0
  0
LINE
  5
1C1
330
1F
100
AcDbEntity
  8
IGES_LEVEL_0
 62
     7
100
AcDbLine
 10
1.171115304195865
 20
30.06528871003692
 30
0.0
 11
1.170715829284859
 21
30.04724267267692
 31
0.0
  0
LINE
  5
1C2
330
1F
100
AcDbEntity
  8
IGES_LEVEL_0
 62
     7
100
AcDbLine
 10
1.482842147956859
 20
28.69978200983692
 30
0.0
 11
1.502455865430846
 21
28.65839066695692
 31
0.0
  0
LINE
  5
1C3
330
1F
100
AcDbEntity
  8
IGES_LEVEL_0
 62
     7
100
AcDbLine
 10
18.26092132525685
 20
28.66462055687692
 30
0.0
 11
18.27679055438685
 21
28.69850564023692
 31
0.0
  0
LINE
  5
1C4
330
1F
100
AcDbEntity
  8
IGES_LEVEL_0
 62
     7
100
AcDbLine
 10
18.25771333491684
 20
28.65837018753692
 30
0.0
 11
18.26092132525685
 21
28.66462055687692
 31
0.0
  0
LINE
  5
1C5
330
1F
100
AcDbEntity
  8
IGES_LEVEL_0
 62
     7
100
AcDbLine
 10
18.58605558749684
 20
30.09459499526692
 30
0.0
 11
18.57526272957685
 21
30.12758479776692
 31
0.0
  0
LINE
  5
1C6
330
1F
100
AcDbEntity
  8
IGES_LEVEL_0
 62
     7
100
AcDbLine
 10
18.58749756571686
 20
30.08386852699692
 30
0.0
 11
18.58605558749684
 21
30.09459499526692
 31
0.0
  0
LINE
  5
1C7
330
1F
100
AcDbEntity
  8
IGES_LEVEL_0
 62
     7
100
AcDbLine
 10
1.18494209703286
 20
30.12763617835692
 30
0.0
 11
1.172681176538845
 21
30.08385748199692
 31
0.0
  0
LINE
  5
1C8
330
1F
100
AcDbEntity
  8
IGES_LEVEL_0
 62
     7
100
AcDbLine
 10
1.502468256810857
 20
28.65836115872692
 30
0.0
 11
1.504372579414849
 21
28.65469017950692
 31
0.0
  0
LINE
  5
1C9
330
1F
100
AcDbEntity
  8
IGES_LEVEL_0
 62
     7
100
AcDbLine
 10
18.25581006371685
 20
28.65469405499692
 30
0.0
 11
18.25771367237685
 21
28.65836363573692
 31
0.0
  0
LINE
  5
1CA
330
1F
100
AcDbEntity
  8
IGES_LEVEL_0
 62
     7
100
AcDbLine
 10
1.172800568089855
 20
30.08417817291692
 30
0.0
 11
1.17113361927386
 21
30.06556207115692
 31
0.0
  0
LINE
  5
1CB
330
1F
100
AcDbEntity
  8
IGES_LEVEL_0
 62
     7
100
AcDbLine
 10
18.58904703537685
 20
30.06556200657692
 30
0.0
 11
18.58737975126685
 21
30.08418188488692
 31
0.0
  0
LINE
  5
1CC
330
1F
100
AcDbEntity
  8
IGES_LEVEL_0
 62
     7
100
AcDbLine
 10
55.13611002407647
 20
29.16365437543859
 30
0.0
 11
55.16000854228648
 21
29.1955947005086
 31
0.0
  0
LINE
  5
1CD
330
1F
100
AcDbEntity
  8
IGES_LEVEL_0
 62
     7
100
AcDbLine
 10
55.16000854228648
 20
29.1955947005086
 30
0.0
 11
55.17235222101148
 21
29.20891012401859
 31
0.0
  0
LINE
  5
1CE
330
1F
100
AcDbEntity
  8
IGES_LEVEL_0
 62
     7
100
AcDbLine
 10
55.17235222101148
 20
29.20891012401859
 30
0.0
 11
55.15572495602648
 21
29.19066857804859
 31
0.0
  0
LINE
  5
1CF
330
1F
100
AcDbEntity
  8
IGES_LEVEL_0
 62
     7
100
AcDbLine
 10
55.15572495602648
 20
29.19066857804859
 30
0.0
 11
55.13611002407647
 21
29.16365437543859
 31
0.0
  0
SPLINE
  5
1D0
330
1F
100
AcDbEntity
  8
IGES_LEVEL_0
 62
     7
100
AcDbSpline
210
0.0
220
0.0
230
1.0
 70
     8
 71
     3
 72
    18
 73
    14
 74
     0
 42
0.0000000001
 43
0.0000000001
 40
0.0
 40
0.0
 40
0.0
 40
0.0
 40
0.080636654765
 40
0.2010002712442
 40
0.3172448579333
 40
0.4262801868635
 40
0.5262726279195
 40
0.6188422718910001
 40
0.7057958325025
 40
0.7870711108923
 40
0.8623118585341
 40
0.9323700807251
 40
1.0
 40
1.0
 40
1.0
 40
1.0
 10
43.59529581142648
 20
29.1302875705386
 30
0.0
 10
43.55723141993649
 20
29.12409776649859
 30
0.0
 10
43.46337085906647
 20
29.1011458619286
 30
0.0
 10
43.32214186517648
 20
29.04537185805859
 30
0.0
 10
43.17667508415649
 20
28.96658156090859
 30
0.0
 10
43.04808629978648
 20
28.87900339036859
 30
0.0
 10
42.93714337497649
 20
28.78679229681859
 30
0.0
 10
42.84336837743648
 20
28.69143451294859
 30
0.0
 10
42.76683149887647
 20
28.59272230953859
 30
0.0
 10
42.70995440155649
 20
28.4906361201286
 30
0.0
 10
42.67749529029648
 20
28.3863029928186
 30
0.0
 10
42.67597840145648
 20
28.28276663549859
 30
0.0
 10
42.69850865838647
 20
28.2194881820686
 30
0.0
 10
42.71441760459648
 20
28.19120638711859
 30
0.0
  0
LINE
  5
1D1
330
1F
100
AcDbEntity
  8
IGES_LEVEL_0
 62
     7
100
AcDbLine
 10
42.71441760459648
 20
28.19120638711859
 30
0.0
 11
42.74812472681148
 21
28.14301658164859
 31
0.0
  0
LINE
  5
1D2
330
1F
100
AcDbEntity
  8
IGES_LEVEL_0
 62
     7
100
AcDbLine
 10
42.74812472681148
 20
28.14301658164859
 30
0.0
 11
42.75603008818648
 21
28.13372432516859
 31
0.0
  0
LINE
  5
1D3
330
1F
100
AcDbEntity
  8
IGES_LEVEL_0
 62
     7
100
AcDbLine
 10
42.75603008818648
 20
28.13372432516859
 30
0.0
 11
42.78589249918647
 21
28.09956566523859
 31
0.0
  0
LINE
  5
1D4
330
1F
100
AcDbEntity
  8
IGES_LEVEL_0
 62
     7
100
AcDbLine
 10
42.78589249918647
 20
28.09956566523859
 30
0.0
 11
42.93971732143648
 21
27.94436679316859
 31
0.0
  0
LINE
  5
1D5
330
1F
100
AcDbEntity
  8
IGES_LEVEL_0
 62
     7
100
AcDbLine
 10
42.93971732143648
 20
27.94436679316859
 30
0.0
 11
42.97461198906648
 21
27.9134596182236
 31
0.0
  0
LINE
  5
1D6
330
1F
100
AcDbEntity
  8
IGES_LEVEL_0
 62
     7
100
AcDbLine
 10
42.97461198906648
 20
27.9134596182236
 30
0.0
 11
42.98472651424648
 21
27.90465710575859
 31
0.0
  0
LINE
  5
1D7
330
1F
100
AcDbEntity
  8
IGES_LEVEL_0
 62
     7
100
AcDbLine
 10
42.98472651424648
 20
27.90465710575859
 30
0.0
 11
43.02153693403648
 21
27.87162195638859
 31
0.0
  0
SPLINE
  5
1D8
330
1F
100
AcDbEntity
  8
IGES_LEVEL_0
 62
     7
100
AcDbSpline
210
0.0
220
0.0
230
1.0
 70
     8
 71
     3
 72
    21
 73
    17
 74
     0
 42
0.0000000001
 43
0.0000000001
 40
8.0
 40
8.0
 40
8.0
 40
8.0
 40
8.0548321970156
 40
8.1336115464046
 40
8.2067806866753
 40
8.2730376614254
 40
8.3304482102454
 40
8.379391259568999
 40
8.4313505231652
 40
8.4963667287268
 40
8.572384171664901
 40
8.6557883540892
 40
8.7453821555121
 40
8.840855361999999
 40
8.9419238202609
 40
9.0
 40
9.0
 40
9.0
 40
9.0
 10
43.02153693403648
 20
27.87162195638859
 30
0.0
 10
43.03336003676647
 20
27.86072569212859
 30
0.0
 10
43.06179454743648
 20
27.8337684064886
 30
0.0
 10
43.10395874122648
 20
27.79015509781859
 30
0.0
 10
43.14479333505648
 20
27.74075543044859
 30
0.0
 10
43.17579993020648
 20
27.69186555296859
 30
0.0
 10
43.19382620239648
 20
27.64378979568859
 30
0.0
 10
43.19132735671649
 20
27.5954209207586
 30
0.0
 10
43.16206810489648
 20
27.5540778846986
 30
0.0
 10
43.11444669688648
 20
27.52246481281859
 30
0.0
 10
43.05360841138648
 20
27.49682037058859
 30
0.0
 10
42.98322493212648
 20
27.47692863143859
 30
0.0
 10
42.90585903823647
 20
27.46204457816859
 30
0.0
 10
42.82254226949648
 20
27.4517629485986
 30
0.0
 10
42.74801708485647
 20
27.44683694410859
 30
0.0
 10
42.70136094979488
 20
27.44561168640642
 30
0.0
 10
42.68433277728647
 20
27.44535214639359
 30
0.0
  0
LINE
  5
1D9
330
1F
100
AcDbEntity
  8
IGES_LEVEL_0
 62
     7
100
AcDbLine
 10
42.68433277728647
 20
27.44535214639359
 30
0.0
 11
42.64825233486648
 21
27.44480221547859
 31
0.0
  0
LINE
  5
1DA
330
1F
100
AcDbEntity
  8
IGES_LEVEL_0
 62
     7
100
AcDbLine
 10
42.64825233486648
 20
27.44480221547859
 30
0.0
 11
42.62699629089649
 21
27.4444944381086
 31
0.0
  0
LINE
  5
1DB
330
1F
100
AcDbEntity
  8
IGES_LEVEL_0
 62
     7
100
AcDbLine
 10
42.62699629089649
 20
27.4444944381086
 30
0.0
 11
42.60698166409648
 21
27.44433331453859
 31
0.0
  0
LINE
  5
1DC
330
1F
100
AcDbEntity
  8
IGES_LEVEL_0
 62
     7
100
AcDbLine
 10
42.60698166409648
 20
27.44433331453859
 30
0.0
 11
42.54368726569648
 21
27.44647405747859
 31
0.0
  0
LINE
  5
1DD
330
1F
100
AcDbEntity
  8
IGES_LEVEL_0
 62
     7
100
AcDbLine
 10
56.81833043878648
 20
27.87176462913859
 30
0.0
 11
56.77358815033183
 21
28.03656556267884
 31
0.0
  0
ARC
  5
1DE
330
1F
100
AcDbEntity
  8
IGES_LEVEL_0
 62
     7
100
AcDbCircle
 10
57.06917445306416
 20
28.16011424740098
 30
0.0
 40
0.3203678196379154
100
AcDbArc
 50
202.6838731777568
 51
284.0220637024103
  0
LINE
  5
1DF
330
1F
100
AcDbEntity
  8
IGES_LEVEL_0
 62
     7
100
AcDbLine
 10
57.14679814155816
 20
27.8492925897834
 30
0.0
 11
57.25365722312557
 21
27.8759792631765
 31
0.0
  0
ARC
  5
1E0
330
1F
100
AcDbEntity
  8
IGES_LEVEL_0
 62
     7
100
AcDbCircle
 10
57.17779967263626
 20
28.18522150371729
 30
0.0
 40
0.3184103190867607
100
AcDbArc
 50
283.7825899177792
 51
4.108351703313725
  0
LINE
  5
1E1
330
1F
100
AcDbEntity
  8
IGES_LEVEL_0
 62
     7
100
AcDbLine
 10
57.49539178881516
 20
28.20803332174953
 30
0.0
 11
57.49531148299647
 21
28.2091513604286
 31
0.0
  0
LINE
  5
1E2
330
1F
100
AcDbEntity
  8
IGES_LEVEL_0
 62
     7
100
AcDbLine
 10
57.49531148299647
 20
28.2091513604286
 30
0.0
 11
57.49489586100647
 21
28.21431724406859
 31
0.0
  0
LINE
  5
1E3
330
1F
100
AcDbEntity
  8
IGES_LEVEL_0
 62
     7
100
AcDbLine
 10
57.49489586100647
 20
28.21431724406859
 30
0.0
 11
57.49461773150648
 21
28.21734722751859
 31
0.0
  0
ARC
  5
1E4
330
1F
100
AcDbEntity
  8
IGES_LEVEL_0
 62
     7
100
AcDbCircle
 10
56.45541303634855
 20
28.12771576530849
 30
0.0
 40
1.043062892378126
100
AcDbArc
 50
4.703516463155935
 51
4.929564499452106
  0
LINE
  5
1E5
330
1F
100
AcDbEntity
  8
IGES_LEVEL_0
 62
     7
100
AcDbLine
 10
57.49496326429648
 20
28.21324658448859
 30
0.0
 11
57.49539218782647
 21
28.2080334045186
 31
0.0
  0
LINE
  5
1E6
330
1F
100
AcDbEntity
  8
IGES_LEVEL_0
 62
     7
100
AcDbLine
 10
56.03510328063648
 20
28.44396164891859
 30
0.0
 11
56.08399960546647
 21
28.41254088014859
 31
0.0
  0
LINE
  5
1E7
330
1F
100
AcDbEntity
  8
IGES_LEVEL_0
 62
     7
100
AcDbLine
 10
56.08399960546647
 20
28.41254088014859
 30
0.0
 11
56.08555402043648
 21
28.41154036101859
 31
0.0
  0
LINE
  5
1E8
330
1F
100
AcDbEntity
  8
IGES_LEVEL_0
 62
     7
100
AcDbLine
 10
56.08555402043648
 20
28.41154036101859
 30
0.0
 11
56.59003769614647
 21
28.09073063015859
 31
0.0
  0
LINE
  5
1E9
330
1F
100
AcDbEntity
  8
IGES_LEVEL_0
 62
     7
100
AcDbLine
 10
56.59003769614647
 20
28.09073063015859
 30
0.0
 11
56.64015074180648
 21
28.06037460064859
 31
0.0
  0
LINE
  5
1EA
330
1F
100
AcDbEntity
  8
IGES_LEVEL_0
 62
     7
100
AcDbLine
 10
56.64015074180648
 20
28.06037460064859
 30
0.0
 11
56.71177827081647
 21
28.01454028888859
 31
0.0
  0
LINE
  5
1EB
330
1F
100
AcDbEntity
  8
IGES_LEVEL_0
 62
     7
100
AcDbLine
 10
56.71177827081647
 20
28.01454028888859
 30
0.0
 11
56.72309593431648
 21
28.00642133367859
 31
0.0
  0
ARC
  5
1EC
330
1F
100
AcDbEntity
  8
IGES_LEVEL_0
 62
     7
100
AcDbCircle
 10
56.59673659608659
 20
27.81604319734053
 30
0.0
 40
0.2284962081817662
100
AcDbArc
 50
14.11529327095353
 51
56.42664863160672
  0
LINE
  5
1ED
330
1F
100
AcDbEntity
  8
IGES_LEVEL_0
 62
     7
100
AcDbLine
 10
56.81833380809147
 20
27.8717674540436
 30
0.0
 11
56.8183391067311
 21
27.87174638308028
 31
0.0
  0
ARC
  5
1EE
330
1F
100
AcDbEntity
  8
IGES_LEVEL_0
 62
     7
100
AcDbCircle
 10
56.72165751430445
 20
27.84619012154671
 30
0.0
 40
0.1000022640629966
100
AcDbArc
 50
284.0235949511241
 51
14.80658240271259
  0
LINE
  5
1EF
330
1F
100
AcDbEntity
  8
IGES_LEVEL_0
 62
     7
100
AcDbLine
 10
56.74589020815092
 20
27.74916832313693
 30
0.0
 11
56.72648419603591
 21
27.74432137164694
 31
0.0
  0
ARC
  5
1F0
330
1F
100
AcDbEntity
  8
IGES_LEVEL_0
 62
     7
100
AcDbCircle
 10
56.7022541462905
 20
27.84134142906719
 30
0.0
 40
0.0999999342624507
100
AcDbArc
 50
194.8097528877397
 51
284.0223668627272
  0
LINE
  5
1F1
330
1F
100
AcDbEntity
  8
IGES_LEVEL_0
 62
     7
100
AcDbLine
 10
56.60557622058221
 20
27.81578041317899
 30
0.0
 11
56.60556817984148
 21
27.81578307999359
 31
0.0
  0
SPLINE
  5
1F2
330
1F
100
AcDbEntity
  8
IGES_LEVEL_0
 62
     7
100
AcDbSpline
210
0.0
220
0.0
230
1.0
 70
     8
 71
     3
 72
    11
 73
     7
 74
     0
 42
0.0000000001
 43
0.0000000001
 40
13.14156109415427
 40
13.14156109415427
 40
13.14156109415427
 40
13.14156109415427
 40
13.20199926123436
 40
13.31228103232846
 40
13.63786214148873
 40
14.14156109415427
 40
14.14156109415427
 40
14.14156109415427
 40
14.14156109415427
 10
56.60556817984148
 20
27.81578307999359
 30
0.0
 10
56.60232412024222
 20
27.83327661742832
 30
0.0
 10
56.58235248876469
 20
27.87520548814883
 30
0.0
 10
56.46659278012648
 20
27.9550846411486
 30
0.0
 10
56.24386639499647
 20
28.0750816455286
 30
0.0
 10
56.05471868659296
 20
28.20186829830774
 30
0.0
 10
55.93917602602647
 20
28.2771025868186
 30
0.0
  0
LINE
  5
1F3
330
1F
100
AcDbEntity
  8
IGES_LEVEL_0
 62
     7
100
AcDbLine
 10
55.93917602602647
 20
28.2771025868186
 30
0.0
 11
55.92788264231648
 21
28.2844561450986
 31
0.0
  0
LINE
  5
1F4
330
1F
100
AcDbEntity
  8
IGES_LEVEL_0
 62
     7
100
AcDbLine
 10
55.92788264231648
 20
28.2844561450986
 30
0.0
 11
55.86936317357647
 21
28.32226665218359
 31
0.0
  0
LINE
  5
1F5
330
1F
100
AcDbEntity
  8
IGES_LEVEL_0
 62
     7
100
AcDbLine
 10
55.86936317357647
 20
28.32226665218359
 30
0.0
 11
55.85391413086647
 21
28.33316552858859
 31
0.0
  0
ARC
  5
1F6
330
1F
100
AcDbEntity
  8
IGES_LEVEL_0
 62
     7
100
AcDbCircle
 10
58.75604501360738
 20
30.73378160663762
 30
0.0
 40
3.766340560112167
100
AcDbArc
 50
210.8651002990448
 51
219.5972409375169
  0
ARC
  5
1F7
330
1F
100
AcDbEntity
  8
IGES_LEVEL_0
 62
     7
100
AcDbCircle
 10
53.41000545188671
 20
27.33635452238169
 30
0.0
 40
2.571393388120567
100
AcDbArc
 50
34.73749393137972
 51
48.9416446757693
  0
LINE
  5
1F8
330
1F
100
AcDbEntity
  8
IGES_LEVEL_0
 62
     7
100
AcDbLine
 10
55.11238015550647
 20
29.1107698248086
 30
0.0
 11
55.14629433832647
 21
29.1714253212986
 31
0.0
  0
LINE
  5
1F9
330
1F
100
AcDbEntity
  8
IGES_LEVEL_0
 62
     7
100
AcDbLine
 10
55.14629433832647
 20
29.1714253212986
 30
0.0
 11
55.16142259423647
 21
29.1897661752486
 31
0.0
  0
LINE
  5
1FA
330
1F
100
AcDbEntity
  8
IGES_LEVEL_0
 62
     7
100
AcDbLine
 10
55.16142259423647
 20
29.1897661752486
 30
0.0
 11
55.17827643619647
 21
29.2068814384686
 31
0.0
  0
SPLINE
  5
1FB
330
1F
100
AcDbEntity
  8
IGES_LEVEL_0
 62
     7
100
AcDbSpline
210
0.0
220
0.0
230
1.0
 70
     8
 71
     3
 72
    29
 73
    25
 74
     0
 42
0.0000000001
 43
0.0000000001
 40
0.0
 40
0.0
 40
0.0
 40
0.0
 40
0.0167413288375
 40
0.04379629663459
 40
0.07335529914157
 40
0.1055824654896
 40
0.1406387429249
 40
0.1788226444532
 40
0.2205054503203
 40
0.2658936559442
 40
0.3151502282962
 40
0.3689136991203
 40
0.4280686360334
 40
0.493245039818
 40
0.5644633379886
 40
0.6379740662364
 40
0.7069372850982
 40
0.7682730399724
 40
0.8223766202284
 40
0.870216924364
 40
0.9125669420264
 40
0.9499815681386
 40
0.9830851470455
 40
1.0
 40
1.0
 40
1.0
 40
1.0
 10
52.72965647284649
 20
29.91436838361859
 30
0.0
 10
52.73815635068648
 20
29.9141306056986
 30
0.0
 10
52.76038713809648
 20
29.91329707113859
 30
0.0
 10
52.79757947097649
 20
29.91101721573859
 30
0.0
 10
52.84252623627647
 20
29.9069646224186
 30
0.0
 10
52.89137047548648
 20
29.90111068755859
 30
0.0
 10
52.94434941608647
 20
29.89313793764859
 30
0.0
 10
53.00178175540647
 20
29.88266505682859
 30
0.0
 10
53.06397788466647
 20
29.86923833457859
 30
0.0
 10
53.13114005413648
 20
29.85234094714859
 30
0.0
 10
53.20354817756648
 20
29.8313323190086
 30
0.0
 10
53.28172750119647
 20
29.80532498482859
 30
0.0
 10
53.36628091826647
 20
29.7730994821086
 30
0.0
 10
53.45728096414648
 20
29.73319050041859
 30
0.0
 10
53.55233340674647
 20
29.68475103051859
 30
0.0
 10
53.64548559381647
 20
29.62884746312859
 30
0.0
 10
53.72978044989648
 20
29.5685461739186
 30
0.0
 10
53.80085791029647
 20
29.5073418614986
 30
0.0
 10
53.85814448903648
 20
29.4471723778486
 30
0.0
 10
53.90269914554648
 20
29.38878330247859
 30
0.0
 10
53.93569708299647
 20
29.33281039933859
 30
0.0
 10
53.95838449724647
 20
29.2799883837586
 30
0.0
 10
53.97049772612647
 20
29.2371406494186
 30
0.0
 10
53.97511240883663
 20
29.21210092798082
 30
0.0
 10
53.97606366326647
 20
29.20355985854859
 30
0.0
  0
LINE
  5
1FC
330
1F
100
AcDbEntity
  8
IGES_LEVEL_0
 62
     7
100
AcDbLine
 10
53.97606366326647
 20
29.20355985854859
 30
0.0
 11
53.97818978347147
 21
29.1844699707936
 31
0.0
  0
LINE
  5
1FD
330
1F
100
AcDbEntity
  8
IGES_LEVEL_0
 62
     7
100
AcDbLine
 10
53.97818978347147
 20
29.1844699707936
 30
0.0
 11
53.98019326705648
 21
29.1605523015186
 31
0.0
  0
LINE
  5
1FE
330
1F
100
AcDbEntity
  8
IGES_LEVEL_0
 62
     7
100
AcDbLine
 10
53.98019326705648
 20
29.1605523015186
 30
0.0
 11
53.98411250135648
 21
29.1137204129086
 31
0.0
  0
LINE
  5
1FF
330
1F
100
AcDbEntity
  8
IGES_LEVEL_0
 62
     7
100
AcDbLine
 10
53.98411250135648
 20
29.1137204129086
 30
0.0
 11
53.99342242291647
 21
29.0022726127986
 31
0.0
  0
LINE
  5
200
330
1F
100
AcDbEntity
  8
IGES_LEVEL_0
 62
     7
100
AcDbLine
 10
53.99342242291647
 20
29.0022726127986
 30
0.0
 11
53.99520562430647
 21
28.98088328648359
 31
0.0
  0
LINE
  5
201
330
1F
100
AcDbEntity
  8
IGES_LEVEL_0
 62
     7
100
AcDbLine
 10
53.99520562430647
 20
28.98088328648359
 30
0.0
 11
53.99929043357648
 21
28.9446020366286
 31
0.0
  0
LINE
  5
202
330
1F
100
AcDbEntity
  8
IGES_LEVEL_0
 62
     7
100
AcDbLine
 10
53.99929043357648
 20
28.9446020366286
 30
0.0
 11
54.00518190595648
 21
28.91000321555859
 31
0.0
  0
ARC
  5
203
330
1F
100
AcDbEntity
  8
IGES_LEVEL_0
 62
     7
100
AcDbCircle
 10
54.63839191136866
 20
29.03508183977809
 30
0.0
 40
0.6454452518926275
100
AcDbArc
 50
191.1738473538574
 51
218.0287980975244
  0
LINE
  5
204
330
1F
100
AcDbEntity
  8
IGES_LEVEL_0
 62
     7
100
AcDbLine
 10
40.52643611510648
 20
29.8126504949486
 30
0.0
 11
40.50623249053648
 21
29.81077332337859
 31
0.0
  0
ARC
  5
205
330
1F
100
AcDbEntity
  8
IGES_LEVEL_0
 62
     7
100
AcDbCircle
 10
40.5291880314081
 20
29.63540435773597
 30
0.0
 40
0.1768650077524461
100
AcDbArc
 50
97.45753303235071
 51
143.0810802948162
  0
LINE
  5
206
330
1F
100
AcDbEntity
  8
IGES_LEVEL_0
 62
     7
100
AcDbLine
 10
40.38778687201648
 20
29.74164438357359
 30
0.0
 11
40.36143981719648
 21
29.7065775237086
 31
0.0
  0
LINE
  5
207
330
1F
100
AcDbEntity
  8
IGES_LEVEL_0
 62
     7
100
AcDbLine
 10
40.36143981719648
 20
29.7065775237086
 30
0.0
 11
40.35875802592648
 21
29.70296400193859
 31
0.0
  0
LINE
  5
208
330
1F
100
AcDbEntity
  8
IGES_LEVEL_0
 62
     7
100
AcDbLine
 10
40.35875802592648
 20
29.70296400193859
 30
0.0
 11
40.35395509781647
 21
29.6964733390086
 31
0.0
  0
LINE
  5
209
330
1F
100
AcDbEntity
  8
IGES_LEVEL_0
 62
     7
100
AcDbLine
 10
40.35395509781647
 20
29.6964733390086
 30
0.0
 11
40.24780065918647
 21
29.5481550131486
 31
0.0
  0
SPLINE
  5
20A
330
1F
100
AcDbEntity
  8
IGES_LEVEL_0
 62
     7
100
AcDbSpline
210
0.0
220
0.0
230
1.0
 70
     8
 71
     3
 72
    24
 73
    20
 74
     0
 42
0.0000000001
 43
0.0000000001
 40
0.0
 40
0.0
 40
0.0
 40
0.0
 40
0.04182983330318
 40
0.0993955978616
 40
0.1658369878024
 40
0.2316990644673
 40
0.2925798080758
 40
0.348600380434
 40
0.4046338063893
 40
0.4602992386759
 40
0.5141703651648
 40
0.5647533796003
 40
0.6144688428799
 40
0.6665321897203
 40
0.7215642512398
 40
0.7808947670273
 40
0.8464083465239
 40
0.9197857933666001
 40
1.0
 40
1.0
 40
1.0
 40
1.0
 10
57.48004090210648
 20
28.29173663348859
 30
0.0
 10
57.46329724747648
 20
28.34865722179859
 30
0.0
 10
57.42153126344647
 20
28.4833379550986
 30
0.0
 10
57.34010629687647
 20
28.70421002622859
 30
0.0
 10
57.22531015084647
 20
28.9483744883886
 30
0.0
 10
57.08085852393647
 20
29.1819825367786
 30
0.0
 10
56.91969463684647
 20
29.38569636090859
 30
0.0
 10
56.74823252723647
 20
29.5615960175086
 30
0.0
 10
56.56780889602648
 20
29.7170282151886
 30
0.0
 10
56.37907353026647
 20
29.85705309974859
 30
0.0
 10
56.18908245834648
 20
29.9816550614386
 30
0.0
 10
56.00114043290647
 20
30.09352443304859
 30
0.0
 10
55.81199063739648
 20
30.1981066035486
 30
0.0
 10
55.61409319343647
 20
30.29970685627859
 30
0.0
 10
55.40043352147647
 20
30.40018990722859
 30
0.0
 10
55.16523241384647
 20
30.4992577687086
 30
0.0
 10
54.90104716713647
 20
30.5958212721186
 30
0.0
 10
54.60332827579647
 20
30.6856397285186
 30
0.0
 10
54.39114783490435
 20
30.73564985685478
 30
0.0
 10
54.27960506365648
 20
30.75816815560859
 30
0.0
  0
LINE
  5
20B
330
1F
100
AcDbEntity
  8
IGES_LEVEL_0
 62
     7
100
AcDbLine
 10
54.27960506365648
 20
30.75816815560859
 30
0.0
 11
54.24574042276647
 21
30.7650047626986
 31
0.0
  0
LINE
  5
20C
330
1F
100
AcDbEntity
  8
IGES_LEVEL_0
 62
     7
100
AcDbLine
 10
54.24574042276647
 20
30.7650047626986
 30
0.0
 11
54.20894461187648
 21
30.7722108902186
 31
0.0
  0
LINE
  5
20D
330
1F
100
AcDbEntity
  8
IGES_LEVEL_0
 62
     7
100
AcDbLine
 10
40.19406875881647
 20
28.85835647498859
 30
0.0
 11
40.33611202546648
 21
29.01742576487859
 31
0.0
  0
LINE
  5
20E
330
1F
100
AcDbEntity
  8
IGES_LEVEL_0
 62
     7
100
AcDbLine
 10
40.33611202546648
 20
29.01742576487859
 30
0.0
 11
40.34454157045649
 21
29.0268992203386
 31
0.0
  0
LINE
  5
20F
330
1F
100
AcDbEntity
  8
IGES_LEVEL_0
 62
     7
100
AcDbLine
 10
40.34454157045649
 20
29.0268992203386
 30
0.0
 11
40.38752005298148
 21
29.07541843667859
 31
0.0
  0
ARC
  5
210
330
1F
100
AcDbEntity
  8
IGES_LEVEL_0
 62
     7
100
AcDbCircle
 10
40.57604935764803
 20
28.86827003737786
 30
0.0
 40
0.2800959800691727
100
AcDbArc
 50
96.50471319923653
 51
132.3058649061851
  0
SPLINE
  5
211
330
1F
100
AcDbEntity
  8
IGES_LEVEL_0
 62
     7
100
AcDbSpline
210
0.0
220
0.0
230
1.0
 70
     8
 71
     3
 72
    19
 73
    15
 74
     0
 42
0.0000000001
 43
0.0000000001
 40
3.0
 40
3.0
 40
3.0
 40
3.0
 40
3.1387134247292
 40
3.2623370850729
 40
3.3718622422037
 40
3.4702527474876
 40
3.5596347252273
 40
3.6415408379126
 40
3.7170961814923
 40
3.7872073472621
 40
3.8526182442628
 40
3.91370917127897
 40
3.97077734305073
 40
4.0
 40
4.0
 40
4.0
 40
4.0
 10
40.54431869982648
 20
29.1465629108136
 30
0.0
 10
41.14797824187649
 20
29.2562774447986
 30
0.0
 10
42.29637729749648
 20
29.4266726710786
 30
0.0
 10
43.93023970133648
 20
29.61541414581859
 30
0.0
 10
45.38662053752647
 20
29.78680892941859
 30
0.0
 10
46.69309681584649
 20
29.93616617934859
 30
0.0
 10
47.88028470622648
 20
30.0526770811586
 30
0.0
 10
48.96919986867648
 20
30.1337524124286
 30
0.0
 10
49.97470248456648
 20
30.18227739064859
 30
0.0
 10
50.90812639013647
 20
30.2052504983586
 30
0.0
 10
51.77781651995647
 20
30.20563296427859
 30
0.0
 10
52.58971156874648
 20
30.18316678650859
 30
0.0
 10
53.24017135634648
 20
30.14492228927859
 30
0.0
 10
53.62079512615338
 20
30.10644614984783
 30
0.0
 10
53.74881766956648
 20
30.08808365876859
 30
0.0
  0
LINE
  5
212
330
1F
100
AcDbEntity
  8
IGES_LEVEL_0
 62
     7
100
AcDbLine
 10
53.74881766956648
 20
30.08808365876859
 30
0.0
 11
53.75919061339148
 21
30.0865958497986
 31
0.0
  0
LINE
  5
213
330
1F
100
AcDbEntity
  8
IGES_LEVEL_0
 62
     7
100
AcDbLine
 10
53.75919061339148
 20
30.0865958497986
 30
0.0
 11
53.76956803274648
 21
30.0851209925786
 31
0.0
  0
LINE
  5
214
330
1F
100
AcDbEntity
  8
IGES_LEVEL_0
 62
     7
100
AcDbLine
 10
53.76956803274648
 20
30.0851209925786
 30
0.0
 11
54.08141303145648
 21
30.0329832213186
 31
0.0
  0
LINE
  5
215
330
1F
100
AcDbEntity
  8
IGES_LEVEL_0
 62
     7
100
AcDbLine
 10
54.08141303145648
 20
30.0329832213186
 30
0.0
 11
54.09094067444147
 21
30.0311190567586
 31
0.0
  0
LINE
  5
216
330
1F
100
AcDbEntity
  8
IGES_LEVEL_0
 62
     7
100
AcDbLine
 10
54.09094067444147
 20
30.0311190567586
 30
0.0
 11
54.08897531967648
 21
30.03150505131859
 31
0.0
  0
LINE
  5
217
330
1F
100
AcDbEntity
  8
IGES_LEVEL_0
 62
     7
100
AcDbLine
 10
54.08897531967648
 20
30.03150505131859
 30
0.0
 11
54.08275137724647
 21
30.0327224344586
 31
0.0
  0
LINE
  5
218
330
1F
100
AcDbEntity
  8
IGES_LEVEL_0
 62
     7
100
AcDbLine
 10
54.08275137724647
 20
30.0327224344586
 30
0.0
 11
54.08011399208647
 21
30.0332047734786
 31
0.0
  0
LINE
  5
219
330
1F
100
AcDbEntity
  8
IGES_LEVEL_0
 62
     7
100
AcDbLine
 10
54.08011399208647
 20
30.0332047734786
 30
0.0
 11
54.09091799550647
 21
30.03105792937859
 31
0.0
  0
ARC
  5
21A
330
1F
100
AcDbEntity
  8
IGES_LEVEL_0
 62
     7
100
AcDbCircle
 10
53.7203735534539
 20
27.85261478990744
 30
0.0
 40
2.209732494091766
100
AcDbArc
 50
66.02420964349588
 51
80.34660943778168
  0
LINE
  5
21B
330
1F
100
AcDbEntity
  8
IGES_LEVEL_0
 62
     7
100
AcDbLine
 10
54.61829967631647
 20
29.87168546061859
 30
0.0
 11
54.68163076318648
 21
29.8435207023886
 31
0.0
  0
ARC
  5
21C
330
1F
100
AcDbEntity
  8
IGES_LEVEL_0
 62
     7
100
AcDbCircle
 10
53.51220493371068
 20
27.42307007644207
 30
0.0
 40
2.688147690007025
100
AcDbArc
 50
32.41596102782683
 51
64.21277491133597
  0
ARC
  5
21D
330
1F
100
AcDbEntity
  8
IGES_LEVEL_0
 62
     7
100
AcDbCircle
 10
57.17990377382922
 20
29.61815059736405
 30
0.0
 40
1.588773361041779
100
AcDbArc
 50
208.3347395217784
 51
226.5325044304179
  0
LINE
  5
21E
330
1F
100
AcDbEntity
  8
IGES_LEVEL_0
 62
     7
100
AcDbLine
 10
56.08691833571648
 20
28.4650748735586
 30
0.0
 11
56.10824538464147
 21
28.4509181175086
 31
0.0
  0
ARC
  5
21F
330
1F
100
AcDbEntity
  8
IGES_LEVEL_0
 62
     7
100
AcDbCircle
 10
16.28660486994462
 20
-35.23473986514352
 30
0.0
 40
75.11075878970395
100
AcDbArc
 50
57.3873833261226
 51
57.98290572073978
  0
LINE
  5
220
330
1F
100
AcDbEntity
  8
IGES_LEVEL_0
 62
     7
100
AcDbLine
 10
54.24567851757648
 20
30.76469439376859
 30
0.0
 11
54.20890319926647
 21
30.77192084891859
 31
0.0
  0
SPLINE
  5
221
330
1F
100
AcDbEntity
  8
IGES_LEVEL_0
 62
     7
100
AcDbSpline
210
0.0
220
0.0
230
1.0
 70
     8
 71
     3
 72
    21
 73
    17
 74
     0
 42
0.0000000001
 43
0.0000000001
 40
1.0
 40
1.0
 40
1.0
 40
1.0
 40
1.02916804508292
 40
1.07970590204531
 40
1.1330517219565
 40
1.1894100735068
 40
1.2488755322536
 40
1.3116954273912
 40
1.3782403039187
 40
1.4489577883424
 40
1.5243834018831
 40
1.6051823746562
 40
1.6922306376266
 40
1.7867152158956
 40
1.8903774223166
 40
2.0
 40
2.0
 40
2.0
 40
2.0
 10
54.20890319926647
 20
30.77192084891859
 30
0.0
 10
54.07769437394647
 20
30.79709270899859
 30
0.0
 10
53.71554980333647
 20
30.84892703416859
 30
0.0
 10
53.10758848658648
 20
30.8844151517886
 30
0.0
 10
52.37465486290647
 20
30.91179127353859
 30
0.0
 10
51.60039893647648
 20
30.9212498226186
 30
0.0
 10
50.78277270862647
 20
30.91423393153859
 30
0.0
 10
49.91887077865648
 20
30.8884853973786
 30
0.0
 10
49.00427645450647
 20
30.84138896099859
 30
0.0
 10
48.03365637247647
 20
30.7663722416686
 30
0.0
 10
47.00014006074648
 20
30.6624506957386
 30
0.0
 10
45.89462827265648
 20
30.52991570251859
 30
0.0
 10
44.70388140133647
 20
30.37627378949859
 30
0.0
 10
43.40914300056649
 20
30.21097269873859
 30
0.0
 10
42.01177785349647
 20
30.03336869727859
 30
0.0
 10
41.04601800517819
 20
29.89102329501221
 30
0.0
 10
40.54966680962149
 20
29.8173251264986
 30
0.0
  0
ARC
  5
222
330
1F
100
AcDbEntity
  8
IGES_LEVEL_0
 62
     7
100
AcDbCircle
 10
40.58746559671192
 20
29.53882031513982
 30
0.0
 40
0.281058140347316
100
AcDbArc
 50
97.72898152633213
 51
144.2819064853925
  0
LINE
  5
223
330
1F
100
AcDbEntity
  8
IGES_LEVEL_0
 62
     7
100
AcDbLine
 10
40.35927471485148
 20
29.70290139171859
 30
0.0
 11
40.24782998431648
 21
29.54791294411859
 31
0.0
  0
LINE
  5
224
330
1F
100
AcDbEntity
  8
IGES_LEVEL_0
 62
     7
100
AcDbLine
 10
40.24782998431648
 20
29.54791294411859
 30
0.0
 11
39.80651292051648
 21
28.92646974346859
 31
0.0
  0
LINE
  5
225
330
1F
100
AcDbEntity
  8
IGES_LEVEL_0
 62
     7
100
AcDbLine
 10
57.48575072363647
 20
28.2702824501986
 30
0.0
 11
57.48431386565648
 21
28.2761306413786
 31
0.0
  0
LINE
  5
226
330
1F
100
AcDbEntity
  8
IGES_LEVEL_0
 62
     7
100
AcDbLine
 10
57.48431386565648
 20
28.2761306413786
 30
0.0
 11
57.48139605689147
 21
28.2870301849686
 31
0.0
  0
LINE
  5
227
330
1F
100
AcDbEntity
  8
IGES_LEVEL_0
 62
     7
100
AcDbLine
 10
57.48139605689147
 20
28.2870301849686
 30
0.0
 11
57.49533089464977
 21
28.2089133234351
 31
0.0
  0
ARC
  5
228
330
1F
100
AcDbEntity
  8
IGES_LEVEL_0
 62
     7
100
AcDbCircle
 10
57.16537582660584
 20
28.18568603057326
 30
0.0
 40
0.3307716040738161
100
AcDbArc
 50
4.026712086937406
 51
10.04202753355878
  0
LINE
  5
229
330
1F
100
AcDbEntity
  8
IGES_LEVEL_0
 62
     7
100
AcDbLine
 10
57.49108004737234
 20
28.24336284252097
 30
0.0
 11
57.49194848028647
 21
28.23868451613859
 31
0.0
  0
LINE
  5
22A
330
1F
100
AcDbEntity
  8
IGES_LEVEL_0
 62
     7
100
AcDbLine
 10
39.49730079581649
 20
27.9459044226386
 30
0.0
 11
39.51335993805147
 21
27.96780213081859
 31
0.0
  0
LINE
  5
22B
330
1F
100
AcDbEntity
  8
IGES_LEVEL_0
 62
     7
100
AcDbLine
 10
39.51335993805147
 20
27.96780213081859
 30
0.0
 11
39.49721989572647
 21
27.9457950045686
 31
0.0
  0
LINE
  5
22C
330
1F
100
AcDbEntity
  8
IGES_LEVEL_0
 62
     7
100
AcDbLine
 10
39.49721989572647
 20
27.9457950045686
 30
0.0
 11
39.46848016926647
 21
27.90762890443859
 31
0.0
  0
LINE
  5
22D
330
1F
100
AcDbEntity
  8
IGES_LEVEL_0
 62
     7
100
AcDbLine
 10
39.46848016926647
 20
27.90762890443859
 30
0.0
 11
39.44735186131648
 21
27.88048686465359
 31
0.0
  0
LINE
  5
22E
330
1F
100
AcDbEntity
  8
IGES_LEVEL_0
 62
     7
100
AcDbLine
 10
39.44735186131648
 20
27.88048686465359
 30
0.0
 11
39.44666591790648
 21
27.8796189911636
 31
0.0
  0
LINE
  5
22F
330
1F
100
AcDbEntity
  8
IGES_LEVEL_0
 62
     7
100
AcDbLine
 10
39.44666591790648
 20
27.8796189911636
 30
0.0
 11
39.44666418694962
 21
27.87961740523333
 31
0.0
  0
ARC
  5
230
330
1F
100
AcDbEntity
  8
IGES_LEVEL_0
 62
     7
100
AcDbCircle
 10
39.52416862284679
 20
27.81643934341975
 30
0.0
 40
0.0999920250733085
100
AcDbArc
 50
140.8146595863054
 51
176.6723823789921
  0
LINE
  5
231
330
1F
100
AcDbEntity
  8
IGES_LEVEL_0
 62
     7
100
AcDbLine
 10
39.42434518895583
 20
27.8222434044529
 30
0.0
 11
39.42318430001849
 21
27.80227739799145
 31
0.0
  0
ARC
  5
232
330
1F
100
AcDbEntity
  8
IGES_LEVEL_0
 62
     7
100
AcDbCircle
 10
39.52185451255017
 20
27.7954340268719
 30
0.0
 40
0.0989072422491171
100
AcDbArc
 50
176.0325473439595
 51
267.4436448159765
  0
LINE
  5
233
330
1F
100
AcDbEntity
  8
IGES_LEVEL_0
 62
     7
100
AcDbLine
 10
39.51744305039953
 20
27.69662521364647
 30
0.0
 11
40.44167192936648
 21
27.6553616807186
 31
0.0
  0
LINE
  5
234
330
1F
100
AcDbEntity
  8
IGES_LEVEL_0
 62
     7
100
AcDbLine
 10
40.44167192936648
 20
27.6553616807186
 30
0.0
 11
40.47522146435648
 21
27.65444829452359
 31
0.0
  0
ARC
  5
235
330
1F
100
AcDbEntity
  8
IGES_LEVEL_0
 62
     7
100
AcDbCircle
 10
44.37455752562577
 20
30.80666147768827
 30
0.0
 40
5.014107066151685
100
AcDbArc
 50
218.9519846657209
 51
243.5031127613299
  0
ARC
  5
236
330
1F
100
AcDbEntity
  8
IGES_LEVEL_0
 62
     7
100
AcDbCircle
 10
42.49456245068935
 20
27.03548998593551
 30
0.0
 40
0.8003064181627699
100
AcDbArc
 50
243.5040181751956
 51
273.5141841801967
  0
SPLINE
  5
237
330
1F
100
AcDbEntity
  8
IGES_LEVEL_0
 62
     7
100
AcDbSpline
210
0.0
220
0.0
230
1.0
 70
     8
 71
     3
 72
    19
 73
    15
 74
     0
 42
0.0000000001
 43
0.0000000001
 40
12.19894526897861
 40
12.19894526897861
 40
12.19894526897861
 40
12.19894526897861
 40
12.24364656232146
 40
12.35684033320608
 40
12.4700341040907
 40
12.69642343085663
 40
12.81183238245325
 40
12.92724311904637
 40
12.98494759484468
 40
13.04265207064299
 40
13.10035743893957
 40
13.15806280723615
 40
13.19542992490258
 40
13.19894526897861
 40
13.19894526897861
 40
13.19894526897861
 40
13.19894526897861
 10
42.54361774203148
 20
26.23668842024859
 30
0.0
 10
42.72309159883777
 20
26.24771010912868
 30
0.0
 10
43.35313984666711
 20
26.29172421771866
 30
0.0
 10
44.40898251039648
 20
26.39777171235859
 30
0.0
 10
46.12798299116648
 20
26.62863388840859
 30
0.0
 10
47.81928149474648
 20
26.9198513390086
 30
0.0
 10
49.53848557671647
 20
27.2392858411086
 30
0.0
 10
50.60607111112647
 20
27.4271377159886
 30
0.0
 10
51.43231386634648
 20
27.55226746885859
 30
0.0
 10
52.03248261989647
 20
27.62858272405859
 30
0.0
 10
52.60727578452648
 20
27.68246060635859
 30
0.0
 10
53.08521211290648
 20
27.7047925084986
 30
0.0
 10
53.37404760077648
 20
27.70308261452859
 30
0.0
 10
53.48934475985119
 20
27.69869073844698
 30
0.0
 10
53.49922446528647
 20
27.69870582690859
 30
0.0
  0
LINE
  5
238
330
1F
100
AcDbEntity
  8
IGES_LEVEL_0
 62
     7
100
AcDbLine
 10
53.49922446528647
 20
27.69870582690859
 30
0.0
 11
54.17920829370648
 21
27.69974431028859
 31
0.0
  0
ARC
  5
239
330
1F
100
AcDbEntity
  8
IGES_LEVEL_0
 62
     7
100
AcDbCircle
 10
53.50352724010321
 20
28.08492299309643
 30
0.0
 40
0.0246078282975036
100
AcDbArc
 50
149.4935904550845
 51
256.2036538110664
  0
ARC
  5
23A
330
1F
100
AcDbEntity
  8
IGES_LEVEL_0
 62
     7
100
AcDbCircle
 10
39.73035926924442
 20
21.32799840652472
 30
0.0
 40
15.32780421119144
100
AcDbArc
 50
26.20875365403193
 51
33.94880650841181
  0
SPLINE
  5
23B
330
1F
100
AcDbEntity
  8
IGES_LEVEL_0
 62
     7
100
AcDbSpline
210
0.0
220
0.0
230
1.0
 70
     8
 71
     3
 72
    16
 73
    12
 74
     0
 42
0.0000000001
 43
0.0000000001
 40
0.0
 40
0.0
 40
0.0
 40
0.0
 40
0.04923155530717
 40
0.1379510509981
 40
0.2361907941937
 40
0.3447393548084
 40
0.4638361274633
 40
0.5937511185583
 40
0.7352955985553
 40
0.8895806340131
 40
1.0
 40
1.0
 40
1.0
 40
1.0
 10
53.97601871627647
 20
29.20346252945859
 30
0.0
 10
53.97263227865648
 20
29.22775989465859
 30
0.0
 10
53.95630198264648
 20
29.29508971091859
 30
0.0
 10
53.90024945804647
 20
29.3995367794486
 30
0.0
 10
53.80242681881647
 20
29.50997986397859
 30
0.0
 10
53.67572174263647
 20
29.6112977893686
 30
0.0
 10
53.52339927029648
 20
29.70297285680859
 30
0.0
 10
53.34701332537648
 20
29.78392654195859
 30
0.0
 10
53.14665564839648
 20
29.8519099831186
 30
0.0
 10
52.94962389396648
 20
29.89580445023859
 30
0.0
 10
52.81864459378649
 20
29.91036038306859
 30
0.0
 10
52.76389868960648
 20
29.91323188521859
 30
0.0
  0
ARC
  5
23C
330
1F
100
AcDbEntity
  8
IGES_LEVEL_0
 62
     7
100
AcDbCircle
 10
53.88478889689786
 20
37.08402166703647
 30
0.0
 40
9.384247954986595
100
AcDbArc
 50
277.9086672219504
 51
285.1421183664494
  0
SPLINE
  5
23D
330
1F
100
AcDbEntity
  8
IGES_LEVEL_0
 62
     7
100
AcDbSpline
210
0.0
220
0.0
230
1.0
 70
     8
 71
     3
 72
    24
 73
    20
 74
     0
 42
0.0000000001
 43
0.0000000001
 40
0.0
 40
0.0
 40
0.0
 40
0.0
 40
0.03005257183674
 40
0.08831926330997
 40
0.1555719482769
 40
0.2222403856673
 40
0.2838676669376
 40
0.3405736968514
 40
0.3972906125329
 40
0.4536367395051
 40
0.5081712989353
 40
0.5593808772438
 40
0.6097122778949
 40
0.6624217823459
 40
0.7181361557631
 40
0.7782015444817
 40
0.8445263187554
 40
0.9188127646193
 40
1.0
 40
1.0
 40
1.0
 40
1.0
 10
57.46524837077648
 20
28.34120991335859
 30
0.0
 10
57.45299711809648
 20
28.38149888837859
 30
0.0
 10
57.41558200255648
 20
28.4994726890586
 30
0.0
 10
57.34012650035648
 20
28.70415963472859
 30
0.0
 10
57.22534454372648
 20
28.94830928179859
 30
0.0
 10
57.08090771452648
 20
29.18191173700859
 30
0.0
 10
56.91975753180647
 20
29.38562440002859
 30
0.0
 10
56.74831102199647
 20
29.56152194712859
 30
0.0
 10
56.56790469176647
 20
29.71695141478859
 30
0.0
 10
56.37918147639647
 20
29.85697803547859
 30
0.0
 10
56.18918961331647
 20
29.9815885440186
 30
0.0
 10
56.00123525914647
 20
30.0934704645886
 30
0.0
 10
55.81206592998647
 20
30.19806671223859
 30
0.0
 10
55.61414696622647
 20
30.29968075208859
 30
0.0
 10
55.40046396838648
 20
30.4001767153286
 30
0.0
 10
55.16523893573647
 20
30.4992556578386
 30
0.0
 10
54.90102706886647
 20
30.59582857529859
 30
0.0
 10
54.60330515811647
 20
30.68564562936859
 30
0.0
 10
54.39106748442647
 20
30.73533905531859
 30
0.0
 10
54.27960506041647
 20
30.75816813978859
 30
0.0
  0
ARC
  5
23E
330
1F
100
AcDbEntity
  8
IGES_LEVEL_0
 62
     7
100
AcDbCircle
 10
53.31770072307551
 20
26.70786057908073
 30
0.0
 40
3.187566298810158
100
AcDbArc
 50
71.59320636152809
 51
82.81446063568707
  0
LINE
  5
23F
330
1F
100
AcDbEntity
  8
IGES_LEVEL_0
 62
     7
100
AcDbLine
 10
54.10391018782647
 20
29.32654340451859
 30
0.0
 11
53.94388018782648
 21
29.31254240451859
 31
0.0
  0
LINE
  5
240
330
1F
100
AcDbEntity
  8
IGES_LEVEL_0
 62
     7
100
AcDbLine
 10
19.67901626892185
 20
0.0360844259569189
 30
0.0
 11
18.92409426892185
 21
0.02290742595692
 31
0.0
  0
LINE
  5
241
330
1F
100
AcDbEntity
  8
IGES_LEVEL_0
 62
     7
100
AcDbLine
 10
19.74603826892185
 20
0.2072804259569173
 30
0.0
 11
19.05669926892185
 21
0.1952484259569194
 31
0.0
  0
LINE
  5
242
330
1F
100
AcDbEntity
  8
IGES_LEVEL_0
 62
     7
100
AcDbLine
 10
0.8277652689218469
 20
0.02290742595692
 30
0.0
 11
0.0728362689218462
 21
0.0360844259569189
 31
0.0
  0
LINE
  5
243
330
1F
100
AcDbEntity
  8
IGES_LEVEL_0
 62
     7
100
AcDbLine
 10
0.0058142689218466
 20
0.2072804259569173
 30
0.0
 11
0.6951532689218465
 21
0.1952484259569194
 31
0.0
  0
LINE
  5
244
330
1F
100
AcDbEntity
  8
IGES_LEVEL_0
 62
     7
100
AcDbLine
 10
0.0058142689218466
 20
0.2072804259569173
 30
0.0
 11
0.0040692689218469
 21
0.1072954259569171
 31
0.0
  0
LINE
  5
245
330
1F
100
AcDbEntity
  8
IGES_LEVEL_0
 62
     7
100
AcDbLine
 10
0.4693162689218466
 20
26.76128042595692
 30
0.0
 11
0.6060022689218467
 21
34.59204242595692
 31
0.0
  0
LINE
  5
246
330
1F
100
AcDbEntity
  8
IGES_LEVEL_0
 62
     7
100
AcDbLine
 10
0.6060022689218467
 20
34.59204242595692
 30
0.0
 11
0.6077122689218468
 21
34.68997042595692
 31
0.0
  0
LINE
  5
247
330
1F
100
AcDbEntity
  8
IGES_LEVEL_0
 62
     7
100
AcDbLine
 10
17.86492826892185
 20
11.21100442595692
 30
0.0
 11
17.50092626892185
 21
11.21100442595692
 31
0.0
  0
LINE
  5
248
330
1F
100
AcDbEntity
  8
IGES_LEVEL_0
 62
     7
100
AcDbLine
 10
17.25092626892185
 20
11.21100442595692
 30
0.0
 11
2.500926268921846
 21
11.21100442595692
 31
0.0
  0
LINE
  5
249
330
1F
100
AcDbEntity
  8
IGES_LEVEL_0
 62
     7
100
AcDbLine
 10
2.250926268921847
 20
11.21100442595692
 30
0.0
 11
1.886924268921847
 21
11.21100442595692
 31
0.0
  0
LINE
  5
24A
330
1F
100
AcDbEntity
  8
IGES_LEVEL_0
 62
     7
100
AcDbLine
 10
17.84752126892185
 20
12.21100442595692
 30
0.0
 11
1.904331268921848
 21
12.21100442595692
 31
0.0
  0
LINE
  5
24B
330
1F
100
AcDbEntity
  8
IGES_LEVEL_0
 62
     7
100
AcDbLine
 10
0.6953632689218465
 20
0.2072804259569173
 30
0.0
 11
1.212475268921847
 21
29.83259542595692
 31
0.0
  0
LINE
  5
24C
330
1F
100
AcDbEntity
  8
IGES_LEVEL_0
 62
     7
100
AcDbLine
 10
0.6953632689218465
 20
0.2072804259569173
 30
0.0
 11
0.6936202689218467
 21
0.1074324259569193
 31
0.0
  0
LINE
  5
24D
330
1F
100
AcDbEntity
  8
IGES_LEVEL_0
 62
     7
100
AcDbLine
 10
1.598510268921847
 20
34.15406442595692
 30
0.0
 11
1.605850268921847
 21
34.57459042595692
 31
0.0
  0
LINE
  5
24E
330
1F
100
AcDbEntity
  8
IGES_LEVEL_0
 62
     7
100
AcDbLine
 10
1.605850268921847
 20
34.57459042595692
 30
0.0
 11
1.607562268921847
 21
34.67270042595692
 31
0.0
  0
LINE
  5
24F
330
1F
100
AcDbEntity
  8
IGES_LEVEL_0
 62
     7
100
AcDbLine
 10
1.695211268921847
 20
0.1898284259569186
 30
0.0
 11
1.887651268921847
 21
11.21471442595692
 31
0.0
  0
LINE
  5
250
330
1F
100
AcDbEntity
  8
IGES_LEVEL_0
 62
     7
100
AcDbLine
 10
1.905028268921847
 20
12.21025242595692
 30
0.0
 11
2.185491268921847
 21
28.27798742595692
 31
0.0
  0
LINE
  5
251
330
1F
100
AcDbEntity
  8
IGES_LEVEL_0
 62
     7
100
AcDbLine
 10
1.695211268921847
 20
0.1898284259569186
 30
0.0
 11
1.693468268921847
 21
0.0899804259569171
 31
0.0
  0
LINE
  5
252
330
1F
100
AcDbEntity
  8
IGES_LEVEL_0
 62
     7
100
AcDbLine
 10
18.61592626892185
 20
28.30205342595692
 30
0.0
 11
18.56631926892185
 21
28.28913542595692
 31
0.0
  0
LINE
  5
253
330
1F
100
AcDbEntity
  8
IGES_LEVEL_0
 62
     7
100
AcDbLine
 10
17.57069226892185
 20
28.02985442595692
 30
0.0
 11
15.76621026892185
 21
27.55993242595692
 31
0.0
  0
LINE
  5
254
330
1F
100
AcDbEntity
  8
IGES_LEVEL_0
 62
     7
100
AcDbLine
 10
3.985642268921847
 20
27.55993242595692
 30
0.0
 11
2.181160268921847
 21
28.02985442595692
 31
0.0
  0
LINE
  5
255
330
1F
100
AcDbEntity
  8
IGES_LEVEL_0
 62
     7
100
AcDbLine
 10
1.185533268921847
 20
28.28913542595692
 30
0.0
 11
1.135682268921847
 21
28.30211742595692
 31
0.0
  0
LINE
  5
256
330
1F
100
AcDbEntity
  8
IGES_LEVEL_0
 62
     7
100
AcDbLine
 10
17.56636126892185
 20
28.27797742595692
 30
0.0
 11
17.84682426892185
 21
12.21025242595692
 31
0.0
  0
LINE
  5
257
330
1F
100
AcDbEntity
  8
IGES_LEVEL_0
 62
     7
100
AcDbLine
 10
17.86420226892185
 20
11.21471442595692
 30
0.0
 11
18.05664226892185
 21
0.1898284259569181
 31
0.0
  0
LINE
  5
258
330
1F
100
AcDbEntity
  8
IGES_LEVEL_0
 62
     7
100
AcDbLine
 10
18.05664226892185
 20
0.1898284259569186
 30
0.0
 11
18.05838526892185
 21
0.0899804259569171
 31
0.0
  0
LINE
  5
259
330
1F
100
AcDbEntity
  8
IGES_LEVEL_0
 62
     7
100
AcDbLine
 10
18.14429026892185
 20
34.67270042595692
 30
0.0
 11
18.14600226892185
 21
34.57459042595692
 31
0.0
  0
LINE
  5
25A
330
1F
100
AcDbEntity
  8
IGES_LEVEL_0
 62
     7
100
AcDbLine
 10
18.14600226892185
 20
34.57459042595692
 30
0.0
 11
18.15334326892185
 21
34.15406442595692
 31
0.0
  0
LINE
  5
25B
330
1F
100
AcDbEntity
  8
IGES_LEVEL_0
 62
     7
100
AcDbLine
 10
18.53937826892185
 20
29.83259542595692
 30
0.0
 11
19.05648926892185
 21
0.2072804259569168
 31
0.0
  0
LINE
  5
25C
330
1F
100
AcDbEntity
  8
IGES_LEVEL_0
 62
     7
100
AcDbLine
 10
19.05648926892185
 20
0.2072804259569173
 30
0.0
 11
19.05823226892185
 21
0.1074324259569193
 31
0.0
  0
LINE
  5
25D
330
1F
100
AcDbEntity
  8
IGES_LEVEL_0
 62
     7
100
AcDbLine
 10
19.14414126892185
 20
34.68997042595692
 30
0.0
 11
19.14585026892185
 21
34.59204242595692
 31
0.0
  0
LINE
  5
25E
330
1F
100
AcDbEntity
  8
IGES_LEVEL_0
 62
     7
100
AcDbLine
 10
19.14585026892185
 20
34.59204242595692
 30
0.0
 11
19.28253626892185
 21
26.76128042595692
 31
0.0
  0
LINE
  5
25F
330
1F
100
AcDbEntity
  8
IGES_LEVEL_0
 62
     7
100
AcDbLine
 10
19.74603826892185
 20
0.2072804259569173
 30
0.0
 11
19.74778326892185
 21
0.1072954259569171
 31
0.0
  0
LINE
  5
260
330
1F
100
AcDbEntity
  8
IGES_LEVEL_0
 62
     7
100
AcDbLine
 10
33.76896526892185
 20
0.1985544259569179
 30
0.0
 11
33.76896526892185
 21
0.0985694259569177
 31
0.0
  0
LINE
  5
261
330
1F
100
AcDbEntity
  8
IGES_LEVEL_0
 62
     7
100
AcDbLine
 10
35.25524326892185
 20
11.46100442595692
 30
0.0
 11
55.05303926892185
 21
11.46100442595692
 31
0.0
  0
LINE
  5
262
330
1F
100
AcDbEntity
  8
IGES_LEVEL_0
 62
     7
100
AcDbLine
 10
34.76896526892185
 20
0.1985544259569179
 30
0.0
 11
34.76896526892185
 21
0.0985694259569177
 31
0.0
  0
LINE
  5
263
330
1F
100
AcDbEntity
  8
IGES_LEVEL_0
 62
     7
100
AcDbLine
 10
36.48687226892185
 20
26.85347142595692
 30
0.0
 11
38.10060026892185
 21
34.68423342595692
 31
0.0
  0
LINE
  5
264
330
1F
100
AcDbEntity
  8
IGES_LEVEL_0
 62
     7
100
AcDbLine
 10
38.10060026892185
 20
34.68423342595692
 30
0.0
 11
38.12061526892185
 21
34.78135642595692
 31
0.0
  0
LINE
  5
265
330
1F
100
AcDbEntity
  8
IGES_LEVEL_0
 62
     7
100
AcDbLine
 10
35.30193826892185
 20
11.96100442595692
 30
0.0
 11
55.02683526892185
 21
11.96100442595692
 31
0.0
  0
LINE
  5
266
330
1F
100
AcDbEntity
  8
IGES_LEVEL_0
 62
     7
100
AcDbLine
 10
37.46629226892185
 20
26.65163742595692
 30
0.0
 11
37.81818226892185
 21
28.35921742595692
 31
0.0
  0
LINE
  5
267
330
1F
100
AcDbEntity
  8
IGES_LEVEL_0
 62
     7
100
AcDbLine
 10
37.98465826892185
 20
29.16705842595692
 30
0.0
 11
39.08002026892185
 21
34.48239942595692
 31
0.0
  0
LINE
  5
268
330
1F
100
AcDbEntity
  8
IGES_LEVEL_0
 62
     7
100
AcDbLine
 10
39.08002026892185
 20
34.48239942595692
 30
0.0
 11
39.10020026892185
 21
34.58032742595692
 31
0.0
  0
LINE
  5
269
330
1F
100
AcDbEntity
  8
IGES_LEVEL_0
 62
     7
100
AcDbLine
 10
41.90848926892185
 20
27.55143342595692
 30
0.0
 11
37.80097126892185
 21
28.27569942595692
 31
0.0
  0
LINE
  5
26A
330
1F
100
AcDbEntity
  8
IGES_LEVEL_0
 62
     7
100
AcDbLine
 10
42.08126826892185
 20
28.53131642595692
 30
0.0
 11
37.99946826892185
 21
29.25104842595692
 31
0.0
  0
LINE
  5
26B
330
1F
100
AcDbEntity
  8
IGES_LEVEL_0
 62
     7
100
AcDbLine
 10
54.12200826892185
 20
29.22645742595692
 30
0.0
 11
54.12128226892185
 21
29.25812742595692
 31
0.0
  0
LINE
  5
26C
330
1F
100
AcDbEntity
  8
IGES_LEVEL_0
 62
     7
100
AcDbLine
 10
54.12131026892185
 20
28.92136342595692
 30
0.0
 11
54.12131026892185
 21
29.12516342595692
 31
0.0
  0
LINE
  5
26D
330
1F
100
AcDbEntity
  8
IGES_LEVEL_0
 62
     7
100
AcDbLine
 10
55.64465126892185
 20
0.1723864259569195
 30
0.0
 11
55.64988426892185
 21
0.072538425956918
 31
0.0
  0
LINE
  5
26E
330
1F
100
AcDbEntity
  8
IGES_LEVEL_0
 62
     7
100
AcDbLine
 10
56.64328026892185
 20
0.2247224259569199
 30
0.0
 11
55.12223026892185
 21
29.24808642595692
 31
0.0
  0
LINE
  5
26F
330
1F
100
AcDbEntity
  8
IGES_LEVEL_0
 62
     7
100
AcDbLine
 10
56.64328026892185
 20
0.2247224259569199
 30
0.0
 11
56.64851326892185
 21
0.1248744259569184
 31
0.0
  0
LINE
  5
270
330
1F
100
AcDbEntity
  8
IGES_LEVEL_0
 62
     7
100
AcDbLine
 10
55.64465126892185
 20
0.1723864259569195
 30
0.0
 11
54.12200826892185
 21
29.22645742595692
 31
0.0
  0
LINE
  5
271
330
1F
100
AcDbEntity
  8
IGES_LEVEL_0
 62
     7
100
AcDbLine
 10
0.4710242689218469
 20
74.27813042595692
 30
0.0
 11
0.6042942689218469
 21
72.70473342595692
 31
0.0
  0
LINE
  5
272
330
1F
100
AcDbEntity
  8
IGES_LEVEL_0
 62
     7
100
AcDbLine
 10
0.6077102689218465
 20
72.66440242595692
 30
0.0
 11
0.6094192689218465
 21
72.64422242595693
 31
0.0
  0
LINE
  5
273
330
1F
100
AcDbEntity
  8
IGES_LEVEL_0
 62
     7
100
AcDbLine
 10
0.7209062689218468
 20
55.31094542595692
 30
0.0
 11
1.179268268921847
 21
56.68714842595692
 31
0.0
  0
LINE
  5
274
330
1F
100
AcDbEntity
  8
IGES_LEVEL_0
 62
     7
100
AcDbLine
 10
9.625926268921848
 20
72.01696142595692
 30
0.0
 11
9.625926268921848
 21
71.87098242595693
 31
0.0
  0
LINE
  5
275
330
1F
100
AcDbEntity
  8
IGES_LEVEL_0
 62
     7
100
AcDbLine
 10
10.12592626892185
 20
72.01696142595692
 30
0.0
 11
10.12592626892185
 21
71.87215142595692
 31
0.0
  0
LINE
  5
276
330
1F
100
AcDbEntity
  8
IGES_LEVEL_0
 62
     7
100
AcDbLine
 10
19.14243326892185
 20
72.64422242595693
 30
0.0
 11
19.14414226892185
 21
72.66440242595692
 31
0.0
  0
LINE
  5
277
330
1F
100
AcDbEntity
  8
IGES_LEVEL_0
 62
     7
100
AcDbLine
 10
19.14755826892185
 20
72.70473342595692
 30
0.0
 11
19.28082926892185
 21
74.27813042595692
 31
0.0
  0
ARC
  5
278
330
1F
100
AcDbEntity
  8
IGES_LEVEL_0
 62
     7
100
AcDbCircle
 10
0.0740582689218465
 20
0.1060744259569196
 30
0.0
 40
0.0700001583765444
100
AcDbArc
 50
179.0005422158841
 51
268.9997381141805
  0
ARC
  5
279
330
1F
100
AcDbEntity
  8
IGES_LEVEL_0
 62
     7
100
AcDbCircle
 10
19.67779426892185
 20
0.1060744259569196
 30
0.0
 40
0.0700001583765452
100
AcDbArc
 50
271.0002618858207
 51
0.9994577841159066
  0
ARC
  5
27A
330
1F
100
AcDbEntity
  8
IGES_LEVEL_0
 62
     7
100
AcDbCircle
 10
55.54062426892185
 20
11.71100442595692
 30
0.0
 40
0.499999666812883
100
AcDbArc
 50
351.4524511266219
 51
13.6890290366246
  0
ARC
  5
27B
330
1F
100
AcDbEntity
  8
IGES_LEVEL_0
 62
     7
100
AcDbCircle
 10
55.54062426892185
 20
11.71100442595692
 30
0.0
 40
0.500000521766097
100
AcDbArc
 50
167.2586649865689
 51
193.6599860836052
  0
ARC
  5
27C
330
1F
100
AcDbEntity
  8
IGES_LEVEL_0
 62
     7
100
AcDbCircle
 10
9.875926268921848
 20
84.26440942595693
 30
0.0
 40
11.74999942774533
100
AcDbArc
 50
222.7966444968474
 51
233.2248174452735
  0
ARC
  5
27D
330
1F
100
AcDbEntity
  8
IGES_LEVEL_0
 62
     7
100
AcDbCircle
 10
9.875926268921848
 20
84.26440942595693
 30
0.0
 40
11.75000005439
100
AcDbArc
 50
306.775259603995
 51
317.2033519251181
  0
ARC
  5
27E
330
1F
100
AcDbEntity
  8
IGES_LEVEL_0
 62
     7
100
AcDbCircle
 10
9.875926268921848
 20
84.26440942595693
 30
0.0
 40
12.24999973741863
100
AcDbArc
 50
308.4591571581414
 51
314.0422584400116
  0
ARC
  5
27F
330
1F
100
AcDbEntity
  8
IGES_LEVEL_0
 62
     7
100
AcDbCircle
 10
9.875926268921848
 20
84.26440942595693
 30
0.0
 40
12.24999967633277
100
AcDbArc
 50
225.9577449220921
 51
231.5409823506035
  0
LINE
  5
280
330
1F
100
AcDbEntity
  8
IGES_LEVEL_0
 62
     7
100
AcDbLine
 10
1.195286936552847
 20
0.2247222814869195
 30
0.0
 11
1.132386869718847
 21
0.2256092437769195
 31
0.0
  0
LINE
  5
281
330
1F
100
AcDbEntity
  8
IGES_LEVEL_0
 62
     7
100
AcDbLine
 10
1.132386869718847
 20
0.2256092437769195
 30
0.0
 11
0.9694586586388465
 21
0.225832147256917
 31
0.0
  0
LINE
  5
282
330
1F
100
AcDbEntity
  8
IGES_LEVEL_0
 62
     7
100
AcDbLine
 10
0.9694586586388465
 20
0.225832147256917
 30
0.0
 11
0.8174695439338469
 21
0.2222674482669196
 31
0.0
  0
LINE
  5
283
330
1F
100
AcDbEntity
  8
IGES_LEVEL_0
 62
     7
100
AcDbLine
 10
0.8174695439338469
 20
0.2222674482669196
 30
0.0
 11
0.7623477753128465
 21
0.2192416352869172
 31
0.0
  0
LINE
  5
284
330
1F
100
AcDbEntity
  8
IGES_LEVEL_0
 62
     7
100
AcDbLine
 10
0.7623477753128465
 20
0.2192416352869172
 30
0.0
 11
0.6953636538298467
 21
0.2072804021269197
 31
0.0
  0
SPLINE
  5
285
330
1F
100
AcDbEntity
  8
IGES_LEVEL_0
 62
     7
100
AcDbSpline
210
0.0
220
0.0
230
1.0
 70
     8
 71
     3
 72
    26
 73
    22
 74
     0
 42
0.0000000001
 43
0.0000000001
 40
0.0
 40
0.0
 40
0.0
 40
0.0
 40
0.03146306147372
 40
0.06419043125301
 40
0.09971045617637
 40
0.1286908713141
 40
0.1522773319969
 40
0.1721868934009
 40
0.1905695833906
 40
0.2094585663816
 40
0.2309712241814
 40
0.2571132771179
 40
0.2900546097621
 40
0.3322470874481
 40
0.3866531241149
 40
0.4569375582487
 40
0.547381902771
 40
0.6520512011119
 40
0.7639179407664
 40
0.8807125752824
 40
1.0
 40
1.0
 40
1.0
 40
1.0
 10
0.6936202393958468
 20
0.107432721066918
 30
0.0
 10
0.6935209590588465
 20
0.1017449543569176
 30
0.0
 10
0.6947227131738467
 20
0.0900687905469196
 30
0.0
 10
0.7009252924288467
 20
0.0729528588269167
 30
0.0
 10
0.7110749257488469
 20
0.0583285842469193
 30
0.0
 10
0.7231033303278465
 20
0.0477110565469166
 30
0.0
 10
0.7344218742468467
 20
0.04099509703692
 30
0.0
 10
0.7447717715518465
 20
0.0366808516569184
 30
0.0
 10
0.7546742297288467
 20
0.0336713621969201
 30
0.0
 10
0.7650343678968468
 20
0.0312754578069173
 30
0.0
 10
0.7768722084878466
 20
0.0291100856469169
 30
0.0
 10
0.7912878958448468
 20
0.0269677128669171
 30
0.0
 10
0.8094639972918465
 20
0.0247364105069186
 30
0.0
 10
0.8327649168988467
 20
0.0223525738769195
 30
0.0
 10
0.8628295174128469
 20
0.0197830937869168
 30
0.0
 10
0.9016299011418467
 20
0.0170250253169191
 30
0.0
 10
0.9495344483228467
 20
0.014228926516918
 30
0.0
 10
1.004976621019847
 20
0.011607289016919
 30
0.0
 10
1.065201941265847
 20
0.0093348886069192
 30
0.0
 10
1.128086122137847
 20
0.0074966371869186
 30
0.0
 10
1.170761441107847
 20
0.0065880353469195
 30
0.0
 10
1.192325763731847
 20
0.0062126596869168
 30
0.0
  0
SPLINE
  5
286
330
1F
100
AcDbEntity
  8
IGES_LEVEL_0
 62
     7
100
AcDbSpline
210
0.0
220
0.0
230
1.0
 70
     8
 71
     3
 72
    29
 73
    25
 74
     0
 42
0.0000000001
 43
0.0000000001
 40
0.0
 40
0.0
 40
0.0
 40
0.0
 40
0.1173359085939
 40
0.2322712090577
 40
0.3424917335726
 40
0.4452669451014
 40
0.5302751527754001
 40
0.5973396622062001
 40
0.6502288000835
 40
0.6920092295372
 40
0.7251611694562
 40
0.7517176594915001
 40
0.773368730965
 40
0.7915949376569
 40
0.8077906369792
 40
0.8233573825827
 40
0.8396404424084
 40
0.857538730446
 40
0.8770415836565
 40
0.8970268251606
 40
0.9211567585526
 40
0.9444699738402
 40
0.9701434247428
 40
1.0
 40
1.0
 40
1.0
 40
1.0
 10
1.192325763731847
 20
0.0062126596869168
 30
0.0
 10
1.213509410480847
 20
0.0058439105569197
 30
0.0
 10
1.255446270969847
 20
0.0052739135769185
 30
0.0
 10
1.317288170257847
 20
0.0049155716969165
 30
0.0
 10
1.376501877464847
 20
0.0050654630369178
 30
0.0
 10
1.430308356241847
 20
0.0057016229769187
 30
0.0
 10
1.476314700505847
 20
0.0067260909269185
 30
0.0
 10
1.513303706990847
 20
0.0079717585169168
 30
0.0
 10
1.542477020200847
 20
0.0093211106569169
 30
0.0
 10
1.565515943817847
 20
0.0107155745569192
 30
0.0
 10
1.583788004279847
 20
0.0121258106769174
 30
0.0
 10
1.598411036055847
 20
0.0135466705369188
 30
0.0
 10
1.610320009158847
 20
0.0149984381869187
 30
0.0
 10
1.620329499775847
 20
0.0165362127669196
 30
0.0
 10
1.629190427682847
 20
0.0182730369669178
 30
0.0
 10
1.637602573850847
 20
0.0204183536269196
 30
0.0
 10
1.646119957649847
 20
0.023309292096919
 30
0.0
 10
1.654948844756847
 20
0.0273631227769192
 30
0.0
 10
1.663768761772847
 20
0.0328650889769198
 30
0.0
 10
1.672584432435847
 20
0.0402914844869185
 30
0.0
 10
1.680539690024847
 20
0.0495987676869168
 30
0.0
 10
1.687231180149847
 20
0.0610587617669194
 30
0.0
 10
1.692048049303847
 20
0.0745449322069197
 30
0.0
 10
1.693373847278847
 20
0.0845900583669175
 30
0.0
 10
1.693467934552847
 20
0.0899803146269176
 30
0.0
  0
LINE
  5
287
330
1F
100
AcDbEntity
  8
IGES_LEVEL_0
 62
     7
100
AcDbLine
 10
1.695210219276847
 20
0.1898282045869171
 30
0.0
 11
1.639651372939847
 21
0.2028863861569197
 31
0.0
  0
LINE
  5
288
330
1F
100
AcDbEntity
  8
IGES_LEVEL_0
 62
     7
100
AcDbLine
 10
1.628227985584847
 20
0.2041649532369197
 30
0.0
 11
1.573104329172847
 21
0.2091139211769187
 31
0.0
  0
LINE
  5
289
330
1F
100
AcDbEntity
  8
IGES_LEVEL_0
 62
     7
100
AcDbLine
 10
1.573104329172847
 20
0.2091139211769187
 30
0.0
 11
1.421360567540847
 21
0.2179592394569175
 31
0.0
  0
LINE
  5
28A
330
1F
100
AcDbEntity
  8
IGES_LEVEL_0
 62
     7
100
AcDbLine
 10
1.421360567540847
 20
0.2179592394569175
 30
0.0
 11
1.258367853382847
 21
0.2234150589169173
 31
0.0
  0
LINE
  5
28B
330
1F
100
AcDbEntity
  8
IGES_LEVEL_0
 62
     7
100
AcDbLine
 10
1.258367853382847
 20
0.2234150589169173
 30
0.0
 11
1.195286936552847
 21
0.2247222814869195
 31
0.0
  0
LINE
  5
28C
330
1F
100
AcDbEntity
  8
IGES_LEVEL_0
 62
     7
100
AcDbLine
 10
18.55656584940185
 20
0.2247222814869195
 30
0.0
 11
18.49348493257185
 21
0.2234150589169173
 31
0.0
  0
LINE
  5
28D
330
1F
100
AcDbEntity
  8
IGES_LEVEL_0
 62
     7
100
AcDbLine
 10
18.49348493257185
 20
0.2234150589169173
 30
0.0
 11
18.33049221841185
 21
0.2179592394569175
 31
0.0
  0
LINE
  5
28E
330
1F
100
AcDbEntity
  8
IGES_LEVEL_0
 62
     7
100
AcDbLine
 10
18.33049221841185
 20
0.2179592394569175
 30
0.0
 11
18.17874845678185
 21
0.2091139211769187
 31
0.0
  0
LINE
  5
28F
330
1F
100
AcDbEntity
  8
IGES_LEVEL_0
 62
     7
100
AcDbLine
 10
18.17874845678185
 20
0.2091139211769187
 30
0.0
 11
18.12362480037185
 21
0.2041649532369197
 31
0.0
  0
LINE
  5
290
330
1F
100
AcDbEntity
  8
IGES_LEVEL_0
 62
     7
100
AcDbLine
 10
18.12362480037185
 20
0.2041649532369197
 30
0.0
 11
18.05664492710185
 21
0.1899571109769168
 31
0.0
  0
SPLINE
  5
291
330
1F
100
AcDbEntity
  8
IGES_LEVEL_0
 62
     7
100
AcDbSpline
210
0.0
220
0.0
230
1.0
 70
     8
 71
     3
 72
    26
 73
    22
 74
     0
 42
0.0000000001
 43
0.0000000001
 40
0.0
 40
0.0
 40
0.0
 40
0.0
 40
0.03148815618987
 40
0.06424117390338
 40
0.0997931450704
 40
0.1288053601301
 40
0.1524226919082
 40
0.1723593042557
 40
0.1907607926847
 40
0.2096580193882
 40
0.231168828222
 40
0.2572976058283
 40
0.2902122932877
 40
0.332361076823
 40
0.386700694312
 40
0.456888097598
 40
0.5472179303696
 40
0.6518905557972
 40
0.7637833668557
 40
0.8806307266161
 40
1.0
 40
1.0
 40
1.0
 40
1.0
 10
18.05838485140185
 20
0.0899803146269176
 30
0.0
 10
18.05848406586185
 20
0.0842963222269196
 30
0.0
 10
18.06009055056185
 20
0.0726770548569183
 30
0.0
 10
18.06687816730185
 20
0.0557972544269175
 30
0.0
 10
18.07752033070185
 20
0.0415397361869166
 30
0.0
 10
18.08990194285185
 20
0.0313461760569181
 30
0.0
 10
18.10144209190185
 20
0.0250246652269195
 30
0.0
 10
18.11193209775185
 20
0.0210701825269167
 30
0.0
 10
18.12192742489185
 20
0.0184057276569197
 30
0.0
 10
18.13235352622185
 20
0.0163719494269193
 30
0.0
 10
18.14424072777185
 20
0.0146210964769194
 30
0.0
 10
18.15869346679185
 20
0.0129837079569169
 30
0.0
 10
18.17689444550185
 20
0.0113888886469167
 30
0.0
 10
18.20020539406185
 20
0.0098204110969183
 30
0.0
 10
18.23025981364185
 20
0.0083020528869189
 30
0.0
 10
18.26902574545185
 20
0.0068990690469169
 30
0.0
 10
18.31689094495185
 20
0.0057736707469194
 30
0.0
 10
18.37229437374185
 20
0.0050840397069192
 30
0.0
 10
18.43248913125185
 20
0.0049093627869188
 30
0.0
 10
18.49533634478185
 20
0.0052607425269185
 30
0.0
 10
18.53797940911185
 20
0.0058375749069169
 30
0.0
 10
18.55952702224185
 20
0.0062126596869168
 30
0.0
  0
SPLINE
  5
292
330
1F
100
AcDbEntity
  8
IGES_LEVEL_0
 62
     7
100
AcDbSpline
210
0.0
220
0.0
230
1.0
 70
     8
 71
     3
 72
    29
 73
    25
 74
     0
 42
0.0000000001
 43
0.0000000001
 40
0.0
 40
0.0
 40
0.0
 40
0.0
 40
0.1172440224078
 40
0.2321162982092
 40
0.3423009667223
 40
0.4450962888001
 40
0.5302328233331
 40
0.5973894711991
 40
0.6503435920089
 40
0.6921685346056
 40
0.7253495467454
 40
0.7519233693532
 40
0.7735826081689
 40
0.7918092566447
 40
0.807998520816
 40
0.8235525991198001
 40
0.8398173849183001
 40
0.85769495532
 40
0.8771819407667
 40
0.8971378515728
 40
0.9212497953025
 40
0.9445223224663
 40
0.9701686441358
 40
1.0
 40
1.0
 40
1.0
 40
1.0
 10
18.55952702224185
 20
0.0062126596869168
 30
0.0
 10
18.58072503079185
 20
0.0065816588269177
 30
0.0
 10
18.62268962643185
 20
0.0074723911769188
 30
0.0
 10
18.68456243308185
 20
0.009268407816919
 30
0.0
 10
18.74380733938185
 20
0.0114817243169197
 30
0.0
 10
18.79765803096185
 20
0.0139943459069199
 30
0.0
 10
18.84371149755185
 20
0.0166250381469167
 30
0.0
 10
18.88074027016185
 20
0.0191639255469168
 30
0.0
 10
18.90992790365185
 20
0.0215335717969194
 30
0.0
 10
18.93296294298185
 20
0.0237339341569194
 30
0.0
 10
18.95121790438185
 20
0.0257833191769171
 30
0.0
 10
18.96581381487185
 20
0.027715535196919
 30
0.0
 10
18.97768715367185
 20
0.0295834258869197
 30
0.0
 10
18.98765219345185
 20
0.0314703985069192
 30
0.0
 10
18.99645716940185
 20
0.0335155054269199
 30
0.0
 10
19.00479570775185
 20
0.0359523495069181
 30
0.0
 10
19.01321161844185
 20
0.0391373061269183
 30
0.0
 10
19.02189901448185
 20
0.0434955946669189
 30
0.0
 10
19.03052614825185
 20
0.0493010607469171
 30
0.0
 10
19.03908349474185
 20
0.0570317174869187
 30
0.0
 10
19.04671256228185
 20
0.0666107760869186
 30
0.0
 10
19.05300405825185
 20
0.0782994045169195
 30
0.0
 10
19.05735104510185
 20
0.0919485778469178
 30
0.0
 10
19.05832669182185
 20
0.1020391428069166
 30
0.0
 10
19.05823254656185
 20
0.107432721066918
 30
0.0
  0
LINE
  5
293
330
1F
100
AcDbEntity
  8
IGES_LEVEL_0
 62
     7
100
AcDbLine
 10
19.05648913212185
 20
0.2072804021269197
 30
0.0
 11
18.98950501064185
 21
0.2192416352869172
 31
0.0
  0
LINE
  5
294
330
1F
100
AcDbEntity
  8
IGES_LEVEL_0
 62
     7
100
AcDbLine
 10
18.98950501064185
 20
0.2192416352869172
 30
0.0
 11
18.93438324202185
 21
0.2222674482669196
 31
0.0
  0
LINE
  5
295
330
1F
100
AcDbEntity
  8
IGES_LEVEL_0
 62
     7
100
AcDbLine
 10
18.93438324202185
 20
0.2222674482669196
 30
0.0
 11
18.78239412732185
 21
0.225832147256917
 31
0.0
  0
LINE
  5
296
330
1F
100
AcDbEntity
  8
IGES_LEVEL_0
 62
     7
100
AcDbLine
 10
18.78239412732185
 20
0.225832147256917
 30
0.0
 11
18.61946591623185
 21
0.2256092437769195
 31
0.0
  0
LINE
  5
297
330
1F
100
AcDbEntity
  8
IGES_LEVEL_0
 62
     7
100
AcDbLine
 10
18.61946591623185
 20
0.2256092437769195
 30
0.0
 11
18.55656584940185
 21
0.2247222814869195
 31
0.0
  0
ARC
  5
298
330
1F
100
AcDbEntity
  8
IGES_LEVEL_0
 62
     7
100
AcDbCircle
 10
17.37755315759603
 20
10.71657624829724
 30
0.0
 40
0.5103322555528365
100
AcDbArc
 50
91.29838504281919
 51
102.9962142873293
  0
ARC
  5
299
330
1F
100
AcDbEntity
  8
IGES_LEVEL_0
 62
     7
100
AcDbCircle
 10
17.37427930952917
 20
10.71609515497369
 30
0.0
 40
0.5108114800430277
100
AcDbArc
 50
76.80034655514072
 51
88.81245707191607
  0
ARC
  5
29A
330
1F
100
AcDbEntity
  8
IGES_LEVEL_0
 62
     7
100
AcDbCircle
 10
2.377553157580804
 20
10.7165762484346
 30
0.0
 40
0.5103322554151263
100
AcDbArc
 50
91.29838504123515
 51
102.996214288913
  0
ARC
  5
29B
330
1F
100
AcDbEntity
  8
IGES_LEVEL_0
 62
     7
100
AcDbCircle
 10
2.373862102552785
 20
10.71157742851886
 30
0.0
 40
0.5153369843144589
100
AcDbArc
 50
75.72563472936081
 51
88.77649137132916
  0
LINE
  5
29C
330
1F
100
AcDbEntity
  8
IGES_LEVEL_0
 62
     7
100
AcDbLine
 10
3.985541767356347
 20
27.55995527588692
 30
0.0
 11
4.054701298418147
 21
27.54200082840692
 31
0.0
  0
LINE
  5
29D
330
1F
100
AcDbEntity
  8
IGES_LEVEL_0
 62
     7
100
AcDbLine
 10
0.0435831503318465
 20
2.371057178736918
 30
0.0
 11
0.0058142880218464
 21
0.2072805065769185
 31
0.0
  0
LINE
  5
29E
330
1F
100
AcDbEntity
  8
IGES_LEVEL_0
 62
     7
100
AcDbLine
 10
0.4693160821058466
 20
26.76128050544792
 30
0.0
 11
0.0494134416748464
 21
2.705074346546919
 31
0.0
  0
LINE
  5
29F
330
1F
100
AcDbEntity
  8
IGES_LEVEL_0
 62
     7
100
AcDbLine
 10
0.0494134416748464
 20
2.705074346546918
 30
0.0
 11
0.0435831492958467
 21
2.371057119866919
 31
0.0
  0
LINE
  5
2A0
330
1F
100
AcDbEntity
  8
IGES_LEVEL_0
 62
     7
100
AcDbLine
 10
15.69610419876185
 20
27.54172998092692
 30
0.0
 11
15.76631369142185
 21
27.55995589744692
 31
0.0
  0
LINE
  5
2A1
330
1F
100
AcDbEntity
  8
IGES_LEVEL_0
 62
     7
100
AcDbLine
 10
19.70940013537185
 20
2.306290891326919
 30
0.0
 11
19.70824078019185
 21
2.372710305136919
 31
0.0
  0
LINE
  5
2A2
330
1F
100
AcDbEntity
  8
IGES_LEVEL_0
 62
     7
100
AcDbLine
 10
19.74603849793185
 20
0.2072805065769186
 30
0.0
 11
19.70881394690185
 21
2.339873606886919
 31
0.0
  0
LINE
  5
2A3
330
1F
100
AcDbEntity
  8
IGES_LEVEL_0
 62
     7
100
AcDbLine
 10
19.70881394690185
 20
2.339873606886919
 30
0.0
 11
19.70824078026185
 21
2.372710301876918
 31
0.0
  0
LINE
  5
2A4
330
1F
100
AcDbEntity
  8
IGES_LEVEL_0
 62
     7
100
AcDbLine
 10
19.70824078026185
 20
2.372710301876918
 30
0.0
 11
19.69850795487185
 21
2.930303495086918
 31
0.0
  0
LINE
  5
2A5
330
1F
100
AcDbEntity
  8
IGES_LEVEL_0
 62
     7
100
AcDbLine
 10
19.69850795487185
 20
2.930303495086918
 30
0.0
 11
19.28253670385185
 21
26.76128050544792
 31
0.0
  0
LINE
  5
2A6
330
1F
100
AcDbEntity
  8
IGES_LEVEL_0
 62
     7
100
AcDbLine
 10
17.84752104693185
 20
12.21100397316892
 30
0.0
 11
17.96813173353185
 21
12.10910055671192
 31
0.0
  0
ARC
  5
2A7
330
1F
100
AcDbEntity
  8
IGES_LEVEL_0
 62
     7
100
AcDbCircle
 10
3.901571976223105
 20
-2.933565589146
 30
0.0
 40
20.59490005272368
100
AcDbArc
 50
45.42628425040198
 51
46.92055360021142
  0
LINE
  5
2A8
330
1F
100
AcDbEntity
  8
IGES_LEVEL_0
 62
     7
100
AcDbLine
 10
18.35561529293185
 20
11.73717195129092
 30
0.0
 11
17.87474662323185
 21
11.22772946767192
 31
0.0
  0
LINE
  5
2A9
330
1F
100
AcDbEntity
  8
IGES_LEVEL_0
 62
     7
100
AcDbLine
 10
17.87474662323185
 20
11.22772946767192
 30
0.0
 11
17.86417767143185
 21
11.21105341926892
 31
0.0
  0
SPLINE
  5
2AA
330
1F
100
AcDbEntity
  8
IGES_LEVEL_0
 62
     7
100
AcDbSpline
210
0.0
220
0.0
230
1.0
 70
     8
 71
     3
 72
    32
 73
    28
 74
     0
 42
0.0000000001
 43
0.0000000001
 40
0.0
 40
0.0
 40
0.0
 40
0.0
 40
0.06388959793913
 40
0.1351418511917
 40
0.1982818401582
 40
0.2535486455175
 40
0.3019199600428
 40
0.3445624147444
 40
0.3820869666823
 40
0.4152137537077
 40
0.4446195671723
 40
0.4709312320151
 40
0.4953056063911
 40
0.5191073659111
 40
0.543691895627
 40
0.5689076472961
 40
0.5955143918332
 40
0.6242176325839
 40
0.6551213031000001
 40
0.6893101264447
 40
0.7269876394078
 40
0.7682183279364
 40
0.8134367233642
 40
0.8633443325349
 40
0.9182854513483
 40
0.9785099519246
 40
1.0
 40
1.0
 40
1.0
 40
1.0
 10
18.54968721856185
 20
29.24669939313692
 30
0.0
 10
18.57903897325185
 20
29.23833382066692
 30
0.0
 10
18.63984563162185
 20
29.21668119696692
 30
0.0
 10
18.72541767241185
 20
29.17603360853692
 30
0.0
 10
18.80368585899185
 20
29.13052983580692
 30
0.0
 10
18.86968697185185
 20
29.08603980953692
 30
0.0
 10
18.92527155358185
 20
29.04381860231692
 30
0.0
 10
18.97217815956185
 20
29.00430459896692
 30
0.0
 10
19.01183307777185
 20
28.96757107616692
 30
0.0
 10
19.04533124569185
 20
28.93355133656692
 30
0.0
 10
19.07358302668185
 20
28.90196006857692
 30
0.0
 10
19.09747799847185
 20
28.87207799085692
 30
0.0
 10
19.11733353594185
 20
28.84269182627692
 30
0.0
 10
19.13275050547185
 20
28.81088509560692
 30
0.0
 10
19.13240260123185
 20
28.77451799054692
 30
0.0
 10
19.11923770449185
 20
28.74025637503692
 30
0.0
 10
19.10195863385185
 20
28.70596259966692
 30
0.0
 10
19.08081026010185
 20
28.67065040392692
 30
0.0
 10
19.05582430563185
 20
28.63352534682692
 30
0.0
 10
19.02641025846185
 20
28.59428590860692
 30
0.0
 10
18.99185053737185
 20
28.55283579752692
 30
0.0
 10
18.95144895333185
 20
28.50951503898692
 30
0.0
 10
18.90422047201185
 20
28.46473586886692
 30
0.0
 10
18.84887980930185
 20
28.41923236545692
 30
0.0
 10
18.78398414811185
 20
28.37445864301692
 30
0.0
 10
18.72660598163185
 20
28.34319573842692
 30
0.0
 10
18.69081916746185
 20
28.32766217167692
 30
0.0
 10
18.68130731190185
 20
28.32382338110692
 30
0.0
  0
LINE
  5
2AB
330
1F
100
AcDbEntity
  8
IGES_LEVEL_0
 62
     7
100
AcDbLine
 10
18.68130731190185
 20
28.32382338110692
 30
0.0
 11
18.65155860461185
 21
28.31276246993692
 31
0.0
  0
LINE
  5
2AC
330
1F
100
AcDbEntity
  8
IGES_LEVEL_0
 62
     7
100
AcDbLine
 10
18.65155860461185
 20
28.31276246993692
 30
0.0
 11
18.61608132671185
 21
28.30209535727692
 31
0.0
  0
ARC
  5
2AD
330
1F
100
AcDbEntity
  8
IGES_LEVEL_0
 62
     7
100
AcDbCircle
 10
18.67054581355932
 20
11.6821470467397
 30
0.0
 40
0.2774206056784963
100
AcDbArc
 50
5.970631725617444
 51
48.978924090066
  0
ARC
  5
2AE
330
1F
100
AcDbEntity
  8
IGES_LEVEL_0
 62
     7
100
AcDbCircle
 10
1.081319793141418
 20
11.68214140741507
 30
0.0
 40
0.277433945489625
100
AcDbArc
 50
131.0190510356832
 51
174.0284854142875
  0
ARC
  5
2AF
330
1F
100
AcDbEntity
  8
IGES_LEVEL_0
 62
     7
100
AcDbCircle
 10
18.71028503141311
 20
11.69895172228982
 30
0.0
 40
0.2364836370076592
100
AcDbArc
 50
308.9865389736581
 51
2.921311599236186
  0
ARC
  5
2B0
330
1F
100
AcDbEntity
  8
IGES_LEVEL_0
 62
     7
100
AcDbCircle
 10
1.041570942455314
 20
11.69895237618872
 30
0.0
 40
0.2364867829782497
100
AcDbArc
 50
177.0788859286174
 51
231.0163173325158
  0
ARC
  5
2B1
330
1F
100
AcDbEntity
  8
IGES_LEVEL_0
 62
     7
100
AcDbCircle
 10
19.02440534615869
 20
0.157643080582834
 30
0.0
 40
0.0599266332412193
100
AcDbArc
 50
58.67105847901117
 51
98.1304962862972
  0
ARC
  5
2B2
330
1F
100
AcDbEntity
  8
IGES_LEVEL_0
 62
     7
100
AcDbCircle
 10
19.01958136017829
 20
0.900726079854136
 30
0.0
 40
0.6837684664323106
100
AcDbArc
 50
264.7153320841709
 51
269.6940387451061
  0
LINE
  5
2B3
330
1F
100
AcDbEntity
  8
IGES_LEVEL_0
 62
     7
100
AcDbLine
 10
18.95660345851185
 20
0.219864053016917
 30
0.0
 11
18.92029547422185
 21
0.222815789296917
 31
0.0
  0
ARC
  5
2B4
330
1F
100
AcDbEntity
  8
IGES_LEVEL_0
 62
     7
100
AcDbCircle
 10
18.80744735395277
 20
-1.763144437169752
 30
0.0
 40
1.989163824162255
100
AcDbArc
 50
86.74778203559389
 51
90.7456836549902
  0
LINE
  5
2B5
330
1F
100
AcDbEntity
  8
IGES_LEVEL_0
 62
     7
100
AcDbLine
 10
18.78155984373185
 20
0.2258509263669173
 30
0.0
 11
18.61310001718185
 21
0.2255385253369196
 31
0.0
  0
LINE
  5
2B6
330
1F
100
AcDbEntity
  8
IGES_LEVEL_0
 62
     7
100
AcDbLine
 10
18.61310001718185
 20
0.2255385253369196
 30
0.0
 11
18.49703653096185
 21
0.2234722127569176
 31
0.0
  0
LINE
  5
2B7
330
1F
100
AcDbEntity
  8
IGES_LEVEL_0
 62
     7
100
AcDbLine
 10
18.49703653096185
 20
0.2234722127569176
 30
0.0
 11
18.06416859155185
 21
0.1949235151569196
 31
0.0
  0
ARC
  5
2B8
330
1F
100
AcDbEntity
  8
IGES_LEVEL_0
 62
     7
100
AcDbCircle
 10
18.06341580773342
 20
0.187678656571229
 30
0.0
 40
0.0072838629451646
100
AcDbArc
 50
84.06791570743333
 51
163.8682344342603
  0
ARC
  5
2B9
330
1F
100
AcDbEntity
  8
IGES_LEVEL_0
 62
     7
100
AcDbCircle
 10
0.7274474397970188
 20
0.1576430805691774
 30
0.0
 40
0.0599266332544524
100
AcDbArc
 50
81.86950371745607
 51
121.3289415166623
  0
ARC
  5
2BA
330
1F
100
AcDbEntity
  8
IGES_LEVEL_0
 62
     7
100
AcDbCircle
 10
0.7322714257842163
 20
0.9007260797171475
 30
0.0
 40
0.6837684662952771
100
AcDbArc
 50
270.3059612542166
 51
275.2846679163179
  0
LINE
  5
2BB
330
1F
100
AcDbEntity
  8
IGES_LEVEL_0
 62
     7
100
AcDbLine
 10
0.7952493274438468
 20
0.219864053016917
 30
0.0
 11
0.8315573117398465
 21
0.222815789296917
 31
0.0
  0
ARC
  5
2BC
330
1F
100
AcDbEntity
  8
IGES_LEVEL_0
 62
     7
100
AcDbCircle
 10
0.9444054320031293
 20
-1.763144436956308
 30
0.0
 40
1.989163823948827
100
AcDbArc
 50
89.2543163449358
 51
93.25221796458845
  0
LINE
  5
2BD
330
1F
100
AcDbEntity
  8
IGES_LEVEL_0
 62
     7
100
AcDbLine
 10
0.9702929422238467
 20
0.2258509263669173
 30
0.0
 11
1.138752768773847
 21
0.2255385253369196
 31
0.0
  0
LINE
  5
2BE
330
1F
100
AcDbEntity
  8
IGES_LEVEL_0
 62
     7
100
AcDbLine
 10
1.138752768773847
 20
0.2255385253369196
 30
0.0
 11
1.258414986649847
 21
0.2233844301269171
 31
0.0
  0
LINE
  5
2BF
330
1F
100
AcDbEntity
  8
IGES_LEVEL_0
 62
     7
100
AcDbLine
 10
1.258414986649847
 20
0.2233844301269171
 30
0.0
 11
1.687684194402847
 21
0.1949235151569196
 31
0.0
  0
ARC
  5
2C0
330
1F
100
AcDbEntity
  8
IGES_LEVEL_0
 62
     7
100
AcDbCircle
 10
1.688436978222453
 20
0.1876786565702933
 30
0.0
 40
0.0072838629462171
100
AcDbArc
 50
16.13176557102235
 51
95.93208430103096
  0
LINE
  5
2C1
330
1F
100
AcDbEntity
  8
IGES_LEVEL_0
 62
     7
100
AcDbLine
 10
1.135390259282847
 20
28.30219592178692
 30
0.0
 11
1.094790000366847
 21
28.31466472257692
 31
0.0
  0
LINE
  5
2C2
330
1F
100
AcDbEntity
  8
IGES_LEVEL_0
 62
     7
100
AcDbLine
 10
1.094790000366847
 20
28.31466472257692
 30
0.0
 11
1.063958752424847
 21
28.32652385100692
 31
0.0
  0
SPLINE
  5
2C3
330
1F
100
AcDbEntity
  8
IGES_LEVEL_0
 62
     7
100
AcDbSpline
210
0.0
220
0.0
230
1.0
 70
     8
 71
     3
 72
    31
 73
    27
 74
     0
 42
0.0000000001
 43
0.0000000001
 40
0.0
 40
0.0
 40
0.0
 40
0.0
 40
0.02246617744596
 40
0.08533985674838
 40
0.1425313394671
 40
0.1942924347124
 40
0.2410721955345
 40
0.2836104300774
 40
0.3223553578994
 40
0.3573226398509
 40
0.3885590774563
 40
0.4167980425553
 40
0.4434813733768
 40
0.4701524331017
 40
0.4951599060642
 40
0.5199545465532
 40
0.546714288563
 40
0.5768279697675
 40
0.6107507240425
 40
0.6488793523915
 40
0.6919986346075
 40
0.7408609270536
 40
0.7966976094429
 40
0.8606622239396
 40
0.9330750600755
 40
1.0
 40
1.0
 40
1.0
 40
1.0
 10
1.063958752424847
 20
28.32652385100692
 30
0.0
 10
1.054112607855847
 20
28.33063379528692
 30
0.0
 10
1.017127630134847
 20
28.34723456659692
 30
0.0
 10
0.9580339122748467
 20
28.38050612793692
 30
0.0
 10
0.8915462269378467
 20
28.42791549788692
 30
0.0
 10
0.8351952702268468
 20
28.47584912763692
 30
0.0
 10
0.7874048587498468
 20
28.52280794293692
 30
0.0
 10
0.7467888321918466
 20
28.56806542972692
 30
0.0
 10
0.7123268210948468
 20
28.61118095052692
 30
0.0
 10
0.6833740808488469
 20
28.65173920032692
 30
0.0
 10
0.6593224209578468
 20
28.68957314421692
 30
0.0
 10
0.6396030039448468
 20
28.72547480694692
 30
0.0
 10
0.6238451552958466
 20
28.76076044402692
 30
0.0
 10
0.6164980117248469
 20
28.79851729945692
 30
0.0
 10
0.6291368525498466
 20
28.83375870673692
 30
0.0
 10
0.6487304789228467
 20
28.86430088609692
 30
0.0
 10
0.6724226587468465
 20
28.89505486522692
 30
0.0
 10
0.7008290627548468
 20
28.92746975571692
 30
0.0
 10
0.7345878797878469
 20
28.96229998529692
 30
0.0
 10
0.7744707226608467
 20
28.99970035334692
 30
0.0
 10
0.8215010145898467
 20
29.03974781754692
 30
0.0
 10
0.8771833384178467
 20
29.08246821122692
 30
0.0
 10
0.9433916751418465
 20
29.12753772438692
 30
0.0
 10
1.022115160302847
 20
29.17376827081692
 30
0.0
 10
1.109241296174847
 20
29.21560170942692
 30
0.0
 10
1.171566756459847
 20
29.23797583853692
 30
0.0
 10
1.202163579312847
 20
29.24669788273692
 30
0.0
  0
ARC
  5
2C4
330
1F
100
AcDbEntity
  8
IGES_LEVEL_0
 62
     7
100
AcDbCircle
 10
0.7110631846421757
 20
10.32056265582554
 30
0.0
 40
1.475597991769146
100
AcDbArc
 50
37.11939140630723
 51
43.0243422426551
  0
ARC
  5
2C5
330
1F
100
AcDbEntity
  8
IGES_LEVEL_0
 62
     7
100
AcDbCircle
 10
-13.86891082518508
 20
-3.317919994390632
 30
0.0
 40
21.44016200194886
100
AcDbArc
 50
43.08461573713262
 51
44.60306544551378
  0
LINE
  5
2C6
330
1F
100
AcDbEntity
  8
IGES_LEVEL_0
 62
     7
100
AcDbLine
 10
1.396237493022847
 20
11.73717195129092
 30
0.0
 11
1.883096118296847
 21
12.19639467868492
 31
0.0
  0
ARC
  5
2C7
330
1F
100
AcDbEntity
  8
IGES_LEVEL_0
 62
     7
100
AcDbCircle
 10
1.911023765920424
 20
12.17853827935548
 30
0.0
 40
0.0331482201452643
100
AcDbArc
 50
101.6470312155196
 51
147.4059359481094
  0
LINE
  5
2C8
330
1F
100
AcDbEntity
  8
IGES_LEVEL_0
 62
     7
100
AcDbLine
 10
34.20596214187184
 20
0.207210949476917
 30
0.0
 11
34.04296066373185
 21
0.2063385893469172
 31
0.0
  0
LINE
  5
2C9
330
1F
100
AcDbEntity
  8
IGES_LEVEL_0
 62
     7
100
AcDbLine
 10
34.04296066373185
 20
0.2063385893469172
 30
0.0
 11
33.89109095977185
 21
0.2042687512069184
 31
0.0
  0
ARC
  5
2CA
330
1F
100
AcDbEntity
  8
IGES_LEVEL_0
 62
     7
100
AcDbCircle
 10
33.89418788678347
 20
-1.169761485268785
 30
0.0
 40
1.374033726553461
100
AcDbArc
 50
90.12913874967661
 51
95.22888841508754
  0
SPLINE
  5
2CB
330
1F
100
AcDbEntity
  8
IGES_LEVEL_0
 62
     7
100
AcDbSpline
210
0.0
220
0.0
230
1.0
 70
     8
 71
     3
 72
    32
 73
    28
 74
     0
 42
0.0000000001
 43
0.0000000001
 40
0.0
 40
0.0
 40
0.0
 40
0.0
 40
0.03056351623349
 40
0.06072532426401
 40
0.09302431343246
 40
0.1191155557562
 40
0.1423770739071
 40
0.1614151643771
 40
0.1750737995179
 40
0.1854706591178
 40
0.1941737003174
 40
0.2024861688547
 40
0.211473729425
 40
0.2219553799601
 40
0.2347169022915
 40
0.250579977596
 40
0.2704857250113
 40
0.2955591559788
 40
0.3271769634845
 40
0.3670449712673
 40
0.4172822321297
 40
0.4805194484461
 40
0.5599932745564
 40
0.6589020984299
 40
0.7685125672821001
 40
0.8830187617999
 40
1.0
 40
1.0
 40
1.0
 40
1.0
 10
33.76896574695184
 20
0.0985695338469169
 30
0.0
 10
33.76896574695184
 20
0.0930670315469198
 30
0.0
 10
33.77026517914185
 20
0.0820898616369168
 30
0.0
 10
33.77609395451184
 20
0.0662386035269198
 30
0.0
 10
33.78510417124185
 20
0.05287533699692
 30
0.0
 10
33.79590408463185
 20
0.0427625785269191
 30
0.0
 10
33.80636890802185
 20
0.0361503065269174
 30
0.0
 10
33.81566832621185
 20
0.0321866271369201
 30
0.0
 10
33.82313060539185
 20
0.030020460366917
 30
0.0
 10
33.82891400280185
 20
0.028844139436917
 30
0.0
 10
33.83379778208185
 20
0.0281237300969193
 30
0.0
 10
33.83845084955185
 20
0.0276035533369173
 30
0.0
 10
33.84343354727185
 20
0.0271647738569177
 30
0.0
 10
33.84922170779185
 20
0.0267521294969169
 30
0.0
 10
33.85625020870184
 20
0.0263390334369196
 30
0.0
 10
33.86497699665185
 20
0.0259112202469188
 30
0.0
 10
33.87592154956185
 20
0.0254606134169185
 30
0.0
 10
33.88970348212185
 20
0.0249826604969177
 30
0.0
 10
33.90708019948185
 20
0.0244754953769193
 30
0.0
 10
33.92898814205184
 20
0.0239400850869172
 30
0.0
 10
33.95658956744185
 20
0.0233811446069195
 30
0.0
 10
33.99132237535185
 20
0.0228089553669198
 30
0.0
 10
34.03481881998184
 20
0.0222440902069186
 30
0.0
 10
34.08666531664185
 20
0.0217418704469173
 30
0.0
 10
34.14482000682185
 20
0.0213556428069173
 30
0.0
 10
34.20622917334185
 20
0.0211180000869189
 30
0.0
 10
34.24790503107185
 20
0.0210649990769168
 30
0.0
 10
34.26896574695184
 20
0.0210649990769168
 30
0.0
  0
SPLINE
  5
2CC
330
1F
100
AcDbEntity
  8
IGES_LEVEL_0
 62
     7
100
AcDbSpline
210
0.0
220
0.0
230
1.0
 70
     8
 71
     3
 72
    36
 73
    32
 74
     0
 42
0.0000000001
 43
0.0000000001
 40
0.0
 40
0.0
 40
0.0
 40
0.0
 40
0.1171838211627
 40
0.2318773564704
 40
0.3414414512516
 40
0.4353094444551
 40
0.5109331611077
 40
0.5717564717917
 40
0.6206409046815
 40
0.6599243253632
 40
0.6914995083404
 40
0.7168955860136
 40
0.737349043078
 40
0.753866077208
 40
0.7672707581092
 40
0.7782558305689
 40
0.7874109579322
 40
0.7952805384352
 40
0.8024049240183
 40
0.8093685360721
 40
0.816902604261
 40
0.8257819780777
 40
0.836121318685
 40
0.8490125612186
 40
0.8637895263263
 40
0.8824057403867001
 40
0.9004982287701
 40
0.9247813867257
 40
0.9467648069006001
 40
0.9716820524566
 40
1.0
 40
1.0
 40
1.0
 40
1.0
 10
34.26896574695184
 20
0.0210649990769168
 30
0.0
 10
34.29006541825185
 20
0.0210649990769168
 30
0.0
 10
34.33181639014185
 20
0.0211181911769179
 30
0.0
 10
34.39329464124185
 20
0.0213565547269182
 30
0.0
 10
34.45057394194185
 20
0.0217375527269189
 30
0.0
 10
34.50081741466185
 20
0.0222212496769179
 30
0.0
 10
34.54228376818185
 20
0.0227489552169194
 30
0.0
 10
34.57564965822185
 20
0.0232812680469193
 30
0.0
 10
34.60247144915184
 20
0.0238015750469179
 30
0.0
 10
34.62402620277185
 20
0.0243005895269169
 30
0.0
 10
34.64135104835184
 20
0.0247737577469179
 30
0.0
 10
34.65528477236185
 20
0.0252196457169168
 30
0.0
 10
34.66650648730185
 20
0.0256390004869194
 30
0.0
 10
34.67556830039185
 20
0.0260342660269193
 30
0.0
 10
34.68292433171185
 20
0.0264095677669194
 30
0.0
 10
34.68895356286185
 20
0.0267710757669169
 30
0.0
 10
34.69398435409185
 20
0.0271283109469179
 30
0.0
 10
34.69831708247185
 20
0.0274968125869184
 30
0.0
 10
34.70224995360184
 20
0.0279038773969167
 30
0.0
 10
34.70611182699185
 20
0.0284008294569174
 30
0.0
 10
34.71026646782185
 20
0.0290832805369168
 30
0.0
 10
34.71497813237185
 20
0.0300978757369177
 30
0.0
 10
34.72054281291185
 20
0.0316852831969184
 30
0.0
 10
34.72695137730185
 20
0.0341163134469196
 30
0.0
 10
34.73440974143185
 20
0.03787180201692
 30
0.0
 10
34.74212152445185
 20
0.0430758519369197
 30
0.0
 10
34.75029797814185
 20
0.0504557862069182
 30
0.0
 10
34.75757230206185
 20
0.0595688829569175
 30
0.0
 10
34.76369277661185
 20
0.0708979196069178
 30
0.0
 10
34.76791149092185
 20
0.0838507070369166
 30
0.0
 10
34.76896574695184
 20
0.0934707123569188
 30
0.0
 10
34.76896574695184
 20
0.0985695338469169
 30
0.0
  0
ARC
  5
2CD
330
1F
100
AcDbEntity
  8
IGES_LEVEL_0
 62
     7
100
AcDbCircle
 10
34.64374360709945
 20
-1.169761485717911
 30
0.0
 40
1.37403372700261
100
AcDbArc
 50
84.7711115857571
 51
89.87086124991645
  0
LINE
  5
2CE
330
1F
100
AcDbEntity
  8
IGES_LEVEL_0
 62
     7
100
AcDbLine
 10
34.64684053412184
 20
0.2042687512069184
 30
0.0
 11
34.49497083016185
 21
0.2063385893469172
 31
0.0
  0
LINE
  5
2CF
330
1F
100
AcDbEntity
  8
IGES_LEVEL_0
 62
     7
100
AcDbLine
 10
34.49497083016185
 20
0.2063385893469172
 30
0.0
 11
34.33196935203185
 21
0.207210949476917
 31
0.0
  0
ARC
  5
2D0
330
1F
100
AcDbEntity
  8
IGES_LEVEL_0
 62
     7
100
AcDbCircle
 10
55.72197497474362
 20
0.0772110974722443
 30
0.0
 40
0.0722424606187355
100
AcDbArc
 50
183.7084125861651
 51
274.2260013376245
  0
LINE
  5
2D1
330
1F
100
AcDbEntity
  8
IGES_LEVEL_0
 62
     7
100
AcDbLine
 10
55.72729857800185
 20
0.0051650541069184
 30
0.0
 11
56.57864964835185
 21
0.049789439966919
 31
0.0
  0
ARC
  5
2D2
330
1F
100
AcDbEntity
  8
IGES_LEVEL_0
 62
     7
100
AcDbCircle
 10
56.57634455864452
 20
0.1219794480189727
 30
0.0
 40
0.0722268004352567
100
AcDbArc
 50
271.8288826480627
 51
2.297187142454447
  0
LINE
  5
2D3
330
1F
100
AcDbEntity
  8
IGES_LEVEL_0
 62
     7
100
AcDbLine
 10
56.64328051432185
 20
0.2247222814869195
 30
0.0
 11
56.52102400851184
 21
0.2240295397369186
 31
0.0
  0
LINE
  5
2D4
330
1F
100
AcDbEntity
  8
IGES_LEVEL_0
 62
     7
100
AcDbLine
 10
56.52102400851184
 20
0.2240295397369186
 30
0.0
 11
56.36925425896185
 21
0.2181441951969175
 31
0.0
  0
LINE
  5
2D5
330
1F
100
AcDbEntity
  8
IGES_LEVEL_0
 62
     7
100
AcDbLine
 10
56.36925425896185
 20
0.2181441951969175
 30
0.0
 11
56.23799547897185
 21
0.2120507101169201
 31
0.0
  0
LINE
  5
2D6
330
1F
100
AcDbEntity
  8
IGES_LEVEL_0
 62
     7
100
AcDbLine
 10
56.23799547897185
 20
0.2120507101169201
 30
0.0
 11
56.20643054601185
 21
0.2104846189469183
 31
0.0
  0
LINE
  5
2D7
330
1F
100
AcDbEntity
  8
IGES_LEVEL_0
 62
     7
100
AcDbLine
 10
56.20643054601185
 20
0.2104846189469183
 30
0.0
 11
56.16725040271185
 21
0.2084909749269178
 31
0.0
  0
LINE
  5
2D8
330
1F
100
AcDbEntity
  8
IGES_LEVEL_0
 62
     7
100
AcDbLine
 10
56.16725040271185
 20
0.2084909749269178
 30
0.0
 11
56.11976998195185
 21
0.2060026315169173
 31
0.0
  0
LINE
  5
2D9
330
1F
100
AcDbEntity
  8
IGES_LEVEL_0
 62
     7
100
AcDbLine
 10
56.11976998195185
 20
0.2060026315169173
 30
0.0
 11
56.08059607903185
 21
0.2038899139769198
 31
0.0
  0
LINE
  5
2DA
330
1F
100
AcDbEntity
  8
IGES_LEVEL_0
 62
     7
100
AcDbLine
 10
56.08059607903185
 20
0.2038899139769198
 30
0.0
 11
56.04904036098185
 21
0.2021479919969172
 31
0.0
  0
LINE
  5
2DB
330
1F
100
AcDbEntity
  8
IGES_LEVEL_0
 62
     7
100
AcDbLine
 10
56.04904036098185
 20
0.2021479919969172
 30
0.0
 11
55.91786368769185
 21
0.1944878177669165
 31
0.0
  0
LINE
  5
2DC
330
1F
100
AcDbEntity
  8
IGES_LEVEL_0
 62
     7
100
AcDbLine
 10
55.91477890161185
 20
0.1942984379969173
 30
0.0
 11
55.76631016268185
 21
0.1844766630869193
 31
0.0
  0
LINE
  5
2DD
330
1F
100
AcDbEntity
  8
IGES_LEVEL_0
 62
     7
100
AcDbLine
 10
55.76631016268185
 20
0.1844766630869193
 30
0.0
 11
55.64465097957185
 21
0.1723863252369183
 31
0.0
  0
LINE
  5
2DE
330
1F
100
AcDbEntity
  8
IGES_LEVEL_0
 62
     7
100
AcDbLine
 10
39.10396557938185
 20
34.59867106056692
 30
0.0
 11
39.10820715522185
 21
34.61949050045692
 31
0.0
  0
LINE
  5
2DF
330
1F
100
AcDbEntity
  8
IGES_LEVEL_0
 62
     7
100
AcDbLine
 10
39.10820715522185
 20
34.61949050045692
 30
0.0
 11
39.11639641081185
 21
34.66014327000692
 31
0.0
  0
ARC
  5
2E0
330
1F
100
AcDbEntity
  8
IGES_LEVEL_0
 62
     7
100
AcDbCircle
 10
41.71461247589744
 20
34.01639781164354
 30
0.0
 40
3.674448515256952
100
AcDbArc
 50
157.6446061115143
 51
168.0003593018018
  0
LINE
  5
2E1
330
1F
100
AcDbEntity
  8
IGES_LEVEL_0
 62
     7
100
AcDbLine
 10
39.10020045299185
 20
34.58032745566692
 30
0.0
 11
39.11238672626185
 21
34.64016407971693
 31
0.0
  0
LINE
  5
2E2
330
1F
100
AcDbEntity
  8
IGES_LEVEL_0
 62
     7
100
AcDbLine
 10
39.11238672626185
 20
34.64016407971693
 30
0.0
 11
39.31022048809185
 21
35.69391081170692
 31
0.0
  0
ARC
  5
2E3
330
1F
100
AcDbEntity
  8
IGES_LEVEL_0
 62
     7
100
AcDbCircle
 10
43.93660009911553
 20
34.79255780177846
 30
0.0
 40
4.713366689936474
100
AcDbArc
 50
166.0431193451975
 51
168.9752288189407
  0
LINE
  5
2E4
330
1F
100
AcDbEntity
  8
IGES_LEVEL_0
 62
     7
100
AcDbLine
 10
38.34221359090185
 20
35.47917190983692
 30
0.0
 11
38.31639041368185
 21
35.41413719061692
 31
0.0
  0
LINE
  5
2E5
330
1F
100
AcDbEntity
  8
IGES_LEVEL_0
 62
     7
100
AcDbLine
 10
39.47805747563185
 20
36.37528780473692
 30
0.0
 11
39.48345893977185
 21
36.40563917977693
 31
0.0
  0
LINE
  5
2E6
330
1F
100
AcDbEntity
  8
IGES_LEVEL_0
 62
     7
100
AcDbLine
 10
39.48345893977185
 20
36.40563917977693
 30
0.0
 11
39.48905687133185
 21
36.43710629362693
 31
0.0
  0
LINE
  5
2E7
330
1F
100
AcDbEntity
  8
IGES_LEVEL_0
 62
     7
100
AcDbLine
 10
39.48905687133185
 20
36.43710629362693
 30
0.0
 11
39.49471197066185
 21
36.46931856877692
 31
0.0
  0
LINE
  5
2E8
330
1F
100
AcDbEntity
  8
IGES_LEVEL_0
 62
     7
100
AcDbLine
 10
39.49471197066185
 20
36.46931856877692
 30
0.0
 11
39.50044963806185
 21
36.50280018896692
 31
0.0
  0
LINE
  5
2E9
330
1F
100
AcDbEntity
  8
IGES_LEVEL_0
 62
     7
100
AcDbLine
 10
39.50044963806185
 20
36.50280018896692
 30
0.0
 11
39.51830081945185
 21
36.61212564525692
 31
0.0
  0
LINE
  5
2EA
330
1F
100
AcDbEntity
  8
IGES_LEVEL_0
 62
     7
100
AcDbLine
 10
39.52444208118185
 20
36.65101381533692
 30
0.0
 11
39.53816858386185
 21
36.73610738317692
 31
0.0
  0
LINE
  5
2EB
330
1F
100
AcDbEntity
  8
IGES_LEVEL_0
 62
     7
100
AcDbLine
 10
39.32122987179185
 20
35.74784084847693
 30
0.0
 11
39.37533000130185
 21
35.89151476522692
 31
0.0
  0
LINE
  5
2EC
330
1F
100
AcDbEntity
  8
IGES_LEVEL_0
 62
     7
100
AcDbLine
 10
39.56111733741185
 20
37.03375301491693
 30
0.0
 11
39.56137584597185
 21
37.07871108839692
 31
0.0
  0
LINE
  5
2ED
330
1F
100
AcDbEntity
  8
IGES_LEVEL_0
 62
     7
100
AcDbLine
 10
39.56137584597185
 20
37.07871108839692
 30
0.0
 11
39.55748302046185
 21
37.28110392447692
 31
0.0
  0
LINE
  5
2EE
330
1F
100
AcDbEntity
  8
IGES_LEVEL_0
 62
     7
100
AcDbLine
 10
39.55991895731185
 20
36.97841673147693
 30
0.0
 11
39.56111733741185
 21
37.03375301491693
 31
0.0
  0
ARC
  5
2EF
330
1F
100
AcDbEntity
  8
IGES_LEVEL_0
 62
     7
100
AcDbCircle
 10
37.57007196814898
 20
37.03157986962496
 30
0.0
 40
1.990557047556808
100
AcDbArc
 50
352.5869900055305
 51
358.4695813250982
  0
LINE
  5
2F0
330
1F
100
AcDbEntity
  8
IGES_LEVEL_0
 62
     7
100
AcDbLine
 10
39.53816858386185
 20
36.73610738317692
 30
0.0
 11
39.54399172406185
 21
36.77475666803692
 31
0.0
  0
LINE
  5
2F1
330
1F
100
AcDbEntity
  8
IGES_LEVEL_0
 62
     7
100
AcDbLine
 10
38.90071477121185
 20
36.92421245341692
 30
0.0
 11
38.93988450335185
 21
37.33742525445692
 31
0.0
  0
LINE
  5
2F2
330
1F
100
AcDbEntity
  8
IGES_LEVEL_0
 62
     7
100
AcDbLine
 10
38.81597636346185
 20
36.50435496776692
 30
0.0
 11
38.83009138767185
 21
36.55536789001693
 31
0.0
  0
LINE
  5
2F3
330
1F
100
AcDbEntity
  8
IGES_LEVEL_0
 62
     7
100
AcDbLine
 10
38.83009138767185
 20
36.55536789001693
 30
0.0
 11
38.83641036713185
 21
36.57970108070693
 31
0.0
  0
ARC
  5
2F4
330
1F
100
AcDbEntity
  8
IGES_LEVEL_0
 62
     7
100
AcDbCircle
 10
36.12289333220155
 20
37.26446710605899
 30
0.0
 40
2.798585215485384
100
AcDbArc
 50
345.8369034483454
 51
353.0166411288067
  0
LINE
  5
2F5
330
1F
100
AcDbEntity
  8
IGES_LEVEL_0
 62
     7
100
AcDbLine
 10
38.78426888490185
 20
36.40277814880692
 30
0.0
 11
38.81597803978185
 21
36.50435448429693
 31
0.0
  0
LINE
  5
2F6
330
1F
100
AcDbEntity
  8
IGES_LEVEL_0
 62
     7
100
AcDbLine
 10
39.54313490508185
 20
37.37472101051692
 30
0.0
 11
39.52720168401185
 21
37.39234153525692
 31
0.0
  0
SPLINE
  5
2F7
330
1F
100
AcDbEntity
  8
IGES_LEVEL_0
 62
     7
100
AcDbSpline
210
0.0
220
0.0
230
1.0
 70
     8
 71
     3
 72
    23
 73
    19
 74
     0
 42
0.0000000001
 43
0.0000000001
 40
0.0
 40
0.0
 40
0.0
 40
0.0
 40
0.0334532940107
 40
0.08594442673052
 40
0.1402525576637
 40
0.1961127438518
 40
0.2532412011208
 40
0.31170768863
 40
0.3719190584086
 40
0.4338705530818
 40
0.4976350792698
 40
0.5635234250278
 40
0.6319835961778
 40
0.703481041432
 40
0.778434554595
 40
0.8574097730887
 40
0.941103775175
 40
1.0
 40
1.0
 40
1.0
 40
1.0
 10
39.52112767783185
 20
37.39752533013692
 30
0.0
 10
39.51646464455185
 20
37.40126049009692
 30
0.0
 10
39.50382586410185
 20
37.41004513636692
 30
0.0
 10
39.48133681853185
 20
37.42121341342693
 30
0.0
 10
39.45383575981185
 20
37.43064500654693
 30
0.0
 10
39.42474526461185
 20
37.43746211364692
 30
0.0
 10
39.39447942728184
 20
37.44202543137692
 30
0.0
 10
39.36321026921185
 20
37.44462240295692
 30
0.0
 10
39.33098750082185
 20
37.44543621454692
 30
0.0
 10
39.29782320432184
 20
37.44457250523692
 30
0.0
 10
39.26372794360185
 20
37.44207561923692
 30
0.0
 10
39.22862314974185
 20
37.43794857461693
 30
0.0
 10
39.19236183183185
 20
37.43212666394692
 30
0.0
 10
39.15479055717185
 20
37.42447165309692
 30
0.0
 10
39.11575785509185
 20
37.41477133423692
 30
0.0
 10
39.07510751088185
 20
37.40272548223692
 30
0.0
 10
39.03777434828185
 20
37.38971772814692
 30
0.0
 10
39.01411949990185
 20
37.38035822885692
 30
0.0
 10
39.00441723486185
 20
37.37632801712692
 30
0.0
  0
LINE
  5
2F8
330
1F
100
AcDbEntity
  8
IGES_LEVEL_0
 62
     7
100
AcDbLine
 10
39.00441723486185
 20
37.37632801712692
 30
0.0
 11
38.94285988300184
 21
37.34814642831692
 31
0.0
  0
LINE
  5
2F9
330
1F
100
AcDbEntity
  8
IGES_LEVEL_0
 62
     7
100
AcDbLine
 10
39.55749272478185
 20
37.28154887118692
 30
0.0
 11
39.55438447124185
 21
37.30293524308692
 31
0.0
  0
LINE
  5
2FA
330
1F
100
AcDbEntity
  8
IGES_LEVEL_0
 62
     7
100
AcDbLine
 10
39.55379377484185
 20
37.30693622103692
 30
0.0
 11
39.54430856626185
 21
37.36886754644692
 31
0.0
  0
SPLINE
  5
2FB
330
1F
100
AcDbEntity
  8
IGES_LEVEL_0
 62
     7
100
AcDbSpline
210
0.0
220
0.0
230
1.0
 70
     8
 71
     3
 72
    14
 73
    10
 74
     0
 42
0.0000000001
 43
0.0000000001
 40
0.0
 40
0.0
 40
0.0
 40
0.0
 40
0.2029567648435
 40
0.3891739090039
 40
0.5590601823514
 40
0.7092756544124
 40
0.8367799099860001
 40
0.9424971493533
 40
1.0
 40
1.0
 40
1.0
 40
1.0
 10
38.78411086142184
 20
36.40230638532692
 30
0.0
 10
38.76199046992185
 20
36.33661645031692
 30
0.0
 10
38.71373657722184
 20
36.21253254538692
 30
0.0
 10
38.63009421670185
 20
36.04076338464692
 30
0.0
 10
38.54757758461185
 20
35.88879194281692
 30
0.0
 10
38.47419661791185
 20
35.75468762327692
 30
0.0
 10
38.41367676196185
 20
35.63854424835692
 30
0.0
 10
38.37096519622185
 20
35.54886533556692
 30
0.0
 10
38.34950116748185
 20
35.49740167006692
 30
0.0
 10
38.34223135542185
 20
35.47915575208693
 30
0.0
  0
LINE
  5
2FC
330
1F
100
AcDbEntity
  8
IGES_LEVEL_0
 62
     7
100
AcDbLine
 10
39.38152905576185
 20
35.97949294581692
 30
0.0
 11
39.35513812340185
 21
35.89901019430693
 31
0.0
  0
LINE
  5
2FD
330
1F
100
AcDbEntity
  8
IGES_LEVEL_0
 62
     7
100
AcDbLine
 10
39.43169780987185
 20
36.32228091636692
 30
0.0
 11
39.45530848611185
 21
36.41873134014692
 31
0.0
  0
LINE
  5
2FE
330
1F
100
AcDbEntity
  8
IGES_LEVEL_0
 62
     7
100
AcDbLine
 10
39.45530848611185
 20
36.41873134014692
 30
0.0
 11
39.46182889412185
 21
36.45115475373692
 31
0.0
  0
LINE
  5
2FF
330
1F
100
AcDbEntity
  8
IGES_LEVEL_0
 62
     7
100
AcDbLine
 10
39.46182889412185
 20
36.45115475373692
 30
0.0
 11
39.46781201240185
 21
36.48348232542692
 31
0.0
  0
ARC
  5
300
330
1F
100
AcDbEntity
  8
IGES_LEVEL_0
 62
     7
100
AcDbCircle
 10
34.10182806512411
 20
37.30399780189058
 30
0.0
 40
5.428354204504234
100
AcDbArc
 50
351.3062126271509
 51
354.6868706952907
  0
LINE
  5
301
330
1F
100
AcDbEntity
  8
IGES_LEVEL_0
 62
     7
100
AcDbLine
 10
39.50686109767185
 20
36.80133578243692
 30
0.0
 11
39.51183970409185
 21
36.84416433159692
 31
0.0
  0
LINE
  5
302
330
1F
100
AcDbEntity
  8
IGES_LEVEL_0
 62
     7
100
AcDbLine
 10
39.51183970409185
 20
36.84416433159692
 30
0.0
 11
39.51644804157185
 21
36.88689613585692
 31
0.0
  0
LINE
  5
303
330
1F
100
AcDbEntity
  8
IGES_LEVEL_0
 62
     7
100
AcDbLine
 10
39.51644804157185
 20
36.88689613585692
 30
0.0
 11
39.52072649794185
 21
36.92935300742693
 31
0.0
  0
LINE
  5
304
330
1F
100
AcDbEntity
  8
IGES_LEVEL_0
 62
     7
100
AcDbLine
 10
39.52072649794185
 20
36.92935300742693
 30
0.0
 11
39.52467832251185
 21
36.97110718139692
 31
0.0
  0
LINE
  5
305
330
1F
100
AcDbEntity
  8
IGES_LEVEL_0
 62
     7
100
AcDbLine
 10
39.52467832251185
 20
36.97110718139692
 30
0.0
 11
39.52829132209185
 21
37.01221692769693
 31
0.0
  0
LINE
  5
306
330
1F
100
AcDbEntity
  8
IGES_LEVEL_0
 62
     7
100
AcDbLine
 10
39.52886448601185
 20
37.01908065741692
 30
0.0
 11
39.53156937112185
 21
37.05314509232692
 31
0.0
  0
LINE
  5
307
330
1F
100
AcDbEntity
  8
IGES_LEVEL_0
 62
     7
100
AcDbLine
 10
39.53156937112185
 20
37.05314509232692
 30
0.0
 11
39.53449226861185
 21
37.09393472097692
 31
0.0
  0
LINE
  5
308
330
1F
100
AcDbEntity
  8
IGES_LEVEL_0
 62
     7
100
AcDbLine
 10
39.53449226861185
 20
37.09393472097692
 30
0.0
 11
39.54273146612185
 21
37.24244583746692
 31
0.0
  0
LINE
  5
309
330
1F
100
AcDbEntity
  8
IGES_LEVEL_0
 62
     7
100
AcDbLine
 10
39.54273146612185
 20
37.24244583746692
 30
0.0
 11
39.54422973881185
 21
37.29992503605692
 31
0.0
  0
LINE
  5
30A
330
1F
100
AcDbEntity
  8
IGES_LEVEL_0
 62
     7
100
AcDbLine
 10
39.54422973881185
 20
37.29992503605692
 30
0.0
 11
39.54455830092185
 21
37.32302665372692
 31
0.0
  0
LINE
  5
30B
330
1F
100
AcDbEntity
  8
IGES_LEVEL_0
 62
     7
100
AcDbLine
 10
39.54484716235185
 20
37.34176892181692
 30
0.0
 11
39.54420534598185
 21
37.36886195992692
 31
0.0
  0
ARC
  5
30C
330
1F
100
AcDbEntity
  8
IGES_LEVEL_0
 62
     7
100
AcDbCircle
 10
39.12100039057734
 20
36.34338601042116
 30
0.0
 40
0.3280696527734561
100
AcDbArc
 50
90.69179197698715
 51
141.757753326363
  0
ARC
  5
30D
330
1F
100
AcDbEntity
  8
IGES_LEVEL_0
 62
     7
100
AcDbCircle
 10
39.18607932182791
 20
36.27751812506793
 30
0.0
 40
0.4201101523695937
100
AcDbArc
 50
140.1960282883441
 51
149.8580883490701
  0
ARC
  5
30E
330
1F
100
AcDbEntity
  8
IGES_LEVEL_0
 62
     7
100
AcDbCircle
 10
39.23128179639472
 20
36.25341594710895
 30
0.0
 40
0.47130694559919
100
AcDbArc
 50
150.0835901411874
 51
161.5842261658508
  0
ARC
  5
30F
330
1F
100
AcDbEntity
  8
IGES_LEVEL_0
 62
     7
100
AcDbCircle
 10
39.12236321194865
 20
36.42722140066744
 30
0.0
 40
0.2442683885414208
100
AcDbArc
 50
57.92292280853902
 51
91.24886543971884
  0
ARC
  5
310
330
1F
100
AcDbEntity
  8
IGES_LEVEL_0
 62
     7
100
AcDbCircle
 10
39.06430392825678
 20
36.31873086211339
 30
0.0
 40
0.3671256540853008
100
AcDbArc
 50
2.149914713269878
 51
59.23700528304473
  0
ARC
  5
311
330
1F
100
AcDbEntity
  8
IGES_LEVEL_0
 62
     7
100
AcDbCircle
 10
38.56408095569611
 20
36.28115698058443
 30
0.0
 40
0.8685047632529049
100
AcDbArc
 50
357.11375854556
 51
2.650832149353773
  0
ARC
  5
312
330
1F
100
AcDbEntity
  8
IGES_LEVEL_0
 62
     7
100
AcDbCircle
 10
38.14169393622358
 20
36.37184840430825
 30
0.0
 40
1.300437146894022
100
AcDbArc
 50
342.4991935150474
 51
346.3710044282527
  0
LINE
  5
313
330
1F
100
AcDbEntity
  8
IGES_LEVEL_0
 62
     7
100
AcDbLine
 10
39.48927247645185
 20
36.39984655416692
 30
0.0
 11
39.47658943793185
 21
36.36716091260692
 31
0.0
  0
ARC
  5
314
330
1F
100
AcDbEntity
  8
IGES_LEVEL_0
 62
     7
100
AcDbCircle
 10
40.79319161764141
 20
35.86518687538172
 30
0.0
 40
1.409049052965905
100
AcDbArc
 50
159.1299129653002
 51
165.4872546715302
  0
LINE
  5
315
330
1F
100
AcDbEntity
  8
IGES_LEVEL_0
 62
     7
100
AcDbLine
 10
39.42910261471184
 20
36.21828803050693
 30
0.0
 11
39.42261655622185
 21
36.19122390434692
 31
0.0
  0
ARC
  5
316
330
1F
100
AcDbEntity
  8
IGES_LEVEL_0
 62
     7
100
AcDbCircle
 10
40.03887619019901
 20
36.04707302545261
 30
0.0
 40
0.6328944717373279
100
AcDbArc
 50
166.8345071471088
 51
173.9899908556476
  0
ARC
  5
317
330
1F
100
AcDbEntity
  8
IGES_LEVEL_0
 62
     7
100
AcDbCircle
 10
37.95780210033113
 20
36.19021812506201
 30
0.0
 40
1.453484550714847
100
AcDbArc
 50
352.5828777097665
 51
356.5303465186075
  0
LINE
  5
318
330
1F
100
AcDbEntity
  8
IGES_LEVEL_0
 62
     7
100
AcDbLine
 10
39.39912480625185
 20
36.00258498149692
 30
0.0
 11
39.38800345307185
 21
35.93005100028692
 31
0.0
  0
ARC
  5
319
330
1F
100
AcDbEntity
  8
IGES_LEVEL_0
 62
     7
100
AcDbCircle
 10
37.49945370789224
 20
36.2718125197405
 30
0.0
 40
1.919302410470477
100
AcDbArc
 50
340.7940345732897
 51
349.0416849313208
  0
LINE
  5
31A
330
1F
100
AcDbEntity
  8
IGES_LEVEL_0
 62
     7
100
AcDbLine
 10
39.31193182419185
 20
35.64042925992692
 30
0.0
 11
39.30384833016185
 21
35.61751306654692
 31
0.0
  0
LINE
  5
31B
330
1F
100
AcDbEntity
  8
IGES_LEVEL_0
 62
     7
100
AcDbLine
 10
39.30384833016185
 20
35.61751306654692
 30
0.0
 11
39.29416724736185
 21
35.59111613604692
 31
0.0
  0
LINE
  5
31C
330
1F
100
AcDbEntity
  8
IGES_LEVEL_0
 62
     7
100
AcDbLine
 10
39.29416724736185
 20
35.59111613604692
 30
0.0
 11
39.28690956283185
 21
35.57199966999692
 31
0.0
  0
LINE
  5
31D
330
1F
100
AcDbEntity
  8
IGES_LEVEL_0
 62
     7
100
AcDbLine
 10
39.35879877133185
 20
35.79807795454693
 30
0.0
 11
39.31709390199185
 21
35.66770670544692
 31
0.0
  0
LINE
  5
31E
330
1F
100
AcDbEntity
  8
IGES_LEVEL_0
 62
     7
100
AcDbLine
 10
39.31709390199185
 20
35.66770670544692
 30
0.0
 11
39.29129773595185
 21
35.59743496244693
 31
0.0
  0
ARC
  5
31F
330
1F
100
AcDbEntity
  8
IGES_LEVEL_0
 62
     7
100
AcDbCircle
 10
39.03208162575162
 20
11.7131251410902
 30
0.0
 40
0.2478791902743847
100
AcDbArc
 50
359.5096988468493
 51
89.90259577184415
  0
ARC
  5
320
330
1F
100
AcDbEntity
  8
IGES_LEVEL_0
 62
     7
100
AcDbCircle
 10
39.03208192240116
 20
11.70888251162546
 30
0.0
 40
0.2478788961484956
100
AcDbArc
 50
270.0973357748013
 51
0.4903696065033202
  0
ARC
  5
321
330
1F
100
AcDbEntity
  8
IGES_LEVEL_0
 62
     7
100
AcDbCircle
 10
54.56965232870923
 20
29.28843693671416
 30
0.0
 40
0.5507420589039336
100
AcDbArc
 50
359.4900065938238
 51
84.63491363675983
  0
ARC
  5
322
330
1F
100
AcDbEntity
  8
IGES_LEVEL_0
 62
     7
100
AcDbCircle
 10
33.3318133848874
 20
9.048073144067331
 30
0.0
 40
26.07961191808964
100
AcDbArc
 50
77.49304810883255
 51
78.36369264728774
  0
LINE
  5
323
330
1F
100
AcDbEntity
  8
IGES_LEVEL_0
 62
     7
100
AcDbLine
 10
38.97956379906185
 20
34.50880905364692
 30
0.0
 11
39.07586154746185
 21
34.48429185052692
 31
0.0
  0
LINE
  5
324
330
1F
100
AcDbEntity
  8
IGES_LEVEL_0
 62
     7
100
AcDbLine
 10
54.12131321109185
 20
29.25812690878692
 30
0.0
 11
54.12183257811185
 21
29.28359726701692
 31
0.0
  0
ARC
  5
325
330
1F
100
AcDbEntity
  8
IGES_LEVEL_0
 62
     7
100
AcDbCircle
 10
54.73330646547876
 20
29.26991958121792
 30
0.0
 40
0.6116268421353097
100
AcDbArc
 50
131.2564026520865
 51
178.7185993991819
  0
ARC
  5
326
330
1F
100
AcDbEntity
  8
IGES_LEVEL_0
 62
     7
100
AcDbCircle
 10
54.62056945514429
 20
29.38882963937726
 30
0.0
 40
0.4479369974710852
100
AcDbArc
 50
89.92604725712079
 51
130.4455485262755
  0
ARC
  5
327
330
1F
100
AcDbEntity
  8
IGES_LEVEL_0
 62
     7
100
AcDbCircle
 10
165.8337584749784
 20
0.1984806025465047
 30
0.0
 40
131.0647927227173
100
AcDbArc
 50
175.0752457284785
 51
179.9999677812247
  0
LINE
  5
328
330
1F
100
AcDbEntity
  8
IGES_LEVEL_0
 62
     7
100
AcDbLine
 10
35.25281772982185
 20
11.45004962907592
 30
0.0
 11
35.29673508823185
 21
11.94860513308192
 31
0.0
  0
ARC
  5
329
330
1F
100
AcDbEntity
  8
IGES_LEVEL_0
 62
     7
100
AcDbCircle
 10
165.8318630049785
 20
0.1986246983339939
 30
0.0
 40
131.0628920040237
100
AcDbArc
 50
168.3557442418188
 51
174.8564434785332
  0
ARC
  5
32A
330
1F
100
AcDbEntity
  8
IGES_LEVEL_0
 62
     7
100
AcDbCircle
 10
165.8322972817038
 20
0.198554411840318
 30
0.0
 40
132.0633315294619
100
AcDbArc
 50
168.3557524660841
 51
180.0000000470743
  0
LINE
  5
32B
330
1F
100
AcDbEntity
  8
IGES_LEVEL_0
 62
     7
100
AcDbLine
 10
38.10516811976185
 20
34.68432793780692
 30
0.0
 11
38.59203513888185
 21
34.59168731467692
 31
0.0
  0
LINE
  5
32C
330
1F
100
AcDbEntity
  8
IGES_LEVEL_0
 62
     7
100
AcDbLine
 10
34.26896574695184
 20
0.2072805065769186
 30
0.0
 11
34.33196799106185
 21
0.2072488315169179
 31
0.0
  0
LINE
  5
32D
330
1F
100
AcDbEntity
  8
IGES_LEVEL_0
 62
     7
100
AcDbLine
 10
34.33196799106185
 20
0.2072488315169179
 30
0.0
 11
34.45898481633185
 21
0.2066288500769181
 31
0.0
  0
LINE
  5
32E
330
1F
100
AcDbEntity
  8
IGES_LEVEL_0
 62
     7
100
AcDbLine
 10
34.45898481633185
 20
0.2066288500769181
 30
0.0
 11
34.62091030476184
 21
0.2047381628169168
 31
0.0
  0
ARC
  5
32F
330
1F
100
AcDbEntity
  8
IGES_LEVEL_0
 62
     7
100
AcDbCircle
 10
34.6204305078392
 20
-1.941837579565503
 30
0.0
 40
2.146575796003888
100
AcDbArc
 50
87.0727559090079
 51
89.9871933993802
  0
ARC
  5
330
330
1F
100
AcDbEntity
  8
IGES_LEVEL_0
 62
     7
100
AcDbCircle
 10
34.72871059447128
 20
-0.0389890547623698
 30
0.0
 40
0.2409301232765926
100
AcDbArc
 50
80.38178067687858
 51
89.68112517108321
  0
LINE
  5
331
330
1F
100
AcDbEntity
  8
IGES_LEVEL_0
 62
     7
100
AcDbLine
 10
56.17388184531185
 20
0.2088321889169192
 30
0.0
 11
56.20643184759184
 21
0.2104621215969194
 31
0.0
  0
LINE
  5
332
330
1F
100
AcDbEntity
  8
IGES_LEVEL_0
 62
     7
100
AcDbLine
 10
56.20643184759184
 20
0.2104621215969194
 30
0.0
 11
56.34019578018184
 21
0.2168487782169178
 31
0.0
  0
LINE
  5
333
330
1F
100
AcDbEntity
  8
IGES_LEVEL_0
 62
     7
100
AcDbLine
 10
56.34019578018184
 20
0.2168487782169178
 30
0.0
 11
56.44218525733185
 21
0.2216257211969191
 31
0.0
  0
LINE
  5
334
330
1F
100
AcDbEntity
  8
IGES_LEVEL_0
 62
     7
100
AcDbLine
 10
56.44218525733185
 20
0.2216257211969191
 30
0.0
 11
56.48608765765185
 21
0.2228530949569181
 31
0.0
  0
ARC
  5
335
330
1F
100
AcDbEntity
  8
IGES_LEVEL_0
 62
     7
100
AcDbCircle
 10
56.49557422721755
 20
1.706836659817192
 30
0.0
 40
1.484013886652524
100
AcDbArc
 50
269.6337338181167
 51
273.6307013995383
  0
ARC
  5
336
330
1F
100
AcDbEntity
  8
IGES_LEVEL_0
 62
     7
100
AcDbCircle
 10
56.61391792753008
 20
0.142338556664915
 30
0.0
 40
0.0869472804498791
100
AcDbArc
 50
72.75945943236306
 51
106.2758879310443
  0
ARC
  5
337
330
1F
100
AcDbEntity
  8
IGES_LEVEL_0
 62
     7
100
AcDbCircle
 10
54.63202729425894
 20
28.92279922933221
 30
0.0
 40
0.5107170386011044
100
AcDbArc
 50
180.1156046325501
 51
197.7966607059961
  0
LINE
  5
338
330
1F
100
AcDbEntity
  8
IGES_LEVEL_0
 62
     7
100
AcDbLine
 10
55.64884094034185
 20
0.1719914994469183
 30
0.0
 11
56.05706676321185
 21
0.2024627551869185
 31
0.0
  0
LINE
  5
339
330
1F
100
AcDbEntity
  8
IGES_LEVEL_0
 62
     7
100
AcDbLine
 10
56.05706676321185
 20
0.2024627551869185
 30
0.0
 11
56.08060622135185
 21
0.203771114536917
 31
0.0
  0
LINE
  5
33A
330
1F
100
AcDbEntity
  8
IGES_LEVEL_0
 62
     7
100
AcDbLine
 10
56.08060622135185
 20
0.203771114536917
 30
0.0
 11
56.11449600543185
 21
0.20565243981692
 31
0.0
  0
LINE
  5
33B
330
1F
100
AcDbEntity
  8
IGES_LEVEL_0
 62
     7
100
AcDbLine
 10
56.11449600543185
 20
0.20565243981692
 30
0.0
 11
56.17388184531185
 21
0.2088321889169192
 31
0.0
  0
ARC
  5
33C
330
1F
100
AcDbEntity
  8
IGES_LEVEL_0
 62
     7
100
AcDbCircle
 10
33.80769887049987
 20
-0.0257393072482611
 30
0.0
 40
0.2276134411872949
100
AcDbArc
 50
90.27833461254572
 51
99.79774021101775
  0
ARC
  5
33D
330
1F
100
AcDbEntity
  8
IGES_LEVEL_0
 62
     7
100
AcDbCircle
 10
33.91566551080474
 20
-1.889454103058737
 30
0.0
 40
2.094167934739585
100
AcDbArc
 50
90.04530032196693
 51
92.98553621194523
  0
LINE
  5
33E
330
1F
100
AcDbEntity
  8
IGES_LEVEL_0
 62
     7
100
AcDbLine
 10
33.91400977852185
 20
0.2047131771369171
 30
0.0
 11
34.07590362427185
 21
0.2065996699269169
 31
0.0
  0
LINE
  5
33F
330
1F
100
AcDbEntity
  8
IGES_LEVEL_0
 62
     7
100
AcDbLine
 10
34.07590362427185
 20
0.2065996699269169
 30
0.0
 11
34.20596350283184
 21
0.2072488315169179
 31
0.0
  0
LINE
  5
340
330
1F
100
AcDbEntity
  8
IGES_LEVEL_0
 62
     7
100
AcDbLine
 10
34.20596350283184
 20
0.2072488315169179
 30
0.0
 11
34.26896574695184
 21
0.2072805065769186
 31
0.0
  0
ARC
  5
341
330
1F
100
AcDbEntity
  8
IGES_LEVEL_0
 62
     7
100
AcDbCircle
 10
37.49272260893015
 20
28.4054490850059
 30
0.0
 40
0.3287632745044835
100
AcDbArc
 50
351.8576041247914
 51
12.76025683900922
  0
SPLINE
  5
342
330
1F
100
AcDbEntity
  8
IGES_LEVEL_0
 62
     7
100
AcDbSpline
210
0.0
220
0.0
230
1.0
 70
     8
 71
     3
 72
    23
 73
    19
 74
     0
 42
0.0000000001
 43
0.0000000001
 40
0.0
 40
0.0
 40
0.0
 40
0.0
 40
0.06875908408723
 40
0.1361933627477
 40
0.2015347586733
 40
0.263606759268
 40
0.3214430101286
 40
0.3755204077384
 40
0.4279087350109
 40
0.4819047312441
 40
0.5377254531475
 40
0.5947671115413
 40
0.6544307110938
 40
0.7181245876759
 40
0.7852968731752
 40
0.8551204406913
 40
0.9270936943413
 40
1.0
 40
1.0
 40
1.0
 40
1.0
 10
37.81336634997185
 20
28.47806369781692
 30
0.0
 10
37.81032464020185
 20
28.49373974061692
 30
0.0
 10
37.80307930326185
 20
28.52454332972692
 30
0.0
 10
37.78980133504185
 20
28.56942986508692
 30
0.0
 10
37.77519308072185
 20
28.61225366364692
 30
0.0
 10
37.76017741174185
 20
28.65256421636692
 30
0.0
 10
37.74549552628185
 20
28.69018720124692
 30
0.0
 10
37.73205849431185
 20
28.72592437656692
 30
0.0
 10
37.72029841499185
 20
28.76117772583692
 30
0.0
 10
37.71888916337185
 20
28.80058687914692
 30
0.0
 10
37.74101057728185
 20
28.83412747234692
 30
0.0
 10
37.76749207648185
 20
28.86379121709692
 30
0.0
 10
37.79639405493185
 20
28.89422666226692
 30
0.0
 10
37.82675648362185
 20
28.92636338641692
 30
0.0
 10
37.85805930179185
 20
28.96089618803692
 30
0.0
 10
37.88943151940185
 20
28.99791749369692
 30
0.0
 10
37.91984750800185
 20
29.03745266448692
 30
0.0
 10
37.93855946341185
 20
29.06542509949692
 30
0.0
 10
37.94728155366185
 20
29.07995565895692
 30
0.0
  0
LINE
  5
343
330
1F
100
AcDbEntity
  8
IGES_LEVEL_0
 62
     7
100
AcDbLine
 10
37.94728155366185
 20
29.07995565895692
 30
0.0
 11
37.96356814470185
 21
29.10952681480692
 31
0.0
  0
ARC
  5
344
330
1F
100
AcDbEntity
  8
IGES_LEVEL_0
 62
     7
100
AcDbCircle
 10
37.74685454367943
 20
29.22154345566862
 30
0.0
 40
0.243951865535079
100
AcDbArc
 50
332.6661040660373
 51
347.1129094251098
  0
ARC
  5
345
330
1F
100
AcDbEntity
  8
IGES_LEVEL_0
 62
     7
100
AcDbCircle
 10
19.24783187562934
 20
77.02798925310449
 30
0.0
 40
0.4999579062673595
100
AcDbArc
 50
5.450204215402761
 51
89.99678940449373
  0
LINE
  5
346
330
1F
100
AcDbEntity
  8
IGES_LEVEL_0
 62
     7
100
AcDbLine
 10
19.74552953320185
 20
77.07547556361692
 30
0.0
 11
19.74779439992185
 21
77.02794715858693
 31
0.0
  0
LINE
  5
347
330
1F
100
AcDbEntity
  8
IGES_LEVEL_0
 62
     7
100
AcDbLine
 10
19.74779439992185
 20
77.02794715858693
 30
0.0
 11
19.74552952190185
 21
76.98041863531692
 31
0.0
  0
ARC
  5
348
330
1F
100
AcDbEntity
  8
IGES_LEVEL_0
 62
     7
100
AcDbCircle
 10
19.24777652817869
 20
77.02793268238693
 30
0.0
 40
0.5000156271851276
100
AcDbArc
 50
316.3673574408504
 51
354.547234135722
  0
LINE
  5
349
330
1F
100
AcDbEntity
  8
IGES_LEVEL_0
 62
     7
100
AcDbLine
 10
19.60967726570185
 20
76.68290589558693
 30
0.0
 11
19.59285188951185
 21
76.66607850443693
 31
0.0
  0
ARC
  5
34A
330
1F
100
AcDbEntity
  8
IGES_LEVEL_0
 62
     7
100
AcDbCircle
 10
19.24598853087536
 20
77.02794439916126
 30
0.0
 40
0.5000499670641079
100
AcDbArc
 50
337.6624203018671
 51
0.0003161752927609
  0
ARC
  5
34B
330
1F
100
AcDbEntity
  8
IGES_LEVEL_0
 62
     7
100
AcDbCircle
 10
19.24604516018708
 20
77.02791074008253
 30
0.0
 40
0.4999848541258818
100
AcDbArc
 50
316.369856880927
 51
337.2841400565102
  0
ARC
  5
34C
330
1F
100
AcDbEntity
  8
IGES_LEVEL_0
 62
     7
100
AcDbCircle
 10
19.24609760700776
 20
77.02804722203959
 30
0.0
 40
0.4999026626405493
100
AcDbArc
 50
45.23896056651628
 51
67.27719870020586
  0
ARC
  5
34D
330
1F
100
AcDbEntity
  8
IGES_LEVEL_0
 62
     7
100
AcDbCircle
 10
19.2460437579783
 20
77.02798238880119
 30
0.0
 40
0.4999866064429951
100
AcDbArc
 50
22.71592350297194
 51
44.75171270642832
  0
ARC
  5
34E
330
1F
100
AcDbEntity
  8
IGES_LEVEL_0
 62
     7
100
AcDbCircle
 10
19.2459885308754
 20
77.02794991802259
 30
0.0
 40
0.5000499670640665
100
AcDbArc
 50
359.9996838235625
 51
22.33757969813494
  0
LINE
  5
34F
330
1F
100
AcDbEntity
  8
IGES_LEVEL_0
 62
     7
100
AcDbLine
 10
0.0040583860388468
 20
77.02794715859692
 30
0.0
 11
0.0063232640568467
 21
77.07547568186692
 31
0.0
  0
ARC
  5
350
330
1F
100
AcDbEntity
  8
IGES_LEVEL_0
 62
     7
100
AcDbCircle
 10
0.5040209102807154
 20
77.02798925317727
 30
0.0
 40
0.4999579061945881
100
AcDbArc
 50
90.00321059004693
 51
174.5497821790432
  0
LINE
  5
351
330
1F
100
AcDbEntity
  8
IGES_LEVEL_0
 62
     7
100
AcDbLine
 10
0.1589013070098471
 20
76.66617350367692
 30
0.0
 11
0.1421755062078463
 21
76.68290591031692
 31
0.0
  0
ARC
  5
352
330
1F
100
AcDbEntity
  8
IGES_LEVEL_0
 62
     7
100
AcDbCircle
 10
0.5041562459321998
 20
77.02799459830473
 30
0.0
 40
0.5001167194477878
100
AcDbArc
 50
212.7254277658777
 51
222.4033946010482
  0
ARC
  5
353
330
1F
100
AcDbEntity
  8
IGES_LEVEL_0
 62
     7
100
AcDbCircle
 10
0.5041066971156045
 20
77.02794247992988
 30
0.0
 40
0.5000468598502448
100
AcDbArc
 50
185.4535383587063
 51
212.7234731426817
  0
LINE
  5
354
330
1F
100
AcDbEntity
  8
IGES_LEVEL_0
 62
     7
100
AcDbLine
 10
0.0063232527558466
 20
76.98041875356692
 30
0.0
 11
0.0040583860388468
 21
77.02794715859692
 31
0.0
  0
ARC
  5
355
330
1F
100
AcDbEntity
  8
IGES_LEVEL_0
 62
     7
100
AcDbCircle
 10
0.5058642549635263
 20
77.02794991803066
 30
0.0
 40
0.5000499669492937
100
AcDbArc
 50
157.6624202974614
 51
180.0003161773624
  0
ARC
  5
356
330
1F
100
AcDbEntity
  8
IGES_LEVEL_0
 62
     7
100
AcDbCircle
 10
0.505809027913247
 20
77.0279823888456
 30
0.0
 40
0.4999866063675975
100
AcDbArc
 50
135.2482872921723
 51
157.2840764989297
  0
ARC
  5
357
330
1F
100
AcDbEntity
  8
IGES_LEVEL_0
 62
     7
100
AcDbCircle
 10
0.505755178946238
 20
77.02804722204213
 30
0.0
 40
0.4999026626375475
100
AcDbArc
 50
112.7228012997273
 51
134.7610394335509
  0
ARC
  5
358
330
1F
100
AcDbEntity
  8
IGES_LEVEL_0
 62
     7
100
AcDbCircle
 10
0.5059185921475842
 20
77.02799444265499
 30
0.0
 40
0.5001234802967393
100
AcDbArc
 50
212.7246207075821
 51
222.2687865793052
  0
ARC
  5
359
330
1F
100
AcDbEntity
  8
IGES_LEVEL_0
 62
     7
100
AcDbCircle
 10
0.5058923548304698
 20
77.02795511273064
 30
0.0
 40
0.5000801459307862
100
AcDbArc
 50
202.7168007754173
 51
212.7224548756082
  0
ARC
  5
35A
330
1F
100
AcDbEntity
  8
IGES_LEVEL_0
 62
     7
100
AcDbCircle
 10
0.5058642549636727
 20
77.02794439915321
 30
0.0
 40
0.5000499669494396
100
AcDbArc
 50
179.9996838237856
 51
202.3375797025352
  0
ARC
  5
35B
330
1F
100
AcDbEntity
  8
IGES_LEVEL_0
 62
     7
100
AcDbCircle
 10
18.55950976282763
 20
55.14811691191022
 30
0.0
 40
0.4987332725857994
100
AcDbArc
 50
2.918794830038431
 51
18.42070561480441
  0
ARC
  5
35C
330
1F
100
AcDbEntity
  8
IGES_LEVEL_0
 62
     7
100
AcDbCircle
 10
18.55926469282591
 20
55.14810829185463
 30
0.0
 40
0.4989784636129805
100
AcDbArc
 50
350.0039177671217
 51
2.918350426841072
  0
ARC
  5
35D
330
1F
100
AcDbEntity
  8
IGES_LEVEL_0
 62
     7
100
AcDbCircle
 10
18.55802946105047
 20
55.1485805515633
 30
0.0
 40
0.5002769821468878
100
AcDbArc
 50
270.0392942763676
 51
349.9752080801188
  0
ARC
  5
35E
330
1F
100
AcDbEntity
  8
IGES_LEVEL_0
 62
     7
100
AcDbCircle
 10
18.55613966185214
 20
55.15454712203676
 30
0.0
 40
0.5009149121239493
100
AcDbArc
 50
263.3487400178854
 51
270.0487483008285
  0
ARC
  5
35F
330
1F
100
AcDbEntity
  8
IGES_LEVEL_0
 62
     7
100
AcDbCircle
 10
18.55603557317155
 20
55.15363223847314
 30
0.0
 40
0.4999941536510796
100
AcDbArc
 50
256.7075786652538
 51
263.0933605050627
  0
ARC
  5
360
330
1F
100
AcDbEntity
  8
IGES_LEVEL_0
 62
     7
100
AcDbCircle
 10
18.55595305017283
 20
55.15340690261816
 30
0.0
 40
0.4997558272987263
100
AcDbArc
 50
236.7154644997318
 51
256.5482267434234
  0
ARC
  5
361
330
1F
100
AcDbEntity
  8
IGES_LEVEL_0
 62
     7
100
AcDbCircle
 10
18.55794694196829
 20
55.15341466736719
 30
0.0
 40
0.498542145575492
100
AcDbArc
 50
2.728057716881019
 51
9.957853605666603
  0
LINE
  5
362
330
1F
100
AcDbEntity
  8
IGES_LEVEL_0
 62
     7
100
AcDbLine
 10
19.05592408334185
 20
55.17714308038693
 30
0.0
 11
19.05565770954185
 21
55.12461281608692
 31
0.0
  0
ARC
  5
363
330
1F
100
AcDbEntity
  8
IGES_LEVEL_0
 62
     7
100
AcDbCircle
 10
18.55778736225958
 20
55.15338822801009
 30
0.0
 40
0.4987010968746313
100
AcDbArc
 50
349.0801860526128
 51
356.2561573724465
  0
ARC
  5
364
330
1F
100
AcDbEntity
  8
IGES_LEVEL_0
 62
     7
100
AcDbCircle
 10
18.55729012856553
 20
55.15347163336068
 30
0.0
 40
0.4992051273331132
100
AcDbArc
 50
336.7809334807845
 51
349.0815975801011
  0
ARC
  5
365
330
1F
100
AcDbEntity
  8
IGES_LEVEL_0
 62
     7
100
AcDbCircle
 10
18.55676711169554
 20
55.15370047252243
 30
0.0
 40
0.4997762299376632
100
AcDbArc
 50
323.2431025785405
 51
336.2524829423328
  0
ARC
  5
366
330
1F
100
AcDbEntity
  8
IGES_LEVEL_0
 62
     7
100
AcDbCircle
 10
18.5566591680122
 20
55.15375152031402
 30
0.0
 40
0.4998932264640191
100
AcDbArc
 50
316.6789873158811
 51
323.0973693673402
  0
ARC
  5
367
330
1F
100
AcDbEntity
  8
IGES_LEVEL_0
 62
     7
100
AcDbCircle
 10
18.55618756279241
 20
55.15420176917304
 30
0.0
 40
0.5005452633810256
100
AcDbArc
 50
296.7651388574319
 51
316.4954466236979
  0
ARC
  5
368
330
1F
100
AcDbEntity
  8
IGES_LEVEL_0
 62
     7
100
AcDbCircle
 10
18.55609695474534
 20
55.15435726450741
 30
0.0
 40
0.5007249611183311
100
AcDbArc
 50
276.811795904439
 51
296.3370800227864
  0
LINE
  5
369
330
1F
100
AcDbEntity
  8
IGES_LEVEL_0
 62
     7
100
AcDbLine
 10
18.61104608255185
 20
54.65665668021693
 30
0.0
 11
18.55656584940185
 21
54.65363239121692
 31
0.0
  0
ARC
  5
36A
330
1F
100
AcDbEntity
  8
IGES_LEVEL_0
 62
     7
100
AcDbCircle
 10
1.193823325063089
 20
55.1485805522565
 30
0.0
 40
0.5002769828402165
100
AcDbArc
 50
190.0248800144834
 51
269.9607057028583
  0
ARC
  5
36B
330
1F
100
AcDbEntity
  8
IGES_LEVEL_0
 62
     7
100
AcDbCircle
 10
1.192588100580114
 20
55.1481082923185
 30
0.0
 40
0.4989784710628373
100
AcDbArc
 50
177.0818603818043
 51
189.996170385476
  0
ARC
  5
36C
330
1F
100
AcDbEntity
  8
IGES_LEVEL_0
 62
     7
100
AcDbCircle
 10
1.19234302576798
 20
55.1481169113249
 30
0.0
 40
0.498733275270663
100
AcDbArc
 50
161.5792944170501
 51
177.0814159337375
  0
LINE
  5
36D
330
1F
100
AcDbEntity
  8
IGES_LEVEL_0
 62
     7
100
AcDbLine
 10
1.195286936552847
 20
54.65363239121692
 30
0.0
 11
1.140806703398847
 21
54.65665668021693
 31
0.0
  0
ARC
  5
36E
330
1F
100
AcDbEntity
  8
IGES_LEVEL_0
 62
     7
100
AcDbCircle
 10
1.195755831190065
 20
55.15435726442883
 30
0.0
 40
0.5007249610380188
100
AcDbArc
 50
243.6629199755104
 51
263.1882040966866
  0
ARC
  5
36F
330
1F
100
AcDbEntity
  8
IGES_LEVEL_0
 62
     7
100
AcDbCircle
 10
1.195665223151181
 20
55.15420176915102
 30
0.0
 40
0.5005452633563586
100
AcDbArc
 50
223.5045533755058
 51
243.234861142568
  0
ARC
  5
370
330
1F
100
AcDbEntity
  8
IGES_LEVEL_0
 62
     7
100
AcDbCircle
 10
1.195193618921295
 20
55.15375152121842
 30
0.0
 40
0.4998932277929716
100
AcDbArc
 50
216.9026306479134
 51
223.3210126829571
  0
ARC
  5
371
330
1F
100
AcDbEntity
  8
IGES_LEVEL_0
 62
     7
100
AcDbCircle
 10
1.195085674349608
 20
55.15370047259273
 30
0.0
 40
0.4997762300505919
100
AcDbArc
 50
203.7475170607754
 51
216.756897421848
  0
ARC
  5
372
330
1F
100
AcDbEntity
  8
IGES_LEVEL_0
 62
     7
100
AcDbCircle
 10
1.194562656779651
 20
55.15347163315852
 30
0.0
 40
0.4992051266914282
100
AcDbArc
 50
190.9184024104759
 51
203.2190665255633
  0
ARC
  5
373
330
1F
100
AcDbEntity
  8
IGES_LEVEL_0
 62
     7
100
AcDbCircle
 10
1.194065421930927
 20
55.15338822783873
 30
0.0
 40
0.4987010951050168
100
AcDbArc
 50
183.7438426211282
 51
190.9198139665609
  0
LINE
  5
374
330
1F
100
AcDbEntity
  8
IGES_LEVEL_0
 62
     7
100
AcDbLine
 10
0.6961950764098468
 20
55.12461281608692
 30
0.0
 11
0.6959287026098466
 21
55.17714308038693
 31
0.0
  0
ARC
  5
375
330
1F
100
AcDbEntity
  8
IGES_LEVEL_0
 62
     7
100
AcDbCircle
 10
1.193905843920075
 20
55.15341466731923
 30
0.0
 40
0.4985421455145173
100
AcDbArc
 50
170.0421463875067
 51
177.2719422772668
  0
ARC
  5
376
330
1F
100
AcDbEntity
  8
IGES_LEVEL_0
 62
     7
100
AcDbCircle
 10
1.195899735768364
 20
55.15340690263798
 30
0.0
 40
0.4997558273216053
100
AcDbArc
 50
283.4517732577769
 51
303.284535500124
  0
ARC
  5
377
330
1F
100
AcDbEntity
  8
IGES_LEVEL_0
 62
     7
100
AcDbCircle
 10
1.195817212821945
 20
55.15363223831471
 30
0.0
 40
0.4999941534889009
100
AcDbArc
 50
276.9066394924795
 51
283.2924213350395
  0
ARC
  5
378
330
1F
100
AcDbEntity
  8
IGES_LEVEL_0
 62
     7
100
AcDbCircle
 10
1.195713124103289
 20
55.15454712204132
 30
0.0
 40
0.5009149121285045
100
AcDbArc
 50
269.9512516990886
 51
276.651259982085
  0
ARC
  5
379
330
1F
100
AcDbEntity
  8
IGES_LEVEL_0
 62
     7
100
AcDbCircle
 10
1.973321959336189
 20
72.74279666603341
 30
0.0
 40
1.367440864162768
100
AcDbArc
 50
184.1590054197064
 51
198.1429694480332
  0
LINE
  5
37A
330
1F
100
AcDbEntity
  8
IGES_LEVEL_0
 62
     7
100
AcDbLine
 10
0.6076977818508467
 20
72.66472926776692
 30
0.0
 11
0.6060073616348465
 21
72.70763393022692
 31
0.0
  0
ARC
  5
37B
330
1F
100
AcDbEntity
  8
IGES_LEVEL_0
 62
     7
100
AcDbCircle
 10
1.084872321174563
 20
72.70481026340318
 30
0.0
 40
0.4788732844597889
100
AcDbArc
 50
172.8734168020576
 51
179.66215461477
  0
ARC
  5
37C
330
1F
100
AcDbEntity
  8
IGES_LEVEL_0
 62
     7
100
AcDbCircle
 10
1.090192737416972
 20
72.70419552180323
 30
0.0
 40
0.4842288663245191
100
AcDbArc
 50
166.0669886977219
 51
172.8793410814897
  0
ARC
  5
37D
330
1F
100
AcDbEntity
  8
IGES_LEVEL_0
 62
     7
100
AcDbCircle
 10
1.088519669945495
 20
72.70466504283309
 30
0.0
 40
0.4824919721920399
100
AcDbArc
 50
159.3191391470208
 51
166.073265019117
  0
ARC
  5
37E
330
1F
100
AcDbEntity
  8
IGES_LEVEL_0
 62
     7
100
AcDbCircle
 10
1.094794260614429
 20
72.70184064698691
 30
0.0
 40
0.4893598972039542
100
AcDbArc
 50
145.8185697499144
 51
159.2692092339137
  0
LINE
  5
37F
330
1F
100
AcDbEntity
  8
IGES_LEVEL_0
 62
     7
100
AcDbLine
 10
0.7012228976078467
 20
72.99267956007692
 30
0.0
 11
0.7247747694138469
 21
73.02217335648692
 31
0.0
  0
ARC
  5
380
330
1F
100
AcDbEntity
  8
IGES_LEVEL_0
 62
     7
100
AcDbCircle
 10
1.100715346999351
 20
72.69739104659612
 30
0.0
 40
0.4968046564730665
100
AcDbArc
 50
130.016983694121
 51
139.1756329738415
  0
LINE
  5
381
330
1F
100
AcDbEntity
  8
IGES_LEVEL_0
 62
     7
100
AcDbLine
 10
0.7812626730118466
 20
73.07787081711692
 30
0.0
 11
0.8223606892868465
 21
73.10893902927693
 31
0.0
  0
ARC
  5
382
330
1F
100
AcDbEntity
  8
IGES_LEVEL_0
 62
     7
100
AcDbCircle
 10
17.77853463949041
 20
72.74279542603078
 30
0.0
 40
1.367436942397972
100
AcDbArc
 50
341.8571708322851
 51
355.840984968156
  0
LINE
  5
383
330
1F
100
AcDbEntity
  8
IGES_LEVEL_0
 62
     7
100
AcDbLine
 10
19.14415500410185
 20
72.66472926776692
 30
0.0
 11
19.14584542432185
 21
72.70763393022692
 31
0.0
  0
ARC
  5
384
330
1F
100
AcDbEntity
  8
IGES_LEVEL_0
 62
     7
100
AcDbCircle
 10
18.66698046520355
 20
72.70481026340549
 30
0.0
 40
0.478873284038367
100
AcDbArc
 50
0.3378453852501644
 51
7.12658320396722
  0
ARC
  5
385
330
1F
100
AcDbEntity
  8
IGES_LEVEL_0
 62
     7
100
AcDbCircle
 10
18.66166004977055
 20
72.70419552204913
 30
0.0
 40
0.4842288650697267
100
AcDbArc
 50
7.120658907735233
 51
13.93301130913362
  0
ARC
  5
386
330
1F
100
AcDbEntity
  8
IGES_LEVEL_0
 62
     7
100
AcDbCircle
 10
18.663333117382
 20
72.70466504324376
 30
0.0
 40
0.4824919707617248
100
AcDbArc
 50
13.92673497275559
 51
20.68086086496806
  0
ARC
  5
387
330
1F
100
AcDbEntity
  8
IGES_LEVEL_0
 62
     7
100
AcDbCircle
 10
18.6570585250029
 20
72.70184064682407
 30
0.0
 40
0.4893598975761865
100
AcDbArc
 50
20.73079076997718
 51
34.18143024353487
  0
LINE
  5
388
330
1F
100
AcDbEntity
  8
IGES_LEVEL_0
 62
     7
100
AcDbLine
 10
9.875926392977846
 20
72.26440987929692
 30
0.0
 11
9.625926392977846
 21
72.01696116537693
 31
0.0
  0
LINE
  5
389
330
1F
100
AcDbEntity
  8
IGES_LEVEL_0
 62
     7
100
AcDbLine
 10
10.12592639297785
 20
72.01696116537693
 30
0.0
 11
9.875926392977846
 21
72.26440987929692
 31
0.0
  0
ARC
  5
38A
330
1F
100
AcDbEntity
  8
IGES_LEVEL_0
 62
     7
100
AcDbCircle
 10
0.5058075552140644
 20
77.02792596186058
 30
0.0
 40
0.4999932676415252
100
AcDbArc
 50
179.9975710013747
 51
225.8524295414476
  0
ARC
  5
38B
330
1F
100
AcDbEntity
  8
IGES_LEVEL_0
 62
     7
100
AcDbCircle
 10
19.24604523895598
 20
77.02792595922787
 30
0.0
 40
0.4999932594252853
100
AcDbArc
 50
314.1474131769023
 51
0.00242930035484
  0
ARC
  5
38C
330
1F
100
AcDbEntity
  8
IGES_LEVEL_0
 62
     7
100
AcDbCircle
 10
1.196507386988167
 20
55.15308128317516
 30
0.0
 40
0.5011206472768974
100
AcDbArc
 50
161.6634122359415
 51
183.4378637413927
  0
ARC
  5
38D
330
1F
100
AcDbEntity
  8
IGES_LEVEL_0
 62
     7
100
AcDbCircle
 10
18.55534539899037
 20
55.15308128318107
 30
0.0
 40
0.5011206472514538
100
AcDbArc
 50
356.5621362577554
 51
18.33658776431059
  0
ARC
  5
38E
330
1F
100
AcDbEntity
  8
IGES_LEVEL_0
 62
     7
100
AcDbCircle
 10
19.2460762378651
 20
77.0279846844247
 30
0.0
 40
0.4999622614750388
100
AcDbArc
 50
359.9956995311556
 51
90.23381066988267
  0
ARC
  5
38F
330
1F
100
AcDbEntity
  8
IGES_LEVEL_0
 62
     7
100
AcDbCircle
 10
19.24990169502485
 20
76.99176467927396
 30
0.0
 40
0.5361616810069362
100
AcDbArc
 50
90.62679417989338
 51
103.9165821969316
  0
SPLINE
  5
390
330
1F
100
AcDbEntity
  8
IGES_LEVEL_0
 62
     7
100
AcDbSpline
210
0.0
220
0.0
230
1.0
 70
     8
 71
     3
 72
    14
 73
    10
 74
     0
 42
0.0000000001
 43
0.0000000001
 40
0.0
 40
0.0
 40
0.0
 40
0.0
 40
0.1576869523046
 40
0.3230577835571
 40
0.4432308823276
 40
0.564240312968
 40
0.7039256609819
 40
0.8708508902207
 40
1.0
 40
1.0
 40
1.0
 40
1.0
 10
19.12095000068185
 20
77.51218836119692
 30
0.0
 10
19.04266019863185
 20
77.49298700544692
 30
0.0
 10
18.88865993004185
 20
77.41904157108692
 30
0.0
 10
18.74743728356185
 20
77.24255603388693
 30
0.0
 10
18.66530905422185
 20
77.05590067166692
 30
0.0
 10
18.61013191071185
 20
76.87357089421693
 30
0.0
 10
18.56209198617185
 20
76.66531254186693
 30
0.0
 10
18.52242649813185
 20
76.45121022356692
 30
0.0
 10
18.49905681552185
 20
76.30514472676693
 30
0.0
 10
18.48937801072185
 20
76.24135168425693
 30
0.0
  0
ARC
  5
391
330
1F
100
AcDbEntity
  8
IGES_LEVEL_0
 62
     7
100
AcDbCircle
 10
48.3007504051779
 20
72.0504026563236
 30
0.0
 40
30.1045175645728
100
AcDbArc
 50
171.9976745209328
 51
175.3791336463964
  0
LINE
  5
392
330
1F
100
AcDbEntity
  8
IGES_LEVEL_0
 62
     7
100
AcDbLine
 10
19.28082906931185
 20
74.27813392393692
 30
0.0
 11
19.29523754224185
 21
74.44548700633692
 31
0.0
  0
ARC
  5
393
330
1F
100
AcDbEntity
  8
IGES_LEVEL_0
 62
     7
100
AcDbCircle
 10
37.41383738398783
 20
73.17969522283646
 30
0.0
 40
18.16276105289322
100
AcDbArc
 50
169.0748921306609
 51
176.0037263592304
  0
LINE
  5
394
330
1F
100
AcDbEntity
  8
IGES_LEVEL_0
 62
     7
100
AcDbLine
 10
19.58026268122185
 20
76.62200584004692
 30
0.0
 11
19.61000845011185
 21
76.71884056030692
 31
0.0
  0
ARC
  5
395
330
1F
100
AcDbEntity
  8
IGES_LEVEL_0
 62
     7
100
AcDbCircle
 10
0.5057765461153352
 20
77.02798468830859
 30
0.0
 40
0.4999622595020727
100
AcDbArc
 50
89.7678789902799
 51
180.0043009139569
  0
ARC
  5
396
330
1F
100
AcDbEntity
  8
IGES_LEVEL_0
 62
     7
100
AcDbCircle
 10
-28.56225539960684
 20
72.04907107392228
 30
0.0
 40
30.11793927881308
100
AcDbArc
 50
4.621318155889937
 51
7.999793490992937
  0
SPLINE
  5
397
330
1F
100
AcDbEntity
  8
IGES_LEVEL_0
 62
     7
100
AcDbSpline
210
0.0
220
0.0
230
1.0
 70
     8
 71
     3
 72
    14
 73
    10
 74
     0
 42
0.0000000001
 43
0.0000000001
 40
0.0
 40
0.0
 40
0.0
 40
0.0
 40
0.1291030282056
 40
0.2960025889647
 40
0.4356962804939
 40
0.5567119374461
 40
0.6768273828646
 40
0.8421108795186
 40
1.0
 40
1.0
 40
1.0
 40
1.0
 10
1.262593271955847
 20
76.24057058133693
 30
0.0
 10
1.252919329482847
 20
76.30435950666693
 30
0.0
 10
1.229559747577847
 20
76.45043261988693
 30
0.0
 10
1.189912445481847
 20
76.66456853065692
 30
0.0
 10
1.141898247229847
 20
76.87288872381693
 30
0.0
 10
1.086769273021847
 20
77.05526600792692
 30
0.0
 10
1.004758628789847
 20
77.24195506980692
 30
0.0
 10
0.8636950721918466
 20
77.41866460053693
 30
0.0
 10
0.7096369199668469
 20
77.49281561511693
 30
0.0
 10
0.6312302521338467
 20
77.51210086189693
 30
0.0
  0
ARC
  5
398
330
1F
100
AcDbEntity
  8
IGES_LEVEL_0
 62
     7
100
AcDbCircle
 10
0.501929376888536
 20
76.99179187189959
 30
0.0
 40
0.5361344620626874
100
AcDbArc
 50
76.04424887857218
 51
89.37242936230125
  0
LINE
  5
399
330
1F
100
AcDbEntity
  8
IGES_LEVEL_0
 62
     7
100
AcDbLine
 10
0.1450724875988465
 20
76.70816606345692
 30
0.0
 11
0.1716501809018469
 21
76.62178247115692
 31
0.0
  0
ARC
  5
39A
330
1F
100
AcDbEntity
  8
IGES_LEVEL_0
 62
     7
100
AcDbCircle
 10
-17.67128116483561
 20
73.1785540836313
 30
0.0
 40
18.17212207578858
100
AcDbArc
 50
3.996461928238018
 51
10.9223579041497
  0
LINE
  5
39B
330
1F
100
AcDbEntity
  8
IGES_LEVEL_0
 62
     7
100
AcDbLine
 10
0.4566527773408469
 20
74.44505782442693
 30
0.0
 11
0.4710237143908467
 21
74.27813394367692
 31
0.0
  0
ARC
  5
39C
330
1F
100
AcDbEntity
  8
IGES_LEVEL_0
 62
     7
100
AcDbCircle
 10
18.65869372232914
 20
72.70337766442913
 30
0.0
 40
0.4872377552700905
100
AcDbArc
 50
7.927032535159923
 51
45.62764231200228
  0
ARC
  5
39D
330
1F
100
AcDbEntity
  8
IGES_LEVEL_0
 62
     7
100
AcDbCircle
 10
18.66868365197509
 20
72.70463608471516
 30
0.0
 40
0.4771697513315637
100
AcDbArc
 50
0.0290197687525775
 51
7.942802399474073
  0
LINE
  5
39E
330
1F
100
AcDbEntity
  8
IGES_LEVEL_0
 62
     7
100
AcDbLine
 10
0.8220550695978468
 20
73.10868029970692
 30
0.0
 11
0.8013126366418466
 21
73.09381542043693
 31
0.0
  0
ARC
  5
39F
330
1F
100
AcDbEntity
  8
IGES_LEVEL_0
 62
     7
100
AcDbCircle
 10
1.102021152848131
 20
72.69565441570542
 30
0.0
 40
0.4989567089515758
100
AcDbArc
 50
127.0616901763886
 51
134.4795756220745
  0
ARC
  5
3A0
330
1F
100
AcDbEntity
  8
IGES_LEVEL_0
 62
     7
100
AcDbCircle
 10
1.093159063676767
 20
72.70337766440277
 30
0.0
 40
0.4872377553254509
100
AcDbArc
 50
134.3723576902192
 51
172.0729674626168
  0
ARC
  5
3A1
330
1F
100
AcDbEntity
  8
IGES_LEVEL_0
 62
     7
100
AcDbCircle
 10
1.083169134762015
 20
72.70463608464604
 30
0.0
 40
0.4771697521170094
100
AcDbArc
 50
172.0571976053045
 51
179.9709802229955
  0
LINE
  5
3A2
330
1F
100
AcDbEntity
  8
DEFAULT
 62
     7
100
AcDbLine
 10
1.596386268921847
 20
34.03242542595692
 30
0.0
 11
1.598510268921847
 21
34.15406442595692
 31
0.0
  0
ARC
  5
3A3
330
1F
100
AcDbEntity
  8
DEFAULT
 62
     7
100
AcDbCircle
 10
1.578965274115583
 20
34.5757200285925
 30
0.0
 40
0.0268965721417262
100
AcDbArc
 50
327.6467064552861
 51
357.5566080367293
  0
ARC
  5
3A4
330
1F
100
AcDbEntity
  8
DEFAULT
 62
     7
100
AcDbCircle
 10
1.349800377617955
 20
34.98436874422395
 30
0.0
 40
0.4923527802526432
100
AcDbArc
 50
270.6541208535775
 51
300.7702582089744
  0
ARC
  5
3A5
330
1F
100
AcDbEntity
  8
DEFAULT
 62
     7
100
AcDbCircle
 10
1.16838209819576
 20
36.26869034766509
 30
0.0
 40
1.786460604745115
100
AcDbArc
 50
271.6729169582587
 51
276.0097764032794
  0
LINE
  5
3A6
330
1F
100
AcDbEntity
  8
DEFAULT
 62
     7
100
AcDbLine
 10
1.177629571356847
 20
34.48212206631692
 30
0.0
 11
1.220535601389847
 21
34.48299118363693
 31
0.0
  0
LINE
  5
3A7
330
1F
100
AcDbEntity
  8
DEFAULT
 62
     7
100
AcDbLine
 10
1.105926392977847
 20
34.48239936375693
 30
0.0
 11
1.177629571356847
 21
34.48212206631692
 31
0.0
  0
ARC
  5
3A8
330
1F
100
AcDbEntity
  8
DEFAULT
 62
     7
100
AcDbCircle
 10
1.113049554918916
 20
36.32429646626724
 30
0.0
 40
1.841910876147903
100
AcDbArc
 50
261.9914827094199
 51
269.7784213456732
  0
LINE
  5
3A9
330
1F
100
AcDbEntity
  8
DEFAULT
 62
     7
100
AcDbLine
 10
0.8055436215628467
 20
34.50834530725692
 30
0.0
 11
0.8564339652888466
 21
34.50034906712692
 31
0.0
  0
LINE
  5
3AA
330
1F
100
AcDbEntity
  8
DEFAULT
 62
     7
100
AcDbLine
 10
0.7608859014658469
 20
34.51697146057693
 30
0.0
 11
0.8055436215628467
 21
34.50834530725692
 31
0.0
  0
LINE
  5
3AB
330
1F
100
AcDbEntity
  8
DEFAULT
 62
     7
100
AcDbLine
 10
0.7407926141368466
 20
34.52113675748692
 30
0.0
 11
0.7608859014658469
 21
34.51697146057693
 31
0.0
  0
LINE
  5
3AC
330
1F
100
AcDbEntity
  8
DEFAULT
 62
     7
100
AcDbLine
 10
0.7211576246018465
 20
34.52532691537692
 30
0.0
 11
0.7407926141368466
 21
34.52113675748692
 31
0.0
  0
LINE
  5
3AD
330
1F
100
AcDbEntity
  8
DEFAULT
 62
     7
100
AcDbLine
 10
0.6836480540718468
 20
34.53462122913692
 30
0.0
 11
0.7211576246018465
 21
34.52532691537692
 31
0.0
  0
ARC
  5
3AE
330
1F
100
AcDbEntity
  8
DEFAULT
 62
     7
100
AcDbCircle
 10
0.7188022890277569
 20
34.67649509842489
 30
0.0
 40
0.1461643425123834
100
AcDbArc
 50
227.2099696323184
 51
256.0832565460626
  0
ARC
  5
3AF
330
1F
100
AcDbEntity
  8
DEFAULT
 62
     7
100
AcDbCircle
 10
0.6397560098326441
 20
34.59660434065663
 30
0.0
 40
0.0340451771452635
100
AcDbArc
 50
187.682293936673
 51
233.5119267946691
  0
ARC
  5
3B0
330
1F
100
AcDbEntity
  8
DEFAULT
 62
     7
100
AcDbCircle
 10
18.172887507507
 20
34.57572002859276
 30
0.0
 40
0.0268965721426137
100
AcDbArc
 50
182.4433919637506
 51
212.3532935441625
  0
ARC
  5
3B1
330
1F
100
AcDbEntity
  8
DEFAULT
 62
     7
100
AcDbCircle
 10
18.40205240400374
 20
34.98436874422396
 30
0.0
 40
0.4923527802526503
100
AcDbArc
 50
239.2297417910259
 51
269.3458791464224
  0
ARC
  5
3B2
330
1F
100
AcDbEntity
  8
DEFAULT
 62
     7
100
AcDbCircle
 10
18.58347068342596
 20
36.26869034766531
 30
0.0
 40
1.786460604745344
100
AcDbArc
 50
263.9902235967206
 51
268.3270830417407
  0
LINE
  5
3B3
330
1F
100
AcDbEntity
  8
DEFAULT
 62
     7
100
AcDbLine
 10
18.57422321026485
 20
34.48212206631692
 30
0.0
 11
18.53131718023185
 21
34.48299118363693
 31
0.0
  0
LINE
  5
3B4
330
1F
100
AcDbEntity
  8
DEFAULT
 62
     7
100
AcDbLine
 10
18.64592638864385
 20
34.48239936375693
 30
0.0
 11
18.57422321026485
 21
34.48212206631692
 31
0.0
  0
ARC
  5
3B5
330
1F
100
AcDbEntity
  8
DEFAULT
 62
     7
100
AcDbCircle
 10
18.63880322670278
 20
36.32429646626738
 30
0.0
 40
1.841910876148045
100
AcDbArc
 50
270.2215786543268
 51
278.0085172905796
  0
LINE
  5
3B6
330
1F
100
AcDbEntity
  8
DEFAULT
 62
     7
100
AcDbLine
 10
18.94630916005885
 20
34.50834530725692
 30
0.0
 11
18.89541881633285
 21
34.50034906712692
 31
0.0
  0
LINE
  5
3B7
330
1F
100
AcDbEntity
  8
DEFAULT
 62
     7
100
AcDbLine
 10
18.99096688015585
 20
34.51697146057693
 30
0.0
 11
18.94630916005885
 21
34.50834530725692
 31
0.0
  0
LINE
  5
3B8
330
1F
100
AcDbEntity
  8
DEFAULT
 62
     7
100
AcDbLine
 10
19.01106016748485
 20
34.52113675748692
 30
0.0
 11
18.99096688015585
 21
34.51697146057693
 31
0.0
  0
LINE
  5
3B9
330
1F
100
AcDbEntity
  8
DEFAULT
 62
     7
100
AcDbLine
 10
19.03069515701985
 20
34.52532691537692
 30
0.0
 11
19.01106016748485
 21
34.52113675748692
 31
0.0
  0
LINE
  5
3BA
330
1F
100
AcDbEntity
  8
DEFAULT
 62
     7
100
AcDbLine
 10
19.06820472754985
 20
34.53462122913692
 30
0.0
 11
19.03069515701985
 21
34.52532691537692
 31
0.0
  0
ARC
  5
3BB
330
1F
100
AcDbEntity
  8
DEFAULT
 62
     7
100
AcDbCircle
 10
19.03305049259394
 20
34.67649509842486
 30
0.0
 40
0.1461643425123483
100
AcDbArc
 50
283.9167434539396
 51
312.7900303676885
  0
ARC
  5
3BC
330
1F
100
AcDbEntity
  8
DEFAULT
 62
     7
100
AcDbCircle
 10
19.11209677178906
 20
34.59660434065662
 30
0.0
 40
0.0340451771452517
100
AcDbArc
 50
306.4880732053227
 51
352.3177060633364
  0
LINE
  5
3BD
330
1F
100
AcDbEntity
  8
DEFAULT
 62
     7
100
AcDbLine
 10
18.15334326892185
 20
34.15406442595692
 30
0.0
 11
18.15546626892185
 21
34.03242542595692
 31
0.0
  0
LINE
  5
3BE
330
1F
100
AcDbEntity
  8
IGES_LEVEL_0
 62
     7
100
AcDbLine
 10
39.51830081945185
 20
36.61212564525692
 30
0.0
 11
39.52444208118185
 21
36.65101381533692
 31
0.0
  0
ENDSEC
  0
SECTION
  2
OBJECTS
  0
DICTIONARY
  5
C
330
0
100
AcDbDictionary
  3
ACAD_GROUP
350
D
  3
ACAD_LAYOUT
350
1A
  3
ACAD_MLINESTYLE
350
17
  3
ACAD_PLOTSETTINGS
350
19
  3
ACDBHEADERROUNDTRIPXREC
350
3BF
  0
DICTIONARY
  5
3DF
330
29
100
AcDbDictionary
280
     1
  3
ACAD_XREC_ROUNDTRIP
360
3E0
  0
DICTIONARY
  5
D
102
{ACAD_REACTORS
330
C
102
}
330
C
100
AcDbDictionary
  0
DICTIONARY
  5
1A
102
{ACAD_REACTORS
330
C
102
}
330
C
100
AcDbDictionary
  0
DICTIONARY
  5
17
102
{ACAD_REACTORS
330
C
102
}
330
C
100
AcDbDictionary
  3
STANDARD
350
18
  0
DICTIONARY
  5
19
102
{ACAD_REACTORS
330
C
102
}
330
C
100
AcDbDictionary
  0
DICTIONARY
  5
3BF
102
{ACAD_REACTORS
330
C
102
}
330
C
100
AcDbDictionary
  3
CEPSNTYPE
350
3C8
  3
DIMSTYLEDATA
350
3DE
  3
FINGERPRINTGUID
350
3C9
  3
HYPERLINKBASE
350
3C2
  3
INSUNITS
350
3C7
  3
LAYOUTDICT
350
3C4
  3
LWETCUNION
350
3C6
  3
PLOTSETDICT
350
3C5
  3
PSVPSCALE
350
3CB
  3
PUCSBASE
350
3CE
  3
PUCSORGBACK
350
3D4
  3
PUCSORGBOTTOM
350
3D0
  3
PUCSORGFRONT
350
3D3
  3
PUCSORGLEFT
350
3D1
  3
PUCSORGRIGHT
350
3D2
  3
PUCSORGTOP
350
3CF
  3
PUCSORTHOREF
350
3CC
  3
PUCSORTHOVIEW
350
3CD
  3
STYLESHEET
350
3C3
  3
TSTACKALIGN
350
3C0
  3
TSTACKSIZE
350
3C1
  3
UCSBASE
350
3D7
  3
UCSORGBACK
350
3DD
  3
UCSORGBOTTOM
350
3D9
  3
UCSORGFRONT
350
3DC
  3
UCSORGLEFT
350
3DA
  3
UCSORGRIGHT
350
3DB
  3
UCSORGTOP
350
3D8
  3
UCSORTHOREF
350
3D5
  3
UCSORTHOVIEW
350
3D6
  3
VERSIONGUID
350
3CA
  0
XRECORD
  5
3E0
102
{ACAD_REACTORS
330
3DF
102
}
330
3DF
100
AcDbXrecord
102
UCS
 74
     0
 71
     1
 10
0.0
 20
0.0
 30
0.0
 10
1.0
 20
0.0
 30
0.0
 10
0.0
 20
1.0
 30
0.0
146
0.0
 79
     0
102
VIEW
281
     0
  0
MLINESTYLE
  5
18
102
{ACAD_REACTORS
330
17
102
}
330
17
100
AcDbMlineStyle
  2
Standard
 70
     0
  3

 62
   256
 51
90.0
 52
90.0
 71
     2
 49
0.5
 62
   256
  6
BYLAYER
 49
-0.5
 62
   256
  6
BYLAYER
  0
XRECORD
  5
3C8
102
{ACAD_REACTORS
330
3BF
102
}
330
3BF
100
AcDbXrecord
 90
        0
  0
XRECORD
  5
3DE
102
{ACAD_REACTORS
330
3BF
102
}
330
3BF
100
AcDbXrecord
1000
DSTYLE
1002
{
1070
   340
340
11
1002
}
  0
XRECORD
  5
3C9
102
{ACAD_REACTORS
330
3BF
102
}
330
3BF
100
AcDbXrecord
  1
{FAEB1C30-E019-11D5-929B-00C0DF256EC4}
  0
XRECORD
  5
3C2
102
{ACAD_REACTORS
330
3BF
102
}
330
3BF
100
AcDbXrecord
  1

  0
XRECORD
  5
3C7
102
{ACAD_REACTORS
330
3BF
102
}
330
3BF
100
AcDbXrecord
 90
        1
  0
XRECORD
  5
3C4
102
{ACAD_REACTORS
330
3BF
102
}
330
3BF
100
AcDbXrecord
340
1A
  0
XRECORD
  5
3C6
102
{ACAD_REACTORS
330
3BF
102
}
330
3BF
100
AcDbXrecord
 90
     2560
  0
XRECORD
  5
3C5
102
{ACAD_REACTORS
330
3BF
102
}
330
3BF
100
AcDbXrecord
340
19
  0
XRECORD
  5
3CB
102
{ACAD_REACTORS
330
3BF
102
}
330
3BF
100
AcDbXrecord
 40
0.0
  0
XRECORD
  5
3CE
102
{ACAD_REACTORS
330
3BF
102
}
330
3BF
100
AcDbXrecord
340
0
  0
XRECORD
  5
3D4
102
{ACAD_REACTORS
330
3BF
102
}
330
3BF
100
AcDbXrecord
 10
0.0
 20
0.0
 30
0.0
  0
XRECORD
  5
3D0
102
{ACAD_REACTORS
330
3BF
102
}
330
3BF
100
AcDbXrecord
 10
0.0
 20
0.0
 30
0.0
  0
XRECORD
  5
3D3
102
{ACAD_REACTORS
330
3BF
102
}
330
3BF
100
AcDbXrecord
 10
0.0
 20
0.0
 30
0.0
  0
XRECORD
  5
3D1
102
{ACAD_REACTORS
330
3BF
102
}
330
3BF
100
AcDbXrecord
 10
0.0
 20
0.0
 30
0.0
  0
XRECORD
  5
3D2
102
{ACAD_REACTORS
330
3BF
102
}
330
3BF
100
AcDbXrecord
 10
0.0
 20
0.0
 30
0.0
  0
XRECORD
  5
3CF
102
{ACAD_REACTORS
330
3BF
102
}
330
3BF
100
AcDbXrecord
 10
0.0
 20
0.0
 30
0.0
  0
XRECORD
  5
3CC
102
{ACAD_REACTORS
330
3BF
102
}
330
3BF
100
AcDbXrecord
340
0
  0
XRECORD
  5
3CD
102
{ACAD_REACTORS
330
3BF
102
}
330
3BF
100
AcDbXrecord
 70
     0
  0
XRECORD
  5
3C3
102
{ACAD_REACTORS
330
3BF
102
}
330
3BF
100
AcDbXrecord
  1

  0
XRECORD
  5
3C0
102
{ACAD_REACTORS
330
3BF
102
}
330
3BF
100
AcDbXrecord
 90
        1
  0
XRECORD
  5
3C1
102
{ACAD_REACTORS
330
3BF
102
}
330
3BF
100
AcDbXrecord
 90
       70
  0
XRECORD
  5
3D7
102
{ACAD_REACTORS
330
3BF
102
}
330
3BF
100
AcDbXrecord
340
0
  0
XRECORD
  5
3DD
102
{ACAD_REACTORS
330
3BF
102
}
330
3BF
100
AcDbXrecord
 10
0.0
 20
0.0
 30
0.0
  0
XRECORD
  5
3D9
102
{ACAD_REACTORS
330
3BF
102
}
330
3BF
100
AcDbXrecord
 10
0.0
 20
0.0
 30
0.0
  0
XRECORD
  5
3DC
102
{ACAD_REACTORS
330
3BF
102
}
330
3BF
100
AcDbXrecord
 10
0.0
 20
0.0
 30
0.0
  0
XRECORD
  5
3DA
102
{ACAD_REACTORS
330
3BF
102
}
330
3BF
100
AcDbXrecord
 10
0.0
 20
0.0
 30
0.0
  0
XRECORD
  5
3DB
102
{ACAD_REACTORS
330
3BF
102
}
330
3BF
100
AcDbXrecord
 10
0.0
 20
0.0
 30
0.0
  0
XRECORD
  5
3D8
102
{ACAD_REACTORS
330
3BF
102
}
330
3BF
100
AcDbXrecord
 10
0.0
 20
0.0
 30
0.0
  0
XRECORD
  5
3D5
102
{ACAD_REACTORS
330
3BF
102
}
330
3BF
100
AcDbXrecord
340
0
  0
XRECORD
  5
3D6
102
{ACAD_REACTORS
330
3BF
102
}
330
3BF
100
AcDbXrecord
 70
     0
  0
XRECORD
  5
3CA
102
{ACAD_REACTORS
330
3BF
102
}
330
3BF
100
AcDbXrecord
  1
{FAEB1C32-E019-11D5-929B-00C0DF256EC4}
  0
ENDSEC
  0
EOF
