  0
SECTION
  2
HEADER
  9
$ACADVER
  1
AC1014
  9
$ACADMAINTVER
 70
     9
  9
$DWGCODEPAGE
  3
ANSI_1252
  9
$INSBASE
 10
0.0
 20
0.0
 30
0.0
  9
$EXTMIN
 10
1.000000000000000E+20
 20
1.000000000000000E+20
 30
1.000000000000000E+20
  9
$EXTMAX
 10
-1.000000000000000E+20
 20
-1.000000000000000E+20
 30
-1.000000000000000E+20
  9
$LIMMIN
 10
0.0
 20
0.0
  9
$LIMMAX
 10
12.0
 20
9.0
  9
$ORTHOMODE
 70
     0
  9
$REGENMODE
 70
     1
  9
$FILLMODE
 70
     1
  9
$QTEXTMODE
 70
     0
  9
$MIRRTEXT
 70
     1
  9
$DRAGMODE
 70
     2
  9
$LTSCALE
 40
1.0
  9
$OSMODE
 70
    37
  9
$ATTMODE
 70
     1
  9
$TEXTSIZE
 40
0.2
  9
$TRACEWID
 40
0.05
  9
$TEXTSTYLE
  7
STANDARD
  9
$CLAYER
  8
DEFAULT
  9
$CELTYPE
  6
BYLAYER
  9
$CECOLOR
 62
   256
  9
$CELTSCALE
 40
1.0
  9
$DELOBJ
 70
     1
  9
$DISPSILH
 70
     0
  9
$DIMSCALE
 40
1.0
  9
$DIMASZ
 40
0.18
  9
$DIMEXO
 40
0.0625
  9
$DIMDLI
 40
0.38
  9
$DIMRND
 40
0.0
  9
$DIMDLE
 40
0.0
  9
$DIMEXE
 40
0.18
  9
$DIMTP
 40
0.0
  9
$DIMTM
 40
0.0
  9
$DIMTXT
 40
0.18
  9
$DIMCEN
 40
0.09
  9
$DIMTSZ
 40
0.0
  9
$DIMTOL
 70
     0
  9
$DIMLIM
 70
     0
  9
$DIMTIH
 70
     1
  9
$DIMTOH
 70
     1
  9
$DIMSE1
 70
     0
  9
$DIMSE2
 70
     0
  9
$DIMTAD
 70
     0
  9
$DIMZIN
 70
     0
  9
$DIMBLK
  1

  9
$DIMASO
 70
     1
  9
$DIMSHO
 70
     1
  9
$DIMPOST
  1

  9
$DIMAPOST
  1

  9
$DIMALT
 70
     0
  9
$DIMALTD
 70
     2
  9
$DIMALTF
 40
25.4
  9
$DIMLFAC
 40
1.0
  9
$DIMTOFL
 70
     0
  9
$DIMTVP
 40
0.0
  9
$DIMTIX
 70
     0
  9
$DIMSOXD
 70
     0
  9
$DIMSAH
 70
     0
  9
$DIMBLK1
  1

  9
$DIMBLK2
  1

  9
$DIMSTYLE
  2
STANDARD
  9
$DIMCLRD
 70
     0
  9
$DIMCLRE
 70
     0
  9
$DIMCLRT
 70
     0
  9
$DIMTFAC
 40
1.0
  9
$DIMGAP
 40
0.09
  9
$DIMJUST
 70
     0
  9
$DIMSD1
 70
     0
  9
$DIMSD2
 70
     0
  9
$DIMTOLJ
 70
     1
  9
$DIMTZIN
 70
     0
  9
$DIMALTZ
 70
     0
  9
$DIMALTTZ
 70
     0
  9
$DIMFIT
 70
     3
  9
$DIMUPT
 70
     0
  9
$DIMUNIT
 70
     2
  9
$DIMDEC
 70
     4
  9
$DIMTDEC
 70
     4
  9
$DIMALTU
 70
     2
  9
$DIMALTTD
 70
     2
  9
$DIMTXSTY
  7
STANDARD
  9
$DIMAUNIT
 70
     0
  9
$LUNITS
 70
     2
  9
$LUPREC
 70
     0
  9
$SKETCHINC
 40
0.1
  9
$FILLETRAD
 40
0.5
  9
$AUNITS
 70
     0
  9
$AUPREC
 70
     0
  9
$MENU
  1
.
  9
$ELEVATION
 40
0.0
  9
$PELEVATION
 40
0.0
  9
$THICKNESS
 40
0.0
  9
$LIMCHECK
 70
     0
  9
$CHAMFERA
 40
0.5
  9
$CHAMFERB
 40
0.5
  9
$CHAMFERC
 40
1.0
  9
$CHAMFERD
 40
0.0
  9
$SKPOLY
 70
     0
  9
$TDCREATE
 40
2453762.405447755
  9
$TDUPDATE
 40
2453762.405447766
  9
$TDINDWG
 40
0.0000000116
  9
$TDUSRTIMER
 40
0.0000000116
  9
$USRTIMER
 70
     1
  9
$ANGBASE
 50
0.0
  9
$ANGDIR
 70
     0
  9
$PDMODE
 70
     0
  9
$PDSIZE
 40
0.0
  9
$PLINEWID
 40
0.0
  9
$COORDS
 70
     1
  9
$SPLFRAME
 70
     0
  9
$SPLINETYPE
 70
     6
  9
$SPLINESEGS
 70
     8
  9
$ATTDIA
 70
     0
  9
$ATTREQ
 70
     1
  9
$HANDLING
 70
     1
  9
$HANDSEED
  5
110
  9
$SURFTAB1
 70
     6
  9
$SURFTAB2
 70
     6
  9
$SURFTYPE
 70
     6
  9
$SURFU
 70
     6
  9
$SURFV
 70
     6
  9
$UCSNAME
  2

  9
$UCSORG
 10
0.0
 20
0.0
 30
0.0
  9
$UCSXDIR
 10
1.0
 20
0.0
 30
0.0
  9
$UCSYDIR
 10
0.0
 20
1.0
 30
0.0
  9
$PUCSNAME
  2

  9
$PUCSORG
 10
0.0
 20
0.0
 30
0.0
  9
$PUCSXDIR
 10
1.0
 20
0.0
 30
0.0
  9
$PUCSYDIR
 10
0.0
 20
1.0
 30
0.0
  9
$USERI1
 70
     0
  9
$USERI2
 70
     0
  9
$USERI3
 70
     0
  9
$USERI4
 70
     0
  9
$USERI5
 70
     0
  9
$USERR1
 40
0.0
  9
$USERR2
 40
0.0
  9
$USERR3
 40
0.0
  9
$USERR4
 40
0.0
  9
$USERR5
 40
0.0
  9
$WORLDVIEW
 70
     1
  9
$SHADEDGE
 70
     3
  9
$SHADEDIF
 70
    70
  9
$TILEMODE
 70
     1
  9
$MAXACTVP
 70
    64
  9
$PINSBASE
 10
0.0
 20
0.0
 30
0.0
  9
$PLIMCHECK
 70
     0
  9
$PEXTMIN
 10
1.000000000000000E+20
 20
1.000000000000000E+20
 30
1.000000000000000E+20
  9
$PEXTMAX
 10
-1.000000000000000E+20
 20
-1.000000000000000E+20
 30
-1.000000000000000E+20
  9
$PLIMMIN
 10
0.0
 20
0.0
  9
$PLIMMAX
 10
12.0
 20
9.0
  9
$UNITMODE
 70
     0
  9
$VISRETAIN
 70
     1
  9
$PLINEGEN
 70
     0
  9
$PSLTSCALE
 70
     1
  9
$TREEDEPTH
 70
  3020
  9
$PICKSTYLE
 70
     1
  9
$CMLSTYLE
  2
STANDARD
  9
$CMLJUST
 70
     0
  9
$CMLSCALE
 40
1.0
  9
$PROXYGRAPHICS
 70
     1
  9
$MEASUREMENT
 70
     0
  0
ENDSEC
  0
SECTION
  2
CLASSES
  0
CLASS
  1
ACDBDICTIONARYWDFLT
  2
AcDbDictionaryWithDefault
  3
ObjectDBX Classes
 90
        0
280
     0
281
     0
  0
CLASS
  1
XRECORD
  2
AcDbXrecord
  3
AutoCAD 2000
 90
        0
280
     0
281
     0
  0
CLASS
  1
LWPOLYLINE
  2
AcDbPolyline
  3
AutoCAD 2000
 90
        0
280
     0
281
     1
  0
CLASS
  1
HATCH
  2
AcDbHatch
  3
AutoCAD 2000
 90
        0
280
     0
281
     1
  0
CLASS
  1
ACDBPLACEHOLDER
  2
AcDbPlaceHolder
  3
ObjectDBX Classes
 90
        0
280
     0
281
     0
  0
CLASS
  1
LAYOUT
  2
AcDbLayout
  3
ObjectDBX Classes
 90
        0
280
     0
281
     0
  0
ENDSEC
  0
SECTION
  2
TABLES
  0
TABLE
  2
VPORT
  5
8
330
0
100
AcDbSymbolTable
 70
     2
  0
VPORT
  5
29
102
{ACAD_XDICTIONARY
360
10E
102
}
330
8
100
AcDbSymbolTableRecord
100
AcDbViewportTableRecord
  2
*ACTIVE
 70
     0
 10
0.0
 20
0.0
 11
1.0
 21
1.0
 12
36.25331625492692
 22
41.51626984017035
 13
0.0
 23
0.0
 14
0.5
 24
0.5
 15
0.5
 25
0.5
 16
0.0
 26
0.0
 36
80.21230066091221
 17
0.0
 27
0.0
 37
0.0
 40
83.03337000573751
 41
1.972972972850329
 42
50.0
 43
0.0
 44
0.0
 50
0.0
 51
0.0
 71
     0
 72
   100
 73
     1
 74
     3
 75
     0
 76
     0
 77
     0
 78
     0
  0
ENDTAB
  0
TABLE
  2
LTYPE
  5
5
330
0
100
AcDbSymbolTable
 70
     1
  0
LTYPE
  5
14
330
5
100
AcDbSymbolTableRecord
100
AcDbLinetypeTableRecord
  2
BYBLOCK
 70
     0
  3

 72
    65
 73
     0
 40
0.0
  0
LTYPE
  5
15
330
5
100
AcDbSymbolTableRecord
100
AcDbLinetypeTableRecord
  2
BYLAYER
 70
     0
  3

 72
    65
 73
     0
 40
0.0
  0
LTYPE
  5
16
330
5
100
AcDbSymbolTableRecord
100
AcDbLinetypeTableRecord
  2
CONTINUOUS
 70
     0
  3
Solid line
 72
    65
 73
     0
 40
0.0
  0
ENDTAB
  0
TABLE
  2
LAYER
  5
2
330
0
100
AcDbSymbolTable
 70
     2
  0
LAYER
  5
10
330
2
100
AcDbSymbolTableRecord
100
AcDbLayerTableRecord
  2
0
 70
     0
 62
     7
  6
CONTINUOUS
  0
LAYER
  5
2A
330
2
100
AcDbSymbolTableRecord
100
AcDbLayerTableRecord
  2
DEFAULT
 70
     0
 62
     7
  6
CONTINUOUS
  0
ENDTAB
  0
TABLE
  2
STYLE
  5
3
330
0
100
AcDbSymbolTable
 70
     1
  0
STYLE
  5
11
330
3
100
AcDbSymbolTableRecord
100
AcDbTextStyleTableRecord
  2
STANDARD
 70
     0
 40
0.0
 41
1.0
 50
0.0
 71
     0
 42
0.2
  3
txt
  4

  0
ENDTAB
  0
TABLE
  2
VIEW
  5
6
330
0
100
AcDbSymbolTable
 70
     0
  0
ENDTAB
  0
TABLE
  2
UCS
  5
7
330
0
100
AcDbSymbolTable
 70
     0
  0
ENDTAB
  0
TABLE
  2
APPID
  5
9
330
0
100
AcDbSymbolTable
 70
     1
  0
APPID
  5
12
330
9
100
AcDbSymbolTableRecord
100
AcDbRegAppTableRecord
  2
ACAD
 70
     0
  0
ENDTAB
  0
TABLE
  2
DIMSTYLE
  5
A
330
0
100
AcDbSymbolTable
 70
     1
  0
DIMSTYLE
105
27
330
A
100
AcDbSymbolTableRecord
100
AcDbDimStyleTableRecord
  2
STANDARD
 70
     0
  3

  4

  5

  6

  7

 40
1.0
 41
0.18
 42
0.0625
 43
0.38
 44
0.18
 45
0.0
 46
0.0
 47
0.0
 48
0.0
140
0.18
141
0.09
142
0.0
143
25.4
144
1.0
145
0.0
146
1.0
147
0.09
 71
     0
 72
     0
 73
     1
 74
     1
 75
     0
 76
     0
 77
     0
 78
     0
170
     0
171
     2
172
     0
173
     0
174
     0
175
     0
176
     0
177
     0
178
     0
270
     2
271
     4
272
     4
273
     2
274
     2
340
11
275
     0
280
     0
281
     0
282
     0
283
     1
284
     0
285
     0
286
     0
287
     3
288
     0
  0
ENDTAB
  0
TABLE
  2
BLOCK_RECORD
  5
1
330
0
100
AcDbSymbolTable
 70
     1
  0
BLOCK_RECORD
  5
1F
330
1
100
AcDbSymbolTableRecord
100
AcDbBlockTableRecord
  2
*MODEL_SPACE
  0
BLOCK_RECORD
  5
1B
330
1
100
AcDbSymbolTableRecord
100
AcDbBlockTableRecord
  2
*PAPER_SPACE
  0
ENDTAB
  0
ENDSEC
  0
SECTION
  2
BLOCKS
  0
BLOCK
  5
20
330
1F
100
AcDbEntity
  8
0
100
AcDbBlockBegin
  2
*MODEL_SPACE
 70
     0
 71
     0
 10
0.0
 20
0.0
 30
0.0
  3
*MODEL_SPACE
  1

  0
ENDBLK
  5
21
330
1F
100
AcDbEntity
  8
0
100
AcDbBlockEnd
  0
BLOCK
  5
1C
330
1B
100
AcDbEntity
 67
     1
  8
0
100
AcDbBlockBegin
  2
*PAPER_SPACE
 70
     0
 71
     0
 10
0.0
 20
0.0
 30
0.0
  3
*PAPER_SPACE
  1

  0
ENDBLK
  5
1D
330
1B
100
AcDbEntity
 67
     1
  8
0
100
AcDbBlockEnd
  0
ENDSEC
  0
SECTION
  2
ENTITIES
  0
LINE
  5
2B
330
1F
100
AcDbEntity
  8
DEFAULT
100
AcDbLine
 10
19.94208400000087
 20
1.110586177998209
 30
0.0
 11
20.09208400000118
 21
1.110586177998209
 31
0.0
  0
LINE
  5
2C
330
1F
100
AcDbEntity
  8
DEFAULT
100
AcDbLine
 10
18.91708400000087
 20
1.110586177998209
 30
0.0
 11
19.06708400000087
 21
1.110586177998209
 31
0.0
  0
LINE
  5
2D
330
1F
100
AcDbEntity
  8
DEFAULT
100
AcDbLine
 10
6.44208400000076
 20
1.110586177998209
 30
0.0
 11
6.59208400000076
 21
1.110586177998209
 31
0.0
  0
LINE
  5
2E
330
1F
100
AcDbEntity
  8
DEFAULT
100
AcDbLine
 10
5.417084000000449
 20
1.110586177998209
 30
0.0
 11
5.56708400000076
 21
1.110586177998209
 31
0.0
  0
LINE
  5
2F
330
1F
100
AcDbEntity
  8
DEFAULT
100
AcDbLine
 10
24.90469718392314
 20
2.999999999999999
 30
0.0
 11
24.90469718392314
 21
2.0
 31
0.0
  0
LINE
  5
30
330
1F
100
AcDbEntity
  8
DEFAULT
100
AcDbLine
 10
24.90469718392314
 20
2.0
 30
0.0
 11
24.79022727591089
 21
2.0
 31
0.0
  0
LINE
  5
31
330
1F
100
AcDbEntity
  8
DEFAULT
100
AcDbLine
 10
24.79022727591089
 20
2.0
 30
0.0
 11
24.79022727591089
 21
2.999999999999999
 31
0.0
  0
LINE
  5
32
330
1F
100
AcDbEntity
  8
DEFAULT
100
AcDbLine
 10
24.79022727591089
 20
2.999999999999999
 30
0.0
 11
24.90469718392314
 21
2.999999999999999
 31
0.0
  0
LINE
  5
33
330
1F
100
AcDbEntity
  8
DEFAULT
100
AcDbLine
 10
0.604584000000814
 20
2.999999999999999
 30
0.0
 11
0.604584000000814
 21
2.0
 31
0.0
  0
LINE
  5
34
330
1F
100
AcDbEntity
  8
DEFAULT
100
AcDbLine
 10
0.604584000000814
 20
2.0
 30
0.0
 11
0.71905390801306
 21
2.0
 31
0.0
  0
LINE
  5
35
330
1F
100
AcDbEntity
  8
DEFAULT
100
AcDbLine
 10
0.71905390801306
 20
2.0
 30
0.0
 11
0.71905390801306
 21
2.999999999999999
 31
0.0
  0
LINE
  5
36
330
1F
100
AcDbEntity
  8
DEFAULT
100
AcDbLine
 10
0.71905390801306
 20
2.999999999999999
 30
0.0
 11
0.604584000000814
 21
2.999999999999999
 31
0.0
  0
LINE
  5
37
330
1F
100
AcDbEntity
  8
DEFAULT
100
AcDbLine
 10
69.93129365698837
 20
12.06421712345581
 30
0.0
 11
69.99591131607883
 21
11.92884889182936
 31
0.0
  0
LINE
  5
38
330
1F
100
AcDbEntity
  8
DEFAULT
100
AcDbLine
 10
72.10204850985291
 20
14.50580987667012
 30
0.0
 11
72.25204850985291
 21
14.50580987667012
 31
0.0
  0
LINE
  5
39
330
1F
100
AcDbEntity
  8
DEFAULT
100
AcDbLine
 10
12.75458400000082
 20
83.03253968034071
 30
0.0
 11
2.504584000000927
 21
83.03253968034068
 31
0.0
  0
SPLINE
  5
3A
330
1F
100
AcDbEntity
  8
DEFAULT
100
AcDbSpline
210
0.0
220
0.0
230
1.0
 70
     8
 71
     2
 72
     6
 73
     3
 74
     0
 42
0.0000000001
 43
0.0000000001
 40
1.024999999999989
 40
1.024999999999989
 40
1.024999999999989
 40
2.024999999999989
 40
2.024999999999989
 40
2.024999999999989
 10
2.504584000000927
 20
83.03253968034068
 30
0.0
 10
0.0045840000009286
 20
83.03253968034068
 30
0.0000000000000006
 10
0.004584000000929
 20
81.04929742314727
 30
0.0000000000000008
  0
LINE
  5
3B
330
1F
100
AcDbEntity
  8
DEFAULT
100
AcDbLine
 10
0.004584000000929
 20
81.04929742314727
 30
0.0000000000000008
 11
0.0045840000009312
 21
68.24508601898008
 31
0.0000000000000022
  0
SPLINE
  5
3C
330
1F
100
AcDbEntity
  8
DEFAULT
100
AcDbSpline
210
0.0
220
0.0
230
1.0
 70
     8
 71
     2
 72
     6
 73
     3
 74
     0
 42
0.0000000001
 43
0.0000000001
 40
3.281485391549672
 40
3.281485391549672
 40
3.281485391549672
 40
4.281485391549672
 40
4.281485391549672
 40
4.281485391549672
 10
0.0045840000009312
 20
68.24508601898008
 30
0.0000000000000022
 10
0.004584000000929
 20
66.30890930166569
 30
0.0
 10
1.663360463179089
 20
66.30890930166569
 30
0.0
  0
LINE
  5
3D
330
1F
100
AcDbEntity
  8
DEFAULT
100
AcDbLine
 10
12.75458400000082
 20
82.03253968034071
 30
0.0
 11
2.504584000000929
 21
82.03253968034068
 31
0.0
  0
SPLINE
  5
3E
330
1F
100
AcDbEntity
  8
DEFAULT
100
AcDbSpline
210
0.0
220
0.0
230
1.0
 70
     8
 71
     2
 72
     6
 73
     3
 74
     0
 42
0.0000000001
 43
0.0000000001
 40
1.024999999999989
 40
1.024999999999989
 40
1.024999999999989
 40
2.024999999999989
 40
2.024999999999989
 40
2.024999999999989
 10
2.504584000000929
 20
82.03253968034068
 30
0.0
 10
1.004584000000932
 20
82.03253968034069
 30
-0.0000000000000002
 10
1.004584000000932
 20
81.04929742314725
 30
0.0
  0
LINE
  5
3F
330
1F
100
AcDbEntity
  8
DEFAULT
100
AcDbLine
 10
1.004584000000932
 20
81.04929742314725
 30
0.0
 11
1.004584000000932
 21
75.6096375618977
 31
0.0000000000000009
  0
LINE
  5
40
330
1F
100
AcDbEntity
  8
DEFAULT
100
AcDbLine
 10
1.004584000000932
 20
74.64719172106365
 30
0.0000000000000011
 11
1.00458400000093
 21
68.24508601898006
 31
0.0000000000000022
  0
SPLINE
  5
41
330
1F
100
AcDbEntity
  8
DEFAULT
100
AcDbSpline
210
0.0
220
0.0
230
1.0
 70
     8
 71
     2
 72
     6
 73
     3
 74
     0
 42
0.0000000001
 43
0.0000000001
 40
3.281485391549671
 40
3.281485391549671
 40
3.281485391549671
 40
4.281485391549671
 40
4.281485391549671
 40
4.281485391549671
 10
1.00458400000093
 20
68.24508601898006
 30
0.0000000000000022
 10
1.004584000000928
 20
67.30890930166568
 30
0.0000000000000177
 10
1.663360463179093
 20
67.30890930166568
 30
0.0000000000000022
  0
LINE
  5
42
330
1F
100
AcDbEntity
  8
DEFAULT
100
AcDbLine
 10
12.75458400000082
 20
75.6096375618977
 30
0.0
 11
1.004584000000932
 21
75.6096375618977
 31
0.0000000000000009
  0
ARC
  5
43
330
1F
100
AcDbEntity
  8
DEFAULT
100
AcDbCircle
 10
1.197094510358365
 20
75.12841464148067
 30
0.0000000000000103
 40
0.5183008737526557
100
AcDbArc
 50
111.8036000238479
 51
248.1963999761522
  0
LINE
  5
44
330
1F
100
AcDbEntity
  8
DEFAULT
100
AcDbLine
 10
12.75458400000082
 20
74.6096375618977
 30
0.0
 11
1.004584000000932
 21
74.60963756189769
 31
0.0
  0
ARC
  5
45
330
1F
100
AcDbEntity
  8
DEFAULT
100
AcDbCircle
 10
2.254584000004836
 20
69.65791223600058
 30
0.0
 40
0.647929165277592
100
AcDbArc
 50
39.49417074268861
 51
140.5058292573123
  0
LINE
  5
46
330
1F
100
AcDbEntity
  8
DEFAULT
100
AcDbLine
 10
1.151289354060088
 20
67.5699949985827
 30
0.0
 11
1.754584000004837
 21
67.5699949985827
 31
0.0
  0
LINE
  5
47
330
1F
100
AcDbEntity
  8
DEFAULT
100
AcDbLine
 10
1.754584000004837
 20
67.5699949985827
 30
0.0
 11
1.754584000004837
 21
70.0699949985827
 31
0.0
  0
LINE
  5
48
330
1F
100
AcDbEntity
  8
DEFAULT
100
AcDbLine
 10
1.754584000004837
 20
70.0699949985827
 30
0.0
 11
1.754584000004837
 21
72.5699949985827
 31
0.0
  0
LINE
  5
49
330
1F
100
AcDbEntity
  8
DEFAULT
100
AcDbLine
 10
1.754584000004837
 20
72.5699949985827
 30
0.0
 11
1.004584000000932
 21
72.5699949985827
 31
0.0
  0
LINE
  5
4A
330
1F
100
AcDbEntity
  8
DEFAULT
100
AcDbLine
 10
2.754584000004835
 20
70.0699949985827
 30
0.0
 11
4.754584000004836
 21
70.0699949985827
 31
0.0
  0
LINE
  5
4B
330
1F
100
AcDbEntity
  8
DEFAULT
100
AcDbLine
 10
4.754584000004836
 20
70.0699949985827
 30
0.0
 11
4.754584000004836
 21
70.58312395373038
 31
0.0
  0
LINE
  5
4C
330
1F
100
AcDbEntity
  8
DEFAULT
100
AcDbLine
 10
4.754584000004836
 20
70.58312395373038
 30
0.0
 11
1.75458400000484
 21
70.58312395373038
 31
0.0000000000000746
  0
LINE
  5
4D
330
1F
100
AcDbEntity
  8
DEFAULT
100
AcDbLine
 10
4.754584000004836
 20
70.0699949985827
 30
0.0
 11
4.754584000004836
 21
68.4740168860601
 31
0.0
  0
LINE
  5
4E
330
1F
100
AcDbEntity
  8
DEFAULT
100
AcDbLine
 10
4.754584000004836
 20
68.4740168860601
 30
0.0
 11
2.754584000000928
 21
68.4740168860601
 31
0.0000000000000746
  0
LINE
  5
4F
330
1F
100
AcDbEntity
  8
DEFAULT
100
AcDbLine
 10
1.504584000000819
 20
50.38260732909886
 30
0.0000000000001492
 11
24.00458400000082
 21
50.38260732909886
 31
0.0000000000001492
  0
LINE
  5
50
330
1F
100
AcDbEntity
  8
DEFAULT
100
AcDbLine
 10
24.00458400000082
 20
50.38260732909886
 30
0.0000000000001492
 11
24.00458400000082
 21
52.7033621819634
 31
0.0000000000002237
  0
LINE
  5
51
330
1F
100
AcDbEntity
  8
DEFAULT
100
AcDbLine
 10
24.00458400000082
 20
52.7033621819634
 30
0.0000000000002237
 11
1.504584000000818
 21
52.7033621819634
 31
0.0000000000002237
  0
LINE
  5
52
330
1F
100
AcDbEntity
  8
DEFAULT
100
AcDbLine
 10
1.504584000000819
 20
52.7033621819634
 30
0.0000000000002237
 11
1.504584000000819
 21
50.38260732909886
 31
0.0000000000001492
  0
LINE
  5
53
330
1F
100
AcDbEntity
  8
DEFAULT
100
AcDbLine
 10
1.754584000004837
 20
70.0699949985827
 30
0.0
 11
1.754584000004826
 21
52.7033621819634
 31
0.0
  0
LINE
  5
54
330
1F
100
AcDbEntity
  8
DEFAULT
100
AcDbLine
 10
2.754584000004837
 20
70.0699949985827
 30
0.0
 11
2.754584000004829
 21
52.7033621819634
 31
0.0
  0
LINE
  5
55
330
1F
100
AcDbEntity
  8
DEFAULT
100
AcDbLine
 10
1.504584000000819
 20
50.53260732909887
 30
-0.0000000000000489
 11
24.00458400000082
 21
50.53260732909887
 31
-0.000000000000072
  0
LINE
  5
56
330
1F
100
AcDbEntity
  8
DEFAULT
100
AcDbLine
 10
22.75458399999679
 20
70.0699949985827
 30
0.0
 11
22.7545839999968
 21
52.7033621819634
 31
0.0
  0
LINE
  5
57
330
1F
100
AcDbEntity
  8
DEFAULT
100
AcDbLine
 10
23.75458399999679
 20
70.0699949985827
 30
0.0
 11
23.7545839999968
 21
52.7033621819634
 31
0.0
  0
LINE
  5
58
330
1F
100
AcDbEntity
  8
DEFAULT
100
AcDbLine
 10
20.75458399999679
 20
70.0699949985827
 30
0.0
 11
20.75458399999679
 21
68.4740168860601
 31
0.0
  0
LINE
  5
59
330
1F
100
AcDbEntity
  8
DEFAULT
100
AcDbLine
 10
20.75458399999679
 20
68.4740168860601
 30
0.0
 11
22.7545840000007
 21
68.4740168860601
 31
0.0000000000000746
  0
LINE
  5
5A
330
1F
100
AcDbEntity
  8
DEFAULT
100
AcDbLine
 10
20.75458399999679
 20
70.0699949985827
 30
0.0
 11
20.75458399999679
 21
70.58312395373038
 31
0.0
  0
LINE
  5
5B
330
1F
100
AcDbEntity
  8
DEFAULT
100
AcDbLine
 10
20.75458399999679
 20
70.58312395373038
 30
0.0
 11
23.75458399999679
 21
70.58312395373038
 31
0.0000000000000746
  0
LINE
  5
5C
330
1F
100
AcDbEntity
  8
DEFAULT
100
AcDbLine
 10
22.7545839999968
 20
70.0699949985827
 30
0.0
 11
20.75458399999679
 21
70.0699949985827
 31
0.0
  0
LINE
  5
5D
330
1F
100
AcDbEntity
  8
DEFAULT
100
AcDbLine
 10
23.75458399999679
 20
70.0699949985827
 30
0.0
 11
23.75458399999679
 21
72.5699949985827
 31
0.0
  0
LINE
  5
5E
330
1F
100
AcDbEntity
  8
DEFAULT
100
AcDbLine
 10
23.75458399999679
 20
72.5699949985827
 30
0.0
 11
24.5045840000007
 21
72.5699949985827
 31
0.0
  0
LINE
  5
5F
330
1F
100
AcDbEntity
  8
DEFAULT
100
AcDbLine
 10
24.35787864594154
 20
67.5699949985827
 30
0.0
 11
23.75458399999679
 21
67.5699949985827
 31
0.0
  0
LINE
  5
60
330
1F
100
AcDbEntity
  8
DEFAULT
100
AcDbLine
 10
23.75458399999679
 20
67.5699949985827
 30
0.0
 11
23.75458399999679
 21
70.0699949985827
 31
0.0
  0
ARC
  5
61
330
1F
100
AcDbEntity
  8
DEFAULT
100
AcDbCircle
 10
23.25458399999679
 20
69.65791223600058
 30
0.0
 40
0.647929165277592
100
AcDbArc
 50
39.49417074268873
 51
140.5058292573125
  0
LINE
  5
62
330
1F
100
AcDbEntity
  8
DEFAULT
100
AcDbLine
 10
12.75458400000082
 20
74.6096375618977
 30
0.0
 11
24.5045840000007
 21
74.60963756189769
 31
0.0
  0
LINE
  5
63
330
1F
100
AcDbEntity
  8
DEFAULT
100
AcDbLine
 10
12.75458400000081
 20
75.6096375618977
 30
0.0
 11
24.5045840000007
 21
75.6096375618977
 31
0.0000000000000009
  0
ARC
  5
64
330
1F
100
AcDbEntity
  8
DEFAULT
100
AcDbCircle
 10
24.31207348964326
 20
75.12841464148067
 30
0.0000000000000943
 40
0.5183008737526557
100
AcDbArc
 50
291.8036000238479
 51
68.19639997615248
  0
LINE
  5
65
330
1F
100
AcDbEntity
  8
DEFAULT
100
AcDbLine
 10
24.5045840000007
 20
74.64719172106365
 30
0.0000000000000011
 11
24.5045840000007
 21
68.24508601898006
 31
0.0000000000000022
  0
SPLINE
  5
66
330
1F
100
AcDbEntity
  8
DEFAULT
100
AcDbSpline
210
0.0
220
0.0
230
1.0
 70
     8
 71
     2
 72
     6
 73
     3
 74
     0
 42
0.0000000001
 43
0.0000000001
 40
3.281485391549671
 40
3.281485391549671
 40
3.281485391549671
 40
4.281485391549671
 40
4.281485391549671
 40
4.281485391549671
 10
24.5045840000007
 20
68.24508601898006
 30
0.0000000000000022
 10
24.5045840000007
 20
67.30890930166568
 30
0.0000000000000177
 10
23.84580753682254
 20
67.30890930166568
 30
0.0000000000000022
  0
LINE
  5
67
330
1F
100
AcDbEntity
  8
DEFAULT
100
AcDbLine
 10
12.75458400000081
 20
82.03253968034071
 30
0.0
 11
23.00458400000071
 21
82.03253968034068
 31
0.0
  0
SPLINE
  5
68
330
1F
100
AcDbEntity
  8
DEFAULT
100
AcDbSpline
210
0.0
220
0.0
230
1.0
 70
     8
 71
     2
 72
     6
 73
     3
 74
     0
 42
0.0000000001
 43
0.0000000001
 40
1.024999999999989
 40
1.024999999999989
 40
1.024999999999989
 40
2.024999999999989
 40
2.024999999999989
 40
2.024999999999989
 10
23.00458400000071
 20
82.03253968034068
 30
0.0
 10
24.5045840000007
 20
82.03253968034069
 30
-0.0000000000000002
 10
24.5045840000007
 20
81.04929742314725
 30
0.0
  0
LINE
  5
69
330
1F
100
AcDbEntity
  8
DEFAULT
100
AcDbLine
 10
24.5045840000007
 20
81.04929742314725
 30
0.0
 11
24.5045840000007
 21
75.6096375618977
 31
0.0000000000000009
  0
LINE
  5
6A
330
1F
100
AcDbEntity
  8
DEFAULT
100
AcDbLine
 10
12.75458400000082
 20
83.03253968034071
 30
0.0
 11
23.00458400000071
 21
83.03253968034068
 31
0.0
  0
SPLINE
  5
6B
330
1F
100
AcDbEntity
  8
DEFAULT
100
AcDbSpline
210
0.0
220
0.0
230
1.0
 70
     8
 71
     2
 72
     6
 73
     3
 74
     0
 42
0.0000000001
 43
0.0000000001
 40
1.024999999999989
 40
1.024999999999989
 40
1.024999999999989
 40
2.024999999999989
 40
2.024999999999989
 40
2.024999999999989
 10
23.00458400000071
 20
83.03253968034068
 30
0.0
 10
25.50458400000071
 20
83.03253968034068
 30
0.0000000000000006
 10
25.50458400000071
 20
81.04929742314727
 30
0.0000000000000008
  0
LINE
  5
6C
330
1F
100
AcDbEntity
  8
DEFAULT
100
AcDbLine
 10
25.50458400000071
 20
81.04929742314727
 30
0.0000000000000008
 11
25.5045840000007
 21
68.24508601898008
 31
0.0000000000000022
  0
SPLINE
  5
6D
330
1F
100
AcDbEntity
  8
DEFAULT
100
AcDbSpline
210
0.0
220
0.0
230
1.0
 70
     8
 71
     2
 72
     6
 73
     3
 74
     0
 42
0.0000000001
 43
0.0000000001
 40
3.281485391549672
 40
3.281485391549672
 40
3.281485391549672
 40
4.281485391549672
 40
4.281485391549672
 40
4.281485391549672
 10
25.5045840000007
 20
68.24508601898008
 30
0.0000000000000022
 10
25.50458400000071
 20
66.30890930166569
 30
0.0
 10
23.84580753682254
 20
66.30890930166569
 30
0.0
  0
LINE
  5
6E
330
1F
100
AcDbEntity
  8
DEFAULT
100
AcDbLine
 10
5.417084000000624
 20
50.38260732909886
 30
-0.000000000000034
 11
5.417084000000624
 21
50.13260732909892
 31
-0.000000000000036
  0
LINE
  5
6F
330
1F
100
AcDbEntity
  8
DEFAULT
100
AcDbLine
 10
5.417084000000624
 20
50.13260732909892
 30
-0.000000000000036
 11
6.592084000001071
 21
50.13260732909895
 31
-0.0000000000000136
  0
LINE
  5
70
330
1F
100
AcDbEntity
  8
DEFAULT
100
AcDbLine
 10
6.592084000001071
 20
50.13260732909895
 30
-0.0000000000000136
 11
6.592084000001065
 21
50.38260732909885
 31
-0.0000000000000128
  0
LINE
  5
71
330
1F
100
AcDbEntity
  8
DEFAULT
100
AcDbLine
 10
6.442084000000795
 20
52.7033621819634
 30
0.0
 11
6.442084000000795
 21
53.40410371137825
 31
0.0
  0
LINE
  5
72
330
1F
100
AcDbEntity
  8
DEFAULT
100
AcDbLine
 10
6.442084000000795
 20
53.40410371137825
 30
0.0
 11
5.567084000000796
 21
53.40410371137825
 31
0.0
  0
LINE
  5
73
330
1F
100
AcDbEntity
  8
DEFAULT
100
AcDbLine
 10
5.567084000000796
 20
53.40410371137825
 30
0.0
 11
5.567084000000796
 21
52.7033621819634
 31
0.0
  0
LINE
  5
74
330
1F
100
AcDbEntity
  8
DEFAULT
100
AcDbLine
 10
19.06708400000083
 20
52.7033621819634
 30
0.0
 11
19.06708400000083
 21
53.40410371137825
 31
0.0
  0
LINE
  5
75
330
1F
100
AcDbEntity
  8
DEFAULT
100
AcDbLine
 10
19.06708400000083
 20
53.40410371137825
 30
0.0
 11
19.94208400000083
 21
53.40410371137825
 31
0.0
  0
LINE
  5
76
330
1F
100
AcDbEntity
  8
DEFAULT
100
AcDbLine
 10
19.94208400000083
 20
53.40410371137825
 30
0.0
 11
19.94208400000083
 21
52.7033621819634
 31
0.0
  0
LINE
  5
77
330
1F
100
AcDbEntity
  8
DEFAULT
100
AcDbLine
 10
20.09208400000101
 20
50.38260732909886
 30
-0.000000000000034
 11
20.09208400000101
 21
50.13260732909892
 31
-0.000000000000036
  0
LINE
  5
78
330
1F
100
AcDbEntity
  8
DEFAULT
100
AcDbLine
 10
20.09208400000101
 20
50.13260732909892
 30
-0.000000000000036
 11
18.91708400000056
 21
50.13260732909895
 31
-0.0000000000000136
  0
LINE
  5
79
330
1F
100
AcDbEntity
  8
DEFAULT
100
AcDbLine
 10
18.91708400000056
 20
50.13260732909895
 30
-0.0000000000000136
 11
18.91708400000056
 21
50.38260732909885
 31
-0.0000000000000128
  0
LINE
  5
7A
330
1F
100
AcDbEntity
  8
DEFAULT
100
AcDbLine
 10
24.90458400000082
 20
2.75
 30
0.0
 11
25.15161017084459
 21
2.75
 31
0.0
  0
LINE
  5
7B
330
1F
100
AcDbEntity
  8
DEFAULT
100
AcDbLine
 10
25.15161017084459
 20
2.75
 30
0.0
 11
25.15161017084459
 21
2.25
 31
0.0
  0
LINE
  5
7C
330
1F
100
AcDbEntity
  8
DEFAULT
100
AcDbLine
 10
25.15161017084459
 20
2.25
 30
0.0
 11
24.90458400000082
 21
2.25
 31
0.0
  0
LINE
  5
7D
330
1F
100
AcDbEntity
  8
DEFAULT
100
AcDbLine
 10
0.604584000000814
 20
2.75
 30
0.0
 11
0.3575578291570403
 21
2.75
 31
0.0
  0
LINE
  5
7E
330
1F
100
AcDbEntity
  8
DEFAULT
100
AcDbLine
 10
0.3575578291570403
 20
2.75
 30
0.0
 11
0.3575578291570403
 21
2.25
 31
0.0
  0
LINE
  5
7F
330
1F
100
AcDbEntity
  8
DEFAULT
100
AcDbLine
 10
0.3575578291570403
 20
2.25
 30
0.0
 11
0.604584000000814
 21
2.25
 31
0.0
  0
LINE
  5
80
330
1F
100
AcDbEntity
  8
DEFAULT
100
AcDbLine
 10
1.754584000000816
 20
2.5
 30
0.0
 11
4.754584000000816
 21
2.5
 31
0.0
  0
LINE
  5
81
330
1F
100
AcDbEntity
  8
DEFAULT
100
AcDbLine
 10
4.754584000000816
 20
2.5
 30
0.0
 11
4.754584000000816
 21
3.402454877568819
 31
0.0
  0
LINE
  5
82
330
1F
100
AcDbEntity
  8
DEFAULT
100
AcDbLine
 10
1.754584000000816
 20
2.988216798291977
 30
0.0
 11
4.754584000000816
 21
2.988216798291977
 31
0.0
  0
LINE
  5
83
330
1F
100
AcDbEntity
  8
DEFAULT
100
AcDbLine
 10
1.754584000000816
 20
3.075847538573613
 30
0.0
 11
4.754584000000816
 21
3.075847538573613
 31
0.0
  0
LINE
  5
84
330
1F
100
AcDbEntity
  8
DEFAULT
100
AcDbLine
 10
23.75458400000081
 20
3.075847538573613
 30
0.0
 11
20.75458400000081
 21
3.075847538573613
 31
0.0
  0
LINE
  5
85
330
1F
100
AcDbEntity
  8
DEFAULT
100
AcDbLine
 10
23.75458400000081
 20
2.988216798291977
 30
0.0
 11
20.75458400000081
 21
2.988216798291977
 31
0.0
  0
LINE
  5
86
330
1F
100
AcDbEntity
  8
DEFAULT
100
AcDbLine
 10
20.75458400000081
 20
2.5
 30
0.0
 11
20.75458400000081
 21
3.402454877568819
 31
0.0
  0
LINE
  5
87
330
1F
100
AcDbEntity
  8
DEFAULT
100
AcDbLine
 10
23.75458400000081
 20
2.5
 30
0.0
 11
20.75458400000081
 21
2.5
 31
0.0
  0
ARC
  5
88
330
1F
100
AcDbEntity
  8
DEFAULT
100
AcDbCircle
 10
6.004584000000794
 20
11.743817207311
 30
0.0
 40
0.500325607642293
100
AcDbArc
 50
2.067198185147305
 51
177.9328018148527
  0
LINE
  5
89
330
1F
100
AcDbEntity
  8
DEFAULT
100
AcDbLine
 10
6.504584000000793
 20
11.7618647462742
 30
0.0
 11
6.504584000000758
 21
3.234109262352767
 31
0.0
  0
LINE
  5
8A
330
1F
100
AcDbEntity
  8
DEFAULT
100
AcDbLine
 10
5.504584000000794
 20
11.7618647462742
 30
0.0
 11
5.504584000000758
 21
3.234109262352771
 31
0.0
  0
LINE
  5
8B
330
1F
100
AcDbEntity
  8
DEFAULT
100
AcDbLine
 10
5.504584000000758
 20
3.234109262352771
 30
0.0
 11
6.504584000000758
 21
3.234109262352767
 31
0.0
  0
LINE
  5
8C
330
1F
100
AcDbEntity
  8
DEFAULT
100
AcDbLine
 10
2.75458400000082
 20
3.40245487756882
 30
0.0
 11
4.754584000000816
 21
3.40245487756882
 31
0.0
  0
LINE
  5
8D
330
1F
100
AcDbEntity
  8
DEFAULT
100
AcDbLine
 10
20.00458400000088
 20
3.234109262352771
 30
0.0
 11
19.00458400000087
 21
3.234109262352767
 31
0.0
  0
LINE
  5
8E
330
1F
100
AcDbEntity
  8
DEFAULT
100
AcDbLine
 10
20.00458400000084
 20
11.7618647462742
 30
0.0
 11
20.00458400000088
 21
3.234109262352771
 31
0.0
  0
LINE
  5
8F
330
1F
100
AcDbEntity
  8
DEFAULT
100
AcDbLine
 10
19.00458400000084
 20
11.7618647462742
 30
0.0
 11
19.00458400000087
 21
3.234109262352767
 31
0.0
  0
ARC
  5
90
330
1F
100
AcDbEntity
  8
DEFAULT
100
AcDbCircle
 10
19.50458400000084
 20
11.743817207311
 30
0.0
 40
0.500325607642293
100
AcDbArc
 50
2.067198185147109
 51
177.9328018148527
  0
LINE
  5
91
330
1F
100
AcDbEntity
  8
DEFAULT
100
AcDbLine
 10
22.75458400000082
 20
3.40245487756882
 30
0.0
 11
20.75458400000081
 21
3.40245487756882
 31
0.0
  0
LINE
  5
92
330
1F
100
AcDbEntity
  8
DEFAULT
100
AcDbLine
 10
4.254584000000811
 20
11.71309190838553
 30
0.0
 11
5.504584000000794
 21
11.71309190838553
 31
0.0
  0
LINE
  5
93
330
1F
100
AcDbEntity
  8
DEFAULT
100
AcDbLine
 10
6.504584000000796
 20
11.71309190838554
 30
0.0
 11
19.00458400000084
 21
11.71309190838556
 31
0.0
  0
LINE
  5
94
330
1F
100
AcDbEntity
  8
DEFAULT
100
AcDbLine
 10
21.25458400000082
 20
11.71309190838553
 30
0.0
 11
20.00458400000084
 21
11.71309190838553
 31
0.0
  0
LINE
  5
95
330
1F
100
AcDbEntity
  8
DEFAULT
100
AcDbLine
 10
4.254584000000814
 20
12.71309190838553
 30
0.0
 11
21.25458400000082
 21
12.71309190838553
 31
0.0
  0
SPLINE
  5
96
330
1F
100
AcDbEntity
  8
DEFAULT
100
AcDbSpline
210
0.0
220
0.0
230
1.0
 70
     8
 71
     2
 72
     6
 73
     3
 74
     0
 42
0.0000000001
 43
0.0000000001
 40
0.0
 40
0.0
 40
0.0
 40
1.0
 40
1.0
 40
1.0
 10
4.254584000000814
 20
12.71309190838553
 30
0.0
 10
1.754584000000814
 20
12.71309190838553
 30
0.0
 10
1.754584000004833
 20
10.83364131248464
 30
0.0
  0
SPLINE
  5
97
330
1F
100
AcDbEntity
  8
DEFAULT
100
AcDbSpline
210
0.0
220
0.0
230
1.0
 70
     8
 71
     2
 72
     6
 73
     3
 74
     0
 42
0.0000000001
 43
0.0000000001
 40
0.0
 40
0.0
 40
0.0
 40
1.0
 40
1.0
 40
1.0
 10
21.25458400000082
 20
12.71309190838553
 30
0.0
 10
23.75458400000082
 20
12.71309190838553
 30
0.0
 10
23.7545839999968
 20
10.83364131248464
 30
0.0
  0
SPLINE
  5
98
330
1F
100
AcDbEntity
  8
DEFAULT
100
AcDbSpline
210
0.09927915773354799
220
-0.1693315546031724
230
-0.9805460078218615
 70
     8
 71
     2
 72
     6
 73
     3
 74
     0
 42
0.0000000001
 43
0.0000000001
 40
0.0
 40
0.0
 40
0.0
 40
1.0
 40
1.0
 40
1.0
 10
4.254584000000811
 20
11.71309190838553
 30
0.0
 10
2.754584000000926
 20
11.71309190838553
 30
-0.1518732781658167
 10
2.754584000000926
 20
10.83364131248626
 30
0.0
  0
SPLINE
  5
99
330
1F
100
AcDbEntity
  8
DEFAULT
100
AcDbSpline
210
-0.09927915773354815
220
-0.1693315546031721
230
-0.9805460078218616
 70
     8
 71
     2
 72
     6
 73
     3
 74
     0
 42
0.0000000001
 43
0.0000000001
 40
0.0
 40
0.0
 40
0.0
 40
1.0
 40
1.0
 40
1.0
 10
21.25458400000082
 20
11.71309190838553
 30
0.0
 10
22.75458400000071
 20
11.71309190838553
 30
-0.1518732781658167
 10
22.75458400000071
 20
10.83364131248625
 30
0.0
  0
LINE
  5
9A
330
1F
100
AcDbEntity
  8
DEFAULT
100
AcDbLine
 10
23.75458400000081
 20
2.499999999999995
 30
0.0
 11
23.75458400000082
 21
10.83364131248464
 31
0.0
  0
LINE
  5
9B
330
1F
100
AcDbEntity
  8
DEFAULT
100
AcDbLine
 10
22.75458400000081
 20
3.075847538573609
 30
0.0
 11
22.75458400000069
 21
10.83364131248625
 31
0.0
  0
LINE
  5
9C
330
1F
100
AcDbEntity
  8
DEFAULT
100
AcDbLine
 10
2.754584000000816
 20
3.075847538573613
 30
0.0
 11
2.754584000000936
 21
10.83364131248626
 31
0.0
  0
LINE
  5
9D
330
1F
100
AcDbEntity
  8
DEFAULT
100
AcDbLine
 10
1.754584000000816
 20
2.5
 30
0.0
 11
1.754584000000814
 21
10.83364131248464
 31
0.0
  0
LINE
  5
9E
330
1F
100
AcDbEntity
  8
DEFAULT
100
AcDbLine
 10
5.56708400000076
 20
0.0
 30
0.0
 11
6.44208400000076
 21
0.0
 31
0.0
  0
LINE
  5
9F
330
1F
100
AcDbEntity
  8
DEFAULT
100
AcDbLine
 10
6.44208400000076
 20
0.0
 30
0.0
 11
6.44208400000076
 21
3.0
 31
0.0
  0
LINE
  5
A0
330
1F
100
AcDbEntity
  8
DEFAULT
100
AcDbLine
 10
6.44208400000076
 20
3.0
 30
0.0
 11
5.56708400000076
 21
3.0
 31
0.0
  0
LINE
  5
A1
330
1F
100
AcDbEntity
  8
DEFAULT
100
AcDbLine
 10
5.56708400000076
 20
3.0
 30
0.0
 11
5.56708400000076
 21
0.0
 31
0.0
  0
LINE
  5
A2
330
1F
100
AcDbEntity
  8
DEFAULT
100
AcDbLine
 10
5.417084000000449
 20
1.110586177998209
 30
0.0
 11
5.417084000000624
 21
3.147299618022996
 31
0.0
  0
LINE
  5
A3
330
1F
100
AcDbEntity
  8
DEFAULT
100
AcDbLine
 10
5.417084000000624
 20
3.147299618022996
 30
0.0
 11
6.592084000000763
 21
3.147299618022931
 31
0.0
  0
LINE
  5
A4
330
1F
100
AcDbEntity
  8
DEFAULT
100
AcDbLine
 10
6.592084000000763
 20
3.147299618022931
 30
0.0
 11
6.592084000000761
 21
1.110586177998292
 31
0.0
  0
LINE
  5
A5
330
1F
100
AcDbEntity
  8
DEFAULT
100
AcDbLine
 10
12.75458400000081
 20
38.05031778392629
 30
0.0
 11
2.504584000000927
 21
38.05031778392629
 31
0.0000000000000103
  0
LINE
  5
A6
330
1F
100
AcDbEntity
  8
DEFAULT
100
AcDbLine
 10
12.75458400000081
 20
37.05031778392629
 30
0.0
 11
2.504584000000927
 21
37.0503177839263
 31
0.0
  0
SPLINE
  5
A7
330
1F
100
AcDbEntity
  8
DEFAULT
100
AcDbSpline
210
0.0
220
0.0
230
1.0
 70
     8
 71
     2
 72
     6
 73
     3
 74
     0
 42
0.0000000001
 43
0.0000000001
 40
0.0
 40
0.0
 40
0.0
 40
1.0
 40
1.0
 40
1.0
 10
2.504584000000922
 20
38.05031778392629
 30
0.0000000000000128
 10
0.0045840000009223
 20
38.05031778392629
 30
0.0000000000000128
 10
0.0045840000009312
 20
36.20750785935719
 30
0.0000000000000129
  0
SPLINE
  5
A8
330
1F
100
AcDbEntity
  8
DEFAULT
100
AcDbSpline
210
0.1330856348736251
220
-0.2368605856326357
230
-0.9623852018625645
 70
     8
 71
     2
 72
     6
 73
     3
 74
     0
 42
0.0000000001
 43
0.0000000001
 40
0.0
 40
0.0
 40
0.0
 40
1.0
 40
1.0
 40
1.0
 10
2.504584000000927
 20
37.0503177839263
 30
0.0
 10
1.004584000000932
 20
37.0503177839263
 30
-0.2074309246693356
 10
1.004584000000932
 20
36.20750785935719
 30
0.0
  0
LINE
  5
A9
330
1F
100
AcDbEntity
  8
DEFAULT
100
AcDbLine
 10
1.004584000000932
 20
36.20750785935719
 30
0.0
 11
1.004584000000979
 21
22.5
 31
0.0
  0
ARC
  5
AA
330
1F
100
AcDbEntity
  8
DEFAULT
100
AcDbCircle
 10
1.147496310303022
 20
22.0
 30
0.0
 40
0.5200230076024235
100
AcDbArc
 50
105.9512403428755
 51
254.0487596571247
  0
LINE
  5
AB
330
1F
100
AcDbEntity
  8
DEFAULT
100
AcDbLine
 10
1.004584000000979
 20
22.5
 30
0.0
 11
12.75458400000082
 21
22.5
 31
0.0
  0
LINE
  5
AC
330
1F
100
AcDbEntity
  8
DEFAULT
100
AcDbLine
 10
1.004584000000979
 20
21.5
 30
0.0
 11
12.75458400000082
 21
21.5
 31
0.0
  0
SPLINE
  5
AD
330
1F
100
AcDbEntity
  8
DEFAULT
100
AcDbSpline
210
0.0
220
0.0
230
1.0
 70
     8
 71
     2
 72
     6
 73
     3
 74
     0
 42
0.0000000001
 43
0.0000000001
 40
0.0
 40
0.0
 40
0.0
 40
1.0
 40
1.0
 40
1.0
 10
0.0045840000010333
 20
5.979787376124062
 30
0.0000000000000136
 10
0.00458400000104
 20
4.110714754824576
 30
0.0000000000000136
 10
1.657284423074259
 20
4.110714754824556
 30
0.000000000000025
  0
LINE
  5
AE
330
1F
100
AcDbEntity
  8
DEFAULT
100
AcDbLine
 10
0.0045840000009312
 20
36.20750785935719
 30
0.0000000000000129
 11
0.0045840000010355
 21
5.979787376124058
 31
0.0000000000000136
  0
SPLINE
  5
AF
330
1F
100
AcDbEntity
  8
DEFAULT
100
AcDbSpline
210
0.0
220
0.0
230
1.0
 70
     8
 71
     2
 72
     6
 73
     3
 74
     0
 42
0.0000000001
 43
0.0000000001
 40
0.0
 40
0.0
 40
0.0
 40
1.0
 40
1.0
 40
1.0
 10
1.004584000001034
 20
5.979787376124066
 30
0.0000000000000136
 10
1.004584000001036
 20
5.110714754824572
 30
0.0
 10
1.657284423074272
 20
5.110714754824556
 30
0.0000000000000136
  0
LINE
  5
B0
330
1F
100
AcDbEntity
  8
DEFAULT
100
AcDbLine
 10
1.004584000000981
 20
21.49999999999999
 30
0.0
 11
1.004584000001034
 21
5.979787376124065
 31
0.0
  0
LINE
  5
B1
330
1F
100
AcDbEntity
  8
DEFAULT
100
AcDbLine
 10
0.7545840000008131
 20
0.0
 30
0.0
 11
1.754584000000814
 21
0.0
 31
0.0
  0
LINE
  5
B2
330
1F
100
AcDbEntity
  8
DEFAULT
100
AcDbLine
 10
1.754584000000814
 20
0.0
 30
0.0
 11
1.754584000000814
 21
5.0
 31
0.0
  0
LINE
  5
B3
330
1F
100
AcDbEntity
  8
DEFAULT
100
AcDbLine
 10
0.7545840000008131
 20
4.309780490230256
 30
0.0
 11
0.7545840000008131
 21
0.0
 31
0.0
  0
LINE
  5
B4
330
1F
100
AcDbEntity
  8
DEFAULT
100
AcDbLine
 10
24.50458400000065
 20
21.49999999999999
 30
0.0
 11
24.5045840000006
 21
5.979787376124065
 31
0.0
  0
SPLINE
  5
B5
330
1F
100
AcDbEntity
  8
DEFAULT
100
AcDbSpline
210
0.0
220
0.0
230
1.0
 70
     8
 71
     2
 72
     6
 73
     3
 74
     0
 42
0.0000000001
 43
0.0000000001
 40
0.0
 40
0.0
 40
0.0
 40
1.0
 40
1.0
 40
1.0
 10
24.5045840000006
 20
5.979787376124066
 30
0.0000000000000136
 10
24.50458400000059
 20
5.110714754824572
 30
0.0
 10
23.85188357692736
 20
5.110714754824556
 30
0.0000000000000136
  0
LINE
  5
B6
330
1F
100
AcDbEntity
  8
DEFAULT
100
AcDbLine
 10
25.5045840000007
 20
36.20750785935719
 30
0.0000000000000129
 11
25.5045840000006
 21
5.979787376124058
 31
0.0000000000000136
  0
SPLINE
  5
B7
330
1F
100
AcDbEntity
  8
DEFAULT
100
AcDbSpline
210
0.0
220
0.0
230
1.0
 70
     8
 71
     2
 72
     6
 73
     3
 74
     0
 42
0.0000000001
 43
0.0000000001
 40
0.0
 40
0.0
 40
0.0
 40
1.0
 40
1.0
 40
1.0
 10
25.5045840000006
 20
5.979787376124062
 30
0.0000000000000136
 10
25.50458400000059
 20
4.110714754824576
 30
0.0000000000000136
 10
23.85188357692737
 20
4.110714754824556
 30
0.000000000000025
  0
LINE
  5
B8
330
1F
100
AcDbEntity
  8
DEFAULT
100
AcDbLine
 10
24.50458400000066
 20
21.5
 30
0.0
 11
12.75458400000082
 21
21.5
 31
0.0
  0
LINE
  5
B9
330
1F
100
AcDbEntity
  8
DEFAULT
100
AcDbLine
 10
24.50458400000066
 20
22.5
 30
0.0
 11
12.75458400000082
 21
22.5
 31
0.0
  0
ARC
  5
BA
330
1F
100
AcDbEntity
  8
DEFAULT
100
AcDbCircle
 10
24.3616716896986
 20
22.0
 30
0.0
 40
0.5200230076024235
100
AcDbArc
 50
285.9512403428752
 51
74.04875965712436
  0
LINE
  5
BB
330
1F
100
AcDbEntity
  8
DEFAULT
100
AcDbLine
 10
24.5045840000007
 20
36.20750785935719
 30
0.0
 11
24.50458400000066
 21
22.5
 31
0.0
  0
SPLINE
  5
BC
330
1F
100
AcDbEntity
  8
DEFAULT
100
AcDbSpline
210
-0.1330856348736252
220
-0.2368605856326357
230
-0.9623852018625646
 70
     8
 71
     2
 72
     6
 73
     3
 74
     0
 42
0.0000000001
 43
0.0000000001
 40
0.0
 40
0.0
 40
0.0
 40
1.0
 40
1.0
 40
1.0
 10
23.00458400000071
 20
37.0503177839263
 30
0.0
 10
24.5045840000007
 20
37.0503177839263
 30
-0.2074309246693356
 10
24.5045840000007
 20
36.20750785935719
 30
0.0
  0
SPLINE
  5
BD
330
1F
100
AcDbEntity
  8
DEFAULT
100
AcDbSpline
210
0.0
220
0.0
230
1.0
 70
     8
 71
     2
 72
     6
 73
     3
 74
     0
 42
0.0000000001
 43
0.0000000001
 40
0.0
 40
0.0
 40
0.0
 40
1.0
 40
1.0
 40
1.0
 10
23.00458400000071
 20
38.05031778392629
 30
0.0000000000000128
 10
25.50458400000071
 20
38.05031778392629
 30
0.0000000000000128
 10
25.5045840000007
 20
36.20750785935719
 30
0.0000000000000129
  0
LINE
  5
BE
330
1F
100
AcDbEntity
  8
DEFAULT
100
AcDbLine
 10
12.75458400000082
 20
37.05031778392629
 30
0.0
 11
23.00458400000071
 21
37.0503177839263
 31
0.0
  0
LINE
  5
BF
330
1F
100
AcDbEntity
  8
DEFAULT
100
AcDbLine
 10
12.75458400000082
 20
38.05031778392629
 30
0.0
 11
23.00458400000071
 21
38.05031778392629
 31
0.0000000000000103
  0
LINE
  5
C0
330
1F
100
AcDbEntity
  8
DEFAULT
100
AcDbLine
 10
20.09208400000118
 20
1.110586177998209
 30
0.0
 11
20.09208400000101
 21
3.147299618022996
 31
0.0
  0
LINE
  5
C1
330
1F
100
AcDbEntity
  8
DEFAULT
100
AcDbLine
 10
20.09208400000101
 20
3.147299618022996
 30
0.0
 11
18.91708400000087
 21
3.147299618022931
 31
0.0
  0
LINE
  5
C2
330
1F
100
AcDbEntity
  8
DEFAULT
100
AcDbLine
 10
18.91708400000087
 20
3.147299618022931
 30
0.0
 11
18.91708400000087
 21
1.110586177998292
 31
0.0
  0
LINE
  5
C3
330
1F
100
AcDbEntity
  8
DEFAULT
100
AcDbLine
 10
19.94208400000087
 20
0.0
 30
0.0
 11
19.06708400000087
 21
0.0
 31
0.0
  0
LINE
  5
C4
330
1F
100
AcDbEntity
  8
DEFAULT
100
AcDbLine
 10
19.06708400000087
 20
0.0
 30
0.0
 11
19.06708400000087
 21
3.0
 31
0.0
  0
LINE
  5
C5
330
1F
100
AcDbEntity
  8
DEFAULT
100
AcDbLine
 10
19.06708400000087
 20
3.0
 30
0.0
 11
19.94208400000087
 21
3.0
 31
0.0
  0
LINE
  5
C6
330
1F
100
AcDbEntity
  8
DEFAULT
100
AcDbLine
 10
19.94208400000087
 20
3.0
 30
0.0
 11
19.94208400000087
 21
0.0
 31
0.0
  0
LINE
  5
C7
330
1F
100
AcDbEntity
  8
DEFAULT
100
AcDbLine
 10
24.75458400000082
 20
4.309780490230256
 30
0.0
 11
24.75458400000082
 21
0.0
 31
0.0
  0
LINE
  5
C8
330
1F
100
AcDbEntity
  8
DEFAULT
100
AcDbLine
 10
24.75458400000082
 20
0.0
 30
0.0
 11
23.75458400000082
 21
0.0
 31
0.0
  0
LINE
  5
C9
330
1F
100
AcDbEntity
  8
DEFAULT
100
AcDbLine
 10
23.75458400000082
 20
0.0
 30
0.0
 11
23.75458400000082
 21
4.110714754824555
 31
0.0
  0
LINE
  5
CA
330
1F
100
AcDbEntity
  8
DEFAULT
100
AcDbLine
 10
1.504584000000815
 20
14.00569667993429
 30
0.0000000000000761
 11
1.504584000000817
 21
13.00580987667012
 31
0.0000000000000761
  0
LINE
  5
CB
330
1F
100
AcDbEntity
  8
DEFAULT
100
AcDbLine
 10
1.504584000000817
 20
13.00580987667012
 30
0.0000000000000761
 11
24.00458400000082
 21
13.00580987667012
 31
0.0000000000000761
  0
LINE
  5
CC
330
1F
100
AcDbEntity
  8
DEFAULT
100
AcDbLine
 10
24.00458400000082
 20
13.00580987667012
 30
0.0000000000000761
 11
24.00458400000082
 21
14.00082978396027
 31
0.0000000000000761
  0
ARC
  5
CD
330
1F
100
AcDbEntity
  8
DEFAULT
100
AcDbCircle
 10
23.50447079044859
 20
14.00071657440805
 30
0.0000000000000761
 40
0.5001132223657211
100
AcDbArc
 50
0.0129699222255588
 51
89.98703007777323
  0
LINE
  5
CE
330
1F
100
AcDbEntity
  8
DEFAULT
100
AcDbLine
 10
23.50458400000082
 20
14.50082978396027
 30
0.0000000000000761
 11
2.004697183923135
 21
14.5056966671237
 31
0.0000000000000761
  0
ARC
  5
CF
330
1F
100
AcDbEntity
  8
DEFAULT
100
AcDbCircle
 10
2.004584000000815
 20
14.0056966799343
 30
0.0000000000000761
 40
0.4999999999999999
100
AcDbArc
 50
89.98703007777375
 51
180.0000000000008
  0
LINE
  5
D0
330
1F
100
AcDbEntity
  8
DEFAULT
100
AcDbLine
 10
2.067933621533538
 20
11.92884889182936
 30
0.0
 11
1.804584000000822
 21
11.92884889182936
 31
0.0
  0
ARC
  5
D1
330
1F
100
AcDbEntity
  8
DEFAULT
100
AcDbCircle
 10
1.804584000000858
 20
12.22884889182939
 30
0.0000000000017323
 40
0.3000000000000324
100
AcDbArc
 50
180.0000000000003
 51
269.999999999993
  0
LINE
  5
D2
330
1F
100
AcDbEntity
  8
DEFAULT
100
AcDbLine
 10
1.504584000000826
 20
12.22884889182939
 30
0.0000000000001299
 11
1.504584000000817
 21
13.00580987667012
 31
0.0000000000000761
  0
LINE
  5
D3
330
1F
100
AcDbEntity
  8
DEFAULT
100
AcDbLine
 10
23.4412343784681
 20
11.92884889182936
 30
0.0
 11
23.7045840000008
 21
11.92884889182936
 31
0.0
  0
ARC
  5
D4
330
1F
100
AcDbEntity
  8
DEFAULT
100
AcDbCircle
 10
23.70458400000078
 20
12.22884889182939
 30
-0.0000000000110785
 40
0.3000000000000291
100
AcDbArc
 50
270.0000000000034
 51
359.9999999999997
  0
LINE
  5
D5
330
1F
100
AcDbEntity
  8
DEFAULT
100
AcDbLine
 10
24.0045840000008
 20
12.22884889182939
 30
0.0000000000001299
 11
24.00458400000082
 21
13.00580987667012
 31
0.0000000000000761
  0
CIRCLE
  5
D6
330
1F
100
AcDbEntity
  8
DEFAULT
100
AcDbCircle
 10
52.56466084036383
 20
2.5
 30
0.0
 40
0.25
  0
LINE
  5
D7
330
1F
100
AcDbEntity
  8
DEFAULT
100
AcDbLine
 10
71.25204850985291
 20
11.42037394010051
 30
0.0
 11
71.25204850985291
 21
3.234109262352696
 31
0.0
  0
LINE
  5
D8
330
1F
100
AcDbEntity
  8
DEFAULT
100
AcDbLine
 10
72.25204850985291
 20
12.21309190838515
 30
0.0
 11
72.25204850985291
 21
3.234109262352698
 31
0.0
  0
ARC
  5
D9
330
1F
100
AcDbEntity
  8
DEFAULT
100
AcDbCircle
 10
70.73055212757352
 20
1.5
 30
0.0
 40
1.5
100
AcDbArc
 50
84.83383671875184
 51
31.13853767344804
  0
ARC
  5
DA
330
1F
100
AcDbEntity
  8
DEFAULT
100
AcDbCircle
 10
70.73055212757352
 20
1.5
 30
0.0
 40
0.3894138220016273
100
AcDbArc
 50
159.7869611223506
 51
317.2793373170426
  0
LINE
  5
DB
330
1F
100
AcDbEntity
  8
DEFAULT
100
AcDbLine
 10
70.92209604634346
 20
3.147299618022971
 30
0.0
 11
70.36512058225073
 21
1.634547056634134
 31
0.0
  0
LINE
  5
DC
330
1F
100
AcDbEntity
  8
DEFAULT
100
AcDbLine
 10
72.5020485098529
 20
2.78383705241441
 30
0.0
 11
71.01664277293658
 21
1.235812060453816
 31
0.0
  0
LINE
  5
DD
330
1F
100
AcDbEntity
  8
DEFAULT
100
AcDbLine
 10
72.5020485098529
 20
3.147299618022971
 30
0.0
 11
72.5020485098529
 21
2.78383705241441
 31
0.0
  0
LINE
  5
DE
330
1F
100
AcDbEntity
  8
DEFAULT
100
AcDbLine
 10
70.92209604634346
 20
3.147299618022971
 30
0.0
 11
72.5020485098529
 21
3.147299618022971
 31
0.0
  0
LINE
  5
DF
330
1F
100
AcDbEntity
  8
DEFAULT
100
AcDbLine
 10
71.25204850985291
 20
3.234109262352698
 30
0.0
 11
72.25204850985291
 21
3.234109262352698
 31
0.0
  0
CIRCLE
  5
E0
330
1F
100
AcDbEntity
  8
DEFAULT
100
AcDbCircle
 10
52.56466084036383
 20
2.5
 30
0.0
 40
0.5
  0
LINE
  5
E1
330
1F
100
AcDbEntity
  8
DEFAULT
100
AcDbLine
 10
54.82079803413792
 20
3.576960984840753
 30
0.0
 11
71.96744128636479
 21
11.76186474627412
 31
0.0
  0
LINE
  5
E2
330
1F
100
AcDbEntity
  8
DEFAULT
100
AcDbLine
 10
56.06158177907274
 20
5.277334390547535
 30
0.0
 11
71.53665573334021
 21
12.6643190704961
 31
0.0
  0
ARC
  5
E3
330
1F
100
AcDbEntity
  8
DEFAULT
100
AcDbCircle
 10
71.7520485098525
 20
12.21309190838512
 30
0.0
 40
0.5000000000004093
100
AcDbArc
 50
295.517423642827
 51
115.517423642827
  0
LINE
  5
E4
330
1F
100
AcDbEntity
  8
DEFAULT
100
AcDbLine
 10
54.20166034016254
 20
4.389505924219025
 30
0.0
 11
55.1591269015631
 21
4.846549996611234
 31
0.0
  0
LINE
  5
E5
330
1F
100
AcDbEntity
  8
DEFAULT
100
AcDbLine
 10
56.27697390632176
 20
4.826107097848073
 30
0.0
 11
40.55334359736591
 21
37.76570998089444
 31
0.0
  0
ARC
  5
E6
330
1F
100
AcDbEntity
  8
DEFAULT
100
AcDbCircle
 10
40.10211615861109
 20
37.55031778392629
 30
0.0
 40
0.5000000000000017
100
AcDbArc
 50
25.51735005369873
 51
205.517350053698
  0
LINE
  5
E7
330
1F
100
AcDbEntity
  8
DEFAULT
100
AcDbLine
 10
39.65088871985627
 20
37.33492558695814
 30
0.0
 11
55.37451916168933
 21
4.395322425545913
 31
0.0
  0
ARC
  5
E8
330
1F
100
AcDbEntity
  8
DEFAULT
100
AcDbCircle
 10
55.82574653728607
 20
4.610714754824564
 30
0.0
 40
0.5000000000000066
100
AcDbArc
 50
205.5173668541694
 51
25.51736859945699
  0
CIRCLE
  5
E9
330
1F
100
AcDbEntity
  8
DEFAULT
100
AcDbCircle
 10
52.56466084036383
 20
2.5
 30
0.0
 40
2.5
  0
LINE
  5
EA
330
1F
100
AcDbEntity
  8
DEFAULT
100
AcDbLine
 10
72.25204850985291
 20
14.50580987667012
 30
0.0
 11
72.25204850985291
 21
13.00580987667012
 31
0.0
  0
LINE
  5
EB
330
1F
100
AcDbEntity
  8
DEFAULT
100
AcDbLine
 10
72.25204850985291
 20
13.00580987667012
 30
0.0
 11
69.99591131607883
 21
11.92884889182936
 31
0.0
  0
LINE
  5
EC
330
1F
100
AcDbEntity
  8
DEFAULT
100
AcDbLine
 10
72.10204850985291
 20
14.50580987667012
 30
0.0
 11
72.10204850985291
 21
13.10042107888909
 31
0.0
  0
LINE
  5
ED
330
1F
100
AcDbEntity
  8
DEFAULT
100
AcDbLine
 10
72.10204850985291
 20
13.10042107888909
 30
0.0
 11
69.93129365698837
 21
12.06421712345581
 31
0.0
  0
ENDSEC
  0
SECTION
  2
OBJECTS
  0
DICTIONARY
  5
C
330
0
100
AcDbDictionary
  3
ACAD_GROUP
350
D
  3
ACAD_LAYOUT
350
1A
  3
ACAD_MLINESTYLE
350
17
  3
ACAD_PLOTSETTINGS
350
19
  3
ACDBHEADERROUNDTRIPXREC
350
EE
  0
DICTIONARY
  5
10E
330
29
100
AcDbDictionary
280
     1
  3
ACAD_XREC_ROUNDTRIP
360
10F
  0
DICTIONARY
  5
D
102
{ACAD_REACTORS
330
C
102
}
330
C
100
AcDbDictionary
  0
DICTIONARY
  5
1A
102
{ACAD_REACTORS
330
C
102
}
330
C
100
AcDbDictionary
  0
DICTIONARY
  5
17
102
{ACAD_REACTORS
330
C
102
}
330
C
100
AcDbDictionary
  3
STANDARD
350
18
  0
DICTIONARY
  5
19
102
{ACAD_REACTORS
330
C
102
}
330
C
100
AcDbDictionary
  0
DICTIONARY
  5
EE
102
{ACAD_REACTORS
330
C
102
}
330
C
100
AcDbDictionary
  3
CEPSNTYPE
350
F7
  3
DIMSTYLEDATA
350
10D
  3
FINGERPRINTGUID
350
F8
  3
HYPERLINKBASE
350
F1
  3
INSUNITS
350
F6
  3
LAYOUTDICT
350
F3
  3
LWETCUNION
350
F5
  3
PLOTSETDICT
350
F4
  3
PSVPSCALE
350
FA
  3
PUCSBASE
350
FD
  3
PUCSORGBACK
350
103
  3
PUCSORGBOTTOM
350
FF
  3
PUCSORGFRONT
350
102
  3
PUCSORGLEFT
350
100
  3
PUCSORGRIGHT
350
101
  3
PUCSORGTOP
350
FE
  3
PUCSORTHOREF
350
FB
  3
PUCSORTHOVIEW
350
FC
  3
STYLESHEET
350
F2
  3
TSTACKALIGN
350
EF
  3
TSTACKSIZE
350
F0
  3
UCSBASE
350
106
  3
UCSORGBACK
350
10C
  3
UCSORGBOTTOM
350
108
  3
UCSORGFRONT
350
10B
  3
UCSORGLEFT
350
109
  3
UCSORGRIGHT
350
10A
  3
UCSORGTOP
350
107
  3
UCSORTHOREF
350
104
  3
UCSORTHOVIEW
350
105
  3
VERSIONGUID
350
F9
  0
XRECORD
  5
10F
102
{ACAD_REACTORS
330
10E
102
}
330
10E
100
AcDbXrecord
102
UCS
 74
     0
 71
     1
 10
0.0
 20
0.0
 30
0.0
 10
1.0
 20
0.0
 30
0.0
 10
0.0
 20
1.0
 30
0.0
146
0.0
 79
     0
102
VIEW
281
     0
  0
MLINESTYLE
  5
18
102
{ACAD_REACTORS
330
17
102
}
330
17
100
AcDbMlineStyle
  2
Standard
 70
     0
  3

 62
   256
 51
90.0
 52
90.0
 71
     2
 49
0.5
 62
   256
  6
BYLAYER
 49
-0.5
 62
   256
  6
BYLAYER
  0
XRECORD
  5
F7
102
{ACAD_REACTORS
330
EE
102
}
330
EE
100
AcDbXrecord
 90
        0
  0
XRECORD
  5
10D
102
{ACAD_REACTORS
330
EE
102
}
330
EE
100
AcDbXrecord
1000
DSTYLE
1002
{
1070
   340
340
11
1002
}
  0
XRECORD
  5
F8
102
{ACAD_REACTORS
330
EE
102
}
330
EE
100
AcDbXrecord
  1
{FAEB1C30-E019-11D5-929B-00C0DF256EC4}
  0
XRECORD
  5
F1
102
{ACAD_REACTORS
330
EE
102
}
330
EE
100
AcDbXrecord
  1

  0
XRECORD
  5
F6
102
{ACAD_REACTORS
330
EE
102
}
330
EE
100
AcDbXrecord
 90
        4
  0
XRECORD
  5
F3
102
{ACAD_REACTORS
330
EE
102
}
330
EE
100
AcDbXrecord
340
1A
  0
XRECORD
  5
F5
102
{ACAD_REACTORS
330
EE
102
}
330
EE
100
AcDbXrecord
 90
     2560
  0
XRECORD
  5
F4
102
{ACAD_REACTORS
330
EE
102
}
330
EE
100
AcDbXrecord
340
19
  0
XRECORD
  5
FA
102
{ACAD_REACTORS
330
EE
102
}
330
EE
100
AcDbXrecord
 40
0.0
  0
XRECORD
  5
FD
102
{ACAD_REACTORS
330
EE
102
}
330
EE
100
AcDbXrecord
340
0
  0
XRECORD
  5
103
102
{ACAD_REACTORS
330
EE
102
}
330
EE
100
AcDbXrecord
 10
0.0
 20
0.0
 30
0.0
  0
XRECORD
  5
FF
102
{ACAD_REACTORS
330
EE
102
}
330
EE
100
AcDbXrecord
 10
0.0
 20
0.0
 30
0.0
  0
XRECORD
  5
102
102
{ACAD_REACTORS
330
EE
102
}
330
EE
100
AcDbXrecord
 10
0.0
 20
0.0
 30
0.0
  0
XRECORD
  5
100
102
{ACAD_REACTORS
330
EE
102
}
330
EE
100
AcDbXrecord
 10
0.0
 20
0.0
 30
0.0
  0
XRECORD
  5
101
102
{ACAD_REACTORS
330
EE
102
}
330
EE
100
AcDbXrecord
 10
0.0
 20
0.0
 30
0.0
  0
XRECORD
  5
FE
102
{ACAD_REACTORS
330
EE
102
}
330
EE
100
AcDbXrecord
 10
0.0
 20
0.0
 30
0.0
  0
XRECORD
  5
FB
102
{ACAD_REACTORS
330
EE
102
}
330
EE
100
AcDbXrecord
340
0
  0
XRECORD
  5
FC
102
{ACAD_REACTORS
330
EE
102
}
330
EE
100
AcDbXrecord
 70
     0
  0
XRECORD
  5
F2
102
{ACAD_REACTORS
330
EE
102
}
330
EE
100
AcDbXrecord
  1

  0
XRECORD
  5
EF
102
{ACAD_REACTORS
330
EE
102
}
330
EE
100
AcDbXrecord
 90
        1
  0
XRECORD
  5
F0
102
{ACAD_REACTORS
330
EE
102
}
330
EE
100
AcDbXrecord
 90
       70
  0
XRECORD
  5
106
102
{ACAD_REACTORS
330
EE
102
}
330
EE
100
AcDbXrecord
340
0
  0
XRECORD
  5
10C
102
{ACAD_REACTORS
330
EE
102
}
330
EE
100
AcDbXrecord
 10
0.0
 20
0.0
 30
0.0
  0
XRECORD
  5
108
102
{ACAD_REACTORS
330
EE
102
}
330
EE
100
AcDbXrecord
 10
0.0
 20
0.0
 30
0.0
  0
XRECORD
  5
10B
102
{ACAD_REACTORS
330
EE
102
}
330
EE
100
AcDbXrecord
 10
0.0
 20
0.0
 30
0.0
  0
XRECORD
  5
109
102
{ACAD_REACTORS
330
EE
102
}
330
EE
100
AcDbXrecord
 10
0.0
 20
0.0
 30
0.0
  0
XRECORD
  5
10A
102
{ACAD_REACTORS
330
EE
102
}
330
EE
100
AcDbXrecord
 10
0.0
 20
0.0
 30
0.0
  0
XRECORD
  5
107
102
{ACAD_REACTORS
330
EE
102
}
330
EE
100
AcDbXrecord
 10
0.0
 20
0.0
 30
0.0
  0
XRECORD
  5
104
102
{ACAD_REACTORS
330
EE
102
}
330
EE
100
AcDbXrecord
340
0
  0
XRECORD
  5
105
102
{ACAD_REACTORS
330
EE
102
}
330
EE
100
AcDbXrecord
 70
     0
  0
XRECORD
  5
F9
102
{ACAD_REACTORS
330
EE
102
}
330
EE
100
AcDbXrecord
  1
{FAEB1C32-E019-11D5-929B-00C0DF256EC4}
  0
ENDSEC
  0
EOF
