  0
SECTION
  2
HEADER
  9
$ACADVER
  1
AC1018
  9
$ACADMAINTVER
 70
     0
  9
$DWGCODEPAGE
  3
ANSI_1252
  9
$INSBASE
 10
0.0
 20
0.0
 30
0.0
  9
$EXTMIN
 10
-34.00112094820336
 20
-0.0000000000034689
 30
0.0
  9
$EXTMAX
 10
122.0025583132126
 20
117.0009999959563
 30
0.0
  9
$LIMMIN
 10
0.0
 20
0.0
  9
$LIMMAX
 10
12.0
 20
9.0
  9
$ORTHOMODE
 70
     0
  9
$REGENMODE
 70
     1
  9
$FILLMODE
 70
     1
  9
$QTEXTMODE
 70
     0
  9
$MIRRTEXT
 70
     1
  9
$LTSCALE
 40
0.0393700787401575
  9
$ATTMODE
 70
     1
  9
$TEXTSIZE
 40
0.2
  9
$TRACEWID
 40
0.05
  9
$TEXTSTYLE
  7
Standard
  9
$CLAYER
  8
0
  9
$CELTYPE
  6
ByLayer
  9
$CECOLOR
 62
   256
  9
$CELTSCALE
 40
1.0
  9
$DISPSILH
 70
     0
  9
$DIMSCALE
 40
1.0
  9
$DIMASZ
 40
0.18
  9
$DIMEXO
 40
0.0625
  9
$DIMDLI
 40
0.38
  9
$DIMRND
 40
0.0
  9
$DIMDLE
 40
0.0
  9
$DIMEXE
 40
0.18
  9
$DIMTP
 40
0.0
  9
$DIMTM
 40
0.0
  9
$DIMTXT
 40
0.18
  9
$DIMCEN
 40
0.09
  9
$DIMTSZ
 40
0.0
  9
$DIMTOL
 70
     0
  9
$DIMLIM
 70
     0
  9
$DIMTIH
 70
     1
  9
$DIMTOH
 70
     1
  9
$DIMSE1
 70
     0
  9
$DIMSE2
 70
     0
  9
$DIMTAD
 70
     0
  9
$DIMZIN
 70
     0
  9
$DIMBLK
  1

  9
$DIMASO
 70
     1
  9
$DIMSHO
 70
     1
  9
$DIMPOST
  1

  9
$DIMAPOST
  1

  9
$DIMALT
 70
     0
  9
$DIMALTD
 70
     2
  9
$DIMALTF
 40
25.4
  9
$DIMLFAC
 40
1.0
  9
$DIMTOFL
 70
     0
  9
$DIMTVP
 40
0.0
  9
$DIMTIX
 70
     0
  9
$DIMSOXD
 70
     0
  9
$DIMSAH
 70
     0
  9
$DIMBLK1
  1

  9
$DIMBLK2
  1

  9
$DIMSTYLE
  2
Standard
  9
$DIMCLRD
 70
     0
  9
$DIMCLRE
 70
     0
  9
$DIMCLRT
 70
     0
  9
$DIMTFAC
 40
1.0
  9
$DIMGAP
 40
0.09
  9
$DIMJUST
 70
     0
  9
$DIMSD1
 70
     0
  9
$DIMSD2
 70
     0
  9
$DIMTOLJ
 70
     1
  9
$DIMTZIN
 70
     0
  9
$DIMALTZ
 70
     0
  9
$DIMALTTZ
 70
     0
  9
$DIMUPT
 70
     0
  9
$DIMDEC
 70
     4
  9
$DIMTDEC
 70
     4
  9
$DIMALTU
 70
     2
  9
$DIMALTTD
 70
     2
  9
$DIMTXSTY
  7
Standard
  9
$DIMAUNIT
 70
     0
  9
$DIMADEC
 70
     0
  9
$DIMALTRND
 40
0.0
  9
$DIMAZIN
 70
     0
  9
$DIMDSEP
 70
    46
  9
$DIMATFIT
 70
     3
  9
$DIMFRAC
 70
     0
  9
$DIMLDRBLK
  1

  9
$DIMLUNIT
 70
     2
  9
$DIMLWD
 70
    -2
  9
$DIMLWE
 70
    -2
  9
$DIMTMOVE
 70
     2
  9
$LUNITS
 70
     2
  9
$LUPREC
 70
     3
  9
$SKETCHINC
 40
0.1
  9
$FILLETRAD
 40
0.5
  9
$AUNITS
 70
     0
  9
$AUPREC
 70
     0
  9
$MENU
  1
.
  9
$ELEVATION
 40
0.0
  9
$PELEVATION
 40
0.0
  9
$THICKNESS
 40
0.0
  9
$LIMCHECK
 70
     0
  9
$CHAMFERA
 40
0.5
  9
$CHAMFERB
 40
0.5
  9
$CHAMFERC
 40
1.0
  9
$CHAMFERD
 40
0.0
  9
$SKPOLY
 70
     0
  9
$TDCREATE
 40
2458178.589229757
  9
$TDUCREATE
 40
2458178.79756309
  9
$TDUPDATE
 40
2458178.589229769
  9
$TDUUPDATE
 40
2458178.797563102
  9
$TDINDWG
 40
0.0000000116
  9
$TDUSRTIMER
 40
0.0000000116
  9
$USRTIMER
 70
     1
  9
$ANGBASE
 50
0.0
  9
$ANGDIR
 70
     0
  9
$PDMODE
 70
     0
  9
$PDSIZE
 40
0.0
  9
$PLINEWID
 40
0.0
  9
$SPLFRAME
 70
     0
  9
$SPLINETYPE
 70
     6
  9
$SPLINESEGS
 70
     8
  9
$HANDSEED
  5
DE
  9
$SURFTAB1
 70
     6
  9
$SURFTAB2
 70
     6
  9
$SURFTYPE
 70
     6
  9
$SURFU
 70
     6
  9
$SURFV
 70
     6
  9
$UCSBASE
  2

  9
$UCSNAME
  2

  9
$UCSORG
 10
0.0
 20
0.0
 30
0.0
  9
$UCSXDIR
 10
1.0
 20
0.0
 30
0.0
  9
$UCSYDIR
 10
0.0
 20
1.0
 30
0.0
  9
$UCSORTHOREF
  2

  9
$UCSORTHOVIEW
 70
     0
  9
$UCSORGTOP
 10
0.0
 20
0.0
 30
0.0
  9
$UCSORGBOTTOM
 10
0.0
 20
0.0
 30
0.0
  9
$UCSORGLEFT
 10
0.0
 20
0.0
 30
0.0
  9
$UCSORGRIGHT
 10
0.0
 20
0.0
 30
0.0
  9
$UCSORGFRONT
 10
0.0
 20
0.0
 30
0.0
  9
$UCSORGBACK
 10
0.0
 20
0.0
 30
0.0
  9
$PUCSBASE
  2

  9
$PUCSNAME
  2

  9
$PUCSORG
 10
0.0
 20
0.0
 30
0.0
  9
$PUCSXDIR
 10
1.0
 20
0.0
 30
0.0
  9
$PUCSYDIR
 10
0.0
 20
1.0
 30
0.0
  9
$PUCSORTHOREF
  2

  9
$PUCSORTHOVIEW
 70
     0
  9
$PUCSORGTOP
 10
0.0
 20
0.0
 30
0.0
  9
$PUCSORGBOTTOM
 10
0.0
 20
0.0
 30
0.0
  9
$PUCSORGLEFT
 10
0.0
 20
0.0
 30
0.0
  9
$PUCSORGRIGHT
 10
0.0
 20
0.0
 30
0.0
  9
$PUCSORGFRONT
 10
0.0
 20
0.0
 30
0.0
  9
$PUCSORGBACK
 10
0.0
 20
0.0
 30
0.0
  9
$USERI1
 70
     0
  9
$USERI2
 70
     0
  9
$USERI3
 70
     0
  9
$USERI4
 70
     0
  9
$USERI5
 70
     0
  9
$USERR1
 40
0.0
  9
$USERR2
 40
0.0
  9
$USERR3
 40
0.0
  9
$USERR4
 40
0.0
  9
$USERR5
 40
0.0
  9
$WORLDVIEW
 70
     1
  9
$SHADEDGE
 70
     3
  9
$SHADEDIF
 70
    70
  9
$TILEMODE
 70
     1
  9
$MAXACTVP
 70
    64
  9
$PINSBASE
 10
0.0
 20
0.0
 30
0.0
  9
$PLIMCHECK
 70
     0
  9
$PEXTMIN
 10
1.000000000000000E+20
 20
1.000000000000000E+20
 30
1.000000000000000E+20
  9
$PEXTMAX
 10
-1.000000000000000E+20
 20
-1.000000000000000E+20
 30
-1.000000000000000E+20
  9
$PLIMMIN
 10
0.0
 20
0.0
  9
$PLIMMAX
 10
12.0
 20
9.0
  9
$UNITMODE
 70
     0
  9
$VISRETAIN
 70
     1
  9
$PLINEGEN
 70
     0
  9
$PSLTSCALE
 70
     1
  9
$TREEDEPTH
 70
  3020
  9
$CMLSTYLE
  2
Standard
  9
$CMLJUST
 70
     0
  9
$CMLSCALE
 40
1.0
  9
$PROXYGRAPHICS
 70
     1
  9
$MEASUREMENT
 70
     0
  9
$CELWEIGHT
370
    -1
  9
$ENDCAPS
280
     0
  9
$JOINSTYLE
280
     0
  9
$LWDISPLAY
290
     0
  9
$INSUNITS
 70
     1
  9
$HYPERLINKBASE
  1

  9
$STYLESHEET
  1

  9
$XEDIT
290
     1
  9
$CEPSNTYPE
380
     0
  9
$PSTYLEMODE
290
     1
  9
$FINGERPRINTGUID
  2
{CC062D75-4119-4453-8775-8F9371A55621}
  9
$VERSIONGUID
  2
{FAEB1C32-E019-11D5-929B-00C0DF256EC4}
  9
$EXTNAMES
290
     1
  9
$PSVPSCALE
 40
0.0
  9
$OLESTARTUP
290
     0
  9
$SORTENTS
280
   127
  9
$INDEXCTL
280
     0
  9
$HIDETEXT
280
     1
  9
$XCLIPFRAME
290
     0
  9
$HALOGAP
280
     0
  9
$OBSCOLOR
 70
   257
  9
$OBSLTYPE
280
     0
  9
$INTERSECTIONDISPLAY
280
     0
  9
$INTERSECTIONCOLOR
 70
   257
  9
$DIMASSOC
280
     2
  9
$PROJECTNAME
  1

  0
ENDSEC
  0
SECTION
  2
CLASSES
  0
CLASS
  1
ACDBDICTIONARYWDFLT
  2
AcDbDictionaryWithDefault
  3
ObjectDBX Classes
 90
        0
 91
        4
280
     0
281
     0
  0
CLASS
  1
VISUALSTYLE
  2
AcDbVisualStyle
  3
ObjectDBX Classes
 90
     4095
 91
        4
280
     0
281
     0
  0
ENDSEC
  0
SECTION
  2
TABLES
  0
TABLE
  2
VPORT
  5
8
330
0
100
AcDbSymbolTable
 70
     1
  0
VPORT
  5
29
330
8
100
AcDbSymbolTableRecord
100
AcDbViewportTableRecord
  2
*Active
 70
     0
 10
0.0
 20
0.0
 11
1.0
 21
1.0
 12
44.0007186825046
 22
58.50049999797641
 13
0.0
 23
0.0
 14
0.5
 24
0.5
 15
0.5
 25
0.5
 16
0.0
 26
0.0
 36
1.0
 17
0.0
 27
0.0
 37
0.0
 40
119.3410199958789
 41
1.333353383875377
 42
50.0
 43
0.0
 44
0.0
 50
0.0
 51
0.0
 71
     0
 72
   100
 73
     1
 74
     3
 75
     0
 76
     0
 77
     0
 78
     0
281
     0
 65
     1
110
0.0
120
0.0
130
0.0
111
1.0
121
0.0
131
0.0
112
0.0
122
1.0
132
0.0
 79
     0
146
0.0
  0
ENDTAB
  0
TABLE
  2
LTYPE
  5
5
330
0
100
AcDbSymbolTable
 70
     1
  0
LTYPE
  5
14
330
5
100
AcDbSymbolTableRecord
100
AcDbLinetypeTableRecord
  2
ByBlock
 70
     0
  3

 72
    65
 73
     0
 40
0.0
  0
LTYPE
  5
15
330
5
100
AcDbSymbolTableRecord
100
AcDbLinetypeTableRecord
  2
ByLayer
 70
     0
  3

 72
    65
 73
     0
 40
0.0
  0
LTYPE
  5
16
330
5
100
AcDbSymbolTableRecord
100
AcDbLinetypeTableRecord
  2
Continuous
 70
     0
  3
Solid line
 72
    65
 73
     0
 40
0.0
  0
ENDTAB
  0
TABLE
  2
LAYER
  5
2
330
0
100
AcDbSymbolTable
 70
     2
  0
LAYER
  5
10
330
2
100
AcDbSymbolTableRecord
100
AcDbLayerTableRecord
  2
0
 70
     0
 62
     7
  6
Continuous
370
    -3
390
F
  0
LAYER
  5
3B
330
2
100
AcDbSymbolTableRecord
100
AcDbLayerTableRecord
  2
E 2D
 70
     0
 62
     7
  6
Continuous
370
    -3
390
F
  0
ENDTAB
  0
TABLE
  2
STYLE
  5
3
330
0
100
AcDbSymbolTable
 70
     1
  0
STYLE
  5
11
330
3
100
AcDbSymbolTableRecord
100
AcDbTextStyleTableRecord
  2
Standard
 70
     0
 40
0.0
 41
1.0
 50
0.0
 71
     0
 42
0.2
  3
txt
  4

  0
ENDTAB
  0
TABLE
  2
VIEW
  5
6
330
0
100
AcDbSymbolTable
 70
     0
  0
ENDTAB
  0
TABLE
  2
UCS
  5
7
330
0
100
AcDbSymbolTable
 70
     0
  0
ENDTAB
  0
TABLE
  2
APPID
  5
9
330
0
100
AcDbSymbolTable
 70
     1
  0
APPID
  5
12
330
9
100
AcDbSymbolTableRecord
100
AcDbRegAppTableRecord
  2
ACAD
 70
     0
  0
ENDTAB
  0
TABLE
  2
DIMSTYLE
  5
A
330
0
100
AcDbSymbolTable
 70
     1
100
AcDbDimStyleTable
  0
DIMSTYLE
105
27
330
A
100
AcDbSymbolTableRecord
100
AcDbDimStyleTableRecord
  2
Standard
 70
     0
340
11
  0
ENDTAB
  0
TABLE
  2
BLOCK_RECORD
  5
1
330
0
100
AcDbSymbolTable
 70
     1
  0
BLOCK_RECORD
  5
1F
330
1
100
AcDbSymbolTableRecord
100
AcDbBlockTableRecord
  2
*Model_Space
340
22
  0
BLOCK_RECORD
  5
1B
330
1
100
AcDbSymbolTableRecord
100
AcDbBlockTableRecord
  2
*Paper_Space
340
1E
  0
BLOCK_RECORD
  5
23
330
1
100
AcDbSymbolTableRecord
100
AcDbBlockTableRecord
  2
*Paper_Space0
340
26
  0
ENDTAB
  0
ENDSEC
  0
SECTION
  2
BLOCKS
  0
BLOCK
  5
20
330
1F
100
AcDbEntity
  8
0
100
AcDbBlockBegin
  2
*Model_Space
 70
     0
 10
0.0
 20
0.0
 30
0.0
  3
*Model_Space
  1

  0
ENDBLK
  5
21
330
1F
100
AcDbEntity
  8
0
100
AcDbBlockEnd
  0
BLOCK
  5
1C
330
1B
100
AcDbEntity
 67
     1
  8
0
100
AcDbBlockBegin
  2
*Paper_Space
 70
     0
 10
0.0
 20
0.0
 30
0.0
  3
*Paper_Space
  1

  0
ENDBLK
  5
1D
330
1B
100
AcDbEntity
 67
     1
  8
0
100
AcDbBlockEnd
  0
BLOCK
  5
24
330
23
100
AcDbEntity
  8
0
100
AcDbBlockBegin
  2
*Paper_Space0
 70
     0
 10
0.0
 20
0.0
 30
0.0
  3
*Paper_Space0
  1

  0
ENDBLK
  5
25
330
23
100
AcDbEntity
  8
0
100
AcDbBlockEnd
  0
ENDSEC
  0
SECTION
  2
ENTITIES
  0
SPLINE
  5
3C
330
1F
100
AcDbEntity
  8
E 2D
100
AcDbSpline
210
0.0
220
0.0
230
1.0
 70
    12
 71
     2
 72
     6
 73
     3
 74
     0
 42
0.0000000001
 43
0.0000000001
 40
0.0
 40
0.0
 40
0.0
 40
2.356194490192351
 40
2.356194490192351
 40
2.356194490192351
 10
34.0
 20
50.50099999595628
 30
0.0
 41
1.0
 10
34.00000000000002
 20
49.00099999595627
 30
0.0
 41
0.7071067811865408
 10
32.5
 20
49.00099999595628
 30
0.0
 41
1.0
  0
SPLINE
  5
3D
330
1F
100
AcDbEntity
  8
E 2D
100
AcDbSpline
210
0.0
220
0.0
230
1.0
 70
    24
 71
     2
 72
     6
 73
     3
 74
     0
 42
0.0000000001
 43
0.0000000001
 40
0.0
 40
0.0
 40
0.0
 40
65.0
 40
65.0
 40
65.0
 10
32.5
 20
49.00099999595628
 30
0.0
 10
0.0
 20
49.00099999595628
 30
0.0
 10
-32.5
 20
49.00099999595628
 30
0.0
  0
SPLINE
  5
3E
330
1F
100
AcDbEntity
  8
E 2D
100
AcDbSpline
210
0.0
220
0.0
230
1.0
 70
    12
 71
     2
 72
     6
 73
     3
 74
     0
 42
0.0000000001
 43
0.0000000001
 40
0.0
 40
0.0
 40
0.0
 40
2.356194490192335
 40
2.356194490192335
 40
2.356194490192335
 10
-32.5
 20
49.00099999595628
 30
0.0
 41
1.0
 10
-34.0
 20
49.00099999595627
 30
0.0
 41
0.7071067811865447
 10
-33.99999999999999
 20
50.50099999595628
 30
0.0
 41
1.0
  0
SPLINE
  5
3F
330
1F
100
AcDbEntity
  8
E 2D
100
AcDbSpline
210
0.0
220
0.0
230
1.0
 70
    24
 71
     2
 72
     6
 73
     3
 74
     0
 42
0.0000000001
 43
0.0000000001
 40
0.0
 40
0.0
 40
0.0
 40
65.0
 40
65.0
 40
65.0
 10
-33.99999999999999
 20
50.50099999595628
 30
0.0
 10
-34.0
 20
83.00099999595628
 30
0.0
 10
-34.0
 20
115.5009999959563
 30
0.0
  0
SPLINE
  5
40
330
1F
100
AcDbEntity
  8
E 2D
100
AcDbSpline
210
0.0
220
0.0
230
1.0
 70
    12
 71
     2
 72
     6
 73
     3
 74
     0
 42
0.0000000001
 43
0.0000000001
 40
0.0
 40
0.0
 40
0.0
 40
2.356194490192362
 40
2.356194490192362
 40
2.356194490192362
 10
-34.0
 20
115.5009999959563
 30
0.0
 41
1.0
 10
-34.00000000000003
 20
117.0009999959563
 30
0.0
 41
0.7071067811865359
 10
-32.5
 20
117.0009999959563
 30
0.0
 41
1.0
  0
SPLINE
  5
41
330
1F
100
AcDbEntity
  8
E 2D
100
AcDbSpline
210
0.0
220
0.0
230
1.0
 70
    24
 71
     2
 72
     6
 73
     3
 74
     0
 42
0.0000000001
 43
0.0000000001
 40
0.0
 40
0.0
 40
0.0
 40
65.0
 40
65.0
 40
65.0
 10
-32.5
 20
117.0009999959563
 30
0.0
 10
0.0
 20
117.0009999959563
 30
0.0
 10
32.5
 20
117.0009999959563
 30
0.0
  0
SPLINE
  5
42
330
1F
100
AcDbEntity
  8
E 2D
100
AcDbSpline
210
0.0
220
0.0
230
1.0
 70
    12
 71
     2
 72
     6
 73
     3
 74
     0
 42
0.0000000001
 43
0.0000000001
 40
0.0
 40
0.0
 40
0.0
 40
2.356194490192355
 40
2.356194490192355
 40
2.356194490192355
 10
32.5
 20
117.0009999959563
 30
0.0
 41
1.0
 10
34.00000000000004
 20
117.0009999959563
 30
0.0
 41
0.707106781186524
 10
33.99999999999999
 20
115.5009999959562
 30
0.0
 41
1.0
  0
SPLINE
  5
43
330
1F
100
AcDbEntity
  8
E 2D
100
AcDbSpline
210
0.0
220
0.0
230
1.0
 70
    24
 71
     2
 72
     6
 73
     3
 74
     0
 42
0.0000000001
 43
0.0000000001
 40
0.0
 40
0.0
 40
0.0
 40
65.0
 40
65.0
 40
65.0
 10
34.0
 20
115.5009999959563
 30
0.0
 10
34.0
 20
83.00099999595628
 30
0.0
 10
34.0
 20
50.50099999595628
 30
0.0
  0
SPLINE
  5
44
330
1F
100
AcDbEntity
  8
E 2D
100
AcDbSpline
210
0.0
220
0.0
230
1.0
 70
    24
 71
     2
 72
     6
 73
     3
 74
     0
 42
0.0000000001
 43
0.0000000001
 40
0.0
 40
0.0
 40
0.0
 40
27.603445489506
 40
27.603445489506
 40
27.603445489506
 10
116.7332219442686
 20
27.81299999595628
 30
0.0
 10
117.9269768282513
 20
14.06299999595628
 30
0.0
 10
119.1207317122339
 20
0.3129999959562739
 30
0.0
  0
POLYLINE
  5
45
330
1F
100
AcDbEntity
  8
E 2D
100
AcDb2dPolyline
 66
     1
 10
0.0
 20
0.0
 30
0.0
  0
VERTEX
  5
46
330
45
100
AcDbEntity
  8
E 2D
100
AcDbVertex
100
AcDb2dVertex
 10
119.8166943118858
 20
28.00099999595628
 30
0.0
  0
VERTEX
  5
47
330
45
100
AcDbEntity
  8
E 2D
100
AcDbVertex
100
AcDb2dVertex
 10
112.4300957814934
 20
28.00099999595627
 30
0.0
  0
SEQEND
  5
48
330
45
100
AcDbEntity
  8
E 2D
  0
SPLINE
  5
49
330
1F
100
AcDbEntity
  8
E 2D
100
AcDbSpline
210
0.0
220
0.0
230
1.0
 70
    24
 71
     2
 72
     6
 73
     3
 74
     0
 42
0.0000000001
 43
0.0000000001
 40
0.0
 40
0.0
 40
0.0
 40
0.1880000000000024
 40
0.1880000000000024
 40
0.1880000000000024
 10
112.4300957814934
 20
28.00099999595627
 30
0.0
 10
112.4300957814934
 20
27.90699999595622
 30
0.0
 10
112.4300957814934
 20
27.81299999595617
 30
0.0
  0
LINE
  5
4A
330
1F
100
AcDbEntity
  8
E 2D
100
AcDbLine
 10
112.4300957814934
 20
27.81299999595617
 30
0.0
 11
119.7068494025743
 21
27.81299999595627
 31
0.0
  0
SPLINE
  5
4B
330
1F
100
AcDbEntity
  8
E 2D
100
AcDbSpline
210
0.0
220
0.0
230
1.0
 70
    28
 71
     2
 72
     6
 73
     3
 74
     0
 42
0.0000000001
 43
0.0000000001
 40
-3.141592653589794
 40
-3.141592653589794
 40
-3.141592653589794
 40
-2.25586805153241
 40
-2.25586805153241
 40
-2.25586805153241
 10
119.7068494025743
 20
27.81299999595627
 30
0.0
 41
1.0
 10
119.8278767096492
 20
27.81299999595628
 30
0.0
 41
0.9068261637799945
 10
119.8157521771061
 20
27.81299999595627
 30
0.0
 41
0.9936306632662366
  0
SPLINE
  5
4C
330
1F
100
AcDbEntity
  8
E 2D
100
AcDbSpline
210
0.0
220
0.0
230
1.0
 70
    24
 71
     2
 72
     6
 73
     3
 74
     0
 42
0.0000000001
 43
0.0000000001
 40
0.0
 40
0.0
 40
0.0
 40
0.1880000000000024
 40
0.1880000000000024
 40
0.1880000000000024
 10
119.8157521771061
 20
27.81299999595628
 30
0.0
 10
119.816223244496
 20
27.90699999595628
 30
0.0
 10
119.8166943118858
 20
28.00099999595628
 30
0.0
  0
SPLINE
  5
4D
330
1F
100
AcDbEntity
  8
E 2D
100
AcDbSpline
210
0.0
220
0.0
230
1.0
 70
    24
 71
     2
 72
     6
 73
     3
 74
     0
 42
0.0000000001
 43
0.0000000001
 40
0.0
 40
0.0
 40
0.0
 40
0.7522455994824915
 40
0.7522455994824915
 40
0.7522455994824915
 10
114.7543679251835
 20
24.46023193856624
 30
0.0
 10
115.1236782536135
 20
24.5314937221542
 30
0.0
 10
115.4929885820435
 20
24.60275550574216
 30
0.0
  0
SPLINE
  5
4E
330
1F
100
AcDbEntity
  8
E 2D
100
AcDbSpline
210
0.0
220
0.0
230
1.0
 70
    12
 71
     2
 72
     6
 73
     3
 74
     0
 42
0.0000000001
 43
0.0000000001
 40
0.0
 40
0.0
 40
0.0
 40
0.23743127559879
 40
0.23743127559879
 40
0.23743127559879
 10
115.4929885820435
 20
24.60275550574216
 30
0.0
 41
1.0
 10
115.6248171022663
 20
24.64968949810895
 30
0.0
 41
0.7873276640512697
 10
115.6108606689876
 20
24.78892590266527
 30
0.0
 41
1.0
  0
SPLINE
  5
4F
330
1F
100
AcDbEntity
  8
E 2D
100
AcDbSpline
210
0.0
220
0.0
230
1.0
 70
    24
 71
     2
 72
     6
 73
     3
 74
     0
 42
0.0000000001
 43
0.0000000001
 40
0.0
 40
0.0
 40
0.0
 40
3.024074093290999
 40
3.024074093290999
 40
3.024074093290999
 10
115.6108606689876
 20
24.78892590266527
 30
0.0
 10
115.6108606689876
 20
26.30096294931077
 30
0.0
 10
115.6108606689876
 20
27.81299999595627
 30
0.0
  0
POLYLINE
  5
50
330
1F
100
AcDbEntity
  8
E 2D
100
AcDb2dPolyline
 66
     1
 10
0.0
 20
0.0
 30
0.0
  0
VERTEX
  5
51
330
50
100
AcDbEntity
  8
E 2D
100
AcDbVertex
100
AcDb2dVertex
 10
115.6108606689876
 20
27.81299999595627
 30
0.0
  0
VERTEX
  5
52
330
50
100
AcDbEntity
  8
E 2D
100
AcDbVertex
100
AcDb2dVertex
 10
112.4300957814934
 20
27.81299999595627
 30
0.0
  0
VERTEX
  5
53
330
50
100
AcDbEntity
  8
E 2D
100
AcDbVertex
100
AcDb2dVertex
 10
112.4352753643739
 20
25.25062485837897
 30
0.0
  0
SEQEND
  5
54
330
50
100
AcDbEntity
  8
E 2D
  0
SPLINE
  5
55
330
1F
100
AcDbEntity
  8
E 2D
100
AcDbSpline
210
0.0
220
0.0
230
1.0
 70
    24
 71
     2
 72
     6
 73
     3
 74
     0
 42
0.0000000001
 43
0.0000000001
 40
0.0
 40
0.0
 40
0.0
 40
2.450043654332194
 40
2.450043654332194
 40
2.450043654332194
 10
112.4352753643739
 20
25.25062485837897
 30
0.0
 10
113.5948216447787
 20
24.8554283984726
 30
0.0
 10
114.7543679251835
 20
24.46023193856624
 30
0.0
  0
POLYLINE
  5
56
330
1F
100
AcDbEntity
  8
E 2D
100
AcDb2dPolyline
 66
     1
 10
0.0
 20
0.0
 30
0.0
  0
VERTEX
  5
57
330
56
100
AcDbEntity
  8
E 2D
100
AcDbVertex
100
AcDb2dVertex
 10
117.9971296893505
 20
27.81299999595628
 30
0.0
  0
VERTEX
  5
58
330
56
100
AcDbEntity
  8
E 2D
100
AcDbVertex
100
AcDb2dVertex
 10
115.6591571115024
 20
27.81299999595628
 30
0.0
  0
SEQEND
  5
59
330
56
100
AcDbEntity
  8
E 2D
  0
SPLINE
  5
5A
330
1F
100
AcDbEntity
  8
E 2D
100
AcDbSpline
210
0.0
220
0.0
230
1.0
 70
    24
 71
     2
 72
     6
 73
     3
 74
     0
 42
0.0000000001
 43
0.0000000001
 40
-3.031131383519992
 40
-3.031131383519992
 40
-3.031131383519992
 40
0.0
 40
0.0
 40
0.0
 10
115.6591571115024
 20
27.81299999595628
 30
0.0
 10
115.655263065915
 20
26.29740050193514
 30
0.0
 10
115.6513690203276
 20
24.78180100791401
 30
0.0
  0
SPLINE
  5
5B
330
1F
100
AcDbEntity
  8
E 2D
100
AcDbSpline
210
0.0
220
0.0
230
1.0
 70
    12
 71
     2
 72
     6
 73
     3
 74
     0
 42
0.0000000001
 43
0.0000000001
 40
-0.3433114792523052
 40
-0.3433114792523052
 40
-0.3433114792523052
 40
0.0
 40
0.0
 40
0.0
 10
115.6513690203276
 20
24.78180100791401
 30
0.0
 41
0.9997583392229558
 10
115.6507348920418
 20
24.57323233966721
 30
0.0
 41
0.7548305167534196
 10
115.5002836059533
 20
24.54421598638542
 30
0.0
 41
1.0
  0
SPLINE
  5
5C
330
1F
100
AcDbEntity
  8
E 2D
100
AcDbSpline
210
0.0
220
0.0
230
1.0
 70
    24
 71
     2
 72
     6
 73
     3
 74
     0
 42
0.0000000001
 43
0.0000000001
 40
-0.7517321041836429
 40
-0.7517321041836429
 40
-0.7517321041836429
 40
0.0
 40
0.0
 40
0.0
 10
115.5002836059533
 20
24.54421598638542
 30
0.0
 10
115.1312187186267
 20
24.47303735154557
 30
0.0
 10
114.7621538313
 20
24.40185871670573
 30
0.0
  0
SPLINE
  5
5D
330
1F
100
AcDbEntity
  8
E 2D
100
AcDbSpline
210
0.0
220
0.0
230
1.0
 70
    24
 71
     2
 72
     6
 73
     3
 74
     0
 42
0.0000000001
 43
0.0000000001
 40
-24.22511143972562
 40
-24.22511143972562
 40
-24.22511143972562
 40
0.0
 40
0.0
 40
0.0
 10
114.7621538313
 20
24.40185871670573
 30
0.0
 10
116.0450129232211
 20
12.35742935633101
 30
0.0
 10
117.3278720151422
 20
0.3129999959562819
 30
0.0
  0
LINE
  5
5E
330
1F
100
AcDbEntity
  8
E 2D
100
AcDbLine
 10
117.3278720151422
 20
0.3129999959562819
 30
0.0
 11
120.3846187559393
 21
0.3131192180544369
 31
0.0
  0
SPLINE
  5
5F
330
1F
100
AcDbEntity
  8
E 2D
100
AcDbSpline
210
0.0
220
0.0
230
1.0
 70
    24
 71
     2
 72
     6
 73
     3
 74
     0
 42
0.0000000001
 43
0.0000000001
 40
0.0
 40
0.0
 40
0.0
 40
27.60320614836507
 40
27.60320614836507
 40
27.60320614836507
 10
120.3846187559393
 20
0.3131192180544369
 30
0.0
 10
119.1908742226449
 20
14.06305960700536
 30
0.0
 10
117.9971296893505
 20
27.81299999595628
 30
0.0
  0
POLYLINE
  5
60
330
1F
100
AcDbEntity
  8
E 2D
100
AcDb2dPolyline
 66
     1
 10
0.0
 20
0.0
 30
0.0
  0
VERTEX
  5
61
330
60
100
AcDbEntity
  8
E 2D
100
AcDbVertex
100
AcDb2dVertex
 10
120.2908894573132
 20
0.3129999959563983
 30
0.0
  0
VERTEX
  5
62
330
60
100
AcDbEntity
  8
E 2D
100
AcDbVertex
100
AcDb2dVertex
 10
117.5000578321158
 20
0.3129999959563974
 30
0.0
  0
SEQEND
  5
63
330
60
100
AcDbEntity
  8
E 2D
  0
SPLINE
  5
64
330
1F
100
AcDbEntity
  8
E 2D
100
AcDbSpline
210
0.0
220
0.0
230
1.0
 70
    24
 71
     2
 72
     6
 73
     3
 74
     0
 42
0.0000000001
 43
0.0000000001
 40
0.0
 40
0.0
 40
0.0
 40
0.1879999959563761
 40
0.1879999959563761
 40
0.1879999959563761
 10
117.5000578321158
 20
0.3129999959563974
 30
0.0
 10
117.5000578321159
 20
0.2189999979782093
 30
0.0
 10
117.5000578321159
 20
0.1250000000000213
 30
0.0
  0
SPLINE
  5
65
330
1F
100
AcDbEntity
  8
E 2D
100
AcDbSpline
210
0.0
220
0.0
230
1.0
 70
    12
 71
     2
 72
     6
 73
     3
 74
     0
 42
0.0000000001
 43
0.0000000001
 40
-0.2086852564238481
 40
-0.2086852564238481
 40
-0.2086852564238481
 40
0.0
 40
0.0
 40
0.0
 10
117.5000578321159
 20
0.1250000000000213
 30
0.0
 41
1.0
 10
117.5116176294473
 20
-0.0049944862320145
 30
0.0
 41
0.724703925400524
 10
117.6420294788796
 20
0.0
 30
0.0
 41
1.0
  0
SPLINE
  5
66
330
1F
100
AcDbEntity
  8
E 2D
100
AcDbSpline
210
0.0
220
0.0
230
1.0
 70
    24
 71
     2
 72
     6
 73
     3
 74
     0
 42
0.0000000001
 43
0.0000000001
 40
0.0
 40
0.0
 40
0.0
 40
2.52289713806227
 40
2.52289713806227
 40
2.52289713806227
 10
117.6420294788796
 20
0.0
 30
0.0
 10
118.9037977334955
 20
0.0000000000012587
 30
0.0
 10
120.1655659881115
 20
0.0000000000025173
 30
0.0
  0
SPLINE
  5
67
330
1F
100
AcDbEntity
  8
E 2D
100
AcDbSpline
210
0.0
220
0.0
230
1.0
 70
    12
 71
     2
 72
     6
 73
     3
 74
     0
 42
0.0000000001
 43
0.0000000001
 40
0.0
 40
0.0
 40
0.0
 40
0.1962284577300907
 40
0.1962284577300907
 40
0.1962284577300907
 10
120.1655659881115
 20
0.0000000000025173
 30
0.0
 41
1.0
 10
120.2908258700657
 20
0.0003790246453092
 30
0.0
 41
0.7094608718397355
 10
120.2910838797594
 20
0.125
 30
0.0
 41
0.9999976805327707
  0
SPLINE
  5
68
330
1F
100
AcDbEntity
  8
E 2D
100
AcDbSpline
210
0.0
220
0.0
230
1.0
 70
    24
 71
     2
 72
     6
 73
     3
 74
     0
 42
0.0000000001
 43
0.0000000001
 40
0.0
 40
0.0
 40
0.0
 40
0.1879999959563983
 40
0.1879999959563983
 40
0.1879999959563983
 10
120.2910838797594
 20
0.125
 30
0.0
 10
120.2909866685363
 20
0.2189999979781991
 30
0.0
 10
120.2908894573132
 20
0.3129999959563983
 30
0.0
  0
SPLINE
  5
69
330
1F
100
AcDbEntity
  8
E 2D
100
AcDbSpline
210
0.0
220
0.0
230
1.0
 70
    24
 71
     2
 72
     6
 73
     3
 74
     0
 42
0.0000000001
 43
0.0000000001
 40
0.0
 40
0.0
 40
0.0
 40
27.603445489506
 40
27.603445489506
 40
27.603445489506
 10
59.26965278574974
 20
27.81299999595628
 30
0.0
 10
58.07589790176711
 20
14.06299999595628
 30
0.0
 10
56.88214301778447
 20
0.3129999959562739
 30
0.0
  0
POLYLINE
  5
6A
330
1F
100
AcDbEntity
  8
E 2D
100
AcDb2dPolyline
 66
     1
 10
0.0
 20
0.0
 30
0.0
  0
VERTEX
  5
6B
330
6A
100
AcDbEntity
  8
E 2D
100
AcDbVertex
100
AcDb2dVertex
 10
56.18618041813255
 20
28.00099999595628
 30
0.0
  0
VERTEX
  5
6C
330
6A
100
AcDbEntity
  8
E 2D
100
AcDbVertex
100
AcDb2dVertex
 10
63.57277894852497
 20
28.00099999595627
 30
0.0
  0
SEQEND
  5
6D
330
6A
100
AcDbEntity
  8
E 2D
  0
SPLINE
  5
6E
330
1F
100
AcDbEntity
  8
E 2D
100
AcDbSpline
210
0.0
220
0.0
230
1.0
 70
    24
 71
     2
 72
     6
 73
     3
 74
     0
 42
0.0000000001
 43
0.0000000001
 40
0.0
 40
0.0
 40
0.0
 40
0.1880000000000024
 40
0.1880000000000024
 40
0.1880000000000024
 10
63.57277894852497
 20
28.00099999595627
 30
0.0
 10
63.57277894852497
 20
27.90699999595622
 30
0.0
 10
63.57277894852497
 20
27.81299999595617
 30
0.0
  0
LINE
  5
6F
330
1F
100
AcDbEntity
  8
E 2D
100
AcDbLine
 10
63.57277894852497
 20
27.81299999595617
 30
0.0
 11
56.29602532744411
 21
27.81299999595627
 31
0.0
  0
SPLINE
  5
70
330
1F
100
AcDbEntity
  8
E 2D
100
AcDbSpline
210
0.0
220
0.0
230
1.0
 70
    28
 71
     2
 72
     6
 73
     3
 74
     0
 42
0.0000000001
 43
0.0000000001
 40
-3.141592653589794
 40
-3.141592653589794
 40
-3.141592653589794
 40
-2.25586805153241
 40
-2.25586805153241
 40
-2.25586805153241
 10
56.29602532744411
 20
27.81299999595627
 30
0.0
 41
1.0
 10
56.17499802036919
 20
27.81299999595628
 30
0.0
 41
0.9068261637799945
 10
56.18712255291226
 20
27.81299999595627
 30
0.0
 41
0.9936306632662366
  0
SPLINE
  5
71
330
1F
100
AcDbEntity
  8
E 2D
100
AcDbSpline
210
0.0
220
0.0
230
1.0
 70
    24
 71
     2
 72
     6
 73
     3
 74
     0
 42
0.0000000001
 43
0.0000000001
 40
0.0
 40
0.0
 40
0.0
 40
0.1880000000000024
 40
0.1880000000000024
 40
0.1880000000000024
 10
56.18712255291227
 20
27.81299999595628
 30
0.0
 10
56.18665148552241
 20
27.90699999595628
 30
0.0
 10
56.18618041813255
 20
28.00099999595628
 30
0.0
  0
SPLINE
  5
72
330
1F
100
AcDbEntity
  8
E 2D
100
AcDbSpline
210
0.0
220
0.0
230
1.0
 70
    24
 71
     2
 72
     6
 73
     3
 74
     0
 42
0.0000000001
 43
0.0000000001
 40
0.0
 40
0.0
 40
0.0
 40
0.7522455994824915
 40
0.7522455994824915
 40
0.7522455994824915
 10
61.24850680483488
 20
24.46023193856624
 30
0.0
 10
60.8791964764049
 20
24.5314937221542
 30
0.0
 10
60.50988614797492
 20
24.60275550574216
 30
0.0
  0
SPLINE
  5
73
330
1F
100
AcDbEntity
  8
E 2D
100
AcDbSpline
210
0.0
220
0.0
230
1.0
 70
    12
 71
     2
 72
     6
 73
     3
 74
     0
 42
0.0000000001
 43
0.0000000001
 40
0.0
 40
0.0
 40
0.0
 40
0.23743127559879
 40
0.23743127559879
 40
0.23743127559879
 10
60.50988614797492
 20
24.60275550574216
 30
0.0
 41
1.0
 10
60.37805762775208
 20
24.64968949810895
 30
0.0
 41
0.7873276640512697
 10
60.39201406103076
 20
24.78892590266527
 30
0.0
 41
1.0
  0
SPLINE
  5
74
330
1F
100
AcDbEntity
  8
E 2D
100
AcDbSpline
210
0.0
220
0.0
230
1.0
 70
    24
 71
     2
 72
     6
 73
     3
 74
     0
 42
0.0000000001
 43
0.0000000001
 40
0.0
 40
0.0
 40
0.0
 40
3.024074093290999
 40
3.024074093290999
 40
3.024074093290999
 10
60.39201406103076
 20
24.78892590266527
 30
0.0
 10
60.39201406103076
 20
26.30096294931077
 30
0.0
 10
60.39201406103076
 20
27.81299999595627
 30
0.0
  0
POLYLINE
  5
75
330
1F
100
AcDbEntity
  8
E 2D
100
AcDb2dPolyline
 66
     1
 10
0.0
 20
0.0
 30
0.0
  0
VERTEX
  5
76
330
75
100
AcDbEntity
  8
E 2D
100
AcDbVertex
100
AcDb2dVertex
 10
60.39201406103076
 20
27.81299999595627
 30
0.0
  0
VERTEX
  5
77
330
75
100
AcDbEntity
  8
E 2D
100
AcDbVertex
100
AcDb2dVertex
 10
63.57277894852497
 20
27.81299999595627
 30
0.0
  0
VERTEX
  5
78
330
75
100
AcDbEntity
  8
E 2D
100
AcDbVertex
100
AcDb2dVertex
 10
63.56759936564448
 20
25.25062485837897
 30
0.0
  0
SEQEND
  5
79
330
75
100
AcDbEntity
  8
E 2D
  0
SPLINE
  5
7A
330
1F
100
AcDbEntity
  8
E 2D
100
AcDbSpline
210
0.0
220
0.0
230
1.0
 70
    24
 71
     2
 72
     6
 73
     3
 74
     0
 42
0.0000000001
 43
0.0000000001
 40
0.0
 40
0.0
 40
0.0
 40
2.450043654332194
 40
2.450043654332194
 40
2.450043654332194
 10
63.56759936564448
 20
25.25062485837897
 30
0.0
 10
62.40805308523968
 20
24.8554283984726
 30
0.0
 10
61.24850680483488
 20
24.46023193856624
 30
0.0
  0
POLYLINE
  5
7B
330
1F
100
AcDbEntity
  8
E 2D
100
AcDb2dPolyline
 66
     1
 10
0.0
 20
0.0
 30
0.0
  0
VERTEX
  5
7C
330
7B
100
AcDbEntity
  8
E 2D
100
AcDbVertex
100
AcDb2dVertex
 10
58.00574504066792
 20
27.81299999595628
 30
0.0
  0
VERTEX
  5
7D
330
7B
100
AcDbEntity
  8
E 2D
100
AcDbVertex
100
AcDb2dVertex
 10
60.34371761851601
 20
27.81299999595628
 30
0.0
  0
SEQEND
  5
7E
330
7B
100
AcDbEntity
  8
E 2D
  0
SPLINE
  5
7F
330
1F
100
AcDbEntity
  8
E 2D
100
AcDbSpline
210
0.0
220
0.0
230
1.0
 70
    24
 71
     2
 72
     6
 73
     3
 74
     0
 42
0.0000000001
 43
0.0000000001
 40
-3.031131383519992
 40
-3.031131383519992
 40
-3.031131383519992
 40
0.0
 40
0.0
 40
0.0
 10
60.34371761851601
 20
27.81299999595628
 30
0.0
 10
60.34761166410339
 20
26.29740050193514
 30
0.0
 10
60.35150570969077
 20
24.78180100791401
 30
0.0
  0
SPLINE
  5
80
330
1F
100
AcDbEntity
  8
E 2D
100
AcDbSpline
210
0.0
220
0.0
230
1.0
 70
    12
 71
     2
 72
     6
 73
     3
 74
     0
 42
0.0000000001
 43
0.0000000001
 40
-0.3433114792523052
 40
-0.3433114792523052
 40
-0.3433114792523052
 40
0.0
 40
0.0
 40
0.0
 10
60.35150570969076
 20
24.78180100791401
 30
0.0
 41
0.9997583392229558
 10
60.35213983797662
 20
24.57323233966721
 30
0.0
 41
0.7548305167534196
 10
60.50259112406508
 20
24.54421598638542
 30
0.0
 41
1.0
  0
SPLINE
  5
81
330
1F
100
AcDbEntity
  8
E 2D
100
AcDbSpline
210
0.0
220
0.0
230
1.0
 70
    24
 71
     2
 72
     6
 73
     3
 74
     0
 42
0.0000000001
 43
0.0000000001
 40
-0.7517321041836429
 40
-0.7517321041836429
 40
-0.7517321041836429
 40
0.0
 40
0.0
 40
0.0
 10
60.50259112406508
 20
24.54421598638542
 30
0.0
 10
60.87165601139172
 20
24.47303735154557
 30
0.0
 10
61.24072089871837
 20
24.40185871670573
 30
0.0
  0
SPLINE
  5
82
330
1F
100
AcDbEntity
  8
E 2D
100
AcDbSpline
210
0.0
220
0.0
230
1.0
 70
    24
 71
     2
 72
     6
 73
     3
 74
     0
 42
0.0000000001
 43
0.0000000001
 40
-24.22511143972562
 40
-24.22511143972562
 40
-24.22511143972562
 40
0.0
 40
0.0
 40
0.0
 10
61.24072089871837
 20
24.40185871670573
 30
0.0
 10
59.95786180679727
 20
12.35742935633101
 30
0.0
 10
58.67500271487617
 20
0.3129999959562819
 30
0.0
  0
LINE
  5
83
330
1F
100
AcDbEntity
  8
E 2D
100
AcDbLine
 10
58.67500271487617
 20
0.3129999959562819
 30
0.0
 11
55.61825597407908
 21
0.3131192180544369
 31
0.0
  0
SPLINE
  5
84
330
1F
100
AcDbEntity
  8
E 2D
100
AcDbSpline
210
0.0
220
0.0
230
1.0
 70
    24
 71
     2
 72
     6
 73
     3
 74
     0
 42
0.0000000001
 43
0.0000000001
 40
0.0
 40
0.0
 40
0.0
 40
27.60320614836507
 40
27.60320614836507
 40
27.60320614836507
 10
55.61825597407908
 20
0.3131192180544369
 30
0.0
 10
56.8120005073735
 20
14.06305960700536
 30
0.0
 10
58.00574504066792
 20
27.81299999595628
 30
0.0
  0
POLYLINE
  5
85
330
1F
100
AcDbEntity
  8
E 2D
100
AcDb2dPolyline
 66
     1
 10
0.0
 20
0.0
 30
0.0
  0
VERTEX
  5
86
330
85
100
AcDbEntity
  8
E 2D
100
AcDbVertex
100
AcDb2dVertex
 10
55.71198527270516
 20
0.3129999959563983
 30
0.0
  0
VERTEX
  5
87
330
85
100
AcDbEntity
  8
E 2D
100
AcDbVertex
100
AcDb2dVertex
 10
58.50281689790255
 20
0.3129999959563974
 30
0.0
  0
SEQEND
  5
88
330
85
100
AcDbEntity
  8
E 2D
  0
SPLINE
  5
89
330
1F
100
AcDbEntity
  8
E 2D
100
AcDbSpline
210
0.0
220
0.0
230
1.0
 70
    24
 71
     2
 72
     6
 73
     3
 74
     0
 42
0.0000000001
 43
0.0000000001
 40
0.0
 40
0.0
 40
0.0
 40
0.1879999959563761
 40
0.1879999959563761
 40
0.1879999959563761
 10
58.50281689790255
 20
0.3129999959563974
 30
0.0
 10
58.50281689790253
 20
0.2189999979782093
 30
0.0
 10
58.50281689790251
 20
0.1250000000000213
 30
0.0
  0
SPLINE
  5
8A
330
1F
100
AcDbEntity
  8
E 2D
100
AcDbSpline
210
0.0
220
0.0
230
1.0
 70
    12
 71
     2
 72
     6
 73
     3
 74
     0
 42
0.0000000001
 43
0.0000000001
 40
-0.2086852564238481
 40
-0.2086852564238481
 40
-0.2086852564238481
 40
0.0
 40
0.0
 40
0.0
 10
58.50281689790251
 20
0.1250000000000213
 30
0.0
 41
1.0
 10
58.49125710057108
 20
-0.0049944862320145
 30
0.0
 41
0.724703925400524
 10
58.36084525113878
 20
0.0
 30
0.0
 41
1.0
  0
SPLINE
  5
8B
330
1F
100
AcDbEntity
  8
E 2D
100
AcDbSpline
210
0.0
220
0.0
230
1.0
 70
    24
 71
     2
 72
     6
 73
     3
 74
     0
 42
0.0000000001
 43
0.0000000001
 40
0.0
 40
0.0
 40
0.0
 40
2.52289713806227
 40
2.52289713806227
 40
2.52289713806227
 10
58.36084525113878
 20
0.0
 30
0.0
 10
57.09907699652285
 20
0.0000000000012587
 30
0.0
 10
55.83730874190692
 20
0.0000000000025173
 30
0.0
  0
SPLINE
  5
8C
330
1F
100
AcDbEntity
  8
E 2D
100
AcDbSpline
210
0.0
220
0.0
230
1.0
 70
    12
 71
     2
 72
     6
 73
     3
 74
     0
 42
0.0000000001
 43
0.0000000001
 40
0.0
 40
0.0
 40
0.0
 40
0.1962284577300907
 40
0.1962284577300907
 40
0.1962284577300907
 10
55.83730874190692
 20
0.0000000000025173
 30
0.0
 41
1.0
 10
55.71204885995265
 20
0.0003790246453092
 30
0.0
 41
0.7094608718397355
 10
55.71179085025901
 20
0.125
 30
0.0
 41
0.9999976805327707
  0
SPLINE
  5
8D
330
1F
100
AcDbEntity
  8
E 2D
100
AcDbSpline
210
0.0
220
0.0
230
1.0
 70
    24
 71
     2
 72
     6
 73
     3
 74
     0
 42
0.0000000001
 43
0.0000000001
 40
0.0
 40
0.0
 40
0.0
 40
0.1879999959563983
 40
0.1879999959563983
 40
0.1879999959563983
 10
55.71179085025899
 20
0.125
 30
0.0
 10
55.71188806148208
 20
0.2189999979781991
 30
0.0
 10
55.71198527270516
 20
0.3129999959563983
 30
0.0
  0
SPLINE
  5
8E
330
1F
100
AcDbEntity
  8
E 2D
100
AcDbSpline
210
0.0
220
0.0
230
1.0
 70
    11
 71
     2
 72
    16
 73
    13
 74
     0
 42
0.0000000001
 43
0.0000000001
 40
-2354.065762023832
 40
-2354.065762023832
 40
-2354.065762023832
 40
-2352.173219604286
 40
-2352.173219604286
 40
-2331.200247111346
 40
-2331.200247111346
 40
-2328.449728788283
 40
-2328.449728788283
 40
-2305.586497407893
 40
-2305.586497407893
 40
-2303.023997407893
 40
-2303.023997407893
 40
-2302.835997390524
 40
-2302.835997390524
 40
-2302.835997390524
 10
63.56751855548175
 20
28.00099999595682
 30
0.0
 10
64.5137897652549
 20
28.00099999595687
 30
0.0
 10
65.46006097502806
 20
28.00099999595691
 30
0.0
 10
88.947668169701
 20
28.00099999595701
 30
0.0
 10
112.435275364374
 20
28.0009999959571
 30
0.0
 10
112.4352753643739
 20
26.62587485837938
 30
0.0
 10
112.4352753643739
 20
25.25074972080166
 30
0.0
 10
88.00198804549224
 20
25.25074972080166
 30
0.0
 10
63.56870072661055
 20
25.25074972080166
 30
0.0
 10
63.56815004612751
 20
26.53187485837897
 30
0.0
 10
63.56759936564448
 20
27.81299999595627
 30
0.0
 10
63.56755896056312
 20
27.90699999595655
 30
0.0
 10
63.56751855548175
 20
28.00099999595682
 30
0.0
  0
SPLINE
  5
8F
330
1F
100
AcDbEntity
  8
E 2D
100
AcDbSpline
210
0.0
220
0.0
230
1.0
 70
    11
 71
     2
 72
    22
 73
    19
 74
     0
 42
0.0000000001
 43
0.0000000001
 40
-4284.609917693162
 40
-4284.609917693162
 40
-4284.609917693162
 40
-4284.296917693163
 40
-4284.296917693163
 40
-4282.676836352272
 40
-4282.676836352272
 40
-4282.650112606662
 40
-4282.650112606662
 40
-4243.650112606662
 40
-4243.650112606662
 40
-4243.62338886106
 40
-4243.62338886106
 40
-4242.003307520169
 40
-4242.003307520169
 40
-4241.690307520005
 40
-4241.690307520005
 40
-4201.190307520005
 40
-4201.190307520005
 40
-4199.690307520005
 40
-4199.690307520005
 40
-4199.690307520005
 10
122.0025583132126
 20
29.00099999595627
 30
0.0
 10
122.0013123333354
 20
28.84391898599795
 30
0.0
 10
122.0000663534582
 20
28.68683797603962
 30
0.0
 10
121.2646742061402
 20
28.34391898599826
 30
0.0
 10
120.5292820588222
 20
28.00099999595691
 30
0.0
 10
120.5159201860173
 20
28.00099999595691
 30
0.0
 10
120.5025583132125
 20
28.00099999595691
 30
0.0
 10
88.0014373650092
 20
28.00099999595691
 30
0.0
 10
55.5003164168059
 20
28.00099999595691
 30
0.0
 10
55.48695454400445
 20
28.00099999595573
 30
0.0
 10
55.473592671203
 20
28.00099999595454
 30
0.0
 10
54.73820052391957
 20
28.3439189859383
 30
0.0
 10
54.00280837663614
 20
28.68683797592205
 30
0.0
 10
54.00156239672102
 20
28.84391898593916
 30
0.0
 10
54.0003164168059
 20
29.00099999595627
 30
0.0
 10
87.2514373650092
 20
29.00099999595627
 30
0.0
 10
120.5025583132125
 20
29.00099999595627
 30
0.0
 10
121.2525583132125
 20
29.00099999595627
 30
0.0
 10
122.0025583132126
 20
29.00099999595627
 30
0.0
  0
SPLINE
  5
90
330
1F
100
AcDbEntity
  8
E 2D
100
AcDbSpline
210
0.0
220
0.0
230
1.0
 70
    24
 71
     2
 72
     6
 73
     3
 74
     0
 42
0.0000000001
 43
0.0000000001
 40
0.0
 40
0.0
 40
0.0
 40
27.603445489506
 40
27.603445489506
 40
27.603445489506
 10
-28.73178457925945
 20
27.81299999595628
 30
0.0
 10
-29.92553946324209
 20
14.06299999595628
 30
0.0
 10
-31.11929434722472
 20
0.3129999959562739
 30
0.0
  0
POLYLINE
  5
91
330
1F
100
AcDbEntity
  8
E 2D
100
AcDb2dPolyline
 66
     1
 10
0.0
 20
0.0
 30
0.0
  0
VERTEX
  5
92
330
91
100
AcDbEntity
  8
E 2D
100
AcDbVertex
100
AcDb2dVertex
 10
-31.81525694687664
 20
28.00099999595628
 30
0.0
  0
VERTEX
  5
93
330
91
100
AcDbEntity
  8
E 2D
100
AcDbVertex
100
AcDb2dVertex
 10
-24.42865841648422
 20
28.00099999595627
 30
0.0
  0
SEQEND
  5
94
330
91
100
AcDbEntity
  8
E 2D
  0
SPLINE
  5
95
330
1F
100
AcDbEntity
  8
E 2D
100
AcDbSpline
210
0.0
220
0.0
230
1.0
 70
    24
 71
     2
 72
     6
 73
     3
 74
     0
 42
0.0000000001
 43
0.0000000001
 40
0.0
 40
0.0
 40
0.0
 40
0.1880000000000024
 40
0.1880000000000024
 40
0.1880000000000024
 10
-24.42865841648422
 20
28.00099999595627
 30
0.0
 10
-24.42865841648423
 20
27.90699999595622
 30
0.0
 10
-24.42865841648423
 20
27.81299999595617
 30
0.0
  0
LINE
  5
96
330
1F
100
AcDbEntity
  8
E 2D
100
AcDbLine
 10
-24.42865841648423
 20
27.81299999595617
 30
0.0
 11
-31.70541203756508
 21
27.81299999595627
 31
0.0
  0
SPLINE
  5
97
330
1F
100
AcDbEntity
  8
E 2D
100
AcDbSpline
210
0.0
220
0.0
230
1.0
 70
    28
 71
     2
 72
     6
 73
     3
 74
     0
 42
0.0000000001
 43
0.0000000001
 40
-3.141592653589794
 40
-3.141592653589794
 40
-3.141592653589794
 40
-2.25586805153241
 40
-2.25586805153241
 40
-2.25586805153241
 10
-31.70541203756508
 20
27.81299999595627
 30
0.0
 41
1.0
 10
-31.82643934464
 20
27.81299999595628
 30
0.0
 41
0.9068261637799945
 10
-31.81431481209693
 20
27.81299999595627
 30
0.0
 41
0.9936306632662366
  0
SPLINE
  5
98
330
1F
100
AcDbEntity
  8
E 2D
100
AcDbSpline
210
0.0
220
0.0
230
1.0
 70
    24
 71
     2
 72
     6
 73
     3
 74
     0
 42
0.0000000001
 43
0.0000000001
 40
0.0
 40
0.0
 40
0.0
 40
0.1880000000000024
 40
0.1880000000000024
 40
0.1880000000000024
 10
-31.81431481209693
 20
27.81299999595628
 30
0.0
 10
-31.81478587948678
 20
27.90699999595628
 30
0.0
 10
-31.81525694687664
 20
28.00099999595628
 30
0.0
  0
SPLINE
  5
99
330
1F
100
AcDbEntity
  8
E 2D
100
AcDbSpline
210
0.0
220
0.0
230
1.0
 70
    24
 71
     2
 72
     6
 73
     3
 74
     0
 42
0.0000000001
 43
0.0000000001
 40
0.0
 40
0.0
 40
0.0
 40
0.7522455994824915
 40
0.7522455994824915
 40
0.7522455994824915
 10
-26.75293056017432
 20
24.46023193856624
 30
0.0
 10
-27.12224088860429
 20
24.5314937221542
 30
0.0
 10
-27.49155121703427
 20
24.60275550574216
 30
0.0
  0
SPLINE
  5
9A
330
1F
100
AcDbEntity
  8
E 2D
100
AcDbSpline
210
0.0
220
0.0
230
1.0
 70
    12
 71
     2
 72
     6
 73
     3
 74
     0
 42
0.0000000001
 43
0.0000000001
 40
0.0
 40
0.0
 40
0.0
 40
0.23743127559879
 40
0.23743127559879
 40
0.23743127559879
 10
-27.49155121703427
 20
24.60275550574216
 30
0.0
 41
1.0
 10
-27.62337973725712
 20
24.64968949810895
 30
0.0
 41
0.7873276640512697
 10
-27.60942330397842
 20
24.78892590266527
 30
0.0
 41
1.0
  0
SPLINE
  5
9B
330
1F
100
AcDbEntity
  8
E 2D
100
AcDbSpline
210
0.0
220
0.0
230
1.0
 70
    24
 71
     2
 72
     6
 73
     3
 74
     0
 42
0.0000000001
 43
0.0000000001
 40
0.0
 40
0.0
 40
0.0
 40
3.024074093290999
 40
3.024074093290999
 40
3.024074093290999
 10
-27.60942330397842
 20
24.78892590266527
 30
0.0
 10
-27.60942330397842
 20
26.30096294931077
 30
0.0
 10
-27.60942330397843
 20
27.81299999595627
 30
0.0
  0
POLYLINE
  5
9C
330
1F
100
AcDbEntity
  8
E 2D
100
AcDb2dPolyline
 66
     1
 10
0.0
 20
0.0
 30
0.0
  0
VERTEX
  5
9D
330
9C
100
AcDbEntity
  8
E 2D
100
AcDbVertex
100
AcDb2dVertex
 10
-27.60942330397843
 20
27.81299999595627
 30
0.0
  0
VERTEX
  5
9E
330
9C
100
AcDbEntity
  8
E 2D
100
AcDbVertex
100
AcDb2dVertex
 10
-24.42865841648423
 20
27.81299999595627
 30
0.0
  0
VERTEX
  5
9F
330
9C
100
AcDbEntity
  8
E 2D
100
AcDbVertex
100
AcDb2dVertex
 10
-24.43383799936472
 20
25.25062485837897
 30
0.0
  0
SEQEND
  5
A0
330
9C
100
AcDbEntity
  8
E 2D
  0
SPLINE
  5
A1
330
1F
100
AcDbEntity
  8
E 2D
100
AcDbSpline
210
0.0
220
0.0
230
1.0
 70
    24
 71
     2
 72
     6
 73
     3
 74
     0
 42
0.0000000001
 43
0.0000000001
 40
0.0
 40
0.0
 40
0.0
 40
2.450043654332194
 40
2.450043654332194
 40
2.450043654332194
 10
-24.43383799936472
 20
25.25062485837897
 30
0.0
 10
-25.59338427976952
 20
24.8554283984726
 30
0.0
 10
-26.75293056017432
 20
24.46023193856624
 30
0.0
  0
POLYLINE
  5
A2
330
1F
100
AcDbEntity
  8
E 2D
100
AcDb2dPolyline
 66
     1
 10
0.0
 20
0.0
 30
0.0
  0
VERTEX
  5
A3
330
A2
100
AcDbEntity
  8
E 2D
100
AcDbVertex
100
AcDb2dVertex
 10
-29.99569232434127
 20
27.81299999595628
 30
0.0
  0
VERTEX
  5
A4
330
A2
100
AcDbEntity
  8
E 2D
100
AcDbVertex
100
AcDb2dVertex
 10
-27.65771974649318
 20
27.81299999595628
 30
0.0
  0
SEQEND
  5
A5
330
A2
100
AcDbEntity
  8
E 2D
  0
SPLINE
  5
A6
330
1F
100
AcDbEntity
  8
E 2D
100
AcDbSpline
210
0.0
220
0.0
230
1.0
 70
    24
 71
     2
 72
     6
 73
     3
 74
     0
 42
0.0000000001
 43
0.0000000001
 40
-3.031131383519992
 40
-3.031131383519992
 40
-3.031131383519992
 40
0.0
 40
0.0
 40
0.0
 10
-27.65771974649318
 20
27.81299999595628
 30
0.0
 10
-27.65382570090581
 20
26.29740050193514
 30
0.0
 10
-27.64993165531843
 20
24.78180100791401
 30
0.0
  0
SPLINE
  5
A7
330
1F
100
AcDbEntity
  8
E 2D
100
AcDbSpline
210
0.0
220
0.0
230
1.0
 70
    12
 71
     2
 72
     6
 73
     3
 74
     0
 42
0.0000000001
 43
0.0000000001
 40
-0.3433114792523052
 40
-0.3433114792523052
 40
-0.3433114792523052
 40
0.0
 40
0.0
 40
0.0
 10
-27.64993165531843
 20
24.78180100791401
 30
0.0
 41
0.9997583392229558
 10
-27.64929752703258
 20
24.57323233966721
 30
0.0
 41
0.7548305167534196
 10
-27.49884624094411
 20
24.54421598638542
 30
0.0
 41
1.0
  0
SPLINE
  5
A8
330
1F
100
AcDbEntity
  8
E 2D
100
AcDbSpline
210
0.0
220
0.0
230
1.0
 70
    24
 71
     2
 72
     6
 73
     3
 74
     0
 42
0.0000000001
 43
0.0000000001
 40
-0.7517321041836429
 40
-0.7517321041836429
 40
-0.7517321041836429
 40
0.0
 40
0.0
 40
0.0
 10
-27.49884624094411
 20
24.54421598638542
 30
0.0
 10
-27.12978135361747
 20
24.47303735154557
 30
0.0
 10
-26.76071646629083
 20
24.40185871670573
 30
0.0
  0
SPLINE
  5
A9
330
1F
100
AcDbEntity
  8
E 2D
100
AcDbSpline
210
0.0
220
0.0
230
1.0
 70
    24
 71
     2
 72
     6
 73
     3
 74
     0
 42
0.0000000001
 43
0.0000000001
 40
-24.22511143972562
 40
-24.22511143972562
 40
-24.22511143972562
 40
0.0
 40
0.0
 40
0.0
 10
-26.76071646629083
 20
24.40185871670573
 30
0.0
 10
-28.04357555821192
 20
12.35742935633101
 30
0.0
 10
-29.32643465013302
 20
0.3129999959562819
 30
0.0
  0
LINE
  5
AA
330
1F
100
AcDbEntity
  8
E 2D
100
AcDbLine
 10
-29.32643465013302
 20
0.3129999959562819
 30
0.0
 11
-32.38318139093012
 21
0.3131192180544369
 31
0.0
  0
SPLINE
  5
AB
330
1F
100
AcDbEntity
  8
E 2D
100
AcDbSpline
210
0.0
220
0.0
230
1.0
 70
    24
 71
     2
 72
     6
 73
     3
 74
     0
 42
0.0000000001
 43
0.0000000001
 40
0.0
 40
0.0
 40
0.0
 40
27.60320614836507
 40
27.60320614836507
 40
27.60320614836507
 10
-32.38318139093012
 20
0.3131192180544369
 30
0.0
 10
-31.1894368576357
 20
14.06305960700536
 30
0.0
 10
-29.99569232434127
 20
27.81299999595628
 30
0.0
  0
POLYLINE
  5
AC
330
1F
100
AcDbEntity
  8
E 2D
100
AcDb2dPolyline
 66
     1
 10
0.0
 20
0.0
 30
0.0
  0
VERTEX
  5
AD
330
AC
100
AcDbEntity
  8
E 2D
100
AcDbVertex
100
AcDb2dVertex
 10
-32.28945209230403
 20
0.3129999959563983
 30
0.0
  0
VERTEX
  5
AE
330
AC
100
AcDbEntity
  8
E 2D
100
AcDbVertex
100
AcDb2dVertex
 10
-29.49862046710664
 20
0.3129999959563974
 30
0.0
  0
SEQEND
  5
AF
330
AC
100
AcDbEntity
  8
E 2D
  0
SPLINE
  5
B0
330
1F
100
AcDbEntity
  8
E 2D
100
AcDbSpline
210
0.0
220
0.0
230
1.0
 70
    24
 71
     2
 72
     6
 73
     3
 74
     0
 42
0.0000000001
 43
0.0000000001
 40
0.0
 40
0.0
 40
0.0
 40
0.1879999959563761
 40
0.1879999959563761
 40
0.1879999959563761
 10
-29.49862046710664
 20
0.3129999959563974
 30
0.0
 10
-29.49862046710667
 20
0.2189999979782093
 30
0.0
 10
-29.49862046710669
 20
0.1250000000000213
 30
0.0
  0
SPLINE
  5
B1
330
1F
100
AcDbEntity
  8
E 2D
100
AcDbSpline
210
0.0
220
0.0
230
1.0
 70
    12
 71
     2
 72
     6
 73
     3
 74
     0
 42
0.0000000001
 43
0.0000000001
 40
-0.2086852564238481
 40
-0.2086852564238481
 40
-0.2086852564238481
 40
0.0
 40
0.0
 40
0.0
 10
-29.49862046710669
 20
0.1250000000000213
 30
0.0
 41
1.0
 10
-29.51018026443811
 20
-0.0049944862320145
 30
0.0
 41
0.724703925400524
 10
-29.64059211387041
 20
0.0
 30
0.0
 41
1.0
  0
SPLINE
  5
B2
330
1F
100
AcDbEntity
  8
E 2D
100
AcDbSpline
210
0.0
220
0.0
230
1.0
 70
    24
 71
     2
 72
     6
 73
     3
 74
     0
 42
0.0000000001
 43
0.0000000001
 40
0.0
 40
0.0
 40
0.0
 40
2.52289713806227
 40
2.52289713806227
 40
2.52289713806227
 10
-29.64059211387041
 20
0.0
 30
0.0
 10
-30.90236036848634
 20
0.0000000000012587
 30
0.0
 10
-32.16412862310227
 20
0.0000000000025173
 30
0.0
  0
SPLINE
  5
B3
330
1F
100
AcDbEntity
  8
E 2D
100
AcDbSpline
210
0.0
220
0.0
230
1.0
 70
    12
 71
     2
 72
     6
 73
     3
 74
     0
 42
0.0000000001
 43
0.0000000001
 40
0.0
 40
0.0
 40
0.0
 40
0.1962284577300907
 40
0.1962284577300907
 40
0.1962284577300907
 10
-32.16412862310227
 20
0.0000000000025173
 30
0.0
 41
1.0
 10
-32.28938850505655
 20
0.0003790246453092
 30
0.0
 41
0.7094608718397355
 10
-32.2896465147502
 20
0.125
 30
0.0
 41
0.9999976805327707
  0
SPLINE
  5
B4
330
1F
100
AcDbEntity
  8
E 2D
100
AcDbSpline
210
0.0
220
0.0
230
1.0
 70
    24
 71
     2
 72
     6
 73
     3
 74
     0
 42
0.0000000001
 43
0.0000000001
 40
0.0
 40
0.0
 40
0.0
 40
0.1879999959563983
 40
0.1879999959563983
 40
0.1879999959563983
 10
-32.2896465147502
 20
0.125
 30
0.0
 10
-32.28954930352712
 20
0.2189999979781991
 30
0.0
 10
-32.28945209230403
 20
0.3129999959563983
 30
0.0
  0
SPLINE
  5
B5
330
1F
100
AcDbEntity
  8
E 2D
100
AcDbSpline
210
0.0
220
0.0
230
1.0
 70
    24
 71
     2
 72
     6
 73
     3
 74
     0
 42
0.0000000001
 43
0.0000000001
 40
0.0
 40
0.0
 40
0.0
 40
27.603445489506
 40
27.603445489506
 40
27.603445489506
 10
28.73178457925945
 20
27.81299999595628
 30
0.0
 10
29.92553946324209
 20
14.06299999595628
 30
0.0
 10
31.11929434722472
 20
0.3129999959562739
 30
0.0
  0
POLYLINE
  5
B6
330
1F
100
AcDbEntity
  8
E 2D
100
AcDb2dPolyline
 66
     1
 10
0.0
 20
0.0
 30
0.0
  0
VERTEX
  5
B7
330
B6
100
AcDbEntity
  8
E 2D
100
AcDbVertex
100
AcDb2dVertex
 10
31.81525694687664
 20
28.00099999595628
 30
0.0
  0
VERTEX
  5
B8
330
B6
100
AcDbEntity
  8
E 2D
100
AcDbVertex
100
AcDb2dVertex
 10
24.42865841648422
 20
28.00099999595627
 30
0.0
  0
SEQEND
  5
B9
330
B6
100
AcDbEntity
  8
E 2D
  0
SPLINE
  5
BA
330
1F
100
AcDbEntity
  8
E 2D
100
AcDbSpline
210
0.0
220
0.0
230
1.0
 70
    24
 71
     2
 72
     6
 73
     3
 74
     0
 42
0.0000000001
 43
0.0000000001
 40
0.0
 40
0.0
 40
0.0
 40
0.1880000000000024
 40
0.1880000000000024
 40
0.1880000000000024
 10
24.42865841648422
 20
28.00099999595627
 30
0.0
 10
24.42865841648423
 20
27.90699999595622
 30
0.0
 10
24.42865841648423
 20
27.81299999595617
 30
0.0
  0
LINE
  5
BB
330
1F
100
AcDbEntity
  8
E 2D
100
AcDbLine
 10
24.42865841648423
 20
27.81299999595617
 30
0.0
 11
31.70541203756508
 21
27.81299999595627
 31
0.0
  0
SPLINE
  5
BC
330
1F
100
AcDbEntity
  8
E 2D
100
AcDbSpline
210
0.0
220
0.0
230
1.0
 70
    28
 71
     2
 72
     6
 73
     3
 74
     0
 42
0.0000000001
 43
0.0000000001
 40
-3.141592653589794
 40
-3.141592653589794
 40
-3.141592653589794
 40
-2.25586805153241
 40
-2.25586805153241
 40
-2.25586805153241
 10
31.70541203756508
 20
27.81299999595627
 30
0.0
 41
1.0
 10
31.82643934464
 20
27.81299999595628
 30
0.0
 41
0.9068261637799945
 10
31.81431481209693
 20
27.81299999595627
 30
0.0
 41
0.9936306632662366
  0
SPLINE
  5
BD
330
1F
100
AcDbEntity
  8
E 2D
100
AcDbSpline
210
0.0
220
0.0
230
1.0
 70
    24
 71
     2
 72
     6
 73
     3
 74
     0
 42
0.0000000001
 43
0.0000000001
 40
0.0
 40
0.0
 40
0.0
 40
0.1880000000000024
 40
0.1880000000000024
 40
0.1880000000000024
 10
31.81431481209693
 20
27.81299999595628
 30
0.0
 10
31.81478587948678
 20
27.90699999595628
 30
0.0
 10
31.81525694687664
 20
28.00099999595628
 30
0.0
  0
SPLINE
  5
BE
330
1F
100
AcDbEntity
  8
E 2D
100
AcDbSpline
210
0.0
220
0.0
230
1.0
 70
    24
 71
     2
 72
     6
 73
     3
 74
     0
 42
0.0000000001
 43
0.0000000001
 40
0.0
 40
0.0
 40
0.0
 40
0.7522455994824915
 40
0.7522455994824915
 40
0.7522455994824915
 10
26.75293056017432
 20
24.46023193856624
 30
0.0
 10
27.12224088860429
 20
24.5314937221542
 30
0.0
 10
27.49155121703427
 20
24.60275550574216
 30
0.0
  0
SPLINE
  5
BF
330
1F
100
AcDbEntity
  8
E 2D
100
AcDbSpline
210
0.0
220
0.0
230
1.0
 70
    12
 71
     2
 72
     6
 73
     3
 74
     0
 42
0.0000000001
 43
0.0000000001
 40
0.0
 40
0.0
 40
0.0
 40
0.23743127559879
 40
0.23743127559879
 40
0.23743127559879
 10
27.49155121703427
 20
24.60275550574216
 30
0.0
 41
1.0
 10
27.62337973725712
 20
24.64968949810895
 30
0.0
 41
0.7873276640512697
 10
27.60942330397843
 20
24.78892590266527
 30
0.0
 41
1.0
  0
SPLINE
  5
C0
330
1F
100
AcDbEntity
  8
E 2D
100
AcDbSpline
210
0.0
220
0.0
230
1.0
 70
    24
 71
     2
 72
     6
 73
     3
 74
     0
 42
0.0000000001
 43
0.0000000001
 40
0.0
 40
0.0
 40
0.0
 40
3.024074093290999
 40
3.024074093290999
 40
3.024074093290999
 10
27.60942330397843
 20
24.78892590266527
 30
0.0
 10
27.60942330397843
 20
26.30096294931077
 30
0.0
 10
27.60942330397843
 20
27.81299999595627
 30
0.0
  0
POLYLINE
  5
C1
330
1F
100
AcDbEntity
  8
E 2D
100
AcDb2dPolyline
 66
     1
 10
0.0
 20
0.0
 30
0.0
  0
VERTEX
  5
C2
330
C1
100
AcDbEntity
  8
E 2D
100
AcDbVertex
100
AcDb2dVertex
 10
27.60942330397843
 20
27.81299999595627
 30
0.0
  0
VERTEX
  5
C3
330
C1
100
AcDbEntity
  8
E 2D
100
AcDbVertex
100
AcDb2dVertex
 10
24.42865841648423
 20
27.81299999595627
 30
0.0
  0
VERTEX
  5
C4
330
C1
100
AcDbEntity
  8
E 2D
100
AcDbVertex
100
AcDb2dVertex
 10
24.43383799936472
 20
25.25062485837897
 30
0.0
  0
SEQEND
  5
C5
330
C1
100
AcDbEntity
  8
E 2D
  0
SPLINE
  5
C6
330
1F
100
AcDbEntity
  8
E 2D
100
AcDbSpline
210
0.0
220
0.0
230
1.0
 70
    24
 71
     2
 72
     6
 73
     3
 74
     0
 42
0.0000000001
 43
0.0000000001
 40
0.0
 40
0.0
 40
0.0
 40
2.450043654332194
 40
2.450043654332194
 40
2.450043654332194
 10
24.43383799936472
 20
25.25062485837897
 30
0.0
 10
25.59338427976952
 20
24.8554283984726
 30
0.0
 10
26.75293056017432
 20
24.46023193856624
 30
0.0
  0
POLYLINE
  5
C7
330
1F
100
AcDbEntity
  8
E 2D
100
AcDb2dPolyline
 66
     1
 10
0.0
 20
0.0
 30
0.0
  0
VERTEX
  5
C8
330
C7
100
AcDbEntity
  8
E 2D
100
AcDbVertex
100
AcDb2dVertex
 10
29.99569232434127
 20
27.81299999595628
 30
0.0
  0
VERTEX
  5
C9
330
C7
100
AcDbEntity
  8
E 2D
100
AcDbVertex
100
AcDb2dVertex
 10
27.65771974649318
 20
27.81299999595628
 30
0.0
  0
SEQEND
  5
CA
330
C7
100
AcDbEntity
  8
E 2D
  0
SPLINE
  5
CB
330
1F
100
AcDbEntity
  8
E 2D
100
AcDbSpline
210
0.0
220
0.0
230
1.0
 70
    24
 71
     2
 72
     6
 73
     3
 74
     0
 42
0.0000000001
 43
0.0000000001
 40
-3.031131383519992
 40
-3.031131383519992
 40
-3.031131383519992
 40
0.0
 40
0.0
 40
0.0
 10
27.65771974649318
 20
27.81299999595628
 30
0.0
 10
27.65382570090581
 20
26.29740050193514
 30
0.0
 10
27.64993165531843
 20
24.78180100791401
 30
0.0
  0
SPLINE
  5
CC
330
1F
100
AcDbEntity
  8
E 2D
100
AcDbSpline
210
0.0
220
0.0
230
1.0
 70
    12
 71
     2
 72
     6
 73
     3
 74
     0
 42
0.0000000001
 43
0.0000000001
 40
-0.3433114792523052
 40
-0.3433114792523052
 40
-0.3433114792523052
 40
0.0
 40
0.0
 40
0.0
 10
27.64993165531843
 20
24.78180100791401
 30
0.0
 41
0.9997583392229558
 10
27.64929752703258
 20
24.57323233966721
 30
0.0
 41
0.7548305167534196
 10
27.49884624094411
 20
24.54421598638542
 30
0.0
 41
1.0
  0
SPLINE
  5
CD
330
1F
100
AcDbEntity
  8
E 2D
100
AcDbSpline
210
0.0
220
0.0
230
1.0
 70
    24
 71
     2
 72
     6
 73
     3
 74
     0
 42
0.0000000001
 43
0.0000000001
 40
-0.7517321041836429
 40
-0.7517321041836429
 40
-0.7517321041836429
 40
0.0
 40
0.0
 40
0.0
 10
27.49884624094411
 20
24.54421598638542
 30
0.0
 10
27.12978135361747
 20
24.47303735154557
 30
0.0
 10
26.76071646629083
 20
24.40185871670573
 30
0.0
  0
SPLINE
  5
CE
330
1F
100
AcDbEntity
  8
E 2D
100
AcDbSpline
210
0.0
220
0.0
230
1.0
 70
    24
 71
     2
 72
     6
 73
     3
 74
     0
 42
0.0000000001
 43
0.0000000001
 40
-24.22511143972562
 40
-24.22511143972562
 40
-24.22511143972562
 40
0.0
 40
0.0
 40
0.0
 10
26.76071646629083
 20
24.40185871670573
 30
0.0
 10
28.04357555821192
 20
12.35742935633101
 30
0.0
 10
29.32643465013302
 20
0.3129999959562819
 30
0.0
  0
LINE
  5
CF
330
1F
100
AcDbEntity
  8
E 2D
100
AcDbLine
 10
29.32643465013302
 20
0.3129999959562819
 30
0.0
 11
32.38318139093012
 21
0.3131192180544369
 31
0.0
  0
SPLINE
  5
D0
330
1F
100
AcDbEntity
  8
E 2D
100
AcDbSpline
210
0.0
220
0.0
230
1.0
 70
    24
 71
     2
 72
     6
 73
     3
 74
     0
 42
0.0000000001
 43
0.0000000001
 40
0.0
 40
0.0
 40
0.0
 40
27.60320614836507
 40
27.60320614836507
 40
27.60320614836507
 10
32.38318139093012
 20
0.3131192180544369
 30
0.0
 10
31.1894368576357
 20
14.06305960700536
 30
0.0
 10
29.99569232434127
 20
27.81299999595628
 30
0.0
  0
POLYLINE
  5
D1
330
1F
100
AcDbEntity
  8
E 2D
100
AcDb2dPolyline
 66
     1
 10
0.0
 20
0.0
 30
0.0
  0
VERTEX
  5
D2
330
D1
100
AcDbEntity
  8
E 2D
100
AcDbVertex
100
AcDb2dVertex
 10
32.28945209230403
 20
0.3129999959563983
 30
0.0
  0
VERTEX
  5
D3
330
D1
100
AcDbEntity
  8
E 2D
100
AcDbVertex
100
AcDb2dVertex
 10
29.49862046710664
 20
0.3129999959563974
 30
0.0
  0
SEQEND
  5
D4
330
D1
100
AcDbEntity
  8
E 2D
  0
SPLINE
  5
D5
330
1F
100
AcDbEntity
  8
E 2D
100
AcDbSpline
210
0.0
220
0.0
230
1.0
 70
    24
 71
     2
 72
     6
 73
     3
 74
     0
 42
0.0000000001
 43
0.0000000001
 40
0.0
 40
0.0
 40
0.0
 40
0.1879999959563761
 40
0.1879999959563761
 40
0.1879999959563761
 10
29.49862046710664
 20
0.3129999959563974
 30
0.0
 10
29.49862046710667
 20
0.2189999979782093
 30
0.0
 10
29.49862046710669
 20
0.1250000000000213
 30
0.0
  0
SPLINE
  5
D6
330
1F
100
AcDbEntity
  8
E 2D
100
AcDbSpline
210
0.0
220
0.0
230
1.0
 70
    12
 71
     2
 72
     6
 73
     3
 74
     0
 42
0.0000000001
 43
0.0000000001
 40
-0.2086852564238481
 40
-0.2086852564238481
 40
-0.2086852564238481
 40
0.0
 40
0.0
 40
0.0
 10
29.49862046710669
 20
0.1250000000000213
 30
0.0
 41
1.0
 10
29.51018026443811
 20
-0.0049944862320145
 30
0.0
 41
0.724703925400524
 10
29.64059211387041
 20
0.0
 30
0.0
 41
1.0
  0
SPLINE
  5
D7
330
1F
100
AcDbEntity
  8
E 2D
100
AcDbSpline
210
0.0
220
0.0
230
1.0
 70
    24
 71
     2
 72
     6
 73
     3
 74
     0
 42
0.0000000001
 43
0.0000000001
 40
0.0
 40
0.0
 40
0.0
 40
2.52289713806227
 40
2.52289713806227
 40
2.52289713806227
 10
29.64059211387041
 20
0.0
 30
0.0
 10
30.90236036848634
 20
0.0000000000012587
 30
0.0
 10
32.16412862310227
 20
0.0000000000025173
 30
0.0
  0
SPLINE
  5
D8
330
1F
100
AcDbEntity
  8
E 2D
100
AcDbSpline
210
0.0
220
0.0
230
1.0
 70
    12
 71
     2
 72
     6
 73
     3
 74
     0
 42
0.0000000001
 43
0.0000000001
 40
0.0
 40
0.0
 40
0.0
 40
0.1962284577300907
 40
0.1962284577300907
 40
0.1962284577300907
 10
32.16412862310227
 20
0.0000000000025173
 30
0.0
 41
1.0
 10
32.28938850505655
 20
0.0003790246453092
 30
0.0
 41
0.7094608718397355
 10
32.2896465147502
 20
0.125
 30
0.0
 41
0.9999976805327707
  0
SPLINE
  5
D9
330
1F
100
AcDbEntity
  8
E 2D
100
AcDbSpline
210
0.0
220
0.0
230
1.0
 70
    24
 71
     2
 72
     6
 73
     3
 74
     0
 42
0.0000000001
 43
0.0000000001
 40
0.0
 40
0.0
 40
0.0
 40
0.1879999959563983
 40
0.1879999959563983
 40
0.1879999959563983
 10
32.2896465147502
 20
0.125
 30
0.0
 10
32.28954930352712
 20
0.2189999979781991
 30
0.0
 10
32.28945209230403
 20
0.3129999959563983
 30
0.0
  0
SPLINE
  5
DA
330
1F
100
AcDbEntity
  8
E 2D
100
AcDbSpline
210
0.0
220
0.0
230
1.0
 70
    11
 71
     2
 72
    16
 73
    13
 74
     0
 42
0.0000000001
 43
0.0000000001
 40
-2354.065762023832
 40
-2354.065762023832
 40
-2354.065762023832
 40
-2352.173219604286
 40
-2352.173219604286
 40
-2331.200247111346
 40
-2331.200247111346
 40
-2328.449728788283
 40
-2328.449728788283
 40
-2305.586497407893
 40
-2305.586497407893
 40
-2303.023997407893
 40
-2303.023997407893
 40
-2302.835997390524
 40
-2302.835997390524
 40
-2302.835997390524
 10
24.43391880952744
 20
28.00099999595682
 30
0.0
 10
23.48764759975429
 20
28.00099999595687
 30
0.0
 10
22.54137638998114
 20
28.00099999595691
 30
0.0
 10
-0.9462308046918047
 20
28.00099999595701
 30
0.0
 10
-24.43383799936475
 20
28.0009999959571
 30
0.0
 10
-24.43383799936473
 20
26.62587485837938
 30
0.0
 10
-24.43383799936472
 20
25.25074972080166
 30
0.0
 10
-0.0005506804830375
 20
25.25074972080166
 30
0.0
 10
24.43273663839864
 20
25.25074972080166
 30
0.0
 10
24.43328731888168
 20
26.53187485837897
 30
0.0
 10
24.43383799936472
 20
27.81299999595627
 30
0.0
 10
24.43387840444608
 20
27.90699999595655
 30
0.0
 10
24.43391880952744
 20
28.00099999595682
 30
0.0
  0
SPLINE
  5
DB
330
1F
100
AcDbEntity
  8
E 2D
100
AcDbSpline
210
0.0
220
0.0
230
1.0
 70
    11
 71
     2
 72
    22
 73
    19
 74
     0
 42
0.0000000001
 43
0.0000000001
 40
-4284.609917693162
 40
-4284.609917693162
 40
-4284.609917693162
 40
-4284.296917693163
 40
-4284.296917693163
 40
-4282.676836352272
 40
-4282.676836352272
 40
-4282.650112606662
 40
-4282.650112606662
 40
-4243.650112606662
 40
-4243.650112606662
 40
-4243.62338886106
 40
-4243.62338886106
 40
-4242.003307520169
 40
-4242.003307520169
 40
-4241.690307520005
 40
-4241.690307520005
 40
-4201.190307520005
 40
-4201.190307520005
 40
-4199.690307520005
 40
-4199.690307520005
 40
-4199.690307520005
 10
-34.00112094820336
 20
29.00099999595627
 30
0.0
 10
-33.99987496832619
 20
28.84391898599795
 30
0.0
 10
-33.99862898844901
 20
28.68683797603962
 30
0.0
 10
-33.263236841131
 20
28.34391898599826
 30
0.0
 10
-32.52784469381298
 20
28.00099999595691
 30
0.0
 10
-32.51448282100814
 20
28.00099999595691
 30
0.0
 10
-32.50112094820329
 20
28.00099999595691
 30
0.0
 10
0.0
 20
28.00099999595691
 30
0.0
 10
32.50112094820329
 20
28.00099999595691
 30
0.0
 10
32.51448282100475
 20
28.00099999595573
 30
0.0
 10
32.52784469380619
 20
28.00099999595454
 30
0.0
 10
33.26323684108962
 20
28.3439189859383
 30
0.0
 10
33.99862898837306
 20
28.68683797592205
 30
0.0
 10
33.99987496828818
 20
28.84391898593916
 30
0.0
 10
34.00112094820329
 20
29.00099999595627
 30
0.0
 10
0.75
 20
29.00099999595627
 30
0.0
 10
-32.50112094820329
 20
29.00099999595627
 30
0.0
 10
-33.25112094820333
 20
29.00099999595627
 30
0.0
 10
-34.00112094820336
 20
29.00099999595627
 30
0.0
  0
ENDSEC
  0
SECTION
  2
OBJECTS
  0
DICTIONARY
  5
C
330
0
100
AcDbDictionary
281
     1
  3
ACAD_GROUP
350
D
  3
ACAD_LAYOUT
350
1A
  3
ACAD_MLEADERSTYLE
350
DD
  3
ACAD_MLINESTYLE
350
17
  3
ACAD_PLOTSETTINGS
350
19
  3
ACAD_PLOTSTYLENAME
350
E
  3
ACAD_TABLESTYLE
350
DC
  3
ACAD_VISUALSTYLE
350
2A
  0
DICTIONARY
  5
D
102
{ACAD_REACTORS
330
C
102
}
330
C
100
AcDbDictionary
281
     1
  0
DICTIONARY
  5
1A
102
{ACAD_REACTORS
330
C
102
}
330
C
100
AcDbDictionary
281
     1
  3
Layout1
350
1E
  3
Layout2
350
26
  3
Model
350
22
  0
DICTIONARY
  5
DD
102
{ACAD_REACTORS
330
C
102
}
330
C
100
AcDbDictionary
281
     1
  0
DICTIONARY
  5
17
102
{ACAD_REACTORS
330
C
102
}
330
C
100
AcDbDictionary
281
     1
  3
Standard
350
18
  0
DICTIONARY
  5
19
102
{ACAD_REACTORS
330
C
102
}
330
C
100
AcDbDictionary
281
     1
  0
ACDBDICTIONARYWDFLT
  5
E
102
{ACAD_REACTORS
330
C
102
}
330
C
100
AcDbDictionary
281
     1
  3
Normal
350
F
100
AcDbDictionaryWithDefault
340
F
  0
DICTIONARY
  5
DC
102
{ACAD_REACTORS
330
C
102
}
330
C
100
AcDbDictionary
281
     1
  0
DICTIONARY
  5
2A
102
{ACAD_REACTORS
330
C
102
}
330
C
100
AcDbDictionary
281
     1
  3
2dWireframe
350
2F
  3
3D Hidden
350
31
  3
3dWireframe
350
30
  3
Basic
350
32
  3
Brighten
350
36
  3
ColorChange
350
3A
  3
Conceptual
350
34
  3
Dim
350
35
  3
Facepattern
350
39
  3
Flat
350
2B
  3
FlatWithEdges
350
2C
  3
Gouraud
350
2D
  3
GouraudWithEdges
350
2E
  3
Linepattern
350
38
  3
Realistic
350
33
  3
Thicken
350
37
  0
LAYOUT
  5
1E
102
{ACAD_REACTORS
330
1A
102
}
330
1A
100
AcDbPlotSettings
  1

  2
none_device
  4

  6

 40
0.0
 41
0.0
 42
0.0
 43
0.0
 44
0.0
 45
0.0
 46
0.0
 47
0.0
 48
0.0
 49
0.0
140
0.0
141
0.0
142
1.0
143
1.0
 70
   688
 72
     0
 73
     0
 74
     5
  7

 75
    16
 76
     0
 77
     2
 78
   300
147
1.0
148
0.0
149
0.0
100
AcDbLayout
  1
Layout1
 70
     1
 71
     1
 10
0.0
 20
0.0
 11
12.0
 21
9.0
 12
0.0
 22
0.0
 32
0.0
 14
1.000000000000000E+20
 24
1.000000000000000E+20
 34
1.000000000000000E+20
 15
-1.000000000000000E+20
 25
-1.000000000000000E+20
 35
-1.000000000000000E+20
146
0.0
 13
0.0
 23
0.0
 33
0.0
 16
1.0
 26
0.0
 36
0.0
 17
0.0
 27
1.0
 37
0.0
 76
     0
330
1B
  0
LAYOUT
  5
26
102
{ACAD_REACTORS
330
1A
102
}
330
1A
100
AcDbPlotSettings
  1

  2
none_device
  4

  6

 40
0.0
 41
0.0
 42
0.0
 43
0.0
 44
0.0
 45
0.0
 46
0.0
 47
0.0
 48
0.0
 49
0.0
140
0.0
141
0.0
142
1.0
143
1.0
 70
   688
 72
     0
 73
     0
 74
     5
  7

 75
    16
 76
     0
 77
     2
 78
   300
147
1.0
148
0.0
149
0.0
100
AcDbLayout
  1
Layout2
 70
     1
 71
     2
 10
0.0
 20
0.0
 11
0.0
 21
0.0
 12
0.0
 22
0.0
 32
0.0
 14
0.0
 24
0.0
 34
0.0
 15
0.0
 25
0.0
 35
0.0
146
0.0
 13
0.0
 23
0.0
 33
0.0
 16
1.0
 26
0.0
 36
0.0
 17
0.0
 27
1.0
 37
0.0
 76
     0
330
23
  0
LAYOUT
  5
22
102
{ACAD_REACTORS
330
1A
102
}
330
1A
100
AcDbPlotSettings
  1

  2
none_device
  4

  6

 40
0.0
 41
0.0
 42
0.0
 43
0.0
 44
0.0
 45
0.0
 46
0.0
 47
0.0
 48
0.0
 49
0.0
140
0.0
141
0.0
142
1.0
143
1.0
 70
  1712
 72
     0
 73
     0
 74
     0
  7

 75
     0
 76
     0
 77
     2
 78
   300
147
1.0
148
0.0
149
0.0
100
AcDbLayout
  1
Model
 70
     1
 71
     0
 10
0.0
 20
0.0
 11
12.0
 21
9.0
 12
0.0
 22
0.0
 32
0.0
 14
-34.00112094820336
 24
-0.0000000000034689
 34
0.0
 15
122.0025583132126
 25
117.0009999959563
 35
0.0
146
0.0
 13
0.0
 23
0.0
 33
0.0
 16
1.0
 26
0.0
 36
0.0
 17
0.0
 27
1.0
 37
0.0
 76
     0
330
1F
331
29
  0
MLINESTYLE
  5
18
102
{ACAD_REACTORS
330
17
102
}
330
17
100
AcDbMlineStyle
  2
Standard
 70
     0
  3

 62
   256
 51
90.0
 52
90.0
 71
     2
 49
0.5
 62
   256
  6
BYLAYER
 49
-0.5
 62
   256
  6
BYLAYER
  0
ACDBPLACEHOLDER
  5
F
102
{ACAD_REACTORS
330
E
102
}
330
E
  0
VISUALSTYLE
  5
2F
102
{ACAD_REACTORS
330
2A
102
}
330
2A
100
AcDbVisualStyle
  2
2dWireframe
 70
     4
 71
     0
 72
     2
 73
     0
 90
        0
 40
-0.6
 41
-30.0
 62
     5
 63
     7
421
 16777215
 74
     1
 91
        4
 64
     7
 65
   257
 75
     1
175
     1
 42
1.0
 92
        0
 66
   257
 43
1.0
 76
     1
 77
     6
 78
     2
 67
     7
 79
     5
170
     0
171
     0
290
     0
174
     0
 93
        1
 44
0.0
173
     0
291
     0
 45
0.0
1001
ACAD
1000
AcDbSavedByObjectVersion
1070
     0
  0
VISUALSTYLE
  5
31
102
{ACAD_REACTORS
330
2A
102
}
330
2A
100
AcDbVisualStyle
  2
3D Hidden
 70
     6
 71
     1
 72
     2
 73
     2
 90
        0
 40
-0.6
 41
-30.0
 62
     5
 63
     7
421
 16777215
 74
     2
 91
        2
 64
     7
 65
   257
 75
     2
175
     1
 42
40.0
 92
        0
 66
   257
 43
1.0
 76
     1
 77
     6
 78
     2
 67
     7
 79
     3
170
     0
171
     0
290
     0
174
     0
 93
        1
 44
0.0
173
     0
291
     0
 45
0.0
1001
ACAD
1000
AcDbSavedByObjectVersion
1070
     0
  0
VISUALSTYLE
  5
30
102
{ACAD_REACTORS
330
2A
102
}
330
2A
100
AcDbVisualStyle
  2
3dWireframe
 70
     5
 71
     0
 72
     2
 73
     0
 90
        0
 40
-0.6
 41
-30.0
 62
     5
 63
     7
421
 16777215
 74
     1
 91
        4
 64
     7
 65
   257
 75
     1
175
     1
 42
1.0
 92
        0
 66
   257
 43
1.0
 76
     1
 77
     6
 78
     2
 67
     7
 79
     5
170
     0
171
     0
290
     0
174
     0
 93
        1
 44
0.0
173
     0
291
     0
 45
0.0
1001
ACAD
1000
AcDbSavedByObjectVersion
1070
     0
  0
VISUALSTYLE
  5
32
102
{ACAD_REACTORS
330
2A
102
}
330
2A
100
AcDbVisualStyle
  2
Basic
 70
     7
 71
     1
 72
     0
 73
     1
 90
        0
 40
-0.6
 41
-30.0
 62
     5
 63
     7
421
 16777215
 74
     0
 91
        4
 64
     7
 65
   257
 75
     1
175
     1
 42
1.0
 92
        8
 66
     7
 43
1.0
 76
     1
 77
     6
 78
     2
 67
     7
 79
     5
170
     0
171
     0
290
     0
174
     0
 93
        1
 44
0.0
173
     0
291
     1
 45
0.0
1001
ACAD
1000
AcDbSavedByObjectVersion
1070
     0
  0
VISUALSTYLE
  5
36
102
{ACAD_REACTORS
330
2A
102
}
330
2A
100
AcDbVisualStyle
  2
Brighten
 70
    12
 71
     2
 72
     2
 73
     0
 90
        0
 40
-0.6
 41
-30.0
 62
     5
 63
     7
421
 16777215
 74
     1
 91
        4
 64
     7
 65
   257
 75
     1
175
     1
 42
1.0
 92
        8
 66
     7
 43
1.0
 76
     1
 77
     6
 78
     2
 67
     7
 79
     5
170
     0
171
     0
290
     0
174
     0
 93
        1
 44
50.0
173
     0
291
     1
 45
0.0
1001
ACAD
1000
AcDbSavedByObjectVersion
1070
     0
  0
VISUALSTYLE
  5
3A
102
{ACAD_REACTORS
330
2A
102
}
330
2A
100
AcDbVisualStyle
  2
ColorChange
 70
    16
 71
     2
 72
     2
 73
     3
 90
        0
 40
-0.6
 41
-30.0
 62
     5
 63
     8
421
  8421504
 74
     1
 91
        4
 64
     7
 65
   257
 75
     1
175
     1
 42
1.0
 92
        8
 66
     8
424
  8421504
 43
1.0
 76
     1
 77
     6
 78
     2
 67
     7
 79
     5
170
     0
171
     0
290
     0
174
     0
 93
        1
 44
0.0
173
     0
291
     1
 45
0.0
1001
ACAD
1000
AcDbSavedByObjectVersion
1070
     0
  0
VISUALSTYLE
  5
34
102
{ACAD_REACTORS
330
2A
102
}
330
2A
100
AcDbVisualStyle
  2
Conceptual
 70
     9
 71
     3
 72
     2
 73
     0
 90
        0
 40
-0.6
 41
-30.0
 62
     5
 63
     7
421
 16777215
 74
     2
 91
        2
 64
     7
 65
   257
 75
     1
175
     1
 42
40.0
 92
        8
 66
     7
 43
1.0
 76
     1
 77
     6
 78
     2
 67
     7
 79
     3
170
     0
171
     0
290
     0
174
     0
 93
        1
 44
0.0
173
     0
291
     0
 45
0.0
1001
ACAD
1000
AcDbSavedByObjectVersion
1070
     0
  0
VISUALSTYLE
  5
35
102
{ACAD_REACTORS
330
2A
102
}
330
2A
100
AcDbVisualStyle
  2
Dim
 70
    11
 71
     2
 72
     2
 73
     0
 90
        0
 40
-0.6
 41
-30.0
 62
     5
 63
     7
421
 16777215
 74
     1
 91
        4
 64
     7
 65
   257
 75
     1
175
     1
 42
1.0
 92
        8
 66
     7
 43
1.0
 76
     1
 77
     6
 78
     2
 67
     7
 79
     5
170
     0
171
     0
290
     0
174
     0
 93
        1
 44
-50.0
173
     0
291
     1
 45
0.0
1001
ACAD
1000
AcDbSavedByObjectVersion
1070
     0
  0
VISUALSTYLE
  5
39
102
{ACAD_REACTORS
330
2A
102
}
330
2A
100
AcDbVisualStyle
  2
Facepattern
 70
    15
 71
     2
 72
     2
 73
     0
 90
        0
 40
-0.6
 41
-30.0
 62
     5
 63
     7
421
 16777215
 74
     1
 91
        4
 64
     7
 65
   257
 75
     1
175
     1
 42
1.0
 92
        8
 66
     7
 43
1.0
 76
     1
 77
     6
 78
     2
 67
     7
 79
     5
170
     0
171
     0
290
     0
174
     0
 93
        1
 44
0.0
173
     0
291
     1
 45
0.0
1001
ACAD
1000
AcDbSavedByObjectVersion
1070
     0
  0
VISUALSTYLE
  5
2B
102
{ACAD_REACTORS
330
2A
102
}
330
2A
100
AcDbVisualStyle
  2
Flat
 70
     0
 71
     2
 72
     1
 73
     1
 90
        2
 40
-0.6
 41
30.0
 62
     5
 63
     7
421
 16777215
 74
     0
 91
        4
 64
     7
 65
   257
 75
     1
175
     1
 42
1.0
 92
        8
 66
     7
 43
1.0
 76
     1
 77
     6
 78
     2
 67
     7
 79
     5
170
     0
171
     0
290
     0
174
     0
 93
       13
 44
0.0
173
     0
291
     1
 45
0.0
1001
ACAD
1000
AcDbSavedByObjectVersion
1070
     0
  0
VISUALSTYLE
  5
2C
102
{ACAD_REACTORS
330
2A
102
}
330
2A
100
AcDbVisualStyle
  2
FlatWithEdges
 70
     1
 71
     2
 72
     1
 73
     1
 90
        2
 40
-0.6
 41
30.0
 62
     5
 63
     7
421
 16777215
 74
     1
 91
        4
 64
     7
 65
   257
 75
     1
175
     1
 42
1.0
 92
        0
 66
   257
 43
1.0
 76
     1
 77
     6
 78
     2
 67
     7
 79
     5
170
     0
171
     0
290
     0
174
     0
 93
       13
 44
0.0
173
     0
291
     1
 45
0.0
1001
ACAD
1000
AcDbSavedByObjectVersion
1070
     0
  0
VISUALSTYLE
  5
2D
102
{ACAD_REACTORS
330
2A
102
}
330
2A
100
AcDbVisualStyle
  2
Gouraud
 70
     2
 71
     2
 72
     2
 73
     1
 90
        2
 40
-0.6
 41
30.0
 62
     5
 63
     7
421
 16777215
 74
     0
 91
        4
 64
     7
 65
   257
 75
     1
175
     1
 42
1.0
 92
        0
 66
     7
 43
1.0
 76
     1
 77
     6
 78
     2
 67
     7
 79
     5
170
     0
171
     0
290
     0
174
     0
 93
       13
 44
0.0
173
     0
291
     1
 45
0.0
1001
ACAD
1000
AcDbSavedByObjectVersion
1070
     0
  0
VISUALSTYLE
  5
2E
102
{ACAD_REACTORS
330
2A
102
}
330
2A
100
AcDbVisualStyle
  2
GouraudWithEdges
 70
     3
 71
     2
 72
     2
 73
     1
 90
        2
 40
-0.6
 41
30.0
 62
     5
 63
     7
421
 16777215
 74
     1
 91
        4
 64
     7
 65
   257
 75
     1
175
     1
 42
1.0
 92
        0
 66
   257
 43
1.0
 76
     1
 77
     6
 78
     2
 67
     7
 79
     5
170
     0
171
     0
290
     0
174
     0
 93
       13
 44
0.0
173
     0
291
     1
 45
0.0
1001
ACAD
1000
AcDbSavedByObjectVersion
1070
     0
  0
VISUALSTYLE
  5
38
102
{ACAD_REACTORS
330
2A
102
}
330
2A
100
AcDbVisualStyle
  2
Linepattern
 70
    14
 71
     2
 72
     2
 73
     0
 90
        0
 40
-0.6
 41
-30.0
 62
     5
 63
     7
421
 16777215
 74
     1
 91
        4
 64
     7
 65
   257
 75
     7
175
     7
 42
1.0
 92
        8
 66
     7
 43
1.0
 76
     1
 77
     6
 78
     2
 67
     7
 79
     5
170
     0
171
     0
290
     0
174
     0
 93
        1
 44
0.0
173
     0
291
     1
 45
0.0
1001
ACAD
1000
AcDbSavedByObjectVersion
1070
     0
  0
VISUALSTYLE
  5
33
102
{ACAD_REACTORS
330
2A
102
}
330
2A
100
AcDbVisualStyle
  2
Realistic
 70
     8
 71
     2
 72
     2
 73
     0
 90
        0
 40
-0.6
 41
-30.0
 62
     5
 63
     7
421
 16777215
 74
     1
 91
        0
 64
     7
 65
   257
 75
     1
175
     1
 42
1.0
 92
        8
 66
     8
424
  7895160
 43
1.0
 76
     1
 77
     6
 78
     2
 67
     7
 79
     5
170
     0
171
     0
290
     0
174
     0
 93
       13
 44
0.0
173
     0
291
     0
 45
0.0
1001
ACAD
1000
AcDbSavedByObjectVersion
1070
     0
  0
VISUALSTYLE
  5
37
102
{ACAD_REACTORS
330
2A
102
}
330
2A
100
AcDbVisualStyle
  2
Thicken
 70
    13
 71
     2
 72
     2
 73
     0
 90
        0
 40
-0.6
 41
-30.0
 62
     5
 63
     7
421
 16777215
 74
     1
 91
        4
 64
     7
 65
   257
 75
     1
175
     1
 42
1.0
 92
       12
 66
     7
 43
1.0
 76
     1
 77
     6
 78
     2
 67
     7
 79
     5
170
     0
171
     0
290
     0
174
     0
 93
        1
 44
0.0
173
     0
291
     1
 45
0.0
1001
ACAD
1000
AcDbSavedByObjectVersion
1070
     0
  0
ENDSEC
  0
EOF
