  0
SECTION
  2
HEADER
  9
$ACADVER
  1
AC1018
  9
$ACADMAINTVER
 70
     0
  9
$DWGCODEPAGE
  3
ANSI_1252
  9
$INSBASE
 10
0.0
 20
0.0
 30
0.0
  9
$EXTMIN
 10
-24.0
 20
0.0
 30
0.0
  9
$EXTMAX
 10
87.33284086815107
 20
103.0743437112947
 30
0.0
  9
$LIMMIN
 10
0.0
 20
0.0
  9
$LIMMAX
 10
12.0
 20
9.0
  9
$ORTHOMODE
 70
     0
  9
$REGENMODE
 70
     1
  9
$FILLMODE
 70
     1
  9
$QTEXTMODE
 70
     0
  9
$MIRRTEXT
 70
     1
  9
$LTSCALE
 40
0.0393700787401575
  9
$ATTMODE
 70
     1
  9
$TEXTSIZE
 40
0.2
  9
$TRACEWID
 40
0.05
  9
$TEXTSTYLE
  7
Standard
  9
$CLAYER
  8
0
  9
$CELTYPE
  6
ByLayer
  9
$CECOLOR
 62
   256
  9
$CELTSCALE
 40
1.0
  9
$DISPSILH
 70
     0
  9
$DIMSCALE
 40
1.0
  9
$DIMASZ
 40
0.18
  9
$DIMEXO
 40
0.0625
  9
$DIMDLI
 40
0.38
  9
$DIMRND
 40
0.0
  9
$DIMDLE
 40
0.0
  9
$DIMEXE
 40
0.18
  9
$DIMTP
 40
0.0
  9
$DIMTM
 40
0.0
  9
$DIMTXT
 40
0.18
  9
$DIMCEN
 40
0.09
  9
$DIMTSZ
 40
0.0
  9
$DIMTOL
 70
     0
  9
$DIMLIM
 70
     0
  9
$DIMTIH
 70
     1
  9
$DIMTOH
 70
     1
  9
$DIMSE1
 70
     0
  9
$DIMSE2
 70
     0
  9
$DIMTAD
 70
     0
  9
$DIMZIN
 70
     0
  9
$DIMBLK
  1

  9
$DIMASO
 70
     1
  9
$DIMSHO
 70
     1
  9
$DIMPOST
  1

  9
$DIMAPOST
  1

  9
$DIMALT
 70
     0
  9
$DIMALTD
 70
     2
  9
$DIMALTF
 40
25.4
  9
$DIMLFAC
 40
1.0
  9
$DIMTOFL
 70
     0
  9
$DIMTVP
 40
0.0
  9
$DIMTIX
 70
     0
  9
$DIMSOXD
 70
     0
  9
$DIMSAH
 70
     0
  9
$DIMBLK1
  1

  9
$DIMBLK2
  1

  9
$DIMSTYLE
  2
Standard
  9
$DIMCLRD
 70
     0
  9
$DIMCLRE
 70
     0
  9
$DIMCLRT
 70
     0
  9
$DIMTFAC
 40
1.0
  9
$DIMGAP
 40
0.09
  9
$DIMJUST
 70
     0
  9
$DIMSD1
 70
     0
  9
$DIMSD2
 70
     0
  9
$DIMTOLJ
 70
     1
  9
$DIMTZIN
 70
     0
  9
$DIMALTZ
 70
     0
  9
$DIMALTTZ
 70
     0
  9
$DIMUPT
 70
     0
  9
$DIMDEC
 70
     4
  9
$DIMTDEC
 70
     4
  9
$DIMALTU
 70
     2
  9
$DIMALTTD
 70
     2
  9
$DIMTXSTY
  7
Standard
  9
$DIMAUNIT
 70
     0
  9
$DIMADEC
 70
     0
  9
$DIMALTRND
 40
0.0
  9
$DIMAZIN
 70
     0
  9
$DIMDSEP
 70
    46
  9
$DIMATFIT
 70
     3
  9
$DIMFRAC
 70
     0
  9
$DIMLDRBLK
  1

  9
$DIMLUNIT
 70
     2
  9
$DIMLWD
 70
    -2
  9
$DIMLWE
 70
    -2
  9
$DIMTMOVE
 70
     2
  9
$LUNITS
 70
     2
  9
$LUPREC
 70
     3
  9
$SKETCHINC
 40
0.1
  9
$FILLETRAD
 40
0.5
  9
$AUNITS
 70
     0
  9
$AUPREC
 70
     0
  9
$MENU
  1
.
  9
$ELEVATION
 40
0.0
  9
$PELEVATION
 40
0.0
  9
$THICKNESS
 40
0.0
  9
$LIMCHECK
 70
     0
  9
$CHAMFERA
 40
0.5
  9
$CHAMFERB
 40
0.5
  9
$CHAMFERC
 40
1.0
  9
$CHAMFERD
 40
0.0
  9
$SKPOLY
 70
     0
  9
$TDCREATE
 40
2458058.530205023
  9
$TDUCREATE
 40
2458058.69687169
  9
$TDUPDATE
 40
2458058.530205035
  9
$TDUUPDATE
 40
2458058.696871701
  9
$TDINDWG
 40
0.0000000116
  9
$TDUSRTIMER
 40
0.0000000116
  9
$USRTIMER
 70
     1
  9
$ANGBASE
 50
0.0
  9
$ANGDIR
 70
     0
  9
$PDMODE
 70
     0
  9
$PDSIZE
 40
0.0
  9
$PLINEWID
 40
0.0
  9
$SPLFRAME
 70
     0
  9
$SPLINETYPE
 70
     6
  9
$SPLINESEGS
 70
     8
  9
$HANDSEED
  5
12A
  9
$SURFTAB1
 70
     6
  9
$SURFTAB2
 70
     6
  9
$SURFTYPE
 70
     6
  9
$SURFU
 70
     6
  9
$SURFV
 70
     6
  9
$UCSBASE
  2

  9
$UCSNAME
  2

  9
$UCSORG
 10
0.0
 20
0.0
 30
0.0
  9
$UCSXDIR
 10
1.0
 20
0.0
 30
0.0
  9
$UCSYDIR
 10
0.0
 20
1.0
 30
0.0
  9
$UCSORTHOREF
  2

  9
$UCSORTHOVIEW
 70
     0
  9
$UCSORGTOP
 10
0.0
 20
0.0
 30
0.0
  9
$UCSORGBOTTOM
 10
0.0
 20
0.0
 30
0.0
  9
$UCSORGLEFT
 10
0.0
 20
0.0
 30
0.0
  9
$UCSORGRIGHT
 10
0.0
 20
0.0
 30
0.0
  9
$UCSORGFRONT
 10
0.0
 20
0.0
 30
0.0
  9
$UCSORGBACK
 10
0.0
 20
0.0
 30
0.0
  9
$PUCSBASE
  2

  9
$PUCSNAME
  2

  9
$PUCSORG
 10
0.0
 20
0.0
 30
0.0
  9
$PUCSXDIR
 10
1.0
 20
0.0
 30
0.0
  9
$PUCSYDIR
 10
0.0
 20
1.0
 30
0.0
  9
$PUCSORTHOREF
  2

  9
$PUCSORTHOVIEW
 70
     0
  9
$PUCSORGTOP
 10
0.0
 20
0.0
 30
0.0
  9
$PUCSORGBOTTOM
 10
0.0
 20
0.0
 30
0.0
  9
$PUCSORGLEFT
 10
0.0
 20
0.0
 30
0.0
  9
$PUCSORGRIGHT
 10
0.0
 20
0.0
 30
0.0
  9
$PUCSORGFRONT
 10
0.0
 20
0.0
 30
0.0
  9
$PUCSORGBACK
 10
0.0
 20
0.0
 30
0.0
  9
$USERI1
 70
     0
  9
$USERI2
 70
     0
  9
$USERI3
 70
     0
  9
$USERI4
 70
     0
  9
$USERI5
 70
     0
  9
$USERR1
 40
0.0
  9
$USERR2
 40
0.0
  9
$USERR3
 40
0.0
  9
$USERR4
 40
0.0
  9
$USERR5
 40
0.0
  9
$WORLDVIEW
 70
     1
  9
$SHADEDGE
 70
     3
  9
$SHADEDIF
 70
    70
  9
$TILEMODE
 70
     1
  9
$MAXACTVP
 70
    64
  9
$PINSBASE
 10
0.0
 20
0.0
 30
0.0
  9
$PLIMCHECK
 70
     0
  9
$PEXTMIN
 10
1.000000000000000E+20
 20
1.000000000000000E+20
 30
1.000000000000000E+20
  9
$PEXTMAX
 10
-1.000000000000000E+20
 20
-1.000000000000000E+20
 30
-1.000000000000000E+20
  9
$PLIMMIN
 10
0.0
 20
0.0
  9
$PLIMMAX
 10
12.0
 20
9.0
  9
$UNITMODE
 70
     0
  9
$VISRETAIN
 70
     1
  9
$PLINEGEN
 70
     0
  9
$PSLTSCALE
 70
     1
  9
$TREEDEPTH
 70
  3020
  9
$CMLSTYLE
  2
Standard
  9
$CMLJUST
 70
     0
  9
$CMLSCALE
 40
1.0
  9
$PROXYGRAPHICS
 70
     1
  9
$MEASUREMENT
 70
     0
  9
$CELWEIGHT
370
    -1
  9
$ENDCAPS
280
     0
  9
$JOINSTYLE
280
     0
  9
$LWDISPLAY
290
     0
  9
$INSUNITS
 70
     1
  9
$HYPERLINKBASE
  1

  9
$STYLESHEET
  1

  9
$XEDIT
290
     1
  9
$CEPSNTYPE
380
     0
  9
$PSTYLEMODE
290
     1
  9
$FINGERPRINTGUID
  2
{A19BCD19-ACA1-4068-90FB-473E3DFBE7D3}
  9
$VERSIONGUID
  2
{FAEB1C32-E019-11D5-929B-00C0DF256EC4}
  9
$EXTNAMES
290
     1
  9
$PSVPSCALE
 40
0.0
  9
$OLESTARTUP
290
     0
  9
$SORTENTS
280
   127
  9
$INDEXCTL
280
     0
  9
$HIDETEXT
280
     1
  9
$XCLIPFRAME
290
     0
  9
$HALOGAP
280
     0
  9
$OBSCOLOR
 70
   257
  9
$OBSLTYPE
280
     0
  9
$INTERSECTIONDISPLAY
280
     0
  9
$INTERSECTIONCOLOR
 70
   257
  9
$DIMASSOC
280
     2
  9
$PROJECTNAME
  1

  0
ENDSEC
  0
SECTION
  2
CLASSES
  0
CLASS
  1
ACDBDICTIONARYWDFLT
  2
AcDbDictionaryWithDefault
  3
ObjectDBX Classes
 90
        0
 91
        4
280
     0
281
     0
  0
CLASS
  1
VISUALSTYLE
  2
AcDbVisualStyle
  3
ObjectDBX Classes
 90
     4095
 91
        4
280
     0
281
     0
  0
ENDSEC
  0
SECTION
  2
TABLES
  0
TABLE
  2
VPORT
  5
8
330
0
100
AcDbSymbolTable
 70
     1
  0
VPORT
  5
29
330
8
100
AcDbSymbolTableRecord
100
AcDbViewportTableRecord
  2
*Active
 70
     0
 10
0.0
 20
0.0
 11
1.0
 21
1.0
 12
31.66642043407553
 22
51.53717185564737
 13
0.0
 23
0.0
 14
0.5
 24
0.5
 15
0.5
 25
0.5
 16
0.0
 26
0.0
 36
1.0
 17
0.0
 27
0.0
 37
0.0
 40
105.1358305855206
 41
1.080121753479099
 42
50.0
 43
0.0
 44
0.0
 50
0.0
 51
0.0
 71
     0
 72
   100
 73
     1
 74
     3
 75
     0
 76
     0
 77
     0
 78
     0
281
     0
 65
     1
110
0.0
120
0.0
130
0.0
111
1.0
121
0.0
131
0.0
112
0.0
122
1.0
132
0.0
 79
     0
146
0.0
  0
ENDTAB
  0
TABLE
  2
LTYPE
  5
5
330
0
100
AcDbSymbolTable
 70
     1
  0
LTYPE
  5
14
330
5
100
AcDbSymbolTableRecord
100
AcDbLinetypeTableRecord
  2
ByBlock
 70
     0
  3

 72
    65
 73
     0
 40
0.0
  0
LTYPE
  5
15
330
5
100
AcDbSymbolTableRecord
100
AcDbLinetypeTableRecord
  2
ByLayer
 70
     0
  3

 72
    65
 73
     0
 40
0.0
  0
LTYPE
  5
16
330
5
100
AcDbSymbolTableRecord
100
AcDbLinetypeTableRecord
  2
Continuous
 70
     0
  3
Solid line
 72
    65
 73
     0
 40
0.0
  0
ENDTAB
  0
TABLE
  2
LAYER
  5
2
330
0
100
AcDbSymbolTable
 70
     2
  0
LAYER
  5
10
330
2
100
AcDbSymbolTableRecord
100
AcDbLayerTableRecord
  2
0
 70
     0
 62
     7
  6
Continuous
370
    -3
390
F
  0
LAYER
  5
3B
330
2
100
AcDbSymbolTableRecord
100
AcDbLayerTableRecord
  2
48x48 C
 70
     0
 62
     7
  6
Continuous
370
    -3
390
F
  0
ENDTAB
  0
TABLE
  2
STYLE
  5
3
330
0
100
AcDbSymbolTable
 70
     1
  0
STYLE
  5
11
330
3
100
AcDbSymbolTableRecord
100
AcDbTextStyleTableRecord
  2
Standard
 70
     0
 40
0.0
 41
1.0
 50
0.0
 71
     0
 42
0.2
  3
txt
  4

  0
ENDTAB
  0
TABLE
  2
VIEW
  5
6
330
0
100
AcDbSymbolTable
 70
     0
  0
ENDTAB
  0
TABLE
  2
UCS
  5
7
330
0
100
AcDbSymbolTable
 70
     0
  0
ENDTAB
  0
TABLE
  2
APPID
  5
9
330
0
100
AcDbSymbolTable
 70
     1
  0
APPID
  5
12
330
9
100
AcDbSymbolTableRecord
100
AcDbRegAppTableRecord
  2
ACAD
 70
     0
  0
ENDTAB
  0
TABLE
  2
DIMSTYLE
  5
A
330
0
100
AcDbSymbolTable
 70
     1
100
AcDbDimStyleTable
  0
DIMSTYLE
105
27
330
A
100
AcDbSymbolTableRecord
100
AcDbDimStyleTableRecord
  2
Standard
 70
     0
340
11
  0
ENDTAB
  0
TABLE
  2
BLOCK_RECORD
  5
1
330
0
100
AcDbSymbolTable
 70
     1
  0
BLOCK_RECORD
  5
1F
330
1
100
AcDbSymbolTableRecord
100
AcDbBlockTableRecord
  2
*Model_Space
340
22
  0
BLOCK_RECORD
  5
1B
330
1
100
AcDbSymbolTableRecord
100
AcDbBlockTableRecord
  2
*Paper_Space
340
1E
  0
BLOCK_RECORD
  5
23
330
1
100
AcDbSymbolTableRecord
100
AcDbBlockTableRecord
  2
*Paper_Space0
340
26
  0
ENDTAB
  0
ENDSEC
  0
SECTION
  2
BLOCKS
  0
BLOCK
  5
20
330
1F
100
AcDbEntity
  8
0
100
AcDbBlockBegin
  2
*Model_Space
 70
     0
 10
0.0
 20
0.0
 30
0.0
  3
*Model_Space
  1

  0
ENDBLK
  5
21
330
1F
100
AcDbEntity
  8
0
100
AcDbBlockEnd
  0
BLOCK
  5
1C
330
1B
100
AcDbEntity
 67
     1
  8
0
100
AcDbBlockBegin
  2
*Paper_Space
 70
     0
 10
0.0
 20
0.0
 30
0.0
  3
*Paper_Space
  1

  0
ENDBLK
  5
1D
330
1B
100
AcDbEntity
 67
     1
  8
0
100
AcDbBlockEnd
  0
BLOCK
  5
24
330
23
100
AcDbEntity
  8
0
100
AcDbBlockBegin
  2
*Paper_Space0
 70
     0
 10
0.0
 20
0.0
 30
0.0
  3
*Paper_Space0
  1

  0
ENDBLK
  5
25
330
23
100
AcDbEntity
  8
0
100
AcDbBlockEnd
  0
ENDSEC
  0
SECTION
  2
ENTITIES
  0
POLYLINE
  5
3C
330
1F
100
AcDbEntity
  8
48x48 C
100
AcDb2dPolyline
 66
     1
 10
0.0
 20
0.0
 30
0.0
  0
VERTEX
  5
3D
330
3C
100
AcDbEntity
  8
48x48 C
100
AcDbVertex
100
AcDb2dVertex
 10
47.44785026224039
 20
6.500999995956396
 30
0.0
  0
VERTEX
  5
3E
330
3C
100
AcDbEntity
  8
48x48 C
100
AcDbVertex
100
AcDb2dVertex
 10
79.22345363873185
 20
6.500999995956396
 30
0.0
  0
VERTEX
  5
3F
330
3C
100
AcDbEntity
  8
48x48 C
100
AcDbVertex
100
AcDb2dVertex
 10
79.22345363873185
 20
8.000999995956427
 30
0.0
  0
VERTEX
  5
40
330
3C
100
AcDbEntity
  8
48x48 C
100
AcDbVertex
100
AcDb2dVertex
 10
47.44785026224039
 20
8.000999995956427
 30
0.0
  0
VERTEX
  5
41
330
3C
100
AcDbEntity
  8
48x48 C
100
AcDbVertex
100
AcDb2dVertex
 10
47.44785026224039
 20
6.500999995956396
 30
0.0
  0
SEQEND
  5
42
330
3C
100
AcDbEntity
  8
48x48 C
  0
POLYLINE
  5
43
330
1F
100
AcDbEntity
  8
48x48 C
100
AcDb2dPolyline
 66
     1
 10
0.0
 20
0.0
 30
0.0
  0
VERTEX
  5
44
330
43
100
AcDbEntity
  8
48x48 C
100
AcDbVertex
100
AcDb2dVertex
 10
47.44222809757029
 20
8.000999995956427
 30
0.0
  0
VERTEX
  5
45
330
43
100
AcDbEntity
  8
48x48 C
100
AcDbVertex
100
AcDb2dVertex
 10
47.44222809826936
 20
6.50099271104084
 30
0.0
  0
VERTEX
  5
46
330
43
100
AcDbEntity
  8
48x48 C
100
AcDbVertex
100
AcDb2dVertex
 10
44.37648236124042
 20
6.500992709612056
 30
0.0
  0
SEQEND
  5
47
330
43
100
AcDbEntity
  8
48x48 C
  0
SPLINE
  5
48
330
1F
100
AcDbEntity
  8
48x48 C
100
AcDbSpline
210
0.0
220
0.0
230
1.0
 70
    28
 71
     2
 72
     6
 73
     3
 74
     0
 42
0.0000000001
 43
0.0000000001
 40
43.86344363875983
 40
43.86344363875983
 40
43.86344363875983
 40
45.36927229918766
 40
45.36927229918766
 40
45.36927229918766
 10
44.37648236124042
 20
6.500992709612056
 30
0.0
 41
1.0
 10
44.44262671902598
 20
7.250996352100678
 30
0.0
 41
1.0
 10
44.50877107681154
 20
8.000999994589298
 30
0.0
 41
1.0
  0
POLYLINE
  5
49
330
1F
100
AcDbEntity
  8
48x48 C
100
AcDb2dPolyline
 66
     1
 10
0.0
 20
0.0
 30
0.0
  0
VERTEX
  5
4A
330
49
100
AcDbEntity
  8
48x48 C
100
AcDbVertex
100
AcDb2dVertex
 10
44.50877107681154
 20
8.000999994589298
 30
0.0
  0
VERTEX
  5
4B
330
49
100
AcDbEntity
  8
48x48 C
100
AcDbVertex
100
AcDb2dVertex
 10
47.44222809757029
 20
8.000999995956427
 30
0.0
  0
SEQEND
  5
4C
330
49
100
AcDbEntity
  8
48x48 C
  0
POLYLINE
  5
4D
330
1F
100
AcDbEntity
  8
48x48 C
100
AcDb2dPolyline
 66
     1
 10
0.0
 20
0.0
 30
0.0
  0
VERTEX
  5
4E
330
4D
100
AcDbEntity
  8
48x48 C
100
AcDbVertex
100
AcDb2dVertex
 10
79.22345363873185
 20
8.000999995956427
 30
0.0
  0
VERTEX
  5
4F
330
4D
100
AcDbEntity
  8
48x48 C
100
AcDbVertex
100
AcDb2dVertex
 10
79.22345363803277
 20
6.50099271104084
 30
0.0
  0
VERTEX
  5
50
330
4D
100
AcDbEntity
  8
48x48 C
100
AcDbVertex
100
AcDb2dVertex
 10
82.28919937506171
 20
6.500992709612056
 30
0.0
  0
SEQEND
  5
51
330
4D
100
AcDbEntity
  8
48x48 C
  0
SPLINE
  5
52
330
1F
100
AcDbEntity
  8
48x48 C
100
AcDbSpline
210
0.0
220
0.0
230
1.0
 70
    28
 71
     2
 72
     6
 73
     3
 74
     0
 42
0.0000000001
 43
0.0000000001
 40
43.86344363875983
 40
43.86344363875983
 40
43.86344363875983
 40
45.36927229918766
 40
45.36927229918766
 40
45.36927229918766
 10
82.28919937506171
 20
6.500992709612056
 30
0.0
 41
1.0
 10
82.22305501727615
 20
7.250996352100678
 30
0.0
 41
1.0
 10
82.15691065949059
 20
8.000999994589298
 30
0.0
 41
1.0
  0
POLYLINE
  5
53
330
1F
100
AcDbEntity
  8
48x48 C
100
AcDb2dPolyline
 66
     1
 10
0.0
 20
0.0
 30
0.0
  0
VERTEX
  5
54
330
53
100
AcDbEntity
  8
48x48 C
100
AcDbVertex
100
AcDb2dVertex
 10
82.15691065949059
 20
8.000999994589298
 30
0.0
  0
VERTEX
  5
55
330
53
100
AcDbEntity
  8
48x48 C
100
AcDbVertex
100
AcDb2dVertex
 10
79.22345363873185
 20
8.000999995956427
 30
0.0
  0
SEQEND
  5
56
330
53
100
AcDbEntity
  8
48x48 C
  0
POLYLINE
  5
57
330
1F
100
AcDbEntity
  8
48x48 C
100
AcDb2dPolyline
 66
     1
 10
0.0
 20
0.0
 30
0.0
  0
VERTEX
  5
58
330
57
100
AcDbEntity
  8
48x48 C
100
AcDbVertex
100
AcDb2dVertex
 10
43.65856229231093
 20
0.3129999959563987
 30
0.0
  0
VERTEX
  5
59
330
57
100
AcDbEntity
  8
48x48 C
100
AcDbVertex
100
AcDb2dVertex
 10
40.86764756690106
 20
0.3129999959563987
 30
0.0
  0
SEQEND
  5
5A
330
57
100
AcDbEntity
  8
48x48 C
  0
SPLINE
  5
5B
330
1F
100
AcDbEntity
  8
48x48 C
100
AcDbSpline
210
0.0
220
0.0
230
1.0
 70
    24
 71
     2
 72
     6
 73
     3
 74
     0
 42
0.0000000001
 43
0.0000000001
 40
0.0
 40
0.0
 40
0.0
 40
0.1879999959563996
 40
0.1879999959563996
 40
0.1879999959563996
 10
40.86764756690106
 20
0.3129999959563987
 30
0.0
 10
40.86757896365663
 20
0.2189999979781989
 30
0.0
 10
40.8675103604122
 20
0.1249999999999991
 30
0.0
  0
SPLINE
  5
5C
330
1F
100
AcDbEntity
  8
48x48 C
100
AcDbSpline
210
0.0
220
0.0
230
1.0
 70
    12
 71
     2
 72
     6
 73
     3
 74
     0
 42
0.0000000001
 43
0.0000000001
 40
0.0
 40
0.0
 40
0.0
 40
0.196177336774579
 40
0.196177336774579
 40
0.196177336774579
 10
40.8675103604122
 20
0.1249999999999991
 30
0.0
 41
0.9999981189360231
 10
40.86789346168499
 20
0.0004688893556256
 30
0.0
 41
0.7099089247647571
 10
40.99263902897913
 20
0.0000000000029722
 30
0.0
 41
1.0
  0
SPLINE
  5
5D
330
1F
100
AcDbEntity
  8
48x48 C
100
AcDbSpline
210
0.0
220
0.0
230
1.0
 70
    24
 71
     2
 72
     6
 73
     3
 74
     0
 42
0.0000000001
 43
0.0000000001
 40
-2.523739648045471
 40
-2.523739648045471
 40
-2.523739648045471
 40
0.0
 40
0.0
 40
0.0
 10
40.99263902897913
 20
0.0000000000029722
 30
0.0
 10
42.25461626585106
 20
0.0000000000014861
 30
0.0
 10
43.51659350272298
 20
0.0
 30
0.0
  0
SPLINE
  5
5E
330
1F
100
AcDbEntity
  8
48x48 C
100
AcDbSpline
210
0.0
220
0.0
230
1.0
 70
    12
 71
     2
 72
     6
 73
     3
 74
     0
 42
0.0000000001
 43
0.0000000001
 40
0.0
 40
0.0
 40
0.0
 40
0.2094577803425973
 40
0.2094577803425973
 40
0.2094577803425973
 10
43.51659350272298
 20
0.0
 30
0.0
 41
1.0
 10
43.6486822266089
 20
-0.0068992611181206
 30
0.0
 41
0.7150454537347467
 10
43.65856229231117
 20
0.125000000000001
 30
0.0
 41
1.0
  0
SPLINE
  5
5F
330
1F
100
AcDbEntity
  8
48x48 C
100
AcDbSpline
210
0.0
220
0.0
230
1.0
 70
    24
 71
     2
 72
     6
 73
     3
 74
     0
 42
0.0000000001
 43
0.0000000001
 40
0.0
 40
0.0
 40
0.0
 40
0.1879999959563978
 40
0.1879999959563978
 40
0.1879999959563978
 10
43.65856229231117
 20
0.125000000000001
 30
0.0
 10
43.65856229231105
 20
0.2189999979781999
 30
0.0
 10
43.65856229231093
 20
0.3129999959563987
 30
0.0
  0
SPLINE
  5
60
330
1F
100
AcDbEntity
  8
48x48 C
100
AcDbSpline
210
0.0
220
0.0
230
1.0
 70
    24
 71
     2
 72
     6
 73
     3
 74
     0
 42
0.0000000001
 43
0.0000000001
 40
0.0
 40
0.0
 40
0.0
 40
34.59511698187037
 40
34.59511698187037
 40
34.59511698187037
 10
43.33803095085045
 20
34.8129999959564
 30
0.0
 10
42.0560946948097
 20
17.56300958437853
 30
0.0
 10
40.77415843876896
 20
0.313019172800655
 30
0.0
  0
LINE
  5
61
330
1F
100
AcDbEntity
  8
48x48 C
100
AcDbLine
 10
40.77415843876896
 20
0.313019172800655
 30
0.0
 11
43.83075193920036
 21
0.3130151095596533
 31
0.0
  0
SPLINE
  5
62
330
1F
100
AcDbEntity
  8
48x48 C
100
AcDbSpline
210
0.0
220
0.0
230
1.0
 70
    24
 71
     2
 72
     6
 73
     3
 74
     0
 42
0.0000000001
 43
0.0000000001
 40
-31.20935685079936
 40
-31.20935685079936
 40
-31.20935685079936
 40
0.0
 40
0.0
 40
0.0
 10
43.83075193920036
 20
0.3130151095596533
 30
0.0
 10
45.20164022154319
 20
15.85736748705817
 30
0.0
 10
46.57252850388601
 20
31.40171986455668
 30
0.0
  0
SPLINE
  5
63
330
1F
100
AcDbEntity
  8
48x48 C
100
AcDbSpline
210
0.0
220
0.0
230
1.0
 70
    24
 71
     2
 72
     6
 73
     3
 74
     0
 42
0.0000000001
 43
0.0000000001
 40
0.0
 40
0.0
 40
0.0
 40
0.752240804632124
 40
0.752240804632124
 40
0.752240804632124
 10
46.57252850388601
 20
31.40171986455668
 30
0.0
 10
46.20316722944755
 20
31.47295585260362
 30
0.0
 10
45.8338059550091
 20
31.54419184065055
 30
0.0
  0
SPLINE
  5
64
330
1F
100
AcDbEntity
  8
48x48 C
100
AcDbSpline
210
0.0
220
0.0
230
1.0
 70
    12
 71
     2
 72
     6
 73
     3
 74
     0
 42
0.0000000001
 43
0.0000000001
 40
0.0
 40
0.0
 40
0.0
 40
0.3033243459739306
 40
0.3033243459739306
 40
0.3033243459739306
 10
45.8338059550091
 20
31.54419184065055
 30
0.0
 41
1.0
 10
45.66539302885796
 20
31.6040675890763
 30
0.0
 41
0.788094268021899
 10
45.68270050730345
 20
31.78360196274713
 30
0.0
 41
1.0
  0
SPLINE
  5
65
330
1F
100
AcDbEntity
  8
48x48 C
100
AcDbSpline
210
0.0
220
0.0
230
1.0
 70
    24
 71
     2
 72
     6
 73
     3
 74
     0
 42
0.0000000001
 43
0.0000000001
 40
0.0
 40
0.0
 40
0.0
 40
3.027675901208182
 40
3.027675901208182
 40
3.027675901208182
 10
45.68270050730345
 20
31.78360196274713
 30
0.0
 10
45.67936943829079
 20
33.29830075536641
 30
0.0
 10
45.67603836927812
 20
34.81299954798569
 30
0.0
  0
POLYLINE
  5
66
330
1F
100
AcDbEntity
  8
48x48 C
100
AcDb2dPolyline
 66
     1
 10
0.0
 20
0.0
 30
0.0
  0
VERTEX
  5
67
330
66
100
AcDbEntity
  8
48x48 C
100
AcDbVertex
100
AcDb2dVertex
 10
45.67603836927812
 20
34.81299954798569
 30
0.0
  0
VERTEX
  5
68
330
66
100
AcDbEntity
  8
48x48 C
100
AcDbVertex
100
AcDb2dVertex
 10
43.33803095085045
 20
34.8129999959564
 30
0.0
  0
SEQEND
  5
69
330
66
100
AcDbEntity
  8
48x48 C
  0
POLYLINE
  5
6A
330
1F
100
AcDbEntity
  8
48x48 C
100
AcDb2dPolyline
 66
     1
 10
0.0
 20
0.0
 30
0.0
  0
VERTEX
  5
6B
330
6A
100
AcDbEntity
  8
48x48 C
100
AcDbVertex
100
AcDb2dVertex
 10
48.90014712633862
 20
34.8129999959564
 30
0.0
  0
VERTEX
  5
6C
330
6A
100
AcDbEntity
  8
48x48 C
100
AcDbVertex
100
AcDb2dVertex
 10
45.72433757805118
 20
34.8129999959564
 30
0.0
  0
SEQEND
  5
6D
330
6A
100
AcDbEntity
  8
48x48 C
  0
SPLINE
  5
6E
330
1F
100
AcDbEntity
  8
48x48 C
100
AcDbSpline
210
0.0
220
0.0
230
1.0
 70
    24
 71
     2
 72
     6
 73
     3
 74
     0
 42
0.0000000001
 43
0.0000000001
 40
-3.024074093290999
 40
-3.024074093290999
 40
-3.024074093290999
 40
0.0
 40
0.0
 40
0.0
 10
45.72433757805118
 20
34.8129999959564
 30
0.0
 10
45.72433757805118
 20
33.3009629493109
 30
0.0
 10
45.72433757805118
 20
31.7889259026654
 30
0.0
  0
SPLINE
  5
6F
330
1F
100
AcDbEntity
  8
48x48 C
100
AcDbSpline
210
0.0
220
0.0
230
1.0
 70
    12
 71
     2
 72
     6
 73
     3
 74
     0
 42
0.0000000001
 43
0.0000000001
 40
-0.2374369369881551
 40
-0.2374369369881551
 40
-0.2374369369881551
 40
0.0
 40
0.0
 40
0.0
 10
45.72433757805118
 20
31.7889259026654
 30
0.0
 41
1.0
 10
45.71038291384279
 20
31.64968472412696
 30
0.0
 41
0.7873178403761734
 10
45.84221798852226
 20
31.60275550574226
 30
0.0
 41
1.0
  0
SPLINE
  5
70
330
1F
100
AcDbEntity
  8
48x48 C
100
AcDbSpline
210
0.0
220
0.0
230
1.0
 70
    24
 71
     2
 72
     6
 73
     3
 74
     0
 42
0.0000000001
 43
0.0000000001
 40
-0.752296812481594
 40
-0.752296812481594
 40
-0.752296812481594
 40
0.0
 40
0.0
 40
0.0
 10
45.84221798852226
 20
31.60275550574226
 30
0.0
 10
46.21155439576822
 20
31.53149372215431
 30
0.0
 10
46.58089080301419
 20
31.46023193856637
 30
0.0
  0
SPLINE
  5
71
330
1F
100
AcDbEntity
  8
48x48 C
100
AcDbSpline
210
0.0
220
0.0
230
1.0
 70
    24
 71
     2
 72
     6
 73
     3
 74
     0
 42
0.0000000001
 43
0.0000000001
 40
-2.450198664559965
 40
-2.450198664559965
 40
-2.450198664559965
 40
0.0
 40
0.0
 40
0.0
 10
46.58089080301419
 20
31.46023193856637
 30
0.0
 10
47.74051896467641
 20
31.85542846726138
 30
0.0
 10
48.90014712633863
 20
32.2506249959564
 30
0.0
  0
SPLINE
  5
72
330
1F
100
AcDbEntity
  8
48x48 C
100
AcDbSpline
210
0.0
220
0.0
230
1.0
 70
    24
 71
     2
 72
     6
 73
     3
 74
     0
 42
0.0000000001
 43
0.0000000001
 40
-2.562249999999999
 40
-2.562249999999999
 40
-2.562249999999999
 40
0.0
 40
0.0
 40
0.0
 10
48.90014712633863
 20
32.2506249959564
 30
0.0
 10
48.90014712633862
 20
33.5318124959564
 30
0.0
 10
48.90014712633862
 20
34.8129999959564
 30
0.0
  0
SPLINE
  5
73
330
1F
100
AcDbEntity
  8
48x48 C
100
AcDbSpline
210
0.0
220
0.0
230
1.0
 70
    24
 71
     2
 72
     6
 73
     3
 74
     0
 42
0.0000000001
 43
0.0000000001
 40
0.0
 40
0.0
 40
0.0
 40
34.59512045666924
 40
34.59512045666924
 40
34.59512045666924
 10
44.60189769053407
 20
34.8129999959564
 30
0.0
 10
43.31983229505941
 20
17.56301744018
 30
0.0
 10
42.03776689958475
 20
0.3130348844036019
 30
0.0
  0
POLYLINE
  5
74
330
1F
100
AcDbEntity
  8
48x48 C
100
AcDb2dPolyline
 66
     1
 10
0.0
 20
0.0
 30
0.0
  0
VERTEX
  5
75
330
74
100
AcDbEntity
  8
48x48 C
100
AcDbVertex
100
AcDb2dVertex
 10
83.0071194439912
 20
0.3129999959563987
 30
0.0
  0
VERTEX
  5
76
330
74
100
AcDbEntity
  8
48x48 C
100
AcDbVertex
100
AcDb2dVertex
 10
85.79803416940108
 20
0.3129999959563987
 30
0.0
  0
SEQEND
  5
77
330
74
100
AcDbEntity
  8
48x48 C
  0
SPLINE
  5
78
330
1F
100
AcDbEntity
  8
48x48 C
100
AcDbSpline
210
0.0
220
0.0
230
1.0
 70
    24
 71
     2
 72
     6
 73
     3
 74
     0
 42
0.0000000001
 43
0.0000000001
 40
0.0
 40
0.0
 40
0.0
 40
0.1879999959563996
 40
0.1879999959563996
 40
0.1879999959563996
 10
85.79803416940108
 20
0.3129999959563987
 30
0.0
 10
85.7981027726455
 20
0.2189999979781989
 30
0.0
 10
85.79817137588992
 20
0.1249999999999991
 30
0.0
  0
SPLINE
  5
79
330
1F
100
AcDbEntity
  8
48x48 C
100
AcDbSpline
210
0.0
220
0.0
230
1.0
 70
    12
 71
     2
 72
     6
 73
     3
 74
     0
 42
0.0000000001
 43
0.0000000001
 40
0.0
 40
0.0
 40
0.0
 40
0.196177336774579
 40
0.196177336774579
 40
0.196177336774579
 10
85.79817137588992
 20
0.1249999999999991
 30
0.0
 41
0.9999981189360231
 10
85.79778827461716
 20
0.0004688893556256
 30
0.0
 41
0.7099089247647571
 10
85.67304270732299
 20
0.0000000000029722
 30
0.0
 41
1.0
  0
SPLINE
  5
7A
330
1F
100
AcDbEntity
  8
48x48 C
100
AcDbSpline
210
0.0
220
0.0
230
1.0
 70
    24
 71
     2
 72
     6
 73
     3
 74
     0
 42
0.0000000001
 43
0.0000000001
 40
-2.523739648045471
 40
-2.523739648045471
 40
-2.523739648045471
 40
0.0
 40
0.0
 40
0.0
 10
85.67304270732299
 20
0.0000000000029722
 30
0.0
 10
84.41106547045106
 20
0.0000000000014861
 30
0.0
 10
83.14908823357915
 20
0.0
 30
0.0
  0
SPLINE
  5
7B
330
1F
100
AcDbEntity
  8
48x48 C
100
AcDbSpline
210
0.0
220
0.0
230
1.0
 70
    12
 71
     2
 72
     6
 73
     3
 74
     0
 42
0.0000000001
 43
0.0000000001
 40
0.0
 40
0.0
 40
0.0
 40
0.2094577803425973
 40
0.2094577803425973
 40
0.2094577803425973
 10
83.14908823357915
 20
0.0
 30
0.0
 41
1.0
 10
83.01699950969322
 20
-0.0068992611181206
 30
0.0
 41
0.7150454537347467
 10
83.00711944399097
 20
0.125000000000001
 30
0.0
 41
1.0
  0
SPLINE
  5
7C
330
1F
100
AcDbEntity
  8
48x48 C
100
AcDbSpline
210
0.0
220
0.0
230
1.0
 70
    24
 71
     2
 72
     6
 73
     3
 74
     0
 42
0.0000000001
 43
0.0000000001
 40
0.0
 40
0.0
 40
0.0
 40
0.1879999959563978
 40
0.1879999959563978
 40
0.1879999959563978
 10
83.00711944399097
 20
0.125000000000001
 30
0.0
 10
83.00711944399109
 20
0.2189999979781999
 30
0.0
 10
83.0071194439912
 20
0.3129999959563987
 30
0.0
  0
SPLINE
  5
7D
330
1F
100
AcDbEntity
  8
48x48 C
100
AcDbSpline
210
0.0
220
0.0
230
1.0
 70
    24
 71
     2
 72
     6
 73
     3
 74
     0
 42
0.0000000001
 43
0.0000000001
 40
0.0
 40
0.0
 40
0.0
 40
34.59511698187037
 40
34.59511698187037
 40
34.59511698187037
 10
83.32765078545168
 20
34.8129999959564
 30
0.0
 10
84.60958704149243
 20
17.56300958437853
 30
0.0
 10
85.89152329753317
 20
0.313019172800655
 30
0.0
  0
LINE
  5
7E
330
1F
100
AcDbEntity
  8
48x48 C
100
AcDbLine
 10
85.89152329753317
 20
0.313019172800655
 30
0.0
 11
82.83492979710178
 21
0.3130151095596533
 31
0.0
  0
SPLINE
  5
7F
330
1F
100
AcDbEntity
  8
48x48 C
100
AcDbSpline
210
0.0
220
0.0
230
1.0
 70
    24
 71
     2
 72
     6
 73
     3
 74
     0
 42
0.0000000001
 43
0.0000000001
 40
-31.20935685079936
 40
-31.20935685079936
 40
-31.20935685079936
 40
0.0
 40
0.0
 40
0.0
 10
82.83492979710178
 20
0.3130151095596533
 30
0.0
 10
81.46404151475895
 20
15.85736748705817
 30
0.0
 10
80.09315323241613
 20
31.40171986455668
 30
0.0
  0
SPLINE
  5
80
330
1F
100
AcDbEntity
  8
48x48 C
100
AcDbSpline
210
0.0
220
0.0
230
1.0
 70
    24
 71
     2
 72
     6
 73
     3
 74
     0
 42
0.0000000001
 43
0.0000000001
 40
0.0
 40
0.0
 40
0.0
 40
0.752240804632124
 40
0.752240804632124
 40
0.752240804632124
 10
80.09315323241613
 20
31.40171986455668
 30
0.0
 10
80.46251450685457
 20
31.47295585260362
 30
0.0
 10
80.83187578129304
 20
31.54419184065055
 30
0.0
  0
SPLINE
  5
81
330
1F
100
AcDbEntity
  8
48x48 C
100
AcDbSpline
210
0.0
220
0.0
230
1.0
 70
    12
 71
     2
 72
     6
 73
     3
 74
     0
 42
0.0000000001
 43
0.0000000001
 40
0.0
 40
0.0
 40
0.0
 40
0.3033243459739306
 40
0.3033243459739306
 40
0.3033243459739306
 10
80.83187578129304
 20
31.54419184065055
 30
0.0
 41
1.0
 10
81.00028870744416
 20
31.6040675890763
 30
0.0
 41
0.788094268021899
 10
80.98298122899868
 20
31.78360196274713
 30
0.0
 41
1.0
  0
SPLINE
  5
82
330
1F
100
AcDbEntity
  8
48x48 C
100
AcDbSpline
210
0.0
220
0.0
230
1.0
 70
    24
 71
     2
 72
     6
 73
     3
 74
     0
 42
0.0000000001
 43
0.0000000001
 40
0.0
 40
0.0
 40
0.0
 40
3.027675901208182
 40
3.027675901208182
 40
3.027675901208182
 10
80.98298122899868
 20
31.78360196274713
 30
0.0
 10
80.98631229801134
 20
33.29830075536641
 30
0.0
 10
80.989643367024
 20
34.81299954798569
 30
0.0
  0
POLYLINE
  5
83
330
1F
100
AcDbEntity
  8
48x48 C
100
AcDb2dPolyline
 66
     1
 10
0.0
 20
0.0
 30
0.0
  0
VERTEX
  5
84
330
83
100
AcDbEntity
  8
48x48 C
100
AcDbVertex
100
AcDb2dVertex
 10
80.989643367024
 20
34.81299954798569
 30
0.0
  0
VERTEX
  5
85
330
83
100
AcDbEntity
  8
48x48 C
100
AcDbVertex
100
AcDb2dVertex
 10
83.32765078545168
 20
34.8129999959564
 30
0.0
  0
SEQEND
  5
86
330
83
100
AcDbEntity
  8
48x48 C
  0
POLYLINE
  5
87
330
1F
100
AcDbEntity
  8
48x48 C
100
AcDb2dPolyline
 66
     1
 10
0.0
 20
0.0
 30
0.0
  0
VERTEX
  5
88
330
87
100
AcDbEntity
  8
48x48 C
100
AcDbVertex
100
AcDb2dVertex
 10
77.76553460996351
 20
34.8129999959564
 30
0.0
  0
VERTEX
  5
89
330
87
100
AcDbEntity
  8
48x48 C
100
AcDbVertex
100
AcDb2dVertex
 10
80.94134415825096
 20
34.8129999959564
 30
0.0
  0
SEQEND
  5
8A
330
87
100
AcDbEntity
  8
48x48 C
  0
SPLINE
  5
8B
330
1F
100
AcDbEntity
  8
48x48 C
100
AcDbSpline
210
0.0
220
0.0
230
1.0
 70
    24
 71
     2
 72
     6
 73
     3
 74
     0
 42
0.0000000001
 43
0.0000000001
 40
-3.024074093290999
 40
-3.024074093290999
 40
-3.024074093290999
 40
0.0
 40
0.0
 40
0.0
 10
80.94134415825096
 20
34.8129999959564
 30
0.0
 10
80.94134415825096
 20
33.3009629493109
 30
0.0
 10
80.94134415825096
 20
31.7889259026654
 30
0.0
  0
SPLINE
  5
8C
330
1F
100
AcDbEntity
  8
48x48 C
100
AcDbSpline
210
0.0
220
0.0
230
1.0
 70
    12
 71
     2
 72
     6
 73
     3
 74
     0
 42
0.0000000001
 43
0.0000000001
 40
-0.2374369369881551
 40
-0.2374369369881551
 40
-0.2374369369881551
 40
0.0
 40
0.0
 40
0.0
 10
80.94134415825096
 20
31.7889259026654
 30
0.0
 41
1.0
 10
80.95529882245935
 20
31.64968472412696
 30
0.0
 41
0.7873178403761734
 10
80.82346374777987
 20
31.60275550574226
 30
0.0
 41
1.0
  0
SPLINE
  5
8D
330
1F
100
AcDbEntity
  8
48x48 C
100
AcDbSpline
210
0.0
220
0.0
230
1.0
 70
    24
 71
     2
 72
     6
 73
     3
 74
     0
 42
0.0000000001
 43
0.0000000001
 40
-0.752296812481594
 40
-0.752296812481594
 40
-0.752296812481594
 40
0.0
 40
0.0
 40
0.0
 10
80.82346374777987
 20
31.60275550574226
 30
0.0
 10
80.45412734053392
 20
31.53149372215431
 30
0.0
 10
80.08479093328795
 20
31.46023193856637
 30
0.0
  0
SPLINE
  5
8E
330
1F
100
AcDbEntity
  8
48x48 C
100
AcDbSpline
210
0.0
220
0.0
230
1.0
 70
    24
 71
     2
 72
     6
 73
     3
 74
     0
 42
0.0000000001
 43
0.0000000001
 40
-2.450198664559965
 40
-2.450198664559965
 40
-2.450198664559965
 40
0.0
 40
0.0
 40
0.0
 10
80.08479093328795
 20
31.46023193856637
 30
0.0
 10
78.92516277162574
 20
31.85542846726138
 30
0.0
 10
77.76553460996351
 20
32.2506249959564
 30
0.0
  0
SPLINE
  5
8F
330
1F
100
AcDbEntity
  8
48x48 C
100
AcDbSpline
210
0.0
220
0.0
230
1.0
 70
    24
 71
     2
 72
     6
 73
     3
 74
     0
 42
0.0000000001
 43
0.0000000001
 40
-2.562249999999999
 40
-2.562249999999999
 40
-2.562249999999999
 40
0.0
 40
0.0
 40
0.0
 10
77.76553460996351
 20
32.2506249959564
 30
0.0
 10
77.76553460996351
 20
33.5318124959564
 30
0.0
 10
77.76553460996351
 20
34.8129999959564
 30
0.0
  0
POLYLINE
  5
90
330
1F
100
AcDbEntity
  8
48x48 C
100
AcDb2dPolyline
 66
     1
 10
0.0
 20
0.0
 30
0.0
  0
VERTEX
  5
91
330
90
100
AcDbEntity
  8
48x48 C
100
AcDbVertex
100
AcDb2dVertex
 10
48.90014712633862
 20
35.0009999959564
 30
0.0
  0
VERTEX
  5
92
330
90
100
AcDbEntity
  8
48x48 C
100
AcDbVertex
100
AcDb2dVertex
 10
77.76553460996351
 20
35.0009999959564
 30
0.0
  0
VERTEX
  5
93
330
90
100
AcDbEntity
  8
48x48 C
100
AcDbVertex
100
AcDb2dVertex
 10
77.76553460996351
 20
32.2507499959564
 30
0.0
  0
VERTEX
  5
94
330
90
100
AcDbEntity
  8
48x48 C
100
AcDbVertex
100
AcDb2dVertex
 10
48.90014712633862
 20
32.2507499959564
 30
0.0
  0
VERTEX
  5
95
330
90
100
AcDbEntity
  8
48x48 C
100
AcDbVertex
100
AcDb2dVertex
 10
48.90014712633862
 20
35.0009999959564
 30
0.0
  0
SEQEND
  5
96
330
90
100
AcDbEntity
  8
48x48 C
  0
POLYLINE
  5
97
330
1F
100
AcDbEntity
  8
48x48 C
100
AcDb2dPolyline
 66
     1
 10
0.0
 20
0.0
 30
0.0
  0
VERTEX
  5
98
330
97
100
AcDbEntity
  8
48x48 C
100
AcDbVertex
100
AcDb2dVertex
 10
48.90014712633862
 20
34.8129999959564
 30
0.0
  0
VERTEX
  5
99
330
97
100
AcDbEntity
  8
48x48 C
100
AcDbVertex
100
AcDb2dVertex
 10
41.51851163284534
 20
34.8129999959564
 30
0.0
  0
VERTEX
  5
9A
330
97
100
AcDbEntity
  8
48x48 C
100
AcDbVertex
100
AcDb2dVertex
 10
41.51851163284534
 20
35.0009999959564
 30
0.0
  0
VERTEX
  5
9B
330
97
100
AcDbEntity
  8
48x48 C
100
AcDbVertex
100
AcDb2dVertex
 10
48.90014712633862
 20
35.0009999959564
 30
0.0
  0
VERTEX
  5
9C
330
97
100
AcDbEntity
  8
48x48 C
100
AcDbVertex
100
AcDb2dVertex
 10
48.90014712633862
 20
34.8129999959564
 30
0.0
  0
SEQEND
  5
9D
330
97
100
AcDbEntity
  8
48x48 C
  0
POLYLINE
  5
9E
330
1F
100
AcDbEntity
  8
48x48 C
100
AcDb2dPolyline
 66
     1
 10
0.0
 20
0.0
 30
0.0
  0
VERTEX
  5
9F
330
9E
100
AcDbEntity
  8
48x48 C
100
AcDbVertex
100
AcDb2dVertex
 10
77.76553460996351
 20
34.8129999959564
 30
0.0
  0
VERTEX
  5
A0
330
9E
100
AcDbEntity
  8
48x48 C
100
AcDbVertex
100
AcDb2dVertex
 10
85.1471701034568
 20
34.8129999959564
 30
0.0
  0
VERTEX
  5
A1
330
9E
100
AcDbEntity
  8
48x48 C
100
AcDbVertex
100
AcDb2dVertex
 10
85.1471701034568
 20
35.0009999959564
 30
0.0
  0
VERTEX
  5
A2
330
9E
100
AcDbEntity
  8
48x48 C
100
AcDbVertex
100
AcDb2dVertex
 10
77.76553460996351
 20
35.0009999959564
 30
0.0
  0
VERTEX
  5
A3
330
9E
100
AcDbEntity
  8
48x48 C
100
AcDbVertex
100
AcDb2dVertex
 10
77.76553460996351
 20
34.8129999959564
 30
0.0
  0
SEQEND
  5
A4
330
9E
100
AcDbEntity
  8
48x48 C
  0
LINE
  5
A5
330
1F
100
AcDbEntity
  8
48x48 C
100
AcDbLine
 10
39.33890850523175
 20
36.00099999595641
 30
0.0
 11
87.33284086815107
 21
36.00099999595629
 31
0.0
  0
SPLINE
  5
A6
330
1F
100
AcDbEntity
  8
48x48 C
100
AcDbSpline
210
0.0
220
0.0
230
1.0
 70
    24
 71
     2
 72
     6
 73
     3
 74
     0
 42
0.0000000001
 43
0.0000000001
 40
0.0
 40
0.0
 40
0.0
 40
0.3130000001979454
 40
0.3130000001979454
 40
0.3130000001979454
 10
87.33284086815107
 20
36.00099999595629
 30
0.0
 10
87.33159488822855
 20
35.8439189859275
 30
0.0
 10
87.33034890830604
 20
35.68683797589871
 30
0.0
  0
SPLINE
  5
A7
330
1F
100
AcDbEntity
  8
48x48 C
100
AcDbSpline
210
0.0
220
0.0
230
1.0
 70
    24
 71
     2
 72
     6
 73
     3
 74
     0
 42
0.0000000001
 43
0.0000000001
 40
0.0
 40
0.0
 40
0.0
 40
1.620081340891578
 40
1.620081340891578
 40
1.620081340891578
 10
87.33034890830604
 20
35.68683797589871
 30
0.0
 10
86.5949567610299
 20
35.34391898592663
 30
0.0
 10
85.85956461375378
 20
35.00099999595456
 30
0.0
  0
SPLINE
  5
A8
330
1F
100
AcDbEntity
  8
48x48 C
100
AcDbSpline
210
0.0
220
0.0
230
1.0
 70
    24
 71
     2
 72
     6
 73
     3
 74
     0
 42
0.0000000001
 43
0.0000000001
 40
-0.0267237456027019
 40
-0.0267237456027019
 40
-0.0267237456027019
 40
0.0
 40
0.0
 40
0.0
 10
85.85956461375378
 20
35.00099999595456
 30
0.0
 10
85.84620274095242
 20
35.0009999959558
 30
0.0
 10
85.83284086815107
 20
35.00099999595705
 30
0.0
  0
SPLINE
  5
A9
330
1F
100
AcDbEntity
  8
48x48 C
100
AcDbSpline
210
0.0
220
0.0
230
1.0
 70
    24
 71
     2
 72
     6
 73
     3
 74
     0
 42
0.0000000001
 43
0.0000000001
 40
-45.0
 40
-45.0
 40
-45.0
 40
0.0
 40
0.0
 40
0.0
 10
85.83284086815107
 20
35.00099999595705
 30
0.0
 10
63.33284086815107
 20
35.00099999595705
 30
0.0
 10
40.83284086815107
 20
35.00099999595705
 30
0.0
  0
SPLINE
  5
AA
330
1F
100
AcDbEntity
  8
48x48 C
100
AcDbSpline
210
0.0
220
0.0
230
1.0
 70
    24
 71
     2
 72
     6
 73
     3
 74
     0
 42
0.0000000001
 43
0.0000000001
 40
-0.0267237456096723
 40
-0.0267237456096723
 40
-0.0267237456096723
 40
0.0
 40
0.0
 40
0.0
 10
40.83284086815107
 20
35.00099999595705
 30
0.0
 10
40.81947899534623
 20
35.00099999595705
 30
0.0
 10
40.80611712254139
 20
35.00099999595705
 30
0.0
  0
SPLINE
  5
AB
330
1F
100
AcDbEntity
  8
48x48 C
100
AcDbSpline
210
0.0
220
0.0
230
1.0
 70
    24
 71
     2
 72
     6
 73
     3
 74
     0
 42
0.0000000001
 43
0.0000000001
 40
-1.620081340890597
 40
-1.620081340890597
 40
-1.620081340890597
 40
0.0
 40
0.0
 40
0.0
 10
40.80611712254139
 20
35.00099999595705
 30
0.0
 10
40.07072497522337
 20
35.34391898599839
 30
0.0
 10
39.33533282790534
 20
35.68683797603974
 30
0.0
  0
SPLINE
  5
AC
330
1F
100
AcDbEntity
  8
48x48 C
100
AcDbSpline
210
0.0
220
0.0
230
1.0
 70
    24
 71
     2
 72
     6
 73
     3
 74
     0
 42
0.0000000001
 43
0.0000000001
 40
-0.3129999999995334
 40
-0.3129999999995334
 40
-0.3129999999995334
 40
0.0
 40
0.0
 40
0.0
 10
39.33533282790534
 20
35.68683797603974
 30
0.0
 10
39.33408684802821
 20
35.84391898599807
 30
0.0
 10
39.33284086815107
 20
36.0009999959564
 30
0.0
  0
SPLINE
  5
AD
330
1F
100
AcDbEntity
  8
48x48 C
100
AcDbSpline
210
0.0
220
0.0
230
1.0
 70
    24
 71
     2
 72
     6
 73
     3
 74
     0
 42
0.0000000001
 43
0.0000000001
 40
0.0
 40
0.0
 40
0.0
 40
34.59512045666924
 40
34.59512045666924
 40
34.59512045666924
 10
82.06378404576807
 20
34.8129999959564
 30
0.0
 10
83.34584944124273
 20
17.56301744018
 30
0.0
 10
84.62791483671738
 20
0.3130348844036019
 30
0.0
  0
SPLINE
  5
AE
330
1F
100
AcDbEntity
  8
48x48 C
100
AcDbSpline
210
0.0
220
0.0
230
1.0
 70
    12
 71
     2
 72
     6
 73
     3
 74
     0
 42
0.0000000001
 43
0.0000000001
 40
0.0
 40
0.0
 40
0.0
 40
2.356194490192349
 40
2.356194490192349
 40
2.356194490192349
 10
24.0
 20
56.57434371129474
 30
0.0
 41
1.0
 10
24.0
 20
55.07434371129472
 30
0.0
 41
0.7071067811865492
 10
22.5
 20
55.07434371129474
 30
0.0
 41
1.0
  0
SPLINE
  5
AF
330
1F
100
AcDbEntity
  8
48x48 C
100
AcDbSpline
210
0.0
220
0.0
230
1.0
 70
    24
 71
     2
 72
     6
 73
     3
 74
     0
 42
0.0000000001
 43
0.0000000001
 40
0.0
 40
0.0
 40
0.0
 40
45.0
 40
45.0
 40
45.0
 10
22.5
 20
55.07434371129474
 30
0.0
 10
0.0
 20
55.07434371129474
 30
0.0
 10
-22.5
 20
55.07434371129474
 30
0.0
  0
SPLINE
  5
B0
330
1F
100
AcDbEntity
  8
48x48 C
100
AcDbSpline
210
0.0
220
0.0
230
1.0
 70
    12
 71
     2
 72
     6
 73
     3
 74
     0
 42
0.0000000001
 43
0.0000000001
 40
0.0
 40
0.0
 40
0.0
 40
2.356194490192333
 40
2.356194490192333
 40
2.356194490192333
 10
-22.5
 20
55.07434371129474
 30
0.0
 41
1.0
 10
-23.99999999999999
 20
55.07434371129474
 30
0.0
 41
0.7071067811865502
 10
-23.99999999999999
 20
56.57434371129474
 30
0.0
 41
1.0
  0
SPLINE
  5
B1
330
1F
100
AcDbEntity
  8
48x48 C
100
AcDbSpline
210
0.0
220
0.0
230
1.0
 70
    24
 71
     2
 72
     6
 73
     3
 74
     0
 42
0.0000000001
 43
0.0000000001
 40
0.0
 40
0.0
 40
0.0
 40
45.0
 40
45.0
 40
45.0
 10
-23.99999999999999
 20
56.57434371129474
 30
0.0
 10
-24.0
 20
79.07434371129474
 30
0.0
 10
-24.0
 20
101.5743437112947
 30
0.0
  0
SPLINE
  5
B2
330
1F
100
AcDbEntity
  8
48x48 C
100
AcDbSpline
210
0.0
220
0.0
230
1.0
 70
    12
 71
     2
 72
     6
 73
     3
 74
     0
 42
0.0000000001
 43
0.0000000001
 40
0.0
 40
0.0
 40
0.0
 40
2.356194490192362
 40
2.356194490192362
 40
2.356194490192362
 10
-24.0
 20
101.5743437112947
 30
0.0
 41
1.0
 10
-24.00000000000003
 20
103.0743437112948
 30
0.0
 41
0.7071067811865359
 10
-22.5
 20
103.0743437112947
 30
0.0
 41
1.0
  0
SPLINE
  5
B3
330
1F
100
AcDbEntity
  8
48x48 C
100
AcDbSpline
210
0.0
220
0.0
230
1.0
 70
    24
 71
     2
 72
     6
 73
     3
 74
     0
 42
0.0000000001
 43
0.0000000001
 40
0.0
 40
0.0
 40
0.0
 40
45.0
 40
45.0
 40
45.0
 10
-22.5
 20
103.0743437112947
 30
0.0
 10
0.0
 20
103.0743437112947
 30
0.0
 10
22.5
 20
103.0743437112947
 30
0.0
  0
SPLINE
  5
B4
330
1F
100
AcDbEntity
  8
48x48 C
100
AcDbSpline
210
0.0
220
0.0
230
1.0
 70
    12
 71
     2
 72
     6
 73
     3
 74
     0
 42
0.0000000001
 43
0.0000000001
 40
0.0
 40
0.0
 40
0.0
 40
2.35619449019235
 40
2.35619449019235
 40
2.35619449019235
 10
22.5
 20
103.0743437112947
 30
0.0
 41
1.0
 10
24.00000000000002
 20
103.0743437112948
 30
0.0
 41
0.7071067811865358
 10
24.0
 20
101.5743437112947
 30
0.0
 41
1.0
  0
SPLINE
  5
B5
330
1F
100
AcDbEntity
  8
48x48 C
100
AcDbSpline
210
0.0
220
0.0
230
1.0
 70
    24
 71
     2
 72
     6
 73
     3
 74
     0
 42
0.0000000001
 43
0.0000000001
 40
0.0
 40
0.0
 40
0.0
 40
45.0
 40
45.0
 40
45.0
 10
24.0
 20
101.5743437112947
 30
0.0
 10
24.0
 20
79.07434371129474
 30
0.0
 10
24.0
 20
56.57434371129474
 30
0.0
  0
POLYLINE
  5
B6
330
1F
100
AcDbEntity
  8
48x48 C
100
AcDb2dPolyline
 66
     1
 10
0.0
 20
0.0
 30
0.0
  0
VERTEX
  5
B7
330
B6
100
AcDbEntity
  8
48x48 C
100
AcDbVertex
100
AcDb2dVertex
 10
-15.88499060591067
 20
6.500999995956396
 30
0.0
  0
VERTEX
  5
B8
330
B6
100
AcDbEntity
  8
48x48 C
100
AcDbVertex
100
AcDb2dVertex
 10
15.89061277058078
 20
6.500999995956396
 30
0.0
  0
VERTEX
  5
B9
330
B6
100
AcDbEntity
  8
48x48 C
100
AcDbVertex
100
AcDb2dVertex
 10
15.89061277058078
 20
8.000999995956427
 30
0.0
  0
VERTEX
  5
BA
330
B6
100
AcDbEntity
  8
48x48 C
100
AcDbVertex
100
AcDb2dVertex
 10
-15.88499060591067
 20
8.000999995956427
 30
0.0
  0
VERTEX
  5
BB
330
B6
100
AcDbEntity
  8
48x48 C
100
AcDbVertex
100
AcDb2dVertex
 10
-15.88499060591067
 20
6.500999995956396
 30
0.0
  0
SEQEND
  5
BC
330
B6
100
AcDbEntity
  8
48x48 C
  0
POLYLINE
  5
BD
330
1F
100
AcDbEntity
  8
48x48 C
100
AcDb2dPolyline
 66
     1
 10
0.0
 20
0.0
 30
0.0
  0
VERTEX
  5
BE
330
BD
100
AcDbEntity
  8
48x48 C
100
AcDbVertex
100
AcDb2dVertex
 10
-15.89061277058078
 20
8.000999995956427
 30
0.0
  0
VERTEX
  5
BF
330
BD
100
AcDbEntity
  8
48x48 C
100
AcDbVertex
100
AcDb2dVertex
 10
-15.89061276988171
 20
6.50099271104084
 30
0.0
  0
VERTEX
  5
C0
330
BD
100
AcDbEntity
  8
48x48 C
100
AcDbVertex
100
AcDb2dVertex
 10
-18.95635850691065
 20
6.500992709612056
 30
0.0
  0
SEQEND
  5
C1
330
BD
100
AcDbEntity
  8
48x48 C
  0
SPLINE
  5
C2
330
1F
100
AcDbEntity
  8
48x48 C
100
AcDbSpline
210
0.0
220
0.0
230
1.0
 70
    28
 71
     2
 72
     6
 73
     3
 74
     0
 42
0.0000000001
 43
0.0000000001
 40
43.86344363875983
 40
43.86344363875983
 40
43.86344363875983
 40
45.36927229918766
 40
45.36927229918766
 40
45.36927229918766
 10
-18.95635850691065
 20
6.500992709612056
 30
0.0
 41
1.0
 10
-18.89021414912509
 20
7.250996352100678
 30
0.0
 41
1.0
 10
-18.82406979133953
 20
8.000999994589298
 30
0.0
 41
1.0
  0
POLYLINE
  5
C3
330
1F
100
AcDbEntity
  8
48x48 C
100
AcDb2dPolyline
 66
     1
 10
0.0
 20
0.0
 30
0.0
  0
VERTEX
  5
C4
330
C3
100
AcDbEntity
  8
48x48 C
100
AcDbVertex
100
AcDb2dVertex
 10
-18.82406979133953
 20
8.000999994589298
 30
0.0
  0
VERTEX
  5
C5
330
C3
100
AcDbEntity
  8
48x48 C
100
AcDbVertex
100
AcDb2dVertex
 10
-15.89061277058078
 20
8.000999995956427
 30
0.0
  0
SEQEND
  5
C6
330
C3
100
AcDbEntity
  8
48x48 C
  0
POLYLINE
  5
C7
330
1F
100
AcDbEntity
  8
48x48 C
100
AcDb2dPolyline
 66
     1
 10
0.0
 20
0.0
 30
0.0
  0
VERTEX
  5
C8
330
C7
100
AcDbEntity
  8
48x48 C
100
AcDbVertex
100
AcDb2dVertex
 10
15.89061277058078
 20
8.000999995956427
 30
0.0
  0
VERTEX
  5
C9
330
C7
100
AcDbEntity
  8
48x48 C
100
AcDbVertex
100
AcDb2dVertex
 10
15.89061276988171
 20
6.50099271104084
 30
0.0
  0
VERTEX
  5
CA
330
C7
100
AcDbEntity
  8
48x48 C
100
AcDbVertex
100
AcDb2dVertex
 10
18.95635850691065
 20
6.500992709612056
 30
0.0
  0
SEQEND
  5
CB
330
C7
100
AcDbEntity
  8
48x48 C
  0
SPLINE
  5
CC
330
1F
100
AcDbEntity
  8
48x48 C
100
AcDbSpline
210
0.0
220
0.0
230
1.0
 70
    28
 71
     2
 72
     6
 73
     3
 74
     0
 42
0.0000000001
 43
0.0000000001
 40
43.86344363875983
 40
43.86344363875983
 40
43.86344363875983
 40
45.36927229918766
 40
45.36927229918766
 40
45.36927229918766
 10
18.95635850691065
 20
6.500992709612056
 30
0.0
 41
1.0
 10
18.89021414912509
 20
7.250996352100678
 30
0.0
 41
1.0
 10
18.82406979133953
 20
8.000999994589298
 30
0.0
 41
1.0
  0
POLYLINE
  5
CD
330
1F
100
AcDbEntity
  8
48x48 C
100
AcDb2dPolyline
 66
     1
 10
0.0
 20
0.0
 30
0.0
  0
VERTEX
  5
CE
330
CD
100
AcDbEntity
  8
48x48 C
100
AcDbVertex
100
AcDb2dVertex
 10
18.82406979133953
 20
8.000999994589298
 30
0.0
  0
VERTEX
  5
CF
330
CD
100
AcDbEntity
  8
48x48 C
100
AcDbVertex
100
AcDb2dVertex
 10
15.89061277058078
 20
8.000999995956427
 30
0.0
  0
SEQEND
  5
D0
330
CD
100
AcDbEntity
  8
48x48 C
  0
POLYLINE
  5
D1
330
1F
100
AcDbEntity
  8
48x48 C
100
AcDb2dPolyline
 66
     1
 10
0.0
 20
0.0
 30
0.0
  0
VERTEX
  5
D2
330
D1
100
AcDbEntity
  8
48x48 C
100
AcDbVertex
100
AcDb2dVertex
 10
-19.67427857584013
 20
0.3129999959563987
 30
0.0
  0
VERTEX
  5
D3
330
D1
100
AcDbEntity
  8
48x48 C
100
AcDbVertex
100
AcDb2dVertex
 10
-22.46519330125001
 20
0.3129999959563987
 30
0.0
  0
SEQEND
  5
D4
330
D1
100
AcDbEntity
  8
48x48 C
  0
SPLINE
  5
D5
330
1F
100
AcDbEntity
  8
48x48 C
100
AcDbSpline
210
0.0
220
0.0
230
1.0
 70
    24
 71
     2
 72
     6
 73
     3
 74
     0
 42
0.0000000001
 43
0.0000000001
 40
0.0
 40
0.0
 40
0.0
 40
0.1879999959563996
 40
0.1879999959563996
 40
0.1879999959563996
 10
-22.46519330125001
 20
0.3129999959563987
 30
0.0
 10
-22.46526190449444
 20
0.2189999979781989
 30
0.0
 10
-22.46533050773886
 20
0.1249999999999991
 30
0.0
  0
SPLINE
  5
D6
330
1F
100
AcDbEntity
  8
48x48 C
100
AcDbSpline
210
0.0
220
0.0
230
1.0
 70
    12
 71
     2
 72
     6
 73
     3
 74
     0
 42
0.0000000001
 43
0.0000000001
 40
0.0
 40
0.0
 40
0.0
 40
0.196177336774579
 40
0.196177336774579
 40
0.196177336774579
 10
-22.46533050773886
 20
0.1249999999999991
 30
0.0
 41
0.9999981189360231
 10
-22.46494740646608
 20
0.0004688893556256
 30
0.0
 41
0.7099089247647571
 10
-22.34020183917193
 20
0.0000000000029722
 30
0.0
 41
1.0
  0
SPLINE
  5
D7
330
1F
100
AcDbEntity
  8
48x48 C
100
AcDbSpline
210
0.0
220
0.0
230
1.0
 70
    24
 71
     2
 72
     6
 73
     3
 74
     0
 42
0.0000000001
 43
0.0000000001
 40
-2.523739648045471
 40
-2.523739648045471
 40
-2.523739648045471
 40
0.0
 40
0.0
 40
0.0
 10
-22.34020183917193
 20
0.0000000000029722
 30
0.0
 10
-21.07822460230001
 20
0.0000000000014861
 30
0.0
 10
-19.81624736542808
 20
0.0
 30
0.0
  0
SPLINE
  5
D8
330
1F
100
AcDbEntity
  8
48x48 C
100
AcDbSpline
210
0.0
220
0.0
230
1.0
 70
    12
 71
     2
 72
     6
 73
     3
 74
     0
 42
0.0000000001
 43
0.0000000001
 40
0.0
 40
0.0
 40
0.0
 40
0.2094577803425973
 40
0.2094577803425973
 40
0.2094577803425973
 10
-19.81624736542808
 20
0.0
 30
0.0
 41
1.0
 10
-19.68415864154216
 20
-0.0068992611181206
 30
0.0
 41
0.7150454537347467
 10
-19.6742785758399
 20
0.125000000000001
 30
0.0
 41
1.0
  0
SPLINE
  5
D9
330
1F
100
AcDbEntity
  8
48x48 C
100
AcDbSpline
210
0.0
220
0.0
230
1.0
 70
    24
 71
     2
 72
     6
 73
     3
 74
     0
 42
0.0000000001
 43
0.0000000001
 40
0.0
 40
0.0
 40
0.0
 40
0.1879999959563978
 40
0.1879999959563978
 40
0.1879999959563978
 10
-19.6742785758399
 20
0.125000000000001
 30
0.0
 10
-19.67427857584002
 20
0.2189999979781999
 30
0.0
 10
-19.67427857584013
 20
0.3129999959563987
 30
0.0
  0
SPLINE
  5
DA
330
1F
100
AcDbEntity
  8
48x48 C
100
AcDbSpline
210
0.0
220
0.0
230
1.0
 70
    24
 71
     2
 72
     6
 73
     3
 74
     0
 42
0.0000000001
 43
0.0000000001
 40
0.0
 40
0.0
 40
0.0
 40
34.59511698187037
 40
34.59511698187037
 40
34.59511698187037
 10
-19.99480991730062
 20
34.8129999959564
 30
0.0
 10
-21.27674617334136
 20
17.56300958437853
 30
0.0
 10
-22.5586824293821
 20
0.313019172800655
 30
0.0
  0
LINE
  5
DB
330
1F
100
AcDbEntity
  8
48x48 C
100
AcDbLine
 10
-22.5586824293821
 20
0.313019172800655
 30
0.0
 11
-19.50208892895071
 21
0.3130151095596533
 31
0.0
  0
SPLINE
  5
DC
330
1F
100
AcDbEntity
  8
48x48 C
100
AcDbSpline
210
0.0
220
0.0
230
1.0
 70
    24
 71
     2
 72
     6
 73
     3
 74
     0
 42
0.0000000001
 43
0.0000000001
 40
-31.20935685079936
 40
-31.20935685079936
 40
-31.20935685079936
 40
0.0
 40
0.0
 40
0.0
 10
-19.50208892895071
 20
0.3130151095596533
 30
0.0
 10
-18.13120064660788
 20
15.85736748705817
 30
0.0
 10
-16.76031236426506
 20
31.40171986455668
 30
0.0
  0
SPLINE
  5
DD
330
1F
100
AcDbEntity
  8
48x48 C
100
AcDbSpline
210
0.0
220
0.0
230
1.0
 70
    24
 71
     2
 72
     6
 73
     3
 74
     0
 42
0.0000000001
 43
0.0000000001
 40
0.0
 40
0.0
 40
0.0
 40
0.752240804632124
 40
0.752240804632124
 40
0.752240804632124
 10
-16.76031236426506
 20
31.40171986455668
 30
0.0
 10
-17.12967363870352
 20
31.47295585260362
 30
0.0
 10
-17.49903491314197
 20
31.54419184065055
 30
0.0
  0
SPLINE
  5
DE
330
1F
100
AcDbEntity
  8
48x48 C
100
AcDbSpline
210
0.0
220
0.0
230
1.0
 70
    12
 71
     2
 72
     6
 73
     3
 74
     0
 42
0.0000000001
 43
0.0000000001
 40
0.0
 40
0.0
 40
0.0
 40
0.3033243459739306
 40
0.3033243459739306
 40
0.3033243459739306
 10
-17.49903491314197
 20
31.54419184065055
 30
0.0
 41
1.0
 10
-17.6674478392931
 20
31.6040675890763
 30
0.0
 41
0.788094268021899
 10
-17.65014036084762
 20
31.78360196274713
 30
0.0
 41
1.0
  0
SPLINE
  5
DF
330
1F
100
AcDbEntity
  8
48x48 C
100
AcDbSpline
210
0.0
220
0.0
230
1.0
 70
    24
 71
     2
 72
     6
 73
     3
 74
     0
 42
0.0000000001
 43
0.0000000001
 40
0.0
 40
0.0
 40
0.0
 40
3.027675901208182
 40
3.027675901208182
 40
3.027675901208182
 10
-17.65014036084762
 20
31.78360196274713
 30
0.0
 10
-17.65347142986028
 20
33.29830075536641
 30
0.0
 10
-17.65680249887294
 20
34.81299954798569
 30
0.0
  0
POLYLINE
  5
E0
330
1F
100
AcDbEntity
  8
48x48 C
100
AcDb2dPolyline
 66
     1
 10
0.0
 20
0.0
 30
0.0
  0
VERTEX
  5
E1
330
E0
100
AcDbEntity
  8
48x48 C
100
AcDbVertex
100
AcDb2dVertex
 10
-17.65680249887294
 20
34.81299954798569
 30
0.0
  0
VERTEX
  5
E2
330
E0
100
AcDbEntity
  8
48x48 C
100
AcDbVertex
100
AcDb2dVertex
 10
-19.99480991730062
 20
34.8129999959564
 30
0.0
  0
SEQEND
  5
E3
330
E0
100
AcDbEntity
  8
48x48 C
  0
POLYLINE
  5
E4
330
1F
100
AcDbEntity
  8
48x48 C
100
AcDb2dPolyline
 66
     1
 10
0.0
 20
0.0
 30
0.0
  0
VERTEX
  5
E5
330
E4
100
AcDbEntity
  8
48x48 C
100
AcDbVertex
100
AcDb2dVertex
 10
-14.43269374181244
 20
34.8129999959564
 30
0.0
  0
VERTEX
  5
E6
330
E4
100
AcDbEntity
  8
48x48 C
100
AcDbVertex
100
AcDb2dVertex
 10
-17.60850329009989
 20
34.8129999959564
 30
0.0
  0
SEQEND
  5
E7
330
E4
100
AcDbEntity
  8
48x48 C
  0
SPLINE
  5
E8
330
1F
100
AcDbEntity
  8
48x48 C
100
AcDbSpline
210
0.0
220
0.0
230
1.0
 70
    24
 71
     2
 72
     6
 73
     3
 74
     0
 42
0.0000000001
 43
0.0000000001
 40
-3.024074093290999
 40
-3.024074093290999
 40
-3.024074093290999
 40
0.0
 40
0.0
 40
0.0
 10
-17.60850329009989
 20
34.8129999959564
 30
0.0
 10
-17.60850329009989
 20
33.3009629493109
 30
0.0
 10
-17.60850329009989
 20
31.7889259026654
 30
0.0
  0
SPLINE
  5
E9
330
1F
100
AcDbEntity
  8
48x48 C
100
AcDbSpline
210
0.0
220
0.0
230
1.0
 70
    12
 71
     2
 72
     6
 73
     3
 74
     0
 42
0.0000000001
 43
0.0000000001
 40
-0.2374369369881551
 40
-0.2374369369881551
 40
-0.2374369369881551
 40
0.0
 40
0.0
 40
0.0
 10
-17.60850329009989
 20
31.7889259026654
 30
0.0
 41
1.0
 10
-17.62245795430829
 20
31.64968472412696
 30
0.0
 41
0.7873178403761734
 10
-17.49062287962881
 20
31.60275550574226
 30
0.0
 41
1.0
  0
SPLINE
  5
EA
330
1F
100
AcDbEntity
  8
48x48 C
100
AcDbSpline
210
0.0
220
0.0
230
1.0
 70
    24
 71
     2
 72
     6
 73
     3
 74
     0
 42
0.0000000001
 43
0.0000000001
 40
-0.752296812481594
 40
-0.752296812481594
 40
-0.752296812481594
 40
0.0
 40
0.0
 40
0.0
 10
-17.49062287962881
 20
31.60275550574226
 30
0.0
 10
-17.12128647238285
 20
31.53149372215431
 30
0.0
 10
-16.75195006513688
 20
31.46023193856637
 30
0.0
  0
SPLINE
  5
EB
330
1F
100
AcDbEntity
  8
48x48 C
100
AcDbSpline
210
0.0
220
0.0
230
1.0
 70
    24
 71
     2
 72
     6
 73
     3
 74
     0
 42
0.0000000001
 43
0.0000000001
 40
-2.450198664559965
 40
-2.450198664559965
 40
-2.450198664559965
 40
0.0
 40
0.0
 40
0.0
 10
-16.75195006513688
 20
31.46023193856637
 30
0.0
 10
-15.59232190347466
 20
31.85542846726138
 30
0.0
 10
-14.43269374181244
 20
32.2506249959564
 30
0.0
  0
SPLINE
  5
EC
330
1F
100
AcDbEntity
  8
48x48 C
100
AcDbSpline
210
0.0
220
0.0
230
1.0
 70
    24
 71
     2
 72
     6
 73
     3
 74
     0
 42
0.0000000001
 43
0.0000000001
 40
-2.562249999999999
 40
-2.562249999999999
 40
-2.562249999999999
 40
0.0
 40
0.0
 40
0.0
 10
-14.43269374181244
 20
32.2506249959564
 30
0.0
 10
-14.43269374181244
 20
33.5318124959564
 30
0.0
 10
-14.43269374181244
 20
34.8129999959564
 30
0.0
  0
SPLINE
  5
ED
330
1F
100
AcDbEntity
  8
48x48 C
100
AcDbSpline
210
0.0
220
0.0
230
1.0
 70
    24
 71
     2
 72
     6
 73
     3
 74
     0
 42
0.0000000001
 43
0.0000000001
 40
0.0
 40
0.0
 40
0.0
 40
34.59512045666924
 40
34.59512045666924
 40
34.59512045666924
 10
-18.730943177617
 20
34.8129999959564
 30
0.0
 10
-20.01300857309166
 20
17.56301744018
 30
0.0
 10
-21.29507396856631
 20
0.3130348844036019
 30
0.0
  0
POLYLINE
  5
EE
330
1F
100
AcDbEntity
  8
48x48 C
100
AcDb2dPolyline
 66
     1
 10
0.0
 20
0.0
 30
0.0
  0
VERTEX
  5
EF
330
EE
100
AcDbEntity
  8
48x48 C
100
AcDbVertex
100
AcDb2dVertex
 10
19.67427857584013
 20
0.3129999959563987
 30
0.0
  0
VERTEX
  5
F0
330
EE
100
AcDbEntity
  8
48x48 C
100
AcDbVertex
100
AcDb2dVertex
 10
22.46519330125001
 20
0.3129999959563987
 30
0.0
  0
SEQEND
  5
F1
330
EE
100
AcDbEntity
  8
48x48 C
  0
SPLINE
  5
F2
330
1F
100
AcDbEntity
  8
48x48 C
100
AcDbSpline
210
0.0
220
0.0
230
1.0
 70
    24
 71
     2
 72
     6
 73
     3
 74
     0
 42
0.0000000001
 43
0.0000000001
 40
0.0
 40
0.0
 40
0.0
 40
0.1879999959563996
 40
0.1879999959563996
 40
0.1879999959563996
 10
22.46519330125001
 20
0.3129999959563987
 30
0.0
 10
22.46526190449444
 20
0.2189999979781989
 30
0.0
 10
22.46533050773886
 20
0.1249999999999991
 30
0.0
  0
SPLINE
  5
F3
330
1F
100
AcDbEntity
  8
48x48 C
100
AcDbSpline
210
0.0
220
0.0
230
1.0
 70
    12
 71
     2
 72
     6
 73
     3
 74
     0
 42
0.0000000001
 43
0.0000000001
 40
0.0
 40
0.0
 40
0.0
 40
0.196177336774579
 40
0.196177336774579
 40
0.196177336774579
 10
22.46533050773886
 20
0.1249999999999991
 30
0.0
 41
0.9999981189360231
 10
22.46494740646608
 20
0.0004688893556256
 30
0.0
 41
0.7099089247647571
 10
22.34020183917193
 20
0.0000000000029722
 30
0.0
 41
1.0
  0
SPLINE
  5
F4
330
1F
100
AcDbEntity
  8
48x48 C
100
AcDbSpline
210
0.0
220
0.0
230
1.0
 70
    24
 71
     2
 72
     6
 73
     3
 74
     0
 42
0.0000000001
 43
0.0000000001
 40
-2.523739648045471
 40
-2.523739648045471
 40
-2.523739648045471
 40
0.0
 40
0.0
 40
0.0
 10
22.34020183917193
 20
0.0000000000029722
 30
0.0
 10
21.07822460230001
 20
0.0000000000014861
 30
0.0
 10
19.81624736542808
 20
0.0
 30
0.0
  0
SPLINE
  5
F5
330
1F
100
AcDbEntity
  8
48x48 C
100
AcDbSpline
210
0.0
220
0.0
230
1.0
 70
    12
 71
     2
 72
     6
 73
     3
 74
     0
 42
0.0000000001
 43
0.0000000001
 40
0.0
 40
0.0
 40
0.0
 40
0.2094577803425973
 40
0.2094577803425973
 40
0.2094577803425973
 10
19.81624736542808
 20
0.0
 30
0.0
 41
1.0
 10
19.68415864154216
 20
-0.0068992611181206
 30
0.0
 41
0.7150454537347467
 10
19.6742785758399
 20
0.125000000000001
 30
0.0
 41
1.0
  0
SPLINE
  5
F6
330
1F
100
AcDbEntity
  8
48x48 C
100
AcDbSpline
210
0.0
220
0.0
230
1.0
 70
    24
 71
     2
 72
     6
 73
     3
 74
     0
 42
0.0000000001
 43
0.0000000001
 40
0.0
 40
0.0
 40
0.0
 40
0.1879999959563978
 40
0.1879999959563978
 40
0.1879999959563978
 10
19.6742785758399
 20
0.125000000000001
 30
0.0
 10
19.67427857584002
 20
0.2189999979781999
 30
0.0
 10
19.67427857584013
 20
0.3129999959563987
 30
0.0
  0
SPLINE
  5
F7
330
1F
100
AcDbEntity
  8
48x48 C
100
AcDbSpline
210
0.0
220
0.0
230
1.0
 70
    24
 71
     2
 72
     6
 73
     3
 74
     0
 42
0.0000000001
 43
0.0000000001
 40
0.0
 40
0.0
 40
0.0
 40
34.59511698187037
 40
34.59511698187037
 40
34.59511698187037
 10
19.99480991730062
 20
34.8129999959564
 30
0.0
 10
21.27674617334136
 20
17.56300958437853
 30
0.0
 10
22.5586824293821
 20
0.313019172800655
 30
0.0
  0
LINE
  5
F8
330
1F
100
AcDbEntity
  8
48x48 C
100
AcDbLine
 10
22.5586824293821
 20
0.313019172800655
 30
0.0
 11
19.50208892895071
 21
0.3130151095596533
 31
0.0
  0
SPLINE
  5
F9
330
1F
100
AcDbEntity
  8
48x48 C
100
AcDbSpline
210
0.0
220
0.0
230
1.0
 70
    24
 71
     2
 72
     6
 73
     3
 74
     0
 42
0.0000000001
 43
0.0000000001
 40
-31.20935685079936
 40
-31.20935685079936
 40
-31.20935685079936
 40
0.0
 40
0.0
 40
0.0
 10
19.50208892895071
 20
0.3130151095596533
 30
0.0
 10
18.13120064660788
 20
15.85736748705817
 30
0.0
 10
16.76031236426506
 20
31.40171986455668
 30
0.0
  0
SPLINE
  5
FA
330
1F
100
AcDbEntity
  8
48x48 C
100
AcDbSpline
210
0.0
220
0.0
230
1.0
 70
    24
 71
     2
 72
     6
 73
     3
 74
     0
 42
0.0000000001
 43
0.0000000001
 40
0.0
 40
0.0
 40
0.0
 40
0.752240804632124
 40
0.752240804632124
 40
0.752240804632124
 10
16.76031236426506
 20
31.40171986455668
 30
0.0
 10
17.12967363870352
 20
31.47295585260362
 30
0.0
 10
17.49903491314197
 20
31.54419184065055
 30
0.0
  0
SPLINE
  5
FB
330
1F
100
AcDbEntity
  8
48x48 C
100
AcDbSpline
210
0.0
220
0.0
230
1.0
 70
    12
 71
     2
 72
     6
 73
     3
 74
     0
 42
0.0000000001
 43
0.0000000001
 40
0.0
 40
0.0
 40
0.0
 40
0.3033243459739306
 40
0.3033243459739306
 40
0.3033243459739306
 10
17.49903491314197
 20
31.54419184065055
 30
0.0
 41
1.0
 10
17.6674478392931
 20
31.6040675890763
 30
0.0
 41
0.788094268021899
 10
17.65014036084762
 20
31.78360196274713
 30
0.0
 41
1.0
  0
SPLINE
  5
FC
330
1F
100
AcDbEntity
  8
48x48 C
100
AcDbSpline
210
0.0
220
0.0
230
1.0
 70
    24
 71
     2
 72
     6
 73
     3
 74
     0
 42
0.0000000001
 43
0.0000000001
 40
0.0
 40
0.0
 40
0.0
 40
3.027675901208182
 40
3.027675901208182
 40
3.027675901208182
 10
17.65014036084762
 20
31.78360196274713
 30
0.0
 10
17.65347142986028
 20
33.29830075536641
 30
0.0
 10
17.65680249887294
 20
34.81299954798569
 30
0.0
  0
POLYLINE
  5
FD
330
1F
100
AcDbEntity
  8
48x48 C
100
AcDb2dPolyline
 66
     1
 10
0.0
 20
0.0
 30
0.0
  0
VERTEX
  5
FE
330
FD
100
AcDbEntity
  8
48x48 C
100
AcDbVertex
100
AcDb2dVertex
 10
17.65680249887294
 20
34.81299954798569
 30
0.0
  0
VERTEX
  5
FF
330
FD
100
AcDbEntity
  8
48x48 C
100
AcDbVertex
100
AcDb2dVertex
 10
19.99480991730062
 20
34.8129999959564
 30
0.0
  0
SEQEND
  5
100
330
FD
100
AcDbEntity
  8
48x48 C
  0
POLYLINE
  5
101
330
1F
100
AcDbEntity
  8
48x48 C
100
AcDb2dPolyline
 66
     1
 10
0.0
 20
0.0
 30
0.0
  0
VERTEX
  5
102
330
101
100
AcDbEntity
  8
48x48 C
100
AcDbVertex
100
AcDb2dVertex
 10
14.43269374181244
 20
34.8129999959564
 30
0.0
  0
VERTEX
  5
103
330
101
100
AcDbEntity
  8
48x48 C
100
AcDbVertex
100
AcDb2dVertex
 10
17.60850329009989
 20
34.8129999959564
 30
0.0
  0
SEQEND
  5
104
330
101
100
AcDbEntity
  8
48x48 C
  0
SPLINE
  5
105
330
1F
100
AcDbEntity
  8
48x48 C
100
AcDbSpline
210
0.0
220
0.0
230
1.0
 70
    24
 71
     2
 72
     6
 73
     3
 74
     0
 42
0.0000000001
 43
0.0000000001
 40
-3.024074093290999
 40
-3.024074093290999
 40
-3.024074093290999
 40
0.0
 40
0.0
 40
0.0
 10
17.60850329009989
 20
34.8129999959564
 30
0.0
 10
17.60850329009989
 20
33.3009629493109
 30
0.0
 10
17.60850329009989
 20
31.7889259026654
 30
0.0
  0
SPLINE
  5
106
330
1F
100
AcDbEntity
  8
48x48 C
100
AcDbSpline
210
0.0
220
0.0
230
1.0
 70
    12
 71
     2
 72
     6
 73
     3
 74
     0
 42
0.0000000001
 43
0.0000000001
 40
-0.2374369369881551
 40
-0.2374369369881551
 40
-0.2374369369881551
 40
0.0
 40
0.0
 40
0.0
 10
17.60850329009989
 20
31.7889259026654
 30
0.0
 41
1.0
 10
17.62245795430829
 20
31.64968472412696
 30
0.0
 41
0.7873178403761734
 10
17.49062287962881
 20
31.60275550574226
 30
0.0
 41
1.0
  0
SPLINE
  5
107
330
1F
100
AcDbEntity
  8
48x48 C
100
AcDbSpline
210
0.0
220
0.0
230
1.0
 70
    24
 71
     2
 72
     6
 73
     3
 74
     0
 42
0.0000000001
 43
0.0000000001
 40
-0.752296812481594
 40
-0.752296812481594
 40
-0.752296812481594
 40
0.0
 40
0.0
 40
0.0
 10
17.49062287962881
 20
31.60275550574226
 30
0.0
 10
17.12128647238285
 20
31.53149372215431
 30
0.0
 10
16.75195006513688
 20
31.46023193856637
 30
0.0
  0
SPLINE
  5
108
330
1F
100
AcDbEntity
  8
48x48 C
100
AcDbSpline
210
0.0
220
0.0
230
1.0
 70
    24
 71
     2
 72
     6
 73
     3
 74
     0
 42
0.0000000001
 43
0.0000000001
 40
-2.450198664559965
 40
-2.450198664559965
 40
-2.450198664559965
 40
0.0
 40
0.0
 40
0.0
 10
16.75195006513688
 20
31.46023193856637
 30
0.0
 10
15.59232190347466
 20
31.85542846726138
 30
0.0
 10
14.43269374181244
 20
32.2506249959564
 30
0.0
  0
SPLINE
  5
109
330
1F
100
AcDbEntity
  8
48x48 C
100
AcDbSpline
210
0.0
220
0.0
230
1.0
 70
    24
 71
     2
 72
     6
 73
     3
 74
     0
 42
0.0000000001
 43
0.0000000001
 40
-2.562249999999999
 40
-2.562249999999999
 40
-2.562249999999999
 40
0.0
 40
0.0
 40
0.0
 10
14.43269374181244
 20
32.2506249959564
 30
0.0
 10
14.43269374181244
 20
33.5318124959564
 30
0.0
 10
14.43269374181244
 20
34.8129999959564
 30
0.0
  0
SPLINE
  5
10A
330
1F
100
AcDbEntity
  8
48x48 C
100
AcDbSpline
210
0.0
220
0.0
230
1.0
 70
    24
 71
     2
 72
     6
 73
     3
 74
     0
 42
0.0000000001
 43
0.0000000001
 40
0.0
 40
0.0
 40
0.0
 40
34.59512045666924
 40
34.59512045666924
 40
34.59512045666924
 10
18.730943177617
 20
34.8129999959564
 30
0.0
 10
20.01300857309166
 20
17.56301744018
 30
0.0
 10
21.29507396856631
 20
0.3130348844036019
 30
0.0
  0
POLYLINE
  5
10B
330
1F
100
AcDbEntity
  8
48x48 C
100
AcDb2dPolyline
 66
     1
 10
0.0
 20
0.0
 30
0.0
  0
VERTEX
  5
10C
330
10B
100
AcDbEntity
  8
48x48 C
100
AcDbVertex
100
AcDb2dVertex
 10
-14.43269374181244
 20
35.0009999959564
 30
0.0
  0
VERTEX
  5
10D
330
10B
100
AcDbEntity
  8
48x48 C
100
AcDbVertex
100
AcDb2dVertex
 10
14.43269374181244
 20
35.0009999959564
 30
0.0
  0
VERTEX
  5
10E
330
10B
100
AcDbEntity
  8
48x48 C
100
AcDbVertex
100
AcDb2dVertex
 10
14.43269374181244
 20
32.2507499959564
 30
0.0
  0
VERTEX
  5
10F
330
10B
100
AcDbEntity
  8
48x48 C
100
AcDbVertex
100
AcDb2dVertex
 10
-14.43269374181244
 20
32.2507499959564
 30
0.0
  0
VERTEX
  5
110
330
10B
100
AcDbEntity
  8
48x48 C
100
AcDbVertex
100
AcDb2dVertex
 10
-14.43269374181244
 20
35.0009999959564
 30
0.0
  0
SEQEND
  5
111
330
10B
100
AcDbEntity
  8
48x48 C
  0
POLYLINE
  5
112
330
1F
100
AcDbEntity
  8
48x48 C
100
AcDb2dPolyline
 66
     1
 10
0.0
 20
0.0
 30
0.0
  0
VERTEX
  5
113
330
112
100
AcDbEntity
  8
48x48 C
100
AcDbVertex
100
AcDb2dVertex
 10
-14.43269374181244
 20
34.8129999959564
 30
0.0
  0
VERTEX
  5
114
330
112
100
AcDbEntity
  8
48x48 C
100
AcDbVertex
100
AcDb2dVertex
 10
-21.81432923530573
 20
34.8129999959564
 30
0.0
  0
VERTEX
  5
115
330
112
100
AcDbEntity
  8
48x48 C
100
AcDbVertex
100
AcDb2dVertex
 10
-21.81432923530573
 20
35.0009999959564
 30
0.0
  0
VERTEX
  5
116
330
112
100
AcDbEntity
  8
48x48 C
100
AcDbVertex
100
AcDb2dVertex
 10
-14.43269374181244
 20
35.0009999959564
 30
0.0
  0
VERTEX
  5
117
330
112
100
AcDbEntity
  8
48x48 C
100
AcDbVertex
100
AcDb2dVertex
 10
-14.43269374181244
 20
34.8129999959564
 30
0.0
  0
SEQEND
  5
118
330
112
100
AcDbEntity
  8
48x48 C
  0
POLYLINE
  5
119
330
1F
100
AcDbEntity
  8
48x48 C
100
AcDb2dPolyline
 66
     1
 10
0.0
 20
0.0
 30
0.0
  0
VERTEX
  5
11A
330
119
100
AcDbEntity
  8
48x48 C
100
AcDbVertex
100
AcDb2dVertex
 10
14.43269374181244
 20
34.8129999959564
 30
0.0
  0
VERTEX
  5
11B
330
119
100
AcDbEntity
  8
48x48 C
100
AcDbVertex
100
AcDb2dVertex
 10
21.81432923530573
 20
34.8129999959564
 30
0.0
  0
VERTEX
  5
11C
330
119
100
AcDbEntity
  8
48x48 C
100
AcDbVertex
100
AcDb2dVertex
 10
21.81432923530573
 20
35.0009999959564
 30
0.0
  0
VERTEX
  5
11D
330
119
100
AcDbEntity
  8
48x48 C
100
AcDbVertex
100
AcDb2dVertex
 10
14.43269374181244
 20
35.0009999959564
 30
0.0
  0
VERTEX
  5
11E
330
119
100
AcDbEntity
  8
48x48 C
100
AcDbVertex
100
AcDb2dVertex
 10
14.43269374181244
 20
34.8129999959564
 30
0.0
  0
SEQEND
  5
11F
330
119
100
AcDbEntity
  8
48x48 C
  0
LINE
  5
120
330
1F
100
AcDbEntity
  8
48x48 C
100
AcDbLine
 10
-23.99393236291932
 20
36.00099999595641
 30
0.0
 11
24.0
 21
36.00099999595629
 31
0.0
  0
SPLINE
  5
121
330
1F
100
AcDbEntity
  8
48x48 C
100
AcDbSpline
210
0.0
220
0.0
230
1.0
 70
    24
 71
     2
 72
     6
 73
     3
 74
     0
 42
0.0000000001
 43
0.0000000001
 40
0.0
 40
0.0
 40
0.0
 40
0.3130000001979454
 40
0.3130000001979454
 40
0.3130000001979454
 10
24.0
 20
36.00099999595629
 30
0.0
 10
23.99875402007749
 20
35.8439189859275
 30
0.0
 10
23.99750804015498
 20
35.68683797589871
 30
0.0
  0
SPLINE
  5
122
330
1F
100
AcDbEntity
  8
48x48 C
100
AcDbSpline
210
0.0
220
0.0
230
1.0
 70
    24
 71
     2
 72
     6
 73
     3
 74
     0
 42
0.0000000001
 43
0.0000000001
 40
0.0
 40
0.0
 40
0.0
 40
1.620081340891578
 40
1.620081340891578
 40
1.620081340891578
 10
23.99750804015498
 20
35.68683797589871
 30
0.0
 10
23.26211589287884
 20
35.34391898592663
 30
0.0
 10
22.5267237456027
 20
35.00099999595456
 30
0.0
  0
SPLINE
  5
123
330
1F
100
AcDbEntity
  8
48x48 C
100
AcDbSpline
210
0.0
220
0.0
230
1.0
 70
    24
 71
     2
 72
     6
 73
     3
 74
     0
 42
0.0000000001
 43
0.0000000001
 40
-0.0267237456027019
 40
-0.0267237456027019
 40
-0.0267237456027019
 40
0.0
 40
0.0
 40
0.0
 10
22.5267237456027
 20
35.00099999595456
 30
0.0
 10
22.51336187280135
 20
35.0009999959558
 30
0.0
 10
22.5
 20
35.00099999595705
 30
0.0
  0
SPLINE
  5
124
330
1F
100
AcDbEntity
  8
48x48 C
100
AcDbSpline
210
0.0
220
0.0
230
1.0
 70
    24
 71
     2
 72
     6
 73
     3
 74
     0
 42
0.0000000001
 43
0.0000000001
 40
-45.0
 40
-45.0
 40
-45.0
 40
0.0
 40
0.0
 40
0.0
 10
22.5
 20
35.00099999595705
 30
0.0
 10
0.0
 20
35.00099999595705
 30
0.0
 10
-22.5
 20
35.00099999595705
 30
0.0
  0
SPLINE
  5
125
330
1F
100
AcDbEntity
  8
48x48 C
100
AcDbSpline
210
0.0
220
0.0
230
1.0
 70
    24
 71
     2
 72
     6
 73
     3
 74
     0
 42
0.0000000001
 43
0.0000000001
 40
-0.0267237456096723
 40
-0.0267237456096723
 40
-0.0267237456096723
 40
0.0
 40
0.0
 40
0.0
 10
-22.5
 20
35.00099999595705
 30
0.0
 10
-22.51336187280484
 20
35.00099999595705
 30
0.0
 10
-22.52672374560967
 20
35.00099999595705
 30
0.0
  0
SPLINE
  5
126
330
1F
100
AcDbEntity
  8
48x48 C
100
AcDbSpline
210
0.0
220
0.0
230
1.0
 70
    24
 71
     2
 72
     6
 73
     3
 74
     0
 42
0.0000000001
 43
0.0000000001
 40
-1.620081340890597
 40
-1.620081340890597
 40
-1.620081340890597
 40
0.0
 40
0.0
 40
0.0
 10
-22.52672374560967
 20
35.00099999595705
 30
0.0
 10
-23.2621158929277
 20
35.34391898599839
 30
0.0
 10
-23.99750804024573
 20
35.68683797603974
 30
0.0
  0
SPLINE
  5
127
330
1F
100
AcDbEntity
  8
48x48 C
100
AcDbSpline
210
0.0
220
0.0
230
1.0
 70
    24
 71
     2
 72
     6
 73
     3
 74
     0
 42
0.0000000001
 43
0.0000000001
 40
-0.3129999999995334
 40
-0.3129999999995334
 40
-0.3129999999995334
 40
0.0
 40
0.0
 40
0.0
 10
-23.99750804024573
 20
35.68683797603974
 30
0.0
 10
-23.99875402012286
 20
35.84391898599807
 30
0.0
 10
-24.0
 20
36.0009999959564
 30
0.0
  0
ENDSEC
  0
SECTION
  2
OBJECTS
  0
DICTIONARY
  5
C
330
0
100
AcDbDictionary
281
     1
  3
ACAD_GROUP
350
D
  3
ACAD_LAYOUT
350
1A
  3
ACAD_MLEADERSTYLE
350
129
  3
ACAD_MLINESTYLE
350
17
  3
ACAD_PLOTSETTINGS
350
19
  3
ACAD_PLOTSTYLENAME
350
E
  3
ACAD_TABLESTYLE
350
128
  3
ACAD_VISUALSTYLE
350
2A
  0
DICTIONARY
  5
D
102
{ACAD_REACTORS
330
C
102
}
330
C
100
AcDbDictionary
281
     1
  0
DICTIONARY
  5
1A
102
{ACAD_REACTORS
330
C
102
}
330
C
100
AcDbDictionary
281
     1
  3
Layout1
350
1E
  3
Layout2
350
26
  3
Model
350
22
  0
DICTIONARY
  5
129
102
{ACAD_REACTORS
330
C
102
}
330
C
100
AcDbDictionary
281
     1
  0
DICTIONARY
  5
17
102
{ACAD_REACTORS
330
C
102
}
330
C
100
AcDbDictionary
281
     1
  3
Standard
350
18
  0
DICTIONARY
  5
19
102
{ACAD_REACTORS
330
C
102
}
330
C
100
AcDbDictionary
281
     1
  0
ACDBDICTIONARYWDFLT
  5
E
102
{ACAD_REACTORS
330
C
102
}
330
C
100
AcDbDictionary
281
     1
  3
Normal
350
F
100
AcDbDictionaryWithDefault
340
F
  0
DICTIONARY
  5
128
102
{ACAD_REACTORS
330
C
102
}
330
C
100
AcDbDictionary
281
     1
  0
DICTIONARY
  5
2A
102
{ACAD_REACTORS
330
C
102
}
330
C
100
AcDbDictionary
281
     1
  3
2dWireframe
350
2F
  3
3D Hidden
350
31
  3
3dWireframe
350
30
  3
Basic
350
32
  3
Brighten
350
36
  3
ColorChange
350
3A
  3
Conceptual
350
34
  3
Dim
350
35
  3
Facepattern
350
39
  3
Flat
350
2B
  3
FlatWithEdges
350
2C
  3
Gouraud
350
2D
  3
GouraudWithEdges
350
2E
  3
Linepattern
350
38
  3
Realistic
350
33
  3
Thicken
350
37
  0
LAYOUT
  5
1E
102
{ACAD_REACTORS
330
1A
102
}
330
1A
100
AcDbPlotSettings
  1

  2
none_device
  4

  6

 40
0.0
 41
0.0
 42
0.0
 43
0.0
 44
0.0
 45
0.0
 46
0.0
 47
0.0
 48
0.0
 49
0.0
140
0.0
141
0.0
142
1.0
143
1.0
 70
   688
 72
     0
 73
     0
 74
     5
  7

 75
    16
 76
     0
 77
     2
 78
   300
147
1.0
148
0.0
149
0.0
100
AcDbLayout
  1
Layout1
 70
     1
 71
     1
 10
0.0
 20
0.0
 11
12.0
 21
9.0
 12
0.0
 22
0.0
 32
0.0
 14
1.000000000000000E+20
 24
1.000000000000000E+20
 34
1.000000000000000E+20
 15
-1.000000000000000E+20
 25
-1.000000000000000E+20
 35
-1.000000000000000E+20
146
0.0
 13
0.0
 23
0.0
 33
0.0
 16
1.0
 26
0.0
 36
0.0
 17
0.0
 27
1.0
 37
0.0
 76
     0
330
1B
  0
LAYOUT
  5
26
102
{ACAD_REACTORS
330
1A
102
}
330
1A
100
AcDbPlotSettings
  1

  2
none_device
  4

  6

 40
0.0
 41
0.0
 42
0.0
 43
0.0
 44
0.0
 45
0.0
 46
0.0
 47
0.0
 48
0.0
 49
0.0
140
0.0
141
0.0
142
1.0
143
1.0
 70
   688
 72
     0
 73
     0
 74
     5
  7

 75
    16
 76
     0
 77
     2
 78
   300
147
1.0
148
0.0
149
0.0
100
AcDbLayout
  1
Layout2
 70
     1
 71
     2
 10
0.0
 20
0.0
 11
0.0
 21
0.0
 12
0.0
 22
0.0
 32
0.0
 14
0.0
 24
0.0
 34
0.0
 15
0.0
 25
0.0
 35
0.0
146
0.0
 13
0.0
 23
0.0
 33
0.0
 16
1.0
 26
0.0
 36
0.0
 17
0.0
 27
1.0
 37
0.0
 76
     0
330
23
  0
LAYOUT
  5
22
102
{ACAD_REACTORS
330
1A
102
}
330
1A
100
AcDbPlotSettings
  1

  2
none_device
  4

  6

 40
0.0
 41
0.0
 42
0.0
 43
0.0
 44
0.0
 45
0.0
 46
0.0
 47
0.0
 48
0.0
 49
0.0
140
0.0
141
0.0
142
1.0
143
1.0
 70
  1712
 72
     0
 73
     0
 74
     0
  7

 75
     0
 76
     0
 77
     2
 78
   300
147
1.0
148
0.0
149
0.0
100
AcDbLayout
  1
Model
 70
     1
 71
     0
 10
0.0
 20
0.0
 11
12.0
 21
9.0
 12
0.0
 22
0.0
 32
0.0
 14
-24.0
 24
0.0
 34
0.0
 15
87.33284086815107
 25
103.0743437112947
 35
0.0
146
0.0
 13
0.0
 23
0.0
 33
0.0
 16
1.0
 26
0.0
 36
0.0
 17
0.0
 27
1.0
 37
0.0
 76
     0
330
1F
331
29
  0
MLINESTYLE
  5
18
102
{ACAD_REACTORS
330
17
102
}
330
17
100
AcDbMlineStyle
  2
Standard
 70
     0
  3

 62
   256
 51
90.0
 52
90.0
 71
     2
 49
0.5
 62
   256
  6
BYLAYER
 49
-0.5
 62
   256
  6
BYLAYER
  0
ACDBPLACEHOLDER
  5
F
102
{ACAD_REACTORS
330
E
102
}
330
E
  0
VISUALSTYLE
  5
2F
102
{ACAD_REACTORS
330
2A
102
}
330
2A
100
AcDbVisualStyle
  2
2dWireframe
 70
     4
 71
     0
 72
     2
 73
     0
 90
        0
 40
-0.6
 41
-30.0
 62
     5
 63
     7
421
 16777215
 74
     1
 91
        4
 64
     7
 65
   257
 75
     1
175
     1
 42
1.0
 92
        0
 66
   257
 43
1.0
 76
     1
 77
     6
 78
     2
 67
     7
 79
     5
170
     0
171
     0
290
     0
174
     0
 93
        1
 44
0.0
173
     0
291
     0
 45
0.0
1001
ACAD
1000
AcDbSavedByObjectVersion
1070
     0
  0
VISUALSTYLE
  5
31
102
{ACAD_REACTORS
330
2A
102
}
330
2A
100
AcDbVisualStyle
  2
3D Hidden
 70
     6
 71
     1
 72
     2
 73
     2
 90
        0
 40
-0.6
 41
-30.0
 62
     5
 63
     7
421
 16777215
 74
     2
 91
        2
 64
     7
 65
   257
 75
     2
175
     1
 42
40.0
 92
        0
 66
   257
 43
1.0
 76
     1
 77
     6
 78
     2
 67
     7
 79
     3
170
     0
171
     0
290
     0
174
     0
 93
        1
 44
0.0
173
     0
291
     0
 45
0.0
1001
ACAD
1000
AcDbSavedByObjectVersion
1070
     0
  0
VISUALSTYLE
  5
30
102
{ACAD_REACTORS
330
2A
102
}
330
2A
100
AcDbVisualStyle
  2
3dWireframe
 70
     5
 71
     0
 72
     2
 73
     0
 90
        0
 40
-0.6
 41
-30.0
 62
     5
 63
     7
421
 16777215
 74
     1
 91
        4
 64
     7
 65
   257
 75
     1
175
     1
 42
1.0
 92
        0
 66
   257
 43
1.0
 76
     1
 77
     6
 78
     2
 67
     7
 79
     5
170
     0
171
     0
290
     0
174
     0
 93
        1
 44
0.0
173
     0
291
     0
 45
0.0
1001
ACAD
1000
AcDbSavedByObjectVersion
1070
     0
  0
VISUALSTYLE
  5
32
102
{ACAD_REACTORS
330
2A
102
}
330
2A
100
AcDbVisualStyle
  2
Basic
 70
     7
 71
     1
 72
     0
 73
     1
 90
        0
 40
-0.6
 41
-30.0
 62
     5
 63
     7
421
 16777215
 74
     0
 91
        4
 64
     7
 65
   257
 75
     1
175
     1
 42
1.0
 92
        8
 66
     7
 43
1.0
 76
     1
 77
     6
 78
     2
 67
     7
 79
     5
170
     0
171
     0
290
     0
174
     0
 93
        1
 44
0.0
173
     0
291
     1
 45
0.0
1001
ACAD
1000
AcDbSavedByObjectVersion
1070
     0
  0
VISUALSTYLE
  5
36
102
{ACAD_REACTORS
330
2A
102
}
330
2A
100
AcDbVisualStyle
  2
Brighten
 70
    12
 71
     2
 72
     2
 73
     0
 90
        0
 40
-0.6
 41
-30.0
 62
     5
 63
     7
421
 16777215
 74
     1
 91
        4
 64
     7
 65
   257
 75
     1
175
     1
 42
1.0
 92
        8
 66
     7
 43
1.0
 76
     1
 77
     6
 78
     2
 67
     7
 79
     5
170
     0
171
     0
290
     0
174
     0
 93
        1
 44
50.0
173
     0
291
     1
 45
0.0
1001
ACAD
1000
AcDbSavedByObjectVersion
1070
     0
  0
VISUALSTYLE
  5
3A
102
{ACAD_REACTORS
330
2A
102
}
330
2A
100
AcDbVisualStyle
  2
ColorChange
 70
    16
 71
     2
 72
     2
 73
     3
 90
        0
 40
-0.6
 41
-30.0
 62
     5
 63
     8
421
  8421504
 74
     1
 91
        4
 64
     7
 65
   257
 75
     1
175
     1
 42
1.0
 92
        8
 66
     8
424
  8421504
 43
1.0
 76
     1
 77
     6
 78
     2
 67
     7
 79
     5
170
     0
171
     0
290
     0
174
     0
 93
        1
 44
0.0
173
     0
291
     1
 45
0.0
1001
ACAD
1000
AcDbSavedByObjectVersion
1070
     0
  0
VISUALSTYLE
  5
34
102
{ACAD_REACTORS
330
2A
102
}
330
2A
100
AcDbVisualStyle
  2
Conceptual
 70
     9
 71
     3
 72
     2
 73
     0
 90
        0
 40
-0.6
 41
-30.0
 62
     5
 63
     7
421
 16777215
 74
     2
 91
        2
 64
     7
 65
   257
 75
     1
175
     1
 42
40.0
 92
        8
 66
     7
 43
1.0
 76
     1
 77
     6
 78
     2
 67
     7
 79
     3
170
     0
171
     0
290
     0
174
     0
 93
        1
 44
0.0
173
     0
291
     0
 45
0.0
1001
ACAD
1000
AcDbSavedByObjectVersion
1070
     0
  0
VISUALSTYLE
  5
35
102
{ACAD_REACTORS
330
2A
102
}
330
2A
100
AcDbVisualStyle
  2
Dim
 70
    11
 71
     2
 72
     2
 73
     0
 90
        0
 40
-0.6
 41
-30.0
 62
     5
 63
     7
421
 16777215
 74
     1
 91
        4
 64
     7
 65
   257
 75
     1
175
     1
 42
1.0
 92
        8
 66
     7
 43
1.0
 76
     1
 77
     6
 78
     2
 67
     7
 79
     5
170
     0
171
     0
290
     0
174
     0
 93
        1
 44
-50.0
173
     0
291
     1
 45
0.0
1001
ACAD
1000
AcDbSavedByObjectVersion
1070
     0
  0
VISUALSTYLE
  5
39
102
{ACAD_REACTORS
330
2A
102
}
330
2A
100
AcDbVisualStyle
  2
Facepattern
 70
    15
 71
     2
 72
     2
 73
     0
 90
        0
 40
-0.6
 41
-30.0
 62
     5
 63
     7
421
 16777215
 74
     1
 91
        4
 64
     7
 65
   257
 75
     1
175
     1
 42
1.0
 92
        8
 66
     7
 43
1.0
 76
     1
 77
     6
 78
     2
 67
     7
 79
     5
170
     0
171
     0
290
     0
174
     0
 93
        1
 44
0.0
173
     0
291
     1
 45
0.0
1001
ACAD
1000
AcDbSavedByObjectVersion
1070
     0
  0
VISUALSTYLE
  5
2B
102
{ACAD_REACTORS
330
2A
102
}
330
2A
100
AcDbVisualStyle
  2
Flat
 70
     0
 71
     2
 72
     1
 73
     1
 90
        2
 40
-0.6
 41
30.0
 62
     5
 63
     7
421
 16777215
 74
     0
 91
        4
 64
     7
 65
   257
 75
     1
175
     1
 42
1.0
 92
        8
 66
     7
 43
1.0
 76
     1
 77
     6
 78
     2
 67
     7
 79
     5
170
     0
171
     0
290
     0
174
     0
 93
       13
 44
0.0
173
     0
291
     1
 45
0.0
1001
ACAD
1000
AcDbSavedByObjectVersion
1070
     0
  0
VISUALSTYLE
  5
2C
102
{ACAD_REACTORS
330
2A
102
}
330
2A
100
AcDbVisualStyle
  2
FlatWithEdges
 70
     1
 71
     2
 72
     1
 73
     1
 90
        2
 40
-0.6
 41
30.0
 62
     5
 63
     7
421
 16777215
 74
     1
 91
        4
 64
     7
 65
   257
 75
     1
175
     1
 42
1.0
 92
        0
 66
   257
 43
1.0
 76
     1
 77
     6
 78
     2
 67
     7
 79
     5
170
     0
171
     0
290
     0
174
     0
 93
       13
 44
0.0
173
     0
291
     1
 45
0.0
1001
ACAD
1000
AcDbSavedByObjectVersion
1070
     0
  0
VISUALSTYLE
  5
2D
102
{ACAD_REACTORS
330
2A
102
}
330
2A
100
AcDbVisualStyle
  2
Gouraud
 70
     2
 71
     2
 72
     2
 73
     1
 90
        2
 40
-0.6
 41
30.0
 62
     5
 63
     7
421
 16777215
 74
     0
 91
        4
 64
     7
 65
   257
 75
     1
175
     1
 42
1.0
 92
        0
 66
     7
 43
1.0
 76
     1
 77
     6
 78
     2
 67
     7
 79
     5
170
     0
171
     0
290
     0
174
     0
 93
       13
 44
0.0
173
     0
291
     1
 45
0.0
1001
ACAD
1000
AcDbSavedByObjectVersion
1070
     0
  0
VISUALSTYLE
  5
2E
102
{ACAD_REACTORS
330
2A
102
}
330
2A
100
AcDbVisualStyle
  2
GouraudWithEdges
 70
     3
 71
     2
 72
     2
 73
     1
 90
        2
 40
-0.6
 41
30.0
 62
     5
 63
     7
421
 16777215
 74
     1
 91
        4
 64
     7
 65
   257
 75
     1
175
     1
 42
1.0
 92
        0
 66
   257
 43
1.0
 76
     1
 77
     6
 78
     2
 67
     7
 79
     5
170
     0
171
     0
290
     0
174
     0
 93
       13
 44
0.0
173
     0
291
     1
 45
0.0
1001
ACAD
1000
AcDbSavedByObjectVersion
1070
     0
  0
VISUALSTYLE
  5
38
102
{ACAD_REACTORS
330
2A
102
}
330
2A
100
AcDbVisualStyle
  2
Linepattern
 70
    14
 71
     2
 72
     2
 73
     0
 90
        0
 40
-0.6
 41
-30.0
 62
     5
 63
     7
421
 16777215
 74
     1
 91
        4
 64
     7
 65
   257
 75
     7
175
     7
 42
1.0
 92
        8
 66
     7
 43
1.0
 76
     1
 77
     6
 78
     2
 67
     7
 79
     5
170
     0
171
     0
290
     0
174
     0
 93
        1
 44
0.0
173
     0
291
     1
 45
0.0
1001
ACAD
1000
AcDbSavedByObjectVersion
1070
     0
  0
VISUALSTYLE
  5
33
102
{ACAD_REACTORS
330
2A
102
}
330
2A
100
AcDbVisualStyle
  2
Realistic
 70
     8
 71
     2
 72
     2
 73
     0
 90
        0
 40
-0.6
 41
-30.0
 62
     5
 63
     7
421
 16777215
 74
     1
 91
        0
 64
     7
 65
   257
 75
     1
175
     1
 42
1.0
 92
        8
 66
     8
424
  7895160
 43
1.0
 76
     1
 77
     6
 78
     2
 67
     7
 79
     5
170
     0
171
     0
290
     0
174
     0
 93
       13
 44
0.0
173
     0
291
     0
 45
0.0
1001
ACAD
1000
AcDbSavedByObjectVersion
1070
     0
  0
VISUALSTYLE
  5
37
102
{ACAD_REACTORS
330
2A
102
}
330
2A
100
AcDbVisualStyle
  2
Thicken
 70
    13
 71
     2
 72
     2
 73
     0
 90
        0
 40
-0.6
 41
-30.0
 62
     5
 63
     7
421
 16777215
 74
     1
 91
        4
 64
     7
 65
   257
 75
     1
175
     1
 42
1.0
 92
       12
 66
     7
 43
1.0
 76
     1
 77
     6
 78
     2
 67
     7
 79
     5
170
     0
171
     0
290
     0
174
     0
 93
        1
 44
0.0
173
     0
291
     1
 45
0.0
1001
ACAD
1000
AcDbSavedByObjectVersion
1070
     0
  0
ENDSEC
  0
EOF
