  0
SECTION
  2
HEADER
  9
$ACADVER
  1
AC1018
  9
$ACADMAINTVER
 70
     0
  9
$DWGCODEPAGE
  3
ANSI_1252
  9
$INSBASE
 10
0.0
 20
0.0
 30
0.0
  9
$EXTMIN
 10
-30.00452928690719
 20
0.0
 30
0.0
  9
$EXTMAX
 10
78.3369348046266
 20
84.22685930801515
 30
0.0
  9
$LIMMIN
 10
0.0
 20
0.0
  9
$LIMMAX
 10
12.0
 20
9.0
  9
$ORTHOMODE
 70
     0
  9
$REGENMODE
 70
     1
  9
$FILLMODE
 70
     1
  9
$QTEXTMODE
 70
     0
  9
$MIRRTEXT
 70
     1
  9
$LTSCALE
 40
0.0393700787401575
  9
$ATTMODE
 70
     1
  9
$TEXTSIZE
 40
0.2
  9
$TRACEWID
 40
0.05
  9
$TEXTSTYLE
  7
Standard
  9
$CLAYER
  8
0
  9
$CELTYPE
  6
ByLayer
  9
$CECOLOR
 62
   256
  9
$CELTSCALE
 40
1.0
  9
$DISPSILH
 70
     0
  9
$DIMSCALE
 40
1.0
  9
$DIMASZ
 40
0.18
  9
$DIMEXO
 40
0.0625
  9
$DIMDLI
 40
0.38
  9
$DIMRND
 40
0.0
  9
$DIMDLE
 40
0.0
  9
$DIMEXE
 40
0.18
  9
$DIMTP
 40
0.0
  9
$DIMTM
 40
0.0
  9
$DIMTXT
 40
0.18
  9
$DIMCEN
 40
0.09
  9
$DIMTSZ
 40
0.0
  9
$DIMTOL
 70
     0
  9
$DIMLIM
 70
     0
  9
$DIMTIH
 70
     1
  9
$DIMTOH
 70
     1
  9
$DIMSE1
 70
     0
  9
$DIMSE2
 70
     0
  9
$DIMTAD
 70
     0
  9
$DIMZIN
 70
     0
  9
$DIMBLK
  1

  9
$DIMASO
 70
     1
  9
$DIMSHO
 70
     1
  9
$DIMPOST
  1

  9
$DIMAPOST
  1

  9
$DIMALT
 70
     0
  9
$DIMALTD
 70
     2
  9
$DIMALTF
 40
25.4
  9
$DIMLFAC
 40
1.0
  9
$DIMTOFL
 70
     0
  9
$DIMTVP
 40
0.0
  9
$DIMTIX
 70
     0
  9
$DIMSOXD
 70
     0
  9
$DIMSAH
 70
     0
  9
$DIMBLK1
  1

  9
$DIMBLK2
  1

  9
$DIMSTYLE
  2
Standard
  9
$DIMCLRD
 70
     0
  9
$DIMCLRE
 70
     0
  9
$DIMCLRT
 70
     0
  9
$DIMTFAC
 40
1.0
  9
$DIMGAP
 40
0.09
  9
$DIMJUST
 70
     0
  9
$DIMSD1
 70
     0
  9
$DIMSD2
 70
     0
  9
$DIMTOLJ
 70
     1
  9
$DIMTZIN
 70
     0
  9
$DIMALTZ
 70
     0
  9
$DIMALTTZ
 70
     0
  9
$DIMUPT
 70
     0
  9
$DIMDEC
 70
     4
  9
$DIMTDEC
 70
     4
  9
$DIMALTU
 70
     2
  9
$DIMALTTD
 70
     2
  9
$DIMTXSTY
  7
Standard
  9
$DIMAUNIT
 70
     0
  9
$DIMADEC
 70
     0
  9
$DIMALTRND
 40
0.0
  9
$DIMAZIN
 70
     0
  9
$DIMDSEP
 70
    46
  9
$DIMATFIT
 70
     3
  9
$DIMFRAC
 70
     0
  9
$DIMLDRBLK
  1

  9
$DIMLUNIT
 70
     2
  9
$DIMLWD
 70
    -2
  9
$DIMLWE
 70
    -2
  9
$DIMTMOVE
 70
     2
  9
$LUNITS
 70
     2
  9
$LUPREC
 70
     3
  9
$SKETCHINC
 40
0.1
  9
$FILLETRAD
 40
0.5
  9
$AUNITS
 70
     0
  9
$AUPREC
 70
     0
  9
$MENU
  1
.
  9
$ELEVATION
 40
0.0
  9
$PELEVATION
 40
0.0
  9
$THICKNESS
 40
0.0
  9
$LIMCHECK
 70
     0
  9
$CHAMFERA
 40
0.5
  9
$CHAMFERB
 40
0.5
  9
$CHAMFERC
 40
1.0
  9
$CHAMFERD
 40
0.0
  9
$SKPOLY
 70
     0
  9
$TDCREATE
 40
2458058.53794
  9
$TDUCREATE
 40
2458058.704606667
  9
$TDUPDATE
 40
2458058.537940011
  9
$TDUUPDATE
 40
2458058.704606678
  9
$TDINDWG
 40
0.0000000116
  9
$TDUSRTIMER
 40
0.0000000116
  9
$USRTIMER
 70
     1
  9
$ANGBASE
 50
0.0
  9
$ANGDIR
 70
     0
  9
$PDMODE
 70
     0
  9
$PDSIZE
 40
0.0
  9
$PLINEWID
 40
0.0
  9
$SPLFRAME
 70
     0
  9
$SPLINETYPE
 70
     6
  9
$SPLINESEGS
 70
     8
  9
$HANDSEED
  5
5D
  9
$SURFTAB1
 70
     6
  9
$SURFTAB2
 70
     6
  9
$SURFTYPE
 70
     6
  9
$SURFU
 70
     6
  9
$SURFV
 70
     6
  9
$UCSBASE
  2

  9
$UCSNAME
  2

  9
$UCSORG
 10
0.0
 20
0.0
 30
0.0
  9
$UCSXDIR
 10
1.0
 20
0.0
 30
0.0
  9
$UCSYDIR
 10
0.0
 20
1.0
 30
0.0
  9
$UCSORTHOREF
  2

  9
$UCSORTHOVIEW
 70
     0
  9
$UCSORGTOP
 10
0.0
 20
0.0
 30
0.0
  9
$UCSORGBOTTOM
 10
0.0
 20
0.0
 30
0.0
  9
$UCSORGLEFT
 10
0.0
 20
0.0
 30
0.0
  9
$UCSORGRIGHT
 10
0.0
 20
0.0
 30
0.0
  9
$UCSORGFRONT
 10
0.0
 20
0.0
 30
0.0
  9
$UCSORGBACK
 10
0.0
 20
0.0
 30
0.0
  9
$PUCSBASE
  2

  9
$PUCSNAME
  2

  9
$PUCSORG
 10
0.0
 20
0.0
 30
0.0
  9
$PUCSXDIR
 10
1.0
 20
0.0
 30
0.0
  9
$PUCSYDIR
 10
0.0
 20
1.0
 30
0.0
  9
$PUCSORTHOREF
  2

  9
$PUCSORTHOVIEW
 70
     0
  9
$PUCSORGTOP
 10
0.0
 20
0.0
 30
0.0
  9
$PUCSORGBOTTOM
 10
0.0
 20
0.0
 30
0.0
  9
$PUCSORGLEFT
 10
0.0
 20
0.0
 30
0.0
  9
$PUCSORGRIGHT
 10
0.0
 20
0.0
 30
0.0
  9
$PUCSORGFRONT
 10
0.0
 20
0.0
 30
0.0
  9
$PUCSORGBACK
 10
0.0
 20
0.0
 30
0.0
  9
$USERI1
 70
     0
  9
$USERI2
 70
     0
  9
$USERI3
 70
     0
  9
$USERI4
 70
     0
  9
$USERI5
 70
     0
  9
$USERR1
 40
0.0
  9
$USERR2
 40
0.0
  9
$USERR3
 40
0.0
  9
$USERR4
 40
0.0
  9
$USERR5
 40
0.0
  9
$WORLDVIEW
 70
     1
  9
$SHADEDGE
 70
     3
  9
$SHADEDIF
 70
    70
  9
$TILEMODE
 70
     1
  9
$MAXACTVP
 70
    64
  9
$PINSBASE
 10
0.0
 20
0.0
 30
0.0
  9
$PLIMCHECK
 70
     0
  9
$PEXTMIN
 10
1.000000000000000E+20
 20
1.000000000000000E+20
 30
1.000000000000000E+20
  9
$PEXTMAX
 10
-1.000000000000000E+20
 20
-1.000000000000000E+20
 30
-1.000000000000000E+20
  9
$PLIMMIN
 10
0.0
 20
0.0
  9
$PLIMMAX
 10
12.0
 20
9.0
  9
$UNITMODE
 70
     0
  9
$VISRETAIN
 70
     1
  9
$PLINEGEN
 70
     0
  9
$PSLTSCALE
 70
     1
  9
$TREEDEPTH
 70
  3020
  9
$CMLSTYLE
  2
Standard
  9
$CMLJUST
 70
     0
  9
$CMLSCALE
 40
1.0
  9
$PROXYGRAPHICS
 70
     1
  9
$MEASUREMENT
 70
     0
  9
$CELWEIGHT
370
    -1
  9
$ENDCAPS
280
     0
  9
$JOINSTYLE
280
     0
  9
$LWDISPLAY
290
     0
  9
$INSUNITS
 70
     1
  9
$HYPERLINKBASE
  1

  9
$STYLESHEET
  1

  9
$XEDIT
290
     1
  9
$CEPSNTYPE
380
     0
  9
$PSTYLEMODE
290
     1
  9
$FINGERPRINTGUID
  2
{26E893F7-F817-449E-86D7-202122325EBC}
  9
$VERSIONGUID
  2
{FAEB1C32-E019-11D5-929B-00C0DF256EC4}
  9
$EXTNAMES
290
     1
  9
$PSVPSCALE
 40
0.0
  9
$OLESTARTUP
290
     0
  9
$SORTENTS
280
   127
  9
$INDEXCTL
280
     0
  9
$HIDETEXT
280
     1
  9
$XCLIPFRAME
290
     0
  9
$HALOGAP
280
     0
  9
$OBSCOLOR
 70
   257
  9
$OBSLTYPE
280
     0
  9
$INTERSECTIONDISPLAY
280
     0
  9
$INTERSECTIONCOLOR
 70
   257
  9
$DIMASSOC
280
     2
  9
$PROJECTNAME
  1

  0
ENDSEC
  0
SECTION
  2
CLASSES
  0
CLASS
  1
ACDBDICTIONARYWDFLT
  2
AcDbDictionaryWithDefault
  3
ObjectDBX Classes
 90
        0
 91
        4
280
     0
281
     0
  0
CLASS
  1
VISUALSTYLE
  2
AcDbVisualStyle
  3
ObjectDBX Classes
 90
     4095
 91
        4
280
     0
281
     0
  0
ENDSEC
  0
SECTION
  2
TABLES
  0
TABLE
  2
VPORT
  5
8
330
0
100
AcDbSymbolTable
 70
     1
  0
VPORT
  5
29
330
8
100
AcDbSymbolTableRecord
100
AcDbViewportTableRecord
  2
*Active
 70
     0
 10
0.0
 20
0.0
 11
1.0
 21
1.0
 12
24.1662027588597
 22
42.11342965400758
 13
0.0
 23
0.0
 14
0.5
 24
0.5
 15
0.5
 25
0.5
 16
0.0
 26
0.0
 36
1.0
 17
0.0
 27
0.0
 37
0.0
 40
85.91139649417545
 41
1.28630540164548
 42
50.0
 43
0.0
 44
0.0
 50
0.0
 51
0.0
 71
     0
 72
   100
 73
     1
 74
     3
 75
     0
 76
     0
 77
     0
 78
     0
281
     0
 65
     1
110
0.0
120
0.0
130
0.0
111
1.0
121
0.0
131
0.0
112
0.0
122
1.0
132
0.0
 79
     0
146
0.0
  0
ENDTAB
  0
TABLE
  2
LTYPE
  5
5
330
0
100
AcDbSymbolTable
 70
     1
  0
LTYPE
  5
14
330
5
100
AcDbSymbolTableRecord
100
AcDbLinetypeTableRecord
  2
ByBlock
 70
     0
  3

 72
    65
 73
     0
 40
0.0
  0
LTYPE
  5
15
330
5
100
AcDbSymbolTableRecord
100
AcDbLinetypeTableRecord
  2
ByLayer
 70
     0
  3

 72
    65
 73
     0
 40
0.0
  0
LTYPE
  5
16
330
5
100
AcDbSymbolTableRecord
100
AcDbLinetypeTableRecord
  2
Continuous
 70
     0
  3
Solid line
 72
    65
 73
     0
 40
0.0
  0
ENDTAB
  0
TABLE
  2
LAYER
  5
2
330
0
100
AcDbSymbolTable
 70
     2
  0
LAYER
  5
10
330
2
100
AcDbSymbolTableRecord
100
AcDbLayerTableRecord
  2
0
 70
     0
 62
     7
  6
Continuous
370
    -3
390
F
  0
LAYER
  5
3B
330
2
100
AcDbSymbolTableRecord
100
AcDbLayerTableRecord
  2
30x60 C
 70
     0
 62
     7
  6
Continuous
370
    -3
390
F
  0
ENDTAB
  0
TABLE
  2
STYLE
  5
3
330
0
100
AcDbSymbolTable
 70
     1
  0
STYLE
  5
11
330
3
100
AcDbSymbolTableRecord
100
AcDbTextStyleTableRecord
  2
Standard
 70
     0
 40
0.0
 41
1.0
 50
0.0
 71
     0
 42
0.2
  3
txt
  4

  0
ENDTAB
  0
TABLE
  2
VIEW
  5
6
330
0
100
AcDbSymbolTable
 70
     0
  0
ENDTAB
  0
TABLE
  2
UCS
  5
7
330
0
100
AcDbSymbolTable
 70
     0
  0
ENDTAB
  0
TABLE
  2
APPID
  5
9
330
0
100
AcDbSymbolTable
 70
     1
  0
APPID
  5
12
330
9
100
AcDbSymbolTableRecord
100
AcDbRegAppTableRecord
  2
ACAD
 70
     0
  0
ENDTAB
  0
TABLE
  2
DIMSTYLE
  5
A
330
0
100
AcDbSymbolTable
 70
     1
100
AcDbDimStyleTable
  0
DIMSTYLE
105
27
330
A
100
AcDbSymbolTableRecord
100
AcDbDimStyleTableRecord
  2
Standard
 70
     0
340
11
  0
ENDTAB
  0
TABLE
  2
BLOCK_RECORD
  5
1
330
0
100
AcDbSymbolTable
 70
     1
  0
BLOCK_RECORD
  5
1F
330
1
100
AcDbSymbolTableRecord
100
AcDbBlockTableRecord
  2
*Model_Space
340
22
  0
BLOCK_RECORD
  5
1B
330
1
100
AcDbSymbolTableRecord
100
AcDbBlockTableRecord
  2
*Paper_Space
340
1E
  0
BLOCK_RECORD
  5
23
330
1
100
AcDbSymbolTableRecord
100
AcDbBlockTableRecord
  2
*Paper_Space0
340
26
  0
ENDTAB
  0
ENDSEC
  0
SECTION
  2
BLOCKS
  0
BLOCK
  5
20
330
1F
100
AcDbEntity
  8
0
100
AcDbBlockBegin
  2
*Model_Space
 70
     0
 10
0.0
 20
0.0
 30
0.0
  3
*Model_Space
  1

  0
ENDBLK
  5
21
330
1F
100
AcDbEntity
  8
0
100
AcDbBlockEnd
  0
BLOCK
  5
1C
330
1B
100
AcDbEntity
 67
     1
  8
0
100
AcDbBlockBegin
  2
*Paper_Space
 70
     0
 10
0.0
 20
0.0
 30
0.0
  3
*Paper_Space
  1

  0
ENDBLK
  5
1D
330
1B
100
AcDbEntity
 67
     1
  8
0
100
AcDbBlockEnd
  0
BLOCK
  5
24
330
23
100
AcDbEntity
  8
0
100
AcDbBlockBegin
  2
*Paper_Space0
 70
     0
 10
0.0
 20
0.0
 30
0.0
  3
*Paper_Space0
  1

  0
ENDBLK
  5
25
330
23
100
AcDbEntity
  8
0
100
AcDbBlockEnd
  0
ENDSEC
  0
SECTION
  2
ENTITIES
  0
SPLINE
  5
3C
330
1F
100
AcDbEntity
  8
30x60 C
100
AcDbSpline
210
0.0
220
0.0
230
1.0
 70
    15
 71
     2
 72
    20
 73
    17
 74
     0
 42
0.0000000001
 43
0.0000000001
 40
92.35619449019235
 40
92.35619449019235
 40
92.35619449019235
 40
94.7123889803847
 40
94.7123889803847
 40
139.7123889803847
 40
139.7123889803847
 40
142.068583470577
 40
142.068583470577
 40
187.068583470577
 40
187.068583470577
 40
189.4247779607694
 40
189.4247779607694
 40
234.4247779607694
 40
234.4247779607694
 40
236.7809724509618
 40
236.7809724509618
 40
281.7809724509618
 40
281.7809724509618
 40
281.7809724509618
 10
30.00303381854034
 20
55.72685930801515
 30
0.0
 41
1.0
 10
30.00303381854034
 20
54.22685930801514
 30
0.0
 41
0.7071067811865492
 10
28.50303381854034
 20
54.22685930801515
 30
0.0
 41
1.0
 10
0.0
 20
54.22685930801515
 30
0.0
 41
1.0
 10
-28.50303381854034
 20
54.22685930801515
 30
0.0
 41
1.0
 10
-30.00303381854032
 20
54.22685930801516
 30
0.0
 41
0.7071067811865502
 10
-30.00303381854033
 20
55.72685930801515
 30
0.0
 41
1.0
 10
-30.00303381854034
 20
69.22685930801515
 30
0.0
 41
1.0
 10
-30.00303381854034
 20
82.72685930801515
 30
0.0
 41
1.0
 10
-30.00303381854036
 20
84.2268593080152
 30
0.0
 41
0.7071067811865359
 10
-28.50303381854034
 20
84.22685930801515
 30
0.0
 41
1.0
 10
0.0
 20
84.22685930801515
 30
0.0
 41
1.0
 10
28.50303381854034
 20
84.22685930801515
 30
0.0
 41
1.0
 10
30.00303381854036
 20
84.22685930801516
 30
0.0
 41
0.7071067811865358
 10
30.00303381854034
 20
82.72685930801515
 30
0.0
 41
1.0
 10
30.00303381854034
 20
69.22685930801515
 30
0.0
 41
1.0
 10
30.00303381854034
 20
55.72685930801515
 30
0.0
 41
1.0
  0
SPLINE
  5
3D
330
1F
100
AcDbEntity
  8
30x60 C
100
AcDbSpline
210
0.0
220
0.0
230
1.0
 70
     8
 71
     2
 72
    20
 73
    17
 74
     0
 42
0.0000000001
 43
0.0000000001
 40
-1.493932362919318
 40
-1.493932362919318
 40
-1.493932362919318
 40
46.5
 40
46.5
 40
46.81300000019795
 40
46.81300000019795
 40
48.43308134108953
 40
48.43308134108953
 40
48.45980508669223
 40
48.45980508669223
 40
93.45980508669223
 40
93.45980508669223
 40
93.4865288323019
 40
93.4865288323019
 40
95.1066101731925
 40
95.1066101731925
 40
95.41961017319203
 40
95.41961017319203
 40
95.41961017319203
 10
-29.99846164982731
 20
36.00099999595641
 30
0.0
 10
0.0030338185403416
 20
36.00099999595635
 30
0.0
 10
30.00452928690799
 20
36.00099999595629
 30
0.0
 10
30.00328330698548
 20
35.8439189859275
 30
0.0
 10
30.00203732706296
 20
35.68683797589871
 30
0.0
 10
29.26664517978683
 20
35.34391898592663
 30
0.0
 10
28.53125303251069
 20
35.00099999595456
 30
0.0
 10
28.51789115970934
 20
35.0009999959558
 30
0.0
 10
28.50452928690799
 20
35.00099999595705
 30
0.0
 10
0.0
 20
35.00099999595705
 30
0.0
 10
-28.50452928690799
 20
35.00099999595705
 30
0.0
 10
-28.51789115971282
 20
35.00099999595705
 30
0.0
 10
-28.53125303251766
 20
35.00099999595705
 30
0.0
 10
-29.26664517983569
 20
35.34391898599839
 30
0.0
 10
-30.00203732715372
 20
35.68683797603974
 30
0.0
 10
-30.00328330703085
 20
35.84391898599807
 30
0.0
 10
-30.00452928690799
 20
36.0009999959564
 30
0.0
  0
SPLINE
  5
3E
330
1F
100
AcDbEntity
  8
30x60 C
100
AcDbSpline
210
0.0
220
0.0
230
1.0
 70
    11
 71
     2
 72
    12
 73
     9
 74
     0
 42
0.0000000001
 43
0.0000000001
 40
0.0
 40
0.0
 40
0.0
 40
28.86538748362489
 40
28.86538748362489
 40
31.61563748362489
 40
31.61563748362489
 40
60.48102496724977
 40
60.48102496724977
 40
63.23127496724977
 40
63.23127496724977
 40
63.23127496724977
 10
-20.43722302872043
 20
35.0009999959564
 30
0.0
 10
0.0
 20
35.0009999959564
 30
0.0
 10
20.43722302872043
 20
35.0009999959564
 30
0.0
 10
20.43722302872043
 20
33.62587499595639
 30
0.0
 10
20.43722302872043
 20
32.2507499959564
 30
0.0
 10
0.0
 20
32.2507499959564
 30
0.0
 10
-20.43722302872043
 20
32.2507499959564
 30
0.0
 10
-20.43722302872043
 20
33.62587499595639
 30
0.0
 10
-20.43722302872043
 20
35.0009999959564
 30
0.0
  0
SPLINE
  5
3F
330
1F
100
AcDbEntity
  8
30x60 C
100
AcDbSpline
210
0.0
220
0.0
230
1.0
 70
    11
 71
     2
 72
    12
 73
     9
 74
     0
 42
0.0000000001
 43
0.0000000001
 40
0.0
 40
0.0
 40
0.0
 40
31.77560337649145
 40
31.77560337649145
 40
33.27560337649148
 40
33.27560337649148
 40
65.05120675298294
 40
65.05120675298294
 40
66.55120675298296
 40
66.55120675298296
 40
66.55120675298296
 10
-21.88951989281866
 20
6.500999995956396
 30
0.0
 10
0.0028110823350538
 20
6.500999995956396
 30
0.0
 10
21.89514205748877
 20
6.500999995956396
 30
0.0
 10
21.89514205748877
 20
7.250999995956411
 30
0.0
 10
21.89514205748877
 20
8.000999995956427
 30
0.0
 10
0.0028110823350538
 20
8.000999995956427
 30
0.0
 10
-21.88951989281866
 20
8.000999995956427
 30
0.0
 10
-21.88951989281866
 20
7.250999995956411
 30
0.0
 10
-21.88951989281866
 20
6.500999995956396
 30
0.0
  0
SPLINE
  5
40
330
1F
100
AcDbEntity
  8
30x60 C
100
AcDbSpline
210
0.0
220
0.0
230
1.0
 70
    11
 71
     2
 72
    12
 73
     9
 74
     0
 42
0.0000000001
 43
0.0000000001
 40
0.0
 40
0.0
 40
0.0
 40
7.381635493493285
 40
7.381635493493285
 40
7.569635493493287
 40
7.569635493493287
 40
14.95127098698657
 40
14.95127098698657
 40
15.13927098698657
 40
15.13927098698657
 40
15.13927098698657
 10
-20.43722302872043
 20
34.8129999959564
 30
0.0
 10
-24.12804077546707
 20
34.8129999959564
 30
0.0
 10
-27.81885852221372
 20
34.8129999959564
 30
0.0
 10
-27.81885852221372
 20
34.9069999959564
 30
0.0
 10
-27.81885852221372
 20
35.0009999959564
 30
0.0
 10
-24.12804077546707
 20
35.0009999959564
 30
0.0
 10
-20.43722302872043
 20
35.0009999959564
 30
0.0
 10
-20.43722302872043
 20
34.9069999959564
 30
0.0
 10
-20.43722302872043
 20
34.8129999959564
 30
0.0
  0
SPLINE
  5
41
330
1F
100
AcDbEntity
  8
30x60 C
100
AcDbSpline
210
0.0
220
0.0
230
1.0
 70
    24
 71
     2
 72
     6
 73
     3
 74
     0
 42
0.0000000001
 43
0.0000000001
 40
0.0
 40
0.0
 40
0.0
 40
34.59512045666924
 40
34.59512045666924
 40
34.59512045666924
 10
-24.73547246452499
 20
34.8129999959564
 30
0.0
 10
-26.01753785999965
 20
17.56301744018
 30
0.0
 10
-27.2996032554743
 20
0.3130348844036019
 30
0.0
  0
SPLINE
  5
42
330
1F
100
AcDbEntity
  8
30x60 C
100
AcDbSpline
210
0.0
220
0.0
230
1.0
 70
    15
 71
     2
 72
    16
 73
    13
 74
     0
 42
0.0000000001
 43
0.0000000001
 40
0.0
 40
0.0
 40
0.0
 40
3.175809548287447
 40
3.175809548287447
 40
6.199883641578445
 40
6.199883641578445
 40
6.437320578566601
 40
6.437320578566601
 40
7.189617391048195
 40
7.189617391048195
 40
9.63981605560816
 40
9.63981605560816
 40
12.20206605560816
 40
12.20206605560816
 40
12.20206605560816
 10
-20.43722302872043
 20
34.8129999959564
 30
0.0
 41
1.0
 10
-22.02512780286416
 20
34.8129999959564
 30
0.0
 41
1.0
 10
-23.61303257700788
 20
34.8129999959564
 30
0.0
 41
1.0
 10
-23.61303257700788
 20
33.3009629493109
 30
0.0
 41
1.0
 10
-23.61303257700788
 20
31.7889259026654
 30
0.0
 41
1.0
 10
-23.62698724121628
 20
31.64968472412696
 30
0.0
 41
0.7873178403761734
 10
-23.4951521665368
 20
31.60275550574226
 30
0.0
 41
1.0
 10
-23.12581575929083
 20
31.53149372215431
 30
0.0
 41
1.0
 10
-22.75647935204487
 20
31.46023193856637
 30
0.0
 41
1.0
 10
-21.59685119038265
 20
31.85542846726138
 30
0.0
 41
1.0
 10
-20.43722302872042
 20
32.2506249959564
 30
0.0
 41
1.0
 10
-20.43722302872043
 20
33.5318124959564
 30
0.0
 41
1.0
 10
-20.43722302872043
 20
34.8129999959564
 30
0.0
 41
1.0
  0
SPLINE
  5
43
330
1F
100
AcDbEntity
  8
30x60 C
100
AcDbSpline
210
0.0
220
0.0
230
1.0
 70
    15
 71
     2
 72
    18
 73
    15
 74
     0
 42
0.0000000001
 43
0.0000000001
 40
0.0
 40
0.0
 40
0.0
 40
34.59511698187037
 40
34.59511698187037
 40
37.65145112807966
 40
37.65145112807966
 40
68.86080797887902
 40
68.86080797887902
 40
69.61304878351115
 40
69.61304878351115
 40
69.91637312948508
 40
69.91637312948508
 40
72.94404903069326
 40
72.94404903069326
 40
75.28205644912099
 40
75.28205644912099
 40
75.28205644912099
 10
-25.99933920420861
 20
34.8129999959564
 30
0.0
 41
1.0
 10
-27.28127546024935
 20
17.56300958437853
 30
0.0
 41
1.0
 10
-28.56321171629009
 20
0.313019172800655
 30
0.0
 41
1.0
 10
-27.03491496607439
 20
0.3130171411801541
 30
0.0
 41
1.0
 10
-25.50661821585869
 20
0.3130151095596533
 30
0.0
 41
1.0
 10
-24.13572993351587
 20
15.85736748705817
 30
0.0
 41
1.0
 10
-22.76484165117305
 20
31.40171986455668
 30
0.0
 41
1.0
 10
-23.1342029256115
 20
31.47295585260362
 30
0.0
 41
1.0
 10
-23.50356420004996
 20
31.54419184065055
 30
0.0
 41
1.0
 10
-23.67197712620109
 20
31.6040675890763
 30
0.0
 41
0.788094268021899
 10
-23.6546696477556
 20
31.78360196274713
 30
0.0
 41
1.0
 10
-23.65800071676827
 20
33.29830075536641
 30
0.0
 41
1.0
 10
-23.66133178578093
 20
34.81299954798569
 30
0.0
 41
1.0
 10
-24.83033549499477
 20
34.81299977197104
 30
0.0
 41
1.0
 10
-25.99933920420861
 20
34.8129999959564
 30
0.0
 41
1.0
  0
SPLINE
  5
44
330
1F
100
AcDbEntity
  8
30x60 C
100
AcDbSpline
210
0.0
220
0.0
230
1.0
 70
    15
 71
     2
 72
    16
 73
    13
 74
     0
 42
0.0000000001
 43
0.0000000001
 40
0.0
 40
0.0
 40
0.0
 40
2.790914725409877
 40
2.790914725409877
 40
2.978914721366277
 40
2.978914721366277
 40
3.175092058140855
 40
3.175092058140855
 40
5.698831706186326
 40
5.698831706186326
 40
5.908289486528923
 40
5.908289486528923
 40
6.096289482485321
 40
6.096289482485321
 40
6.096289482485321
 10
-25.67880786274812
 20
0.3129999959563987
 30
0.0
 41
1.0
 10
-27.07426522545306
 20
0.3129999959563987
 30
0.0
 41
1.0
 10
-28.469722588158
 20
0.3129999959563987
 30
0.0
 41
1.0
 10
-28.46979119140243
 20
0.2189999979781989
 30
0.0
 41
1.0
 10
-28.46985979464685
 20
0.1249999999999991
 30
0.0
 41
1.0
 10
-28.46947669337407
 20
0.0004688893556256
 30
0.0
 41
0.7099102601513743
 10
-28.34473112607992
 20
0.0000000000029722
 30
0.0
 41
1.000001881067515
 10
-27.082753889208
 20
0.0000000000014861
 30
0.0
 41
1.000001881067515
 10
-25.82077665233607
 20
0.0
 30
0.0
 41
1.000001881067515
 10
-25.68868792845015
 20
-0.0068992611181206
 30
0.0
 41
0.7150467987835217
 10
-25.67880786274788
 20
0.125000000000001
 30
0.0
 41
1.000001881067515
 10
-25.678807862748
 20
0.2189999979781999
 30
0.0
 41
1.000001881067515
 10
-25.67880786274812
 20
0.3129999959563987
 30
0.0
 41
1.0
  0
SPLINE
  5
45
330
1F
100
AcDbEntity
  8
30x60 C
100
AcDbSpline
210
0.0
220
0.0
230
1.0
 70
    11
 71
     2
 72
    12
 73
     9
 74
     0
 42
0.0000000001
 43
0.0000000001
 40
0.0
 40
0.0
 40
0.0
 40
1.500007284915587
 40
1.500007284915587
 40
4.565753021944529
 40
4.565753021944529
 40
6.07158168237236
 40
6.07158168237236
 40
9.005038703131103
 40
9.005038703131103
 40
9.005038703131103
 10
-21.89514205748877
 20
8.000999995956427
 30
0.0
 10
-21.89514205713923
 20
7.250996353498634
 30
0.0
 10
-21.89514205678969
 20
6.50099271104084
 30
0.0
 10
-23.42801492530416
 20
6.500992710326448
 30
0.0
 10
-24.96088779381864
 20
6.500992709612056
 30
0.0
 10
-24.89474343603307
 20
7.250996352100678
 30
0.0
 10
-24.82859907824751
 20
8.000999994589298
 30
0.0
 10
-23.36187056786814
 20
8.000999995272863
 30
0.0
 10
-21.89514205748877
 20
8.000999995956427
 30
0.0
  0
SPLINE
  5
46
330
1F
100
AcDbEntity
  8
30x60 C
100
AcDbSpline
210
0.0
220
0.0
230
1.0
 70
    11
 71
     2
 72
    12
 73
     9
 74
     0
 42
0.0000000001
 43
0.0000000001
 40
0.0
 40
0.0
 40
0.0
 40
7.381635493493285
 40
7.381635493493285
 40
7.569635493493287
 40
7.569635493493287
 40
14.95127098698657
 40
14.95127098698657
 40
15.13927098698657
 40
15.13927098698657
 40
15.13927098698657
 10
20.43722302872043
 20
34.8129999959564
 30
0.0
 10
24.12804077546707
 20
34.8129999959564
 30
0.0
 10
27.81885852221372
 20
34.8129999959564
 30
0.0
 10
27.81885852221372
 20
34.9069999959564
 30
0.0
 10
27.81885852221372
 20
35.0009999959564
 30
0.0
 10
24.12804077546707
 20
35.0009999959564
 30
0.0
 10
20.43722302872043
 20
35.0009999959564
 30
0.0
 10
20.43722302872043
 20
34.9069999959564
 30
0.0
 10
20.43722302872043
 20
34.8129999959564
 30
0.0
  0
SPLINE
  5
47
330
1F
100
AcDbEntity
  8
30x60 C
100
AcDbSpline
210
0.0
220
0.0
230
1.0
 70
    24
 71
     2
 72
     6
 73
     3
 74
     0
 42
0.0000000001
 43
0.0000000001
 40
0.0
 40
0.0
 40
0.0
 40
34.59512045666924
 40
34.59512045666924
 40
34.59512045666924
 10
24.73547246452499
 20
34.8129999959564
 30
0.0
 10
26.01753785999965
 20
17.56301744018
 30
0.0
 10
27.2996032554743
 20
0.3130348844036019
 30
0.0
  0
SPLINE
  5
48
330
1F
100
AcDbEntity
  8
30x60 C
100
AcDbSpline
210
0.0
220
0.0
230
1.0
 70
    15
 71
     2
 72
    16
 73
    13
 74
     0
 42
0.0000000001
 43
0.0000000001
 40
0.0
 40
0.0
 40
0.0
 40
3.175809548287447
 40
3.175809548287447
 40
6.199883641578445
 40
6.199883641578445
 40
6.437320578566601
 40
6.437320578566601
 40
7.189617391048195
 40
7.189617391048195
 40
9.63981605560816
 40
9.63981605560816
 40
12.20206605560816
 40
12.20206605560816
 40
12.20206605560816
 10
20.43722302872043
 20
34.8129999959564
 30
0.0
 41
1.0
 10
22.02512780286416
 20
34.8129999959564
 30
0.0
 41
1.0
 10
23.61303257700788
 20
34.8129999959564
 30
0.0
 41
1.0
 10
23.61303257700788
 20
33.3009629493109
 30
0.0
 41
1.0
 10
23.61303257700788
 20
31.7889259026654
 30
0.0
 41
1.0
 10
23.62698724121628
 20
31.64968472412696
 30
0.0
 41
0.7873178403761734
 10
23.4951521665368
 20
31.60275550574226
 30
0.0
 41
1.0
 10
23.12581575929083
 20
31.53149372215431
 30
0.0
 41
1.0
 10
22.75647935204487
 20
31.46023193856637
 30
0.0
 41
1.0
 10
21.59685119038265
 20
31.85542846726138
 30
0.0
 41
1.0
 10
20.43722302872042
 20
32.2506249959564
 30
0.0
 41
1.0
 10
20.43722302872043
 20
33.5318124959564
 30
0.0
 41
1.0
 10
20.43722302872043
 20
34.8129999959564
 30
0.0
 41
1.0
  0
SPLINE
  5
49
330
1F
100
AcDbEntity
  8
30x60 C
100
AcDbSpline
210
0.0
220
0.0
230
1.0
 70
    15
 71
     2
 72
    18
 73
    15
 74
     0
 42
0.0000000001
 43
0.0000000001
 40
0.0
 40
0.0
 40
0.0
 40
34.59511698187037
 40
34.59511698187037
 40
37.65145112807966
 40
37.65145112807966
 40
68.86080797887902
 40
68.86080797887902
 40
69.61304878351115
 40
69.61304878351115
 40
69.91637312948508
 40
69.91637312948508
 40
72.94404903069326
 40
72.94404903069326
 40
75.28205644912099
 40
75.28205644912099
 40
75.28205644912099
 10
25.99933920420861
 20
34.8129999959564
 30
0.0
 41
1.0
 10
27.28127546024935
 20
17.56300958437853
 30
0.0
 41
1.0
 10
28.56321171629009
 20
0.313019172800655
 30
0.0
 41
1.0
 10
27.03491496607439
 20
0.3130171411801541
 30
0.0
 41
1.0
 10
25.50661821585869
 20
0.3130151095596533
 30
0.0
 41
1.0
 10
24.13572993351587
 20
15.85736748705817
 30
0.0
 41
1.0
 10
22.76484165117305
 20
31.40171986455668
 30
0.0
 41
1.0
 10
23.1342029256115
 20
31.47295585260362
 30
0.0
 41
1.0
 10
23.50356420004996
 20
31.54419184065055
 30
0.0
 41
1.0
 10
23.67197712620109
 20
31.6040675890763
 30
0.0
 41
0.788094268021899
 10
23.6546696477556
 20
31.78360196274713
 30
0.0
 41
1.0
 10
23.65800071676827
 20
33.29830075536641
 30
0.0
 41
1.0
 10
23.66133178578093
 20
34.81299954798569
 30
0.0
 41
1.0
 10
24.83033549499477
 20
34.81299977197104
 30
0.0
 41
1.0
 10
25.99933920420861
 20
34.8129999959564
 30
0.0
 41
1.0
  0
SPLINE
  5
4A
330
1F
100
AcDbEntity
  8
30x60 C
100
AcDbSpline
210
0.0
220
0.0
230
1.0
 70
    15
 71
     2
 72
    16
 73
    13
 74
     0
 42
0.0000000001
 43
0.0000000001
 40
0.0
 40
0.0
 40
0.0
 40
2.790914725409877
 40
2.790914725409877
 40
2.978914721366277
 40
2.978914721366277
 40
3.175092058140855
 40
3.175092058140855
 40
5.698831706186326
 40
5.698831706186326
 40
5.908289486528923
 40
5.908289486528923
 40
6.096289482485321
 40
6.096289482485321
 40
6.096289482485321
 10
25.67880786274812
 20
0.3129999959563987
 30
0.0
 41
1.0
 10
27.07426522545306
 20
0.3129999959563987
 30
0.0
 41
1.0
 10
28.469722588158
 20
0.3129999959563987
 30
0.0
 41
1.0
 10
28.46979119140243
 20
0.2189999979781989
 30
0.0
 41
1.0
 10
28.46985979464685
 20
0.1249999999999991
 30
0.0
 41
1.0
 10
28.46947669337407
 20
0.0004688893556256
 30
0.0
 41
0.7099102601513743
 10
28.34473112607992
 20
0.0000000000029722
 30
0.0
 41
1.000001881067515
 10
27.082753889208
 20
0.0000000000014861
 30
0.0
 41
1.000001881067515
 10
25.82077665233607
 20
0.0
 30
0.0
 41
1.000001881067515
 10
25.68868792845015
 20
-0.0068992611181206
 30
0.0
 41
0.7150467987835217
 10
25.67880786274788
 20
0.125000000000001
 30
0.0
 41
1.000001881067515
 10
25.678807862748
 20
0.2189999979781999
 30
0.0
 41
1.000001881067515
 10
25.67880786274812
 20
0.3129999959563987
 30
0.0
 41
1.0
  0
SPLINE
  5
4B
330
1F
100
AcDbEntity
  8
30x60 C
100
AcDbSpline
210
0.0
220
0.0
230
1.0
 70
    11
 71
     2
 72
    12
 73
     9
 74
     0
 42
0.0000000001
 43
0.0000000001
 40
0.0
 40
0.0
 40
0.0
 40
1.500007284915587
 40
1.500007284915587
 40
4.565753021944529
 40
4.565753021944529
 40
6.07158168237236
 40
6.07158168237236
 40
9.005038703131103
 40
9.005038703131103
 40
9.005038703131103
 10
21.89514205748877
 20
8.000999995956427
 30
0.0
 10
21.89514205713923
 20
7.250996353498634
 30
0.0
 10
21.89514205678969
 20
6.50099271104084
 30
0.0
 10
23.42801492530416
 20
6.500992710326448
 30
0.0
 10
24.96088779381864
 20
6.500992709612056
 30
0.0
 10
24.89474343603307
 20
7.250996352100678
 30
0.0
 10
24.82859907824751
 20
8.000999994589298
 30
0.0
 10
23.36187056786814
 20
8.000999995272863
 30
0.0
 10
21.89514205748877
 20
8.000999995956427
 30
0.0
  0
SPLINE
  5
4C
330
1F
100
AcDbEntity
  8
30x60 C
100
AcDbSpline
210
0.0
220
0.0
230
1.0
 70
     8
 71
     2
 72
    20
 73
    17
 74
     0
 42
0.0000000001
 43
0.0000000001
 40
-1.493932362919318
 40
-1.493932362919318
 40
-1.493932362919318
 40
46.5
 40
46.5
 40
46.81300000019795
 40
46.81300000019795
 40
48.43308134108953
 40
48.43308134108953
 40
48.45980508669223
 40
48.45980508669223
 40
93.45980508669223
 40
93.45980508669223
 40
93.4865288323019
 40
93.4865288323019
 40
95.1066101731925
 40
95.1066101731925
 40
95.41961017319203
 40
95.41961017319203
 40
95.41961017319203
 10
48.33481456875622
 20
36.00099999595641
 30
0.0
 10
63.33587468669141
 20
36.00099999595635
 30
0.0
 10
78.3369348046266
 20
36.00099999595629
 30
0.0
 10
78.33568882470408
 20
35.8439189859275
 30
0.0
 10
78.33444284478156
 20
35.68683797589871
 30
0.0
 10
77.59905069750543
 20
35.34391898592663
 30
0.0
 10
76.8636585502293
 20
35.00099999595456
 30
0.0
 10
76.85029667742795
 20
35.0009999959558
 30
0.0
 10
76.8369348046266
 20
35.00099999595705
 30
0.0
 10
63.33284086815107
 20
35.00099999595705
 30
0.0
 10
49.82874693167554
 20
35.00099999595705
 30
0.0
 10
49.8153850588707
 20
35.00099999595705
 30
0.0
 10
49.80202318606587
 20
35.00099999595705
 30
0.0
 10
49.06663103874784
 20
35.34391898599839
 30
0.0
 10
48.33123889142981
 20
35.68683797603974
 30
0.0
 10
48.32999291155268
 20
35.84391898599807
 30
0.0
 10
48.32874693167554
 20
36.0009999959564
 30
0.0
  0
SPLINE
  5
4D
330
1F
100
AcDbEntity
  8
30x60 C
100
AcDbSpline
210
0.0
220
0.0
230
1.0
 70
    11
 71
     2
 72
    12
 73
     9
 74
     0
 42
0.0000000001
 43
0.0000000001
 40
0.0
 40
0.0
 40
0.0
 40
28.86538748362489
 40
28.86538748362489
 40
31.61563748362489
 40
31.61563748362489
 40
60.48102496724977
 40
60.48102496724977
 40
63.23127496724977
 40
63.23127496724977
 40
63.23127496724977
 10
57.8960531898631
 20
35.0009999959564
 30
0.0
 10
63.33284086815107
 20
35.0009999959564
 30
0.0
 10
68.76962854643904
 20
35.0009999959564
 30
0.0
 10
68.76962854643904
 20
33.62587499595639
 30
0.0
 10
68.76962854643904
 20
32.2507499959564
 30
0.0
 10
63.33284086815107
 20
32.2507499959564
 30
0.0
 10
57.8960531898631
 20
32.2507499959564
 30
0.0
 10
57.8960531898631
 20
33.62587499595639
 30
0.0
 10
57.8960531898631
 20
35.0009999959564
 30
0.0
  0
SPLINE
  5
4E
330
1F
100
AcDbEntity
  8
30x60 C
100
AcDbSpline
210
0.0
220
0.0
230
1.0
 70
    11
 71
     2
 72
    12
 73
     9
 74
     0
 42
0.0000000001
 43
0.0000000001
 40
0.0
 40
0.0
 40
0.0
 40
31.77560337649145
 40
31.77560337649145
 40
33.27560337649148
 40
33.27560337649148
 40
65.05120675298294
 40
65.05120675298294
 40
66.55120675298296
 40
66.55120675298296
 40
66.55120675298296
 10
56.44375632576487
 20
6.500999995956396
 30
0.0
 10
63.33565195048612
 20
6.500999995956396
 30
0.0
 10
70.22754757520738
 20
6.500999995956396
 30
0.0
 10
70.22754757520738
 20
7.250999995956411
 30
0.0
 10
70.22754757520738
 20
8.000999995956427
 30
0.0
 10
63.33565195048612
 20
8.000999995956427
 30
0.0
 10
56.44375632576487
 20
8.000999995956427
 30
0.0
 10
56.44375632576487
 20
7.250999995956411
 30
0.0
 10
56.44375632576487
 20
6.500999995956396
 30
0.0
  0
SPLINE
  5
4F
330
1F
100
AcDbEntity
  8
30x60 C
100
AcDbSpline
210
0.0
220
0.0
230
1.0
 70
    11
 71
     2
 72
    12
 73
     9
 74
     0
 42
0.0000000001
 43
0.0000000001
 40
0.0
 40
0.0
 40
0.0
 40
7.381635493493285
 40
7.381635493493285
 40
7.569635493493287
 40
7.569635493493287
 40
14.95127098698657
 40
14.95127098698657
 40
15.13927098698657
 40
15.13927098698657
 40
15.13927098698657
 10
57.8960531898631
 20
34.8129999959564
 30
0.0
 10
54.20523544311645
 20
34.8129999959564
 30
0.0
 10
50.51441769636981
 20
34.8129999959564
 30
0.0
 10
50.51441769636981
 20
34.9069999959564
 30
0.0
 10
50.51441769636981
 20
35.0009999959564
 30
0.0
 10
54.20523544311645
 20
35.0009999959564
 30
0.0
 10
57.8960531898631
 20
35.0009999959564
 30
0.0
 10
57.8960531898631
 20
34.9069999959564
 30
0.0
 10
57.8960531898631
 20
34.8129999959564
 30
0.0
  0
SPLINE
  5
50
330
1F
100
AcDbEntity
  8
30x60 C
100
AcDbSpline
210
0.0
220
0.0
230
1.0
 70
    24
 71
     2
 72
     6
 73
     3
 74
     0
 42
0.0000000001
 43
0.0000000001
 40
0.0
 40
0.0
 40
0.0
 40
34.59512045666924
 40
34.59512045666924
 40
34.59512045666924
 10
53.59780375405854
 20
34.8129999959564
 30
0.0
 10
52.31573835858389
 20
17.56301744018
 30
0.0
 10
51.03367296310923
 20
0.3130348844036019
 30
0.0
  0
SPLINE
  5
51
330
1F
100
AcDbEntity
  8
30x60 C
100
AcDbSpline
210
0.0
220
0.0
230
1.0
 70
    15
 71
     2
 72
    16
 73
    13
 74
     0
 42
0.0000000001
 43
0.0000000001
 40
0.0
 40
0.0
 40
0.0
 40
3.175809548287447
 40
3.175809548287447
 40
6.199883641578445
 40
6.199883641578445
 40
6.437320578566601
 40
6.437320578566601
 40
7.189617391048195
 40
7.189617391048195
 40
9.63981605560816
 40
9.63981605560816
 40
12.20206605560816
 40
12.20206605560816
 40
12.20206605560816
 10
57.8960531898631
 20
34.8129999959564
 30
0.0
 41
1.0
 10
56.30814841571937
 20
34.8129999959564
 30
0.0
 41
1.0
 10
54.72024364157565
 20
34.8129999959564
 30
0.0
 41
1.0
 10
54.72024364157565
 20
33.3009629493109
 30
0.0
 41
1.0
 10
54.72024364157565
 20
31.7889259026654
 30
0.0
 41
1.0
 10
54.70628897736725
 20
31.64968472412696
 30
0.0
 41
0.7873178403761734
 10
54.83812405204673
 20
31.60275550574226
 30
0.0
 41
1.0
 10
55.20746045929269
 20
31.53149372215431
 30
0.0
 41
1.0
 10
55.57679686653866
 20
31.46023193856637
 30
0.0
 41
1.0
 10
56.73642502820088
 20
31.85542846726138
 30
0.0
 41
1.0
 10
57.8960531898631
 20
32.2506249959564
 30
0.0
 41
1.0
 10
57.8960531898631
 20
33.5318124959564
 30
0.0
 41
1.0
 10
57.8960531898631
 20
34.8129999959564
 30
0.0
 41
1.0
  0
SPLINE
  5
52
330
1F
100
AcDbEntity
  8
30x60 C
100
AcDbSpline
210
0.0
220
0.0
230
1.0
 70
    15
 71
     2
 72
    18
 73
    15
 74
     0
 42
0.0000000001
 43
0.0000000001
 40
0.0
 40
0.0
 40
0.0
 40
34.59511698187037
 40
34.59511698187037
 40
37.65145112807966
 40
37.65145112807966
 40
68.86080797887902
 40
68.86080797887902
 40
69.61304878351115
 40
69.61304878351115
 40
69.91637312948508
 40
69.91637312948508
 40
72.94404903069326
 40
72.94404903069326
 40
75.28205644912099
 40
75.28205644912099
 40
75.28205644912099
 10
52.33393701437492
 20
34.8129999959564
 30
0.0
 41
1.0
 10
51.05200075833417
 20
17.56300958437853
 30
0.0
 41
1.0
 10
49.77006450229344
 20
0.313019172800655
 30
0.0
 41
1.0
 10
51.29836125250914
 20
0.3130171411801541
 30
0.0
 41
1.0
 10
52.82665800272483
 20
0.3130151095596533
 30
0.0
 41
1.0
 10
54.19754628506766
 20
15.85736748705817
 30
0.0
 41
1.0
 10
55.56843456741048
 20
31.40171986455668
 30
0.0
 41
1.0
 10
55.19907329297202
 20
31.47295585260362
 30
0.0
 41
1.0
 10
54.82971201853357
 20
31.54419184065055
 30
0.0
 41
1.0
 10
54.66129909238244
 20
31.6040675890763
 30
0.0
 41
0.788094268021899
 10
54.67860657082792
 20
31.78360196274713
 30
0.0
 41
1.0
 10
54.67527550181526
 20
33.29830075536641
 30
0.0
 41
1.0
 10
54.6719444328026
 20
34.81299954798569
 30
0.0
 41
1.0
 10
53.50294072358876
 20
34.81299977197104
 30
0.0
 41
1.0
 10
52.33393701437492
 20
34.8129999959564
 30
0.0
 41
1.0
  0
SPLINE
  5
53
330
1F
100
AcDbEntity
  8
30x60 C
100
AcDbSpline
210
0.0
220
0.0
230
1.0
 70
    15
 71
     2
 72
    16
 73
    13
 74
     0
 42
0.0000000001
 43
0.0000000001
 40
0.0
 40
0.0
 40
0.0
 40
2.790914725409877
 40
2.790914725409877
 40
2.978914721366277
 40
2.978914721366277
 40
3.175092058140855
 40
3.175092058140855
 40
5.698831706186326
 40
5.698831706186326
 40
5.908289486528923
 40
5.908289486528923
 40
6.096289482485321
 40
6.096289482485321
 40
6.096289482485321
 10
52.65446835583541
 20
0.3129999959563987
 30
0.0
 41
1.0
 10
51.25901099313047
 20
0.3129999959563987
 30
0.0
 41
1.0
 10
49.86355363042553
 20
0.3129999959563987
 30
0.0
 41
1.0
 10
49.8634850271811
 20
0.2189999979781989
 30
0.0
 41
1.0
 10
49.86341642393668
 20
0.1249999999999991
 30
0.0
 41
1.0
 10
49.86379952520945
 20
0.0004688893556256
 30
0.0
 41
0.7099102601513743
 10
49.98854509250361
 20
0.0000000000029722
 30
0.0
 41
1.000001881067515
 10
51.25052232937553
 20
0.0000000000014861
 30
0.0
 41
1.000001881067515
 10
52.51249956624746
 20
0.0
 30
0.0
 41
1.000001881067515
 10
52.64458829013338
 20
-0.0068992611181206
 30
0.0
 41
0.7150467987835217
 10
52.65446835583564
 20
0.125000000000001
 30
0.0
 41
1.000001881067515
 10
52.65446835583552
 20
0.2189999979781999
 30
0.0
 41
1.000001881067515
 10
52.65446835583541
 20
0.3129999959563987
 30
0.0
 41
1.0
  0
SPLINE
  5
54
330
1F
100
AcDbEntity
  8
30x60 C
100
AcDbSpline
210
0.0
220
0.0
230
1.0
 70
    11
 71
     2
 72
    12
 73
     9
 74
     0
 42
0.0000000001
 43
0.0000000001
 40
0.0
 40
0.0
 40
0.0
 40
1.500007284915587
 40
1.500007284915587
 40
4.565753021944529
 40
4.565753021944529
 40
6.07158168237236
 40
6.07158168237236
 40
9.005038703131103
 40
9.005038703131103
 40
9.005038703131103
 10
56.43813416109476
 20
8.000999995956427
 30
0.0
 10
56.4381341614443
 20
7.250996353498634
 30
0.0
 10
56.43813416179383
 20
6.50099271104084
 30
0.0
 10
54.90526129327937
 20
6.500992710326448
 30
0.0
 10
53.37238842476489
 20
6.500992709612056
 30
0.0
 10
53.43853278255045
 20
7.250996352100678
 30
0.0
 10
53.50467714033601
 20
8.000999994589298
 30
0.0
 10
54.97140565071538
 20
8.000999995272863
 30
0.0
 10
56.43813416109476
 20
8.000999995956427
 30
0.0
  0
SPLINE
  5
55
330
1F
100
AcDbEntity
  8
30x60 C
100
AcDbSpline
210
0.0
220
0.0
230
1.0
 70
    24
 71
     2
 72
     6
 73
     3
 74
     0
 42
0.0000000001
 43
0.0000000001
 40
0.0
 40
0.0
 40
0.0
 40
34.59512045666924
 40
34.59512045666924
 40
34.59512045666924
 10
73.0678779822436
 20
34.8129999959564
 30
0.0
 10
74.34994337771826
 20
17.56301744018
 30
0.0
 10
75.63200877319291
 20
0.3130348844036019
 30
0.0
  0
SPLINE
  5
56
330
1F
100
AcDbEntity
  8
30x60 C
100
AcDbSpline
210
0.0
220
0.0
230
1.0
 70
    11
 71
     2
 72
    12
 73
     9
 74
     0
 42
0.0000000001
 43
0.0000000001
 40
0.0
 40
0.0
 40
0.0
 40
7.381635493493285
 40
7.381635493493285
 40
7.569635493493287
 40
7.569635493493287
 40
14.95127098698657
 40
14.95127098698657
 40
15.13927098698657
 40
15.13927098698657
 40
15.13927098698657
 10
68.76962854643904
 20
34.8129999959564
 30
0.0
 10
72.46044629318568
 20
34.8129999959564
 30
0.0
 10
76.15126403993233
 20
34.8129999959564
 30
0.0
 10
76.15126403993233
 20
34.9069999959564
 30
0.0
 10
76.15126403993233
 20
35.0009999959564
 30
0.0
 10
72.46044629318568
 20
35.0009999959564
 30
0.0
 10
68.76962854643904
 20
35.0009999959564
 30
0.0
 10
68.76962854643904
 20
34.9069999959564
 30
0.0
 10
68.76962854643904
 20
34.8129999959564
 30
0.0
  0
SPLINE
  5
57
330
1F
100
AcDbEntity
  8
30x60 C
100
AcDbSpline
210
0.0
220
0.0
230
1.0
 70
    15
 71
     2
 72
    16
 73
    13
 74
     0
 42
0.0000000001
 43
0.0000000001
 40
0.0
 40
0.0
 40
0.0
 40
3.175809548287447
 40
3.175809548287447
 40
6.199883641578445
 40
6.199883641578445
 40
6.437320578566601
 40
6.437320578566601
 40
7.189617391048195
 40
7.189617391048195
 40
9.63981605560816
 40
9.63981605560816
 40
12.20206605560816
 40
12.20206605560816
 40
12.20206605560816
 10
68.76962854643904
 20
34.8129999959564
 30
0.0
 41
1.0
 10
70.35753332058276
 20
34.8129999959564
 30
0.0
 41
1.0
 10
71.94543809472648
 20
34.8129999959564
 30
0.0
 41
1.0
 10
71.94543809472648
 20
33.3009629493109
 30
0.0
 41
1.0
 10
71.94543809472648
 20
31.7889259026654
 30
0.0
 41
1.0
 10
71.95939275893488
 20
31.64968472412696
 30
0.0
 41
0.7873178403761734
 10
71.8275576842554
 20
31.60275550574226
 30
0.0
 41
1.0
 10
71.45822127700944
 20
31.53149372215431
 30
0.0
 41
1.0
 10
71.08888486976348
 20
31.46023193856637
 30
0.0
 41
1.0
 10
69.92925670810126
 20
31.85542846726138
 30
0.0
 41
1.0
 10
68.76962854643904
 20
32.2506249959564
 30
0.0
 41
1.0
 10
68.76962854643904
 20
33.5318124959564
 30
0.0
 41
1.0
 10
68.76962854643904
 20
34.8129999959564
 30
0.0
 41
1.0
  0
SPLINE
  5
58
330
1F
100
AcDbEntity
  8
30x60 C
100
AcDbSpline
210
0.0
220
0.0
230
1.0
 70
    15
 71
     2
 72
    18
 73
    15
 74
     0
 42
0.0000000001
 43
0.0000000001
 40
0.0
 40
0.0
 40
0.0
 40
34.59511698187037
 40
34.59511698187037
 40
37.65145112807966
 40
37.65145112807966
 40
68.86080797887902
 40
68.86080797887902
 40
69.61304878351115
 40
69.61304878351115
 40
69.91637312948508
 40
69.91637312948508
 40
72.94404903069326
 40
72.94404903069326
 40
75.28205644912099
 40
75.28205644912099
 40
75.28205644912099
 10
74.33174472192721
 20
34.8129999959564
 30
0.0
 41
1.0
 10
75.61368097796796
 20
17.56300958437853
 30
0.0
 41
1.0
 10
76.8956172340087
 20
0.313019172800655
 30
0.0
 41
1.0
 10
75.36732048379301
 20
0.3130171411801541
 30
0.0
 41
1.0
 10
73.8390237335773
 20
0.3130151095596533
 30
0.0
 41
1.0
 10
72.46813545123447
 20
15.85736748705817
 30
0.0
 41
1.0
 10
71.09724716889166
 20
31.40171986455668
 30
0.0
 41
1.0
 10
71.4666084433301
 20
31.47295585260362
 30
0.0
 41
1.0
 10
71.83596971776856
 20
31.54419184065055
 30
0.0
 41
1.0
 10
72.00438264391968
 20
31.6040675890763
 30
0.0
 41
0.788094268021899
 10
71.98707516547421
 20
31.78360196274713
 30
0.0
 41
1.0
 10
71.99040623448687
 20
33.29830075536641
 30
0.0
 41
1.0
 10
71.99373730349953
 20
34.81299954798569
 30
0.0
 41
1.0
 10
73.16274101271337
 20
34.81299977197104
 30
0.0
 41
1.0
 10
74.33174472192721
 20
34.8129999959564
 30
0.0
 41
1.0
  0
SPLINE
  5
59
330
1F
100
AcDbEntity
  8
30x60 C
100
AcDbSpline
210
0.0
220
0.0
230
1.0
 70
    15
 71
     2
 72
    16
 73
    13
 74
     0
 42
0.0000000001
 43
0.0000000001
 40
0.0
 40
0.0
 40
0.0
 40
2.790914725409877
 40
2.790914725409877
 40
2.978914721366277
 40
2.978914721366277
 40
3.175092058140855
 40
3.175092058140855
 40
5.698831706186326
 40
5.698831706186326
 40
5.908289486528923
 40
5.908289486528923
 40
6.096289482485321
 40
6.096289482485321
 40
6.096289482485321
 10
74.01121338046673
 20
0.3129999959563987
 30
0.0
 41
1.0
 10
75.40667074317167
 20
0.3129999959563987
 30
0.0
 41
1.0
 10
76.8021281058766
 20
0.3129999959563987
 30
0.0
 41
1.0
 10
76.80219670912103
 20
0.2189999979781989
 30
0.0
 41
1.0
 10
76.80226531236545
 20
0.1249999999999991
 30
0.0
 41
1.0
 10
76.80188221109267
 20
0.0004688893556256
 30
0.0
 41
0.7099102601513743
 10
76.67713664379852
 20
0.0000000000029722
 30
0.0
 41
1.000001881067515
 10
75.41515940692659
 20
0.0000000000014861
 30
0.0
 41
1.000001881067515
 10
74.15318217005468
 20
0.0
 30
0.0
 41
1.000001881067515
 10
74.02109344616875
 20
-0.0068992611181206
 30
0.0
 41
0.7150467987835217
 10
74.01121338046649
 20
0.125000000000001
 30
0.0
 41
1.000001881067515
 10
74.0112133804666
 20
0.2189999979781999
 30
0.0
 41
1.000001881067515
 10
74.01121338046673
 20
0.3129999959563987
 30
0.0
 41
1.0
  0
SPLINE
  5
5A
330
1F
100
AcDbEntity
  8
30x60 C
100
AcDbSpline
210
0.0
220
0.0
230
1.0
 70
    11
 71
     2
 72
    12
 73
     9
 74
     0
 42
0.0000000001
 43
0.0000000001
 40
0.0
 40
0.0
 40
0.0
 40
1.500007284915587
 40
1.500007284915587
 40
4.565753021944529
 40
4.565753021944529
 40
6.07158168237236
 40
6.07158168237236
 40
9.005038703131103
 40
9.005038703131103
 40
9.005038703131103
 10
70.22754757520738
 20
8.000999995956427
 30
0.0
 10
70.22754757485784
 20
7.250996353498634
 30
0.0
 10
70.22754757450829
 20
6.50099271104084
 30
0.0
 10
71.76042044302277
 20
6.500992710326448
 30
0.0
 10
73.29329331153724
 20
6.500992709612056
 30
0.0
 10
73.22714895375168
 20
7.250996352100678
 30
0.0
 10
73.16100459596612
 20
8.000999994589298
 30
0.0
 10
71.69427608558675
 20
8.000999995272863
 30
0.0
 10
70.22754757520738
 20
8.000999995956427
 30
0.0
  0
ENDSEC
  0
SECTION
  2
OBJECTS
  0
DICTIONARY
  5
C
330
0
100
AcDbDictionary
281
     1
  3
ACAD_GROUP
350
D
  3
ACAD_LAYOUT
350
1A
  3
ACAD_MLEADERSTYLE
350
5C
  3
ACAD_MLINESTYLE
350
17
  3
ACAD_PLOTSETTINGS
350
19
  3
ACAD_PLOTSTYLENAME
350
E
  3
ACAD_TABLESTYLE
350
5B
  3
ACAD_VISUALSTYLE
350
2A
  0
DICTIONARY
  5
D
102
{ACAD_REACTORS
330
C
102
}
330
C
100
AcDbDictionary
281
     1
  0
DICTIONARY
  5
1A
102
{ACAD_REACTORS
330
C
102
}
330
C
100
AcDbDictionary
281
     1
  3
Layout1
350
1E
  3
Layout2
350
26
  3
Model
350
22
  0
DICTIONARY
  5
5C
102
{ACAD_REACTORS
330
C
102
}
330
C
100
AcDbDictionary
281
     1
  0
DICTIONARY
  5
17
102
{ACAD_REACTORS
330
C
102
}
330
C
100
AcDbDictionary
281
     1
  3
Standard
350
18
  0
DICTIONARY
  5
19
102
{ACAD_REACTORS
330
C
102
}
330
C
100
AcDbDictionary
281
     1
  0
ACDBDICTIONARYWDFLT
  5
E
102
{ACAD_REACTORS
330
C
102
}
330
C
100
AcDbDictionary
281
     1
  3
Normal
350
F
100
AcDbDictionaryWithDefault
340
F
  0
DICTIONARY
  5
5B
102
{ACAD_REACTORS
330
C
102
}
330
C
100
AcDbDictionary
281
     1
  0
DICTIONARY
  5
2A
102
{ACAD_REACTORS
330
C
102
}
330
C
100
AcDbDictionary
281
     1
  3
2dWireframe
350
2F
  3
3D Hidden
350
31
  3
3dWireframe
350
30
  3
Basic
350
32
  3
Brighten
350
36
  3
ColorChange
350
3A
  3
Conceptual
350
34
  3
Dim
350
35
  3
Facepattern
350
39
  3
Flat
350
2B
  3
FlatWithEdges
350
2C
  3
Gouraud
350
2D
  3
GouraudWithEdges
350
2E
  3
Linepattern
350
38
  3
Realistic
350
33
  3
Thicken
350
37
  0
LAYOUT
  5
1E
102
{ACAD_REACTORS
330
1A
102
}
330
1A
100
AcDbPlotSettings
  1

  2
none_device
  4

  6

 40
0.0
 41
0.0
 42
0.0
 43
0.0
 44
0.0
 45
0.0
 46
0.0
 47
0.0
 48
0.0
 49
0.0
140
0.0
141
0.0
142
1.0
143
1.0
 70
   688
 72
     0
 73
     0
 74
     5
  7

 75
    16
 76
     0
 77
     2
 78
   300
147
1.0
148
0.0
149
0.0
100
AcDbLayout
  1
Layout1
 70
     1
 71
     1
 10
0.0
 20
0.0
 11
12.0
 21
9.0
 12
0.0
 22
0.0
 32
0.0
 14
1.000000000000000E+20
 24
1.000000000000000E+20
 34
1.000000000000000E+20
 15
-1.000000000000000E+20
 25
-1.000000000000000E+20
 35
-1.000000000000000E+20
146
0.0
 13
0.0
 23
0.0
 33
0.0
 16
1.0
 26
0.0
 36
0.0
 17
0.0
 27
1.0
 37
0.0
 76
     0
330
1B
  0
LAYOUT
  5
26
102
{ACAD_REACTORS
330
1A
102
}
330
1A
100
AcDbPlotSettings
  1

  2
none_device
  4

  6

 40
0.0
 41
0.0
 42
0.0
 43
0.0
 44
0.0
 45
0.0
 46
0.0
 47
0.0
 48
0.0
 49
0.0
140
0.0
141
0.0
142
1.0
143
1.0
 70
   688
 72
     0
 73
     0
 74
     5
  7

 75
    16
 76
     0
 77
     2
 78
   300
147
1.0
148
0.0
149
0.0
100
AcDbLayout
  1
Layout2
 70
     1
 71
     2
 10
0.0
 20
0.0
 11
0.0
 21
0.0
 12
0.0
 22
0.0
 32
0.0
 14
0.0
 24
0.0
 34
0.0
 15
0.0
 25
0.0
 35
0.0
146
0.0
 13
0.0
 23
0.0
 33
0.0
 16
1.0
 26
0.0
 36
0.0
 17
0.0
 27
1.0
 37
0.0
 76
     0
330
23
  0
LAYOUT
  5
22
102
{ACAD_REACTORS
330
1A
102
}
330
1A
100
AcDbPlotSettings
  1

  2
none_device
  4

  6

 40
0.0
 41
0.0
 42
0.0
 43
0.0
 44
0.0
 45
0.0
 46
0.0
 47
0.0
 48
0.0
 49
0.0
140
0.0
141
0.0
142
1.0
143
1.0
 70
  1712
 72
     0
 73
     0
 74
     0
  7

 75
     0
 76
     0
 77
     2
 78
   300
147
1.0
148
0.0
149
0.0
100
AcDbLayout
  1
Model
 70
     1
 71
     0
 10
0.0
 20
0.0
 11
12.0
 21
9.0
 12
0.0
 22
0.0
 32
0.0
 14
-30.00452928690719
 24
0.0
 34
0.0
 15
78.3369348046266
 25
84.22685930801515
 35
0.0
146
0.0
 13
0.0
 23
0.0
 33
0.0
 16
1.0
 26
0.0
 36
0.0
 17
0.0
 27
1.0
 37
0.0
 76
     0
330
1F
331
29
  0
MLINESTYLE
  5
18
102
{ACAD_REACTORS
330
17
102
}
330
17
100
AcDbMlineStyle
  2
Standard
 70
     0
  3

 62
   256
 51
90.0
 52
90.0
 71
     2
 49
0.5
 62
   256
  6
BYLAYER
 49
-0.5
 62
   256
  6
BYLAYER
  0
ACDBPLACEHOLDER
  5
F
102
{ACAD_REACTORS
330
E
102
}
330
E
  0
VISUALSTYLE
  5
2F
102
{ACAD_REACTORS
330
2A
102
}
330
2A
100
AcDbVisualStyle
  2
2dWireframe
 70
     4
 71
     0
 72
     2
 73
     0
 90
        0
 40
-0.6
 41
-30.0
 62
     5
 63
     7
421
 16777215
 74
     1
 91
        4
 64
     7
 65
   257
 75
     1
175
     1
 42
1.0
 92
        0
 66
   257
 43
1.0
 76
     1
 77
     6
 78
     2
 67
     7
 79
     5
170
     0
171
     0
290
     0
174
     0
 93
        1
 44
0.0
173
     0
291
     0
 45
0.0
1001
ACAD
1000
AcDbSavedByObjectVersion
1070
     0
  0
VISUALSTYLE
  5
31
102
{ACAD_REACTORS
330
2A
102
}
330
2A
100
AcDbVisualStyle
  2
3D Hidden
 70
     6
 71
     1
 72
     2
 73
     2
 90
        0
 40
-0.6
 41
-30.0
 62
     5
 63
     7
421
 16777215
 74
     2
 91
        2
 64
     7
 65
   257
 75
     2
175
     1
 42
40.0
 92
        0
 66
   257
 43
1.0
 76
     1
 77
     6
 78
     2
 67
     7
 79
     3
170
     0
171
     0
290
     0
174
     0
 93
        1
 44
0.0
173
     0
291
     0
 45
0.0
1001
ACAD
1000
AcDbSavedByObjectVersion
1070
     0
  0
VISUALSTYLE
  5
30
102
{ACAD_REACTORS
330
2A
102
}
330
2A
100
AcDbVisualStyle
  2
3dWireframe
 70
     5
 71
     0
 72
     2
 73
     0
 90
        0
 40
-0.6
 41
-30.0
 62
     5
 63
     7
421
 16777215
 74
     1
 91
        4
 64
     7
 65
   257
 75
     1
175
     1
 42
1.0
 92
        0
 66
   257
 43
1.0
 76
     1
 77
     6
 78
     2
 67
     7
 79
     5
170
     0
171
     0
290
     0
174
     0
 93
        1
 44
0.0
173
     0
291
     0
 45
0.0
1001
ACAD
1000
AcDbSavedByObjectVersion
1070
     0
  0
VISUALSTYLE
  5
32
102
{ACAD_REACTORS
330
2A
102
}
330
2A
100
AcDbVisualStyle
  2
Basic
 70
     7
 71
     1
 72
     0
 73
     1
 90
        0
 40
-0.6
 41
-30.0
 62
     5
 63
     7
421
 16777215
 74
     0
 91
        4
 64
     7
 65
   257
 75
     1
175
     1
 42
1.0
 92
        8
 66
     7
 43
1.0
 76
     1
 77
     6
 78
     2
 67
     7
 79
     5
170
     0
171
     0
290
     0
174
     0
 93
        1
 44
0.0
173
     0
291
     1
 45
0.0
1001
ACAD
1000
AcDbSavedByObjectVersion
1070
     0
  0
VISUALSTYLE
  5
36
102
{ACAD_REACTORS
330
2A
102
}
330
2A
100
AcDbVisualStyle
  2
Brighten
 70
    12
 71
     2
 72
     2
 73
     0
 90
        0
 40
-0.6
 41
-30.0
 62
     5
 63
     7
421
 16777215
 74
     1
 91
        4
 64
     7
 65
   257
 75
     1
175
     1
 42
1.0
 92
        8
 66
     7
 43
1.0
 76
     1
 77
     6
 78
     2
 67
     7
 79
     5
170
     0
171
     0
290
     0
174
     0
 93
        1
 44
50.0
173
     0
291
     1
 45
0.0
1001
ACAD
1000
AcDbSavedByObjectVersion
1070
     0
  0
VISUALSTYLE
  5
3A
102
{ACAD_REACTORS
330
2A
102
}
330
2A
100
AcDbVisualStyle
  2
ColorChange
 70
    16
 71
     2
 72
     2
 73
     3
 90
        0
 40
-0.6
 41
-30.0
 62
     5
 63
     8
421
  8421504
 74
     1
 91
        4
 64
     7
 65
   257
 75
     1
175
     1
 42
1.0
 92
        8
 66
     8
424
  8421504
 43
1.0
 76
     1
 77
     6
 78
     2
 67
     7
 79
     5
170
     0
171
     0
290
     0
174
     0
 93
        1
 44
0.0
173
     0
291
     1
 45
0.0
1001
ACAD
1000
AcDbSavedByObjectVersion
1070
     0
  0
VISUALSTYLE
  5
34
102
{ACAD_REACTORS
330
2A
102
}
330
2A
100
AcDbVisualStyle
  2
Conceptual
 70
     9
 71
     3
 72
     2
 73
     0
 90
        0
 40
-0.6
 41
-30.0
 62
     5
 63
     7
421
 16777215
 74
     2
 91
        2
 64
     7
 65
   257
 75
     1
175
     1
 42
40.0
 92
        8
 66
     7
 43
1.0
 76
     1
 77
     6
 78
     2
 67
     7
 79
     3
170
     0
171
     0
290
     0
174
     0
 93
        1
 44
0.0
173
     0
291
     0
 45
0.0
1001
ACAD
1000
AcDbSavedByObjectVersion
1070
     0
  0
VISUALSTYLE
  5
35
102
{ACAD_REACTORS
330
2A
102
}
330
2A
100
AcDbVisualStyle
  2
Dim
 70
    11
 71
     2
 72
     2
 73
     0
 90
        0
 40
-0.6
 41
-30.0
 62
     5
 63
     7
421
 16777215
 74
     1
 91
        4
 64
     7
 65
   257
 75
     1
175
     1
 42
1.0
 92
        8
 66
     7
 43
1.0
 76
     1
 77
     6
 78
     2
 67
     7
 79
     5
170
     0
171
     0
290
     0
174
     0
 93
        1
 44
-50.0
173
     0
291
     1
 45
0.0
1001
ACAD
1000
AcDbSavedByObjectVersion
1070
     0
  0
VISUALSTYLE
  5
39
102
{ACAD_REACTORS
330
2A
102
}
330
2A
100
AcDbVisualStyle
  2
Facepattern
 70
    15
 71
     2
 72
     2
 73
     0
 90
        0
 40
-0.6
 41
-30.0
 62
     5
 63
     7
421
 16777215
 74
     1
 91
        4
 64
     7
 65
   257
 75
     1
175
     1
 42
1.0
 92
        8
 66
     7
 43
1.0
 76
     1
 77
     6
 78
     2
 67
     7
 79
     5
170
     0
171
     0
290
     0
174
     0
 93
        1
 44
0.0
173
     0
291
     1
 45
0.0
1001
ACAD
1000
AcDbSavedByObjectVersion
1070
     0
  0
VISUALSTYLE
  5
2B
102
{ACAD_REACTORS
330
2A
102
}
330
2A
100
AcDbVisualStyle
  2
Flat
 70
     0
 71
     2
 72
     1
 73
     1
 90
        2
 40
-0.6
 41
30.0
 62
     5
 63
     7
421
 16777215
 74
     0
 91
        4
 64
     7
 65
   257
 75
     1
175
     1
 42
1.0
 92
        8
 66
     7
 43
1.0
 76
     1
 77
     6
 78
     2
 67
     7
 79
     5
170
     0
171
     0
290
     0
174
     0
 93
       13
 44
0.0
173
     0
291
     1
 45
0.0
1001
ACAD
1000
AcDbSavedByObjectVersion
1070
     0
  0
VISUALSTYLE
  5
2C
102
{ACAD_REACTORS
330
2A
102
}
330
2A
100
AcDbVisualStyle
  2
FlatWithEdges
 70
     1
 71
     2
 72
     1
 73
     1
 90
        2
 40
-0.6
 41
30.0
 62
     5
 63
     7
421
 16777215
 74
     1
 91
        4
 64
     7
 65
   257
 75
     1
175
     1
 42
1.0
 92
        0
 66
   257
 43
1.0
 76
     1
 77
     6
 78
     2
 67
     7
 79
     5
170
     0
171
     0
290
     0
174
     0
 93
       13
 44
0.0
173
     0
291
     1
 45
0.0
1001
ACAD
1000
AcDbSavedByObjectVersion
1070
     0
  0
VISUALSTYLE
  5
2D
102
{ACAD_REACTORS
330
2A
102
}
330
2A
100
AcDbVisualStyle
  2
Gouraud
 70
     2
 71
     2
 72
     2
 73
     1
 90
        2
 40
-0.6
 41
30.0
 62
     5
 63
     7
421
 16777215
 74
     0
 91
        4
 64
     7
 65
   257
 75
     1
175
     1
 42
1.0
 92
        0
 66
     7
 43
1.0
 76
     1
 77
     6
 78
     2
 67
     7
 79
     5
170
     0
171
     0
290
     0
174
     0
 93
       13
 44
0.0
173
     0
291
     1
 45
0.0
1001
ACAD
1000
AcDbSavedByObjectVersion
1070
     0
  0
VISUALSTYLE
  5
2E
102
{ACAD_REACTORS
330
2A
102
}
330
2A
100
AcDbVisualStyle
  2
GouraudWithEdges
 70
     3
 71
     2
 72
     2
 73
     1
 90
        2
 40
-0.6
 41
30.0
 62
     5
 63
     7
421
 16777215
 74
     1
 91
        4
 64
     7
 65
   257
 75
     1
175
     1
 42
1.0
 92
        0
 66
   257
 43
1.0
 76
     1
 77
     6
 78
     2
 67
     7
 79
     5
170
     0
171
     0
290
     0
174
     0
 93
       13
 44
0.0
173
     0
291
     1
 45
0.0
1001
ACAD
1000
AcDbSavedByObjectVersion
1070
     0
  0
VISUALSTYLE
  5
38
102
{ACAD_REACTORS
330
2A
102
}
330
2A
100
AcDbVisualStyle
  2
Linepattern
 70
    14
 71
     2
 72
     2
 73
     0
 90
        0
 40
-0.6
 41
-30.0
 62
     5
 63
     7
421
 16777215
 74
     1
 91
        4
 64
     7
 65
   257
 75
     7
175
     7
 42
1.0
 92
        8
 66
     7
 43
1.0
 76
     1
 77
     6
 78
     2
 67
     7
 79
     5
170
     0
171
     0
290
     0
174
     0
 93
        1
 44
0.0
173
     0
291
     1
 45
0.0
1001
ACAD
1000
AcDbSavedByObjectVersion
1070
     0
  0
VISUALSTYLE
  5
33
102
{ACAD_REACTORS
330
2A
102
}
330
2A
100
AcDbVisualStyle
  2
Realistic
 70
     8
 71
     2
 72
     2
 73
     0
 90
        0
 40
-0.6
 41
-30.0
 62
     5
 63
     7
421
 16777215
 74
     1
 91
        0
 64
     7
 65
   257
 75
     1
175
     1
 42
1.0
 92
        8
 66
     8
424
  7895160
 43
1.0
 76
     1
 77
     6
 78
     2
 67
     7
 79
     5
170
     0
171
     0
290
     0
174
     0
 93
       13
 44
0.0
173
     0
291
     0
 45
0.0
1001
ACAD
1000
AcDbSavedByObjectVersion
1070
     0
  0
VISUALSTYLE
  5
37
102
{ACAD_REACTORS
330
2A
102
}
330
2A
100
AcDbVisualStyle
  2
Thicken
 70
    13
 71
     2
 72
     2
 73
     0
 90
        0
 40
-0.6
 41
-30.0
 62
     5
 63
     7
421
 16777215
 74
     1
 91
        4
 64
     7
 65
   257
 75
     1
175
     1
 42
1.0
 92
       12
 66
     7
 43
1.0
 76
     1
 77
     6
 78
     2
 67
     7
 79
     5
170
     0
171
     0
290
     0
174
     0
 93
        1
 44
0.0
173
     0
291
     1
 45
0.0
1001
ACAD
1000
AcDbSavedByObjectVersion
1070
     0
  0
ENDSEC
  0
EOF
