  0
SECTION
  2
HEADER
  9
$ACADVER
  1
AC1018
  9
$ACADMAINTVER
 70
     0
  9
$DWGCODEPAGE
  3
ANSI_1252
  9
$INSBASE
 10
0.0
 20
0.0
 30
0.0
  9
$EXTMIN
 10
-45.00149546836685
 20
0.0
 30
0.0
  9
$EXTMAX
 10
93.33390098608625
 20
84.22685930801515
 30
0.0
  9
$LIMMIN
 10
0.0
 20
0.0
  9
$LIMMAX
 10
12.0
 20
9.0
  9
$ORTHOMODE
 70
     0
  9
$REGENMODE
 70
     1
  9
$FILLMODE
 70
     1
  9
$QTEXTMODE
 70
     0
  9
$MIRRTEXT
 70
     1
  9
$LTSCALE
 40
0.0393700787401575
  9
$ATTMODE
 70
     1
  9
$TEXTSIZE
 40
0.2
  9
$TRACEWID
 40
0.05
  9
$TEXTSTYLE
  7
Standard
  9
$CLAYER
  8
0
  9
$CELTYPE
  6
ByLayer
  9
$CECOLOR
 62
   256
  9
$CELTSCALE
 40
1.0
  9
$DISPSILH
 70
     0
  9
$DIMSCALE
 40
1.0
  9
$DIMASZ
 40
0.18
  9
$DIMEXO
 40
0.0625
  9
$DIMDLI
 40
0.38
  9
$DIMRND
 40
0.0
  9
$DIMDLE
 40
0.0
  9
$DIMEXE
 40
0.18
  9
$DIMTP
 40
0.0
  9
$DIMTM
 40
0.0
  9
$DIMTXT
 40
0.18
  9
$DIMCEN
 40
0.09
  9
$DIMTSZ
 40
0.0
  9
$DIMTOL
 70
     0
  9
$DIMLIM
 70
     0
  9
$DIMTIH
 70
     1
  9
$DIMTOH
 70
     1
  9
$DIMSE1
 70
     0
  9
$DIMSE2
 70
     0
  9
$DIMTAD
 70
     0
  9
$DIMZIN
 70
     0
  9
$DIMBLK
  1

  9
$DIMASO
 70
     1
  9
$DIMSHO
 70
     1
  9
$DIMPOST
  1

  9
$DIMAPOST
  1

  9
$DIMALT
 70
     0
  9
$DIMALTD
 70
     2
  9
$DIMALTF
 40
25.4
  9
$DIMLFAC
 40
1.0
  9
$DIMTOFL
 70
     0
  9
$DIMTVP
 40
0.0
  9
$DIMTIX
 70
     0
  9
$DIMSOXD
 70
     0
  9
$DIMSAH
 70
     0
  9
$DIMBLK1
  1

  9
$DIMBLK2
  1

  9
$DIMSTYLE
  2
Standard
  9
$DIMCLRD
 70
     0
  9
$DIMCLRE
 70
     0
  9
$DIMCLRT
 70
     0
  9
$DIMTFAC
 40
1.0
  9
$DIMGAP
 40
0.09
  9
$DIMJUST
 70
     0
  9
$DIMSD1
 70
     0
  9
$DIMSD2
 70
     0
  9
$DIMTOLJ
 70
     1
  9
$DIMTZIN
 70
     0
  9
$DIMALTZ
 70
     0
  9
$DIMALTTZ
 70
     0
  9
$DIMUPT
 70
     0
  9
$DIMDEC
 70
     4
  9
$DIMTDEC
 70
     4
  9
$DIMALTU
 70
     2
  9
$DIMALTTD
 70
     2
  9
$DIMTXSTY
  7
Standard
  9
$DIMAUNIT
 70
     0
  9
$DIMADEC
 70
     0
  9
$DIMALTRND
 40
0.0
  9
$DIMAZIN
 70
     0
  9
$DIMDSEP
 70
    46
  9
$DIMATFIT
 70
     3
  9
$DIMFRAC
 70
     0
  9
$DIMLDRBLK
  1

  9
$DIMLUNIT
 70
     2
  9
$DIMLWD
 70
    -2
  9
$DIMLWE
 70
    -2
  9
$DIMTMOVE
 70
     2
  9
$LUNITS
 70
     2
  9
$LUPREC
 70
     3
  9
$SKETCHINC
 40
0.1
  9
$FILLETRAD
 40
0.5
  9
$AUNITS
 70
     0
  9
$AUPREC
 70
     0
  9
$MENU
  1
.
  9
$ELEVATION
 40
0.0
  9
$PELEVATION
 40
0.0
  9
$THICKNESS
 40
0.0
  9
$LIMCHECK
 70
     0
  9
$CHAMFERA
 40
0.5
  9
$CHAMFERB
 40
0.5
  9
$CHAMFERC
 40
1.0
  9
$CHAMFERD
 40
0.0
  9
$SKPOLY
 70
     0
  9
$TDCREATE
 40
2458058.540725023
  9
$TDUCREATE
 40
2458058.70739169
  9
$TDUPDATE
 40
2458058.540725035
  9
$TDUUPDATE
 40
2458058.707391701
  9
$TDINDWG
 40
0.0000000116
  9
$TDUSRTIMER
 40
0.0000000116
  9
$USRTIMER
 70
     1
  9
$ANGBASE
 50
0.0
  9
$ANGDIR
 70
     0
  9
$PDMODE
 70
     0
  9
$PDSIZE
 40
0.0
  9
$PLINEWID
 40
0.0
  9
$SPLFRAME
 70
     0
  9
$SPLINETYPE
 70
     6
  9
$SPLINESEGS
 70
     8
  9
$HANDSEED
  5
5D
  9
$SURFTAB1
 70
     6
  9
$SURFTAB2
 70
     6
  9
$SURFTYPE
 70
     6
  9
$SURFU
 70
     6
  9
$SURFV
 70
     6
  9
$UCSBASE
  2

  9
$UCSNAME
  2

  9
$UCSORG
 10
0.0
 20
0.0
 30
0.0
  9
$UCSXDIR
 10
1.0
 20
0.0
 30
0.0
  9
$UCSYDIR
 10
0.0
 20
1.0
 30
0.0
  9
$UCSORTHOREF
  2

  9
$UCSORTHOVIEW
 70
     0
  9
$UCSORGTOP
 10
0.0
 20
0.0
 30
0.0
  9
$UCSORGBOTTOM
 10
0.0
 20
0.0
 30
0.0
  9
$UCSORGLEFT
 10
0.0
 20
0.0
 30
0.0
  9
$UCSORGRIGHT
 10
0.0
 20
0.0
 30
0.0
  9
$UCSORGFRONT
 10
0.0
 20
0.0
 30
0.0
  9
$UCSORGBACK
 10
0.0
 20
0.0
 30
0.0
  9
$PUCSBASE
  2

  9
$PUCSNAME
  2

  9
$PUCSORG
 10
0.0
 20
0.0
 30
0.0
  9
$PUCSXDIR
 10
1.0
 20
0.0
 30
0.0
  9
$PUCSYDIR
 10
0.0
 20
1.0
 30
0.0
  9
$PUCSORTHOREF
  2

  9
$PUCSORTHOVIEW
 70
     0
  9
$PUCSORGTOP
 10
0.0
 20
0.0
 30
0.0
  9
$PUCSORGBOTTOM
 10
0.0
 20
0.0
 30
0.0
  9
$PUCSORGLEFT
 10
0.0
 20
0.0
 30
0.0
  9
$PUCSORGRIGHT
 10
0.0
 20
0.0
 30
0.0
  9
$PUCSORGFRONT
 10
0.0
 20
0.0
 30
0.0
  9
$PUCSORGBACK
 10
0.0
 20
0.0
 30
0.0
  9
$USERI1
 70
     0
  9
$USERI2
 70
     0
  9
$USERI3
 70
     0
  9
$USERI4
 70
     0
  9
$USERI5
 70
     0
  9
$USERR1
 40
0.0
  9
$USERR2
 40
0.0
  9
$USERR3
 40
0.0
  9
$USERR4
 40
0.0
  9
$USERR5
 40
0.0
  9
$WORLDVIEW
 70
     1
  9
$SHADEDGE
 70
     3
  9
$SHADEDIF
 70
    70
  9
$TILEMODE
 70
     1
  9
$MAXACTVP
 70
    64
  9
$PINSBASE
 10
0.0
 20
0.0
 30
0.0
  9
$PLIMCHECK
 70
     0
  9
$PEXTMIN
 10
1.000000000000000E+20
 20
1.000000000000000E+20
 30
1.000000000000000E+20
  9
$PEXTMAX
 10
-1.000000000000000E+20
 20
-1.000000000000000E+20
 30
-1.000000000000000E+20
  9
$PLIMMIN
 10
0.0
 20
0.0
  9
$PLIMMAX
 10
12.0
 20
9.0
  9
$UNITMODE
 70
     0
  9
$VISRETAIN
 70
     1
  9
$PLINEGEN
 70
     0
  9
$PSLTSCALE
 70
     1
  9
$TREEDEPTH
 70
  3020
  9
$CMLSTYLE
  2
Standard
  9
$CMLJUST
 70
     0
  9
$CMLSCALE
 40
1.0
  9
$PROXYGRAPHICS
 70
     1
  9
$MEASUREMENT
 70
     0
  9
$CELWEIGHT
370
    -1
  9
$ENDCAPS
280
     0
  9
$JOINSTYLE
280
     0
  9
$LWDISPLAY
290
     0
  9
$INSUNITS
 70
     1
  9
$HYPERLINKBASE
  1

  9
$STYLESHEET
  1

  9
$XEDIT
290
     1
  9
$CEPSNTYPE
380
     0
  9
$PSTYLEMODE
290
     1
  9
$FINGERPRINTGUID
  2
{1096398A-A3CD-4593-BCD8-AD22B8B5FAEC}
  9
$VERSIONGUID
  2
{FAEB1C32-E019-11D5-929B-00C0DF256EC4}
  9
$EXTNAMES
290
     1
  9
$PSVPSCALE
 40
0.0
  9
$OLESTARTUP
290
     0
  9
$SORTENTS
280
   127
  9
$INDEXCTL
280
     0
  9
$HIDETEXT
280
     1
  9
$XCLIPFRAME
290
     0
  9
$HALOGAP
280
     0
  9
$OBSCOLOR
 70
   257
  9
$OBSLTYPE
280
     0
  9
$INTERSECTIONDISPLAY
280
     0
  9
$INTERSECTIONCOLOR
 70
   257
  9
$DIMASSOC
280
     2
  9
$PROJECTNAME
  1

  0
ENDSEC
  0
SECTION
  2
CLASSES
  0
CLASS
  1
ACDBDICTIONARYWDFLT
  2
AcDbDictionaryWithDefault
  3
ObjectDBX Classes
 90
        0
 91
        4
280
     0
281
     0
  0
CLASS
  1
VISUALSTYLE
  2
AcDbVisualStyle
  3
ObjectDBX Classes
 90
     4095
 91
        4
280
     0
281
     0
  0
ENDSEC
  0
SECTION
  2
TABLES
  0
TABLE
  2
VPORT
  5
8
330
0
100
AcDbSymbolTable
 70
     1
  0
VPORT
  5
29
330
8
100
AcDbSymbolTableRecord
100
AcDbViewportTableRecord
  2
*Active
 70
     0
 10
0.0
 20
0.0
 11
1.0
 21
1.0
 12
24.1662027588597
 22
42.11342965400758
 13
0.0
 23
0.0
 14
0.5
 24
0.5
 15
0.5
 25
0.5
 16
0.0
 26
0.0
 36
1.0
 17
0.0
 27
0.0
 37
0.0
 40
85.91139649417545
 41
1.642414279613165
 42
50.0
 43
0.0
 44
0.0
 50
0.0
 51
0.0
 71
     0
 72
   100
 73
     1
 74
     3
 75
     0
 76
     0
 77
     0
 78
     0
281
     0
 65
     1
110
0.0
120
0.0
130
0.0
111
1.0
121
0.0
131
0.0
112
0.0
122
1.0
132
0.0
 79
     0
146
0.0
  0
ENDTAB
  0
TABLE
  2
LTYPE
  5
5
330
0
100
AcDbSymbolTable
 70
     1
  0
LTYPE
  5
14
330
5
100
AcDbSymbolTableRecord
100
AcDbLinetypeTableRecord
  2
ByBlock
 70
     0
  3

 72
    65
 73
     0
 40
0.0
  0
LTYPE
  5
15
330
5
100
AcDbSymbolTableRecord
100
AcDbLinetypeTableRecord
  2
ByLayer
 70
     0
  3

 72
    65
 73
     0
 40
0.0
  0
LTYPE
  5
16
330
5
100
AcDbSymbolTableRecord
100
AcDbLinetypeTableRecord
  2
Continuous
 70
     0
  3
Solid line
 72
    65
 73
     0
 40
0.0
  0
ENDTAB
  0
TABLE
  2
LAYER
  5
2
330
0
100
AcDbSymbolTable
 70
     2
  0
LAYER
  5
10
330
2
100
AcDbSymbolTableRecord
100
AcDbLayerTableRecord
  2
0
 70
     0
 62
     7
  6
Continuous
370
    -3
390
F
  0
LAYER
  5
3B
330
2
100
AcDbSymbolTableRecord
100
AcDbLayerTableRecord
  2
30x90 C
 70
     0
 62
     7
  6
Continuous
370
    -3
390
F
  0
ENDTAB
  0
TABLE
  2
STYLE
  5
3
330
0
100
AcDbSymbolTable
 70
     1
  0
STYLE
  5
11
330
3
100
AcDbSymbolTableRecord
100
AcDbTextStyleTableRecord
  2
Standard
 70
     0
 40
0.0
 41
1.0
 50
0.0
 71
     0
 42
0.2
  3
txt
  4

  0
ENDTAB
  0
TABLE
  2
VIEW
  5
6
330
0
100
AcDbSymbolTable
 70
     0
  0
ENDTAB
  0
TABLE
  2
UCS
  5
7
330
0
100
AcDbSymbolTable
 70
     0
  0
ENDTAB
  0
TABLE
  2
APPID
  5
9
330
0
100
AcDbSymbolTable
 70
     1
  0
APPID
  5
12
330
9
100
AcDbSymbolTableRecord
100
AcDbRegAppTableRecord
  2
ACAD
 70
     0
  0
ENDTAB
  0
TABLE
  2
DIMSTYLE
  5
A
330
0
100
AcDbSymbolTable
 70
     1
100
AcDbDimStyleTable
  0
DIMSTYLE
105
27
330
A
100
AcDbSymbolTableRecord
100
AcDbDimStyleTableRecord
  2
Standard
 70
     0
340
11
  0
ENDTAB
  0
TABLE
  2
BLOCK_RECORD
  5
1
330
0
100
AcDbSymbolTable
 70
     1
  0
BLOCK_RECORD
  5
1F
330
1
100
AcDbSymbolTableRecord
100
AcDbBlockTableRecord
  2
*Model_Space
340
22
  0
BLOCK_RECORD
  5
1B
330
1
100
AcDbSymbolTableRecord
100
AcDbBlockTableRecord
  2
*Paper_Space
340
1E
  0
BLOCK_RECORD
  5
23
330
1
100
AcDbSymbolTableRecord
100
AcDbBlockTableRecord
  2
*Paper_Space0
340
26
  0
ENDTAB
  0
ENDSEC
  0
SECTION
  2
BLOCKS
  0
BLOCK
  5
20
330
1F
100
AcDbEntity
  8
0
100
AcDbBlockBegin
  2
*Model_Space
 70
     0
 10
0.0
 20
0.0
 30
0.0
  3
*Model_Space
  1

  0
ENDBLK
  5
21
330
1F
100
AcDbEntity
  8
0
100
AcDbBlockEnd
  0
BLOCK
  5
1C
330
1B
100
AcDbEntity
 67
     1
  8
0
100
AcDbBlockBegin
  2
*Paper_Space
 70
     0
 10
0.0
 20
0.0
 30
0.0
  3
*Paper_Space
  1

  0
ENDBLK
  5
1D
330
1B
100
AcDbEntity
 67
     1
  8
0
100
AcDbBlockEnd
  0
BLOCK
  5
24
330
23
100
AcDbEntity
  8
0
100
AcDbBlockBegin
  2
*Paper_Space0
 70
     0
 10
0.0
 20
0.0
 30
0.0
  3
*Paper_Space0
  1

  0
ENDBLK
  5
25
330
23
100
AcDbEntity
  8
0
100
AcDbBlockEnd
  0
ENDSEC
  0
SECTION
  2
ENTITIES
  0
SPLINE
  5
3C
330
1F
100
AcDbEntity
  8
30x90 C
100
AcDbSpline
210
0.0
220
0.0
230
1.0
 70
    11
 71
     2
 72
    12
 73
     9
 74
     0
 42
0.0000000001
 43
0.0000000001
 40
0.0
 40
0.0
 40
0.0
 40
31.77560337649145
 40
31.77560337649145
 40
33.27560337649148
 40
33.27560337649148
 40
65.05120675298294
 40
65.05120675298294
 40
66.55120675298296
 40
66.55120675298296
 40
66.55120675298296
 10
-36.88648607427832
 20
6.500999995956396
 30
0.0
 10
0.0028110823350538
 20
6.500999995956396
 30
0.0
 10
36.89210823894842
 20
6.500999995956396
 30
0.0
 10
36.89210823894842
 20
7.250999995956411
 30
0.0
 10
36.89210823894842
 20
8.000999995956427
 30
0.0
 10
0.0028110823350538
 20
8.000999995956427
 30
0.0
 10
-36.88648607427832
 20
8.000999995956427
 30
0.0
 10
-36.88648607427832
 20
7.250999995956411
 30
0.0
 10
-36.88648607427832
 20
6.500999995956396
 30
0.0
  0
SPLINE
  5
3D
330
1F
100
AcDbEntity
  8
30x90 C
100
AcDbSpline
210
0.0
220
0.0
230
1.0
 70
    11
 71
     2
 72
    12
 73
     9
 74
     0
 42
0.0000000001
 43
0.0000000001
 40
0.0
 40
0.0
 40
0.0
 40
28.86538748362489
 40
28.86538748362489
 40
31.61563748362489
 40
31.61563748362489
 40
60.48102496724977
 40
60.48102496724977
 40
63.23127496724977
 40
63.23127496724977
 40
63.23127496724977
 10
-35.43418921018009
 20
35.0009999959564
 30
0.0
 10
0.0000000000000036
 20
35.0009999959564
 30
0.0
 10
35.43418921018009
 20
35.0009999959564
 30
0.0
 10
35.43418921018009
 20
33.62587499595639
 30
0.0
 10
35.43418921018009
 20
32.2507499959564
 30
0.0
 10
0.0000000000000036
 20
32.2507499959564
 30
0.0
 10
-35.43418921018009
 20
32.2507499959564
 30
0.0
 10
-35.43418921018009
 20
33.62587499595639
 30
0.0
 10
-35.43418921018009
 20
35.0009999959564
 30
0.0
  0
SPLINE
  5
3E
330
1F
100
AcDbEntity
  8
30x90 C
100
AcDbSpline
210
0.0
220
0.0
230
1.0
 70
     8
 71
     2
 72
    20
 73
    17
 74
     0
 42
0.0000000001
 43
0.0000000001
 40
-1.493932362919318
 40
-1.493932362919318
 40
-1.493932362919318
 40
46.5
 40
46.5
 40
46.81300000019795
 40
46.81300000019795
 40
48.43308134108953
 40
48.43308134108953
 40
48.45980508669223
 40
48.45980508669223
 40
93.45980508669223
 40
93.45980508669223
 40
93.4865288323019
 40
93.4865288323019
 40
95.1066101731925
 40
95.1066101731925
 40
95.41961017319203
 40
95.41961017319203
 40
95.41961017319203
 10
-44.99542783128696
 20
36.00099999595641
 30
0.0
 10
0.0030338185403451
 20
36.00099999595635
 30
0.0
 10
45.00149546836765
 20
36.00099999595629
 30
0.0
 10
45.00024948844514
 20
35.8439189859275
 30
0.0
 10
44.99900350852262
 20
35.68683797589871
 30
0.0
 10
44.26361136124648
 20
35.34391898592663
 30
0.0
 10
43.52821921397035
 20
35.00099999595456
 30
0.0
 10
43.514857341169
 20
35.0009999959558
 30
0.0
 10
43.50149546836765
 20
35.00099999595705
 30
0.0
 10
0.0000000000000036
 20
35.00099999595705
 30
0.0
 10
-43.50149546836764
 20
35.00099999595705
 30
0.0
 10
-43.51485734117248
 20
35.00099999595705
 30
0.0
 10
-43.52821921397732
 20
35.00099999595705
 30
0.0
 10
-44.26361136129535
 20
35.34391898599839
 30
0.0
 10
-44.99900350861337
 20
35.68683797603974
 30
0.0
 10
-45.00024948849051
 20
35.84391898599807
 30
0.0
 10
-45.00149546836764
 20
36.0009999959564
 30
0.0
  0
SPLINE
  5
3F
330
1F
100
AcDbEntity
  8
30x90 C
100
AcDbSpline
210
0.0
220
0.0
230
1.0
 70
    15
 71
     2
 72
    20
 73
    17
 74
     0
 42
0.0000000001
 43
0.0000000001
 40
92.35619449019235
 40
92.35619449019235
 40
92.35619449019235
 40
94.7123889803847
 40
94.7123889803847
 40
139.7123889803847
 40
139.7123889803847
 40
142.068583470577
 40
142.068583470577
 40
187.068583470577
 40
187.068583470577
 40
189.4247779607694
 40
189.4247779607694
 40
234.4247779607694
 40
234.4247779607694
 40
236.7809724509618
 40
236.7809724509618
 40
281.7809724509618
 40
281.7809724509618
 40
281.7809724509618
 10
45.0
 20
55.72685930801515
 30
0.0
 41
1.0
 10
45.0
 20
54.22685930801514
 30
0.0
 41
0.7071067811865492
 10
43.5
 20
54.22685930801515
 30
0.0
 41
1.0
 10
0.0
 20
54.22685930801515
 30
0.0
 41
1.0
 10
-43.49999999999999
 20
54.22685930801515
 30
0.0
 41
1.0
 10
-44.99999999999998
 20
54.22685930801516
 30
0.0
 41
0.7071067811865502
 10
-44.99999999999999
 20
55.72685930801515
 30
0.0
 41
1.0
 10
-44.99999999999999
 20
69.22685930801515
 30
0.0
 41
1.0
 10
-44.99999999999999
 20
82.72685930801515
 30
0.0
 41
1.0
 10
-45.00000000000001
 20
84.2268593080152
 30
0.0
 41
0.7071067811865359
 10
-43.49999999999999
 20
84.22685930801515
 30
0.0
 41
1.0
 10
0.0
 20
84.22685930801515
 30
0.0
 41
1.0
 10
43.5
 20
84.22685930801515
 30
0.0
 41
1.0
 10
45.00000000000001
 20
84.22685930801516
 30
0.0
 41
0.7071067811865358
 10
45.0
 20
82.72685930801515
 30
0.0
 41
1.0
 10
45.0
 20
69.22685930801515
 30
0.0
 41
1.0
 10
45.0
 20
55.72685930801515
 30
0.0
 41
1.0
  0
SPLINE
  5
40
330
1F
100
AcDbEntity
  8
30x90 C
100
AcDbSpline
210
0.0
220
0.0
230
1.0
 70
    11
 71
     2
 72
    12
 73
     9
 74
     0
 42
0.0000000001
 43
0.0000000001
 40
0.0
 40
0.0
 40
0.0
 40
1.500007284915587
 40
1.500007284915587
 40
4.565753021944529
 40
4.565753021944529
 40
6.07158168237236
 40
6.07158168237236
 40
9.005038703131103
 40
9.005038703131103
 40
9.005038703131103
 10
-36.89210823894842
 20
8.000999995956427
 30
0.0
 10
-36.89210823859889
 20
7.250996353498634
 30
0.0
 10
-36.89210823824935
 20
6.50099271104084
 30
0.0
 10
-38.42498110676382
 20
6.500992710326448
 30
0.0
 10
-39.95785397527829
 20
6.500992709612056
 30
0.0
 10
-39.89170961749273
 20
7.250996352100678
 30
0.0
 10
-39.82556525970717
 20
8.000999994589298
 30
0.0
 10
-38.35883674932779
 20
8.000999995272863
 30
0.0
 10
-36.89210823894842
 20
8.000999995956427
 30
0.0
  0
SPLINE
  5
41
330
1F
100
AcDbEntity
  8
30x90 C
100
AcDbSpline
210
0.0
220
0.0
230
1.0
 70
    15
 71
     2
 72
    16
 73
    13
 74
     0
 42
0.0000000001
 43
0.0000000001
 40
0.0
 40
0.0
 40
0.0
 40
2.790914725409877
 40
2.790914725409877
 40
2.978914721366277
 40
2.978914721366277
 40
3.175092058140855
 40
3.175092058140855
 40
5.698831706186326
 40
5.698831706186326
 40
5.908289486528923
 40
5.908289486528923
 40
6.096289482485321
 40
6.096289482485321
 40
6.096289482485321
 10
-40.67577404420778
 20
0.3129999959563987
 30
0.0
 41
1.0
 10
-42.07123140691272
 20
0.3129999959563987
 30
0.0
 41
1.0
 10
-43.46668876961765
 20
0.3129999959563987
 30
0.0
 41
1.0
 10
-43.46675737286208
 20
0.2189999979781989
 30
0.0
 41
1.0
 10
-43.46682597610651
 20
0.1249999999999991
 30
0.0
 41
1.0
 10
-43.46644287483372
 20
0.0004688893556256
 30
0.0
 41
0.7099102601513743
 10
-43.34169730753957
 20
0.0000000000029722
 30
0.0
 41
1.000001881067515
 10
-42.07972007066765
 20
0.0000000000014861
 30
0.0
 41
1.000001881067515
 10
-40.81774283379573
 20
0.0
 30
0.0
 41
1.000001881067515
 10
-40.68565410990981
 20
-0.0068992611181206
 30
0.0
 41
0.7150467987835217
 10
-40.67577404420754
 20
0.125000000000001
 30
0.0
 41
1.000001881067515
 10
-40.67577404420766
 20
0.2189999979781999
 30
0.0
 41
1.000001881067515
 10
-40.67577404420778
 20
0.3129999959563987
 30
0.0
 41
1.0
  0
SPLINE
  5
42
330
1F
100
AcDbEntity
  8
30x90 C
100
AcDbSpline
210
0.0
220
0.0
230
1.0
 70
    15
 71
     2
 72
    18
 73
    15
 74
     0
 42
0.0000000001
 43
0.0000000001
 40
0.0
 40
0.0
 40
0.0
 40
34.59511698187037
 40
34.59511698187037
 40
37.65145112807966
 40
37.65145112807966
 40
68.86080797887902
 40
68.86080797887902
 40
69.61304878351115
 40
69.61304878351115
 40
69.91637312948508
 40
69.91637312948508
 40
72.94404903069326
 40
72.94404903069326
 40
75.28205644912099
 40
75.28205644912099
 40
75.28205644912099
 10
-40.99630538566826
 20
34.8129999959564
 30
0.0
 41
1.0
 10
-42.278241641709
 20
17.56300958437853
 30
0.0
 41
1.0
 10
-43.56017789774974
 20
0.313019172800655
 30
0.0
 41
1.0
 10
-42.03188114753404
 20
0.3130171411801541
 30
0.0
 41
1.0
 10
-40.50358439731835
 20
0.3130151095596533
 30
0.0
 41
1.0
 10
-39.13269611497553
 20
15.85736748705817
 30
0.0
 41
1.0
 10
-37.76180783263271
 20
31.40171986455668
 30
0.0
 41
1.0
 10
-38.13116910707116
 20
31.47295585260362
 30
0.0
 41
1.0
 10
-38.50053038150961
 20
31.54419184065055
 30
0.0
 41
1.0
 10
-38.66894330766074
 20
31.6040675890763
 30
0.0
 41
0.788094268021899
 10
-38.65163582921526
 20
31.78360196274713
 30
0.0
 41
1.0
 10
-38.65496689822793
 20
33.29830075536641
 30
0.0
 41
1.0
 10
-38.65829796724059
 20
34.81299954798569
 30
0.0
 41
1.0
 10
-39.82730167645443
 20
34.81299977197104
 30
0.0
 41
1.0
 10
-40.99630538566826
 20
34.8129999959564
 30
0.0
 41
1.0
  0
SPLINE
  5
43
330
1F
100
AcDbEntity
  8
30x90 C
100
AcDbSpline
210
0.0
220
0.0
230
1.0
 70
    15
 71
     2
 72
    16
 73
    13
 74
     0
 42
0.0000000001
 43
0.0000000001
 40
0.0
 40
0.0
 40
0.0
 40
3.175809548287447
 40
3.175809548287447
 40
6.199883641578445
 40
6.199883641578445
 40
6.437320578566601
 40
6.437320578566601
 40
7.189617391048195
 40
7.189617391048195
 40
9.63981605560816
 40
9.63981605560816
 40
12.20206605560816
 40
12.20206605560816
 40
12.20206605560816
 10
-35.43418921018009
 20
34.8129999959564
 30
0.0
 41
1.0
 10
-37.02209398432381
 20
34.8129999959564
 30
0.0
 41
1.0
 10
-38.60999875846753
 20
34.8129999959564
 30
0.0
 41
1.0
 10
-38.60999875846753
 20
33.3009629493109
 30
0.0
 41
1.0
 10
-38.60999875846753
 20
31.7889259026654
 30
0.0
 41
1.0
 10
-38.62395342267593
 20
31.64968472412696
 30
0.0
 41
0.7873178403761734
 10
-38.49211834799645
 20
31.60275550574226
 30
0.0
 41
1.0
 10
-38.12278194075049
 20
31.53149372215431
 30
0.0
 41
1.0
 10
-37.75344553350453
 20
31.46023193856637
 30
0.0
 41
1.0
 10
-36.59381737184231
 20
31.85542846726138
 30
0.0
 41
1.0
 10
-35.43418921018008
 20
32.2506249959564
 30
0.0
 41
1.0
 10
-35.43418921018008
 20
33.5318124959564
 30
0.0
 41
1.0
 10
-35.43418921018009
 20
34.8129999959564
 30
0.0
 41
1.0
  0
SPLINE
  5
44
330
1F
100
AcDbEntity
  8
30x90 C
100
AcDbSpline
210
0.0
220
0.0
230
1.0
 70
    24
 71
     2
 72
     6
 73
     3
 74
     0
 42
0.0000000001
 43
0.0000000001
 40
0.0
 40
0.0
 40
0.0
 40
34.59512045666924
 40
34.59512045666924
 40
34.59512045666924
 10
-39.73243864598464
 20
34.8129999959564
 30
0.0
 10
-41.0145040414593
 20
17.56301744018
 30
0.0
 10
-42.29656943693396
 20
0.3130348844036019
 30
0.0
  0
SPLINE
  5
45
330
1F
100
AcDbEntity
  8
30x90 C
100
AcDbSpline
210
0.0
220
0.0
230
1.0
 70
    11
 71
     2
 72
    12
 73
     9
 74
     0
 42
0.0000000001
 43
0.0000000001
 40
0.0
 40
0.0
 40
0.0
 40
7.381635493493285
 40
7.381635493493285
 40
7.569635493493287
 40
7.569635493493287
 40
14.95127098698657
 40
14.95127098698657
 40
15.13927098698657
 40
15.13927098698657
 40
15.13927098698657
 10
-35.43418921018009
 20
34.8129999959564
 30
0.0
 10
-39.12500695692673
 20
34.8129999959564
 30
0.0
 10
-42.81582470367337
 20
34.8129999959564
 30
0.0
 10
-42.81582470367337
 20
34.9069999959564
 30
0.0
 10
-42.81582470367337
 20
35.0009999959564
 30
0.0
 10
-39.12500695692673
 20
35.0009999959564
 30
0.0
 10
-35.43418921018009
 20
35.0009999959564
 30
0.0
 10
-35.43418921018009
 20
34.9069999959564
 30
0.0
 10
-35.43418921018009
 20
34.8129999959564
 30
0.0
  0
SPLINE
  5
46
330
1F
100
AcDbEntity
  8
30x90 C
100
AcDbSpline
210
0.0
220
0.0
230
1.0
 70
    11
 71
     2
 72
    12
 73
     9
 74
     0
 42
0.0000000001
 43
0.0000000001
 40
0.0
 40
0.0
 40
0.0
 40
1.500007284915587
 40
1.500007284915587
 40
4.565753021944529
 40
4.565753021944529
 40
6.07158168237236
 40
6.07158168237236
 40
9.005038703131103
 40
9.005038703131103
 40
9.005038703131103
 10
85.22451375666704
 20
8.000999995956427
 30
0.0
 10
85.22451375631749
 20
7.250996353498634
 30
0.0
 10
85.22451375596795
 20
6.50099271104084
 30
0.0
 10
86.75738662448242
 20
6.500992710326448
 30
0.0
 10
88.2902594929969
 20
6.500992709612056
 30
0.0
 10
88.22411513521133
 20
7.250996352100678
 30
0.0
 10
88.15797077742577
 20
8.000999994589298
 30
0.0
 10
86.6912422670464
 20
8.000999995272863
 30
0.0
 10
85.22451375666704
 20
8.000999995956427
 30
0.0
  0
SPLINE
  5
47
330
1F
100
AcDbEntity
  8
30x90 C
100
AcDbSpline
210
0.0
220
0.0
230
1.0
 70
    15
 71
     2
 72
    16
 73
    13
 74
     0
 42
0.0000000001
 43
0.0000000001
 40
0.0
 40
0.0
 40
0.0
 40
2.790914725409877
 40
2.790914725409877
 40
2.978914721366277
 40
2.978914721366277
 40
3.175092058140855
 40
3.175092058140855
 40
5.698831706186326
 40
5.698831706186326
 40
5.908289486528923
 40
5.908289486528923
 40
6.096289482485321
 40
6.096289482485321
 40
6.096289482485321
 10
89.00817956192638
 20
0.3129999959563987
 30
0.0
 41
1.0
 10
90.40363692463133
 20
0.3129999959563987
 30
0.0
 41
1.0
 10
91.79909428733626
 20
0.3129999959563987
 30
0.0
 41
1.0
 10
91.79916289058069
 20
0.2189999979781989
 30
0.0
 41
1.0
 10
91.7992314938251
 20
0.1249999999999991
 30
0.0
 41
1.0
 10
91.79884839255234
 20
0.0004688893556256
 30
0.0
 41
0.7099102601513743
 10
91.67410282525817
 20
0.0000000000029722
 30
0.0
 41
1.000001881067515
 10
90.41212558838625
 20
0.0000000000014861
 30
0.0
 41
1.000001881067515
 10
89.15014835151433
 20
0.0
 30
0.0
 41
1.000001881067515
 10
89.0180596276284
 20
-0.0068992611181206
 30
0.0
 41
0.7150467987835217
 10
89.00817956192616
 20
0.125000000000001
 30
0.0
 41
1.000001881067515
 10
89.00817956192627
 20
0.2189999979781999
 30
0.0
 41
1.000001881067515
 10
89.00817956192638
 20
0.3129999959563987
 30
0.0
 41
1.0
  0
SPLINE
  5
48
330
1F
100
AcDbEntity
  8
30x90 C
100
AcDbSpline
210
0.0
220
0.0
230
1.0
 70
    15
 71
     2
 72
    18
 73
    15
 74
     0
 42
0.0000000001
 43
0.0000000001
 40
0.0
 40
0.0
 40
0.0
 40
34.59511698187037
 40
34.59511698187037
 40
37.65145112807966
 40
37.65145112807966
 40
68.86080797887902
 40
68.86080797887902
 40
69.61304878351115
 40
69.61304878351115
 40
69.91637312948508
 40
69.91637312948508
 40
72.94404903069326
 40
72.94404903069326
 40
75.28205644912099
 40
75.28205644912099
 40
75.28205644912099
 10
89.32871090338686
 20
34.8129999959564
 30
0.0
 41
1.0
 10
90.61064715942761
 20
17.56300958437853
 30
0.0
 41
1.0
 10
91.89258341546835
 20
0.313019172800655
 30
0.0
 41
1.0
 10
90.36428666525266
 20
0.3130171411801541
 30
0.0
 41
1.0
 10
88.83598991503696
 20
0.3130151095596533
 30
0.0
 41
1.0
 10
87.46510163269413
 20
15.85736748705817
 30
0.0
 41
1.0
 10
86.09421335035131
 20
31.40171986455668
 30
0.0
 41
1.0
 10
86.46357462478976
 20
31.47295585260362
 30
0.0
 41
1.0
 10
86.83293589922822
 20
31.54419184065055
 30
0.0
 41
1.0
 10
87.00134882537934
 20
31.6040675890763
 30
0.0
 41
0.788094268021899
 10
86.98404134693386
 20
31.78360196274713
 30
0.0
 41
1.0
 10
86.98737241594652
 20
33.29830075536641
 30
0.0
 41
1.0
 10
86.99070348495918
 20
34.81299954798569
 30
0.0
 41
1.0
 10
88.15970719417302
 20
34.81299977197104
 30
0.0
 41
1.0
 10
89.32871090338686
 20
34.8129999959564
 30
0.0
 41
1.0
  0
SPLINE
  5
49
330
1F
100
AcDbEntity
  8
30x90 C
100
AcDbSpline
210
0.0
220
0.0
230
1.0
 70
    15
 71
     2
 72
    16
 73
    13
 74
     0
 42
0.0000000001
 43
0.0000000001
 40
0.0
 40
0.0
 40
0.0
 40
3.175809548287447
 40
3.175809548287447
 40
6.199883641578445
 40
6.199883641578445
 40
6.437320578566601
 40
6.437320578566601
 40
7.189617391048195
 40
7.189617391048195
 40
9.63981605560816
 40
9.63981605560816
 40
12.20206605560816
 40
12.20206605560816
 40
12.20206605560816
 10
83.76659472789869
 20
34.8129999959564
 30
0.0
 41
1.0
 10
85.35449950204242
 20
34.8129999959564
 30
0.0
 41
1.0
 10
86.94240427618614
 20
34.8129999959564
 30
0.0
 41
1.0
 10
86.94240427618614
 20
33.3009629493109
 30
0.0
 41
1.0
 10
86.94240427618614
 20
31.7889259026654
 30
0.0
 41
1.0
 10
86.95635894039454
 20
31.64968472412696
 30
0.0
 41
0.7873178403761734
 10
86.82452386571505
 20
31.60275550574226
 30
0.0
 41
1.0
 10
86.4551874584691
 20
31.53149372215431
 30
0.0
 41
1.0
 10
86.08585105122313
 20
31.46023193856637
 30
0.0
 41
1.0
 10
84.92622288956092
 20
31.85542846726138
 30
0.0
 41
1.0
 10
83.76659472789869
 20
32.2506249959564
 30
0.0
 41
1.0
 10
83.76659472789869
 20
33.5318124959564
 30
0.0
 41
1.0
 10
83.76659472789869
 20
34.8129999959564
 30
0.0
 41
1.0
  0
SPLINE
  5
4A
330
1F
100
AcDbEntity
  8
30x90 C
100
AcDbSpline
210
0.0
220
0.0
230
1.0
 70
    11
 71
     2
 72
    12
 73
     9
 74
     0
 42
0.0000000001
 43
0.0000000001
 40
0.0
 40
0.0
 40
0.0
 40
7.381635493493285
 40
7.381635493493285
 40
7.569635493493287
 40
7.569635493493287
 40
14.95127098698657
 40
14.95127098698657
 40
15.13927098698657
 40
15.13927098698657
 40
15.13927098698657
 10
83.76659472789869
 20
34.8129999959564
 30
0.0
 10
87.45741247464534
 20
34.8129999959564
 30
0.0
 10
91.14823022139198
 20
34.8129999959564
 30
0.0
 10
91.14823022139198
 20
34.9069999959564
 30
0.0
 10
91.14823022139198
 20
35.0009999959564
 30
0.0
 10
87.45741247464534
 20
35.0009999959564
 30
0.0
 10
83.76659472789869
 20
35.0009999959564
 30
0.0
 10
83.76659472789869
 20
34.9069999959564
 30
0.0
 10
83.76659472789869
 20
34.8129999959564
 30
0.0
  0
SPLINE
  5
4B
330
1F
100
AcDbEntity
  8
30x90 C
100
AcDbSpline
210
0.0
220
0.0
230
1.0
 70
    24
 71
     2
 72
     6
 73
     3
 74
     0
 42
0.0000000001
 43
0.0000000001
 40
0.0
 40
0.0
 40
0.0
 40
34.59512045666924
 40
34.59512045666924
 40
34.59512045666924
 10
88.06484416370326
 20
34.8129999959564
 30
0.0
 10
89.3469095591779
 20
17.56301744018
 30
0.0
 10
90.62897495465256
 20
0.3130348844036019
 30
0.0
  0
SPLINE
  5
4C
330
1F
100
AcDbEntity
  8
30x90 C
100
AcDbSpline
210
0.0
220
0.0
230
1.0
 70
    11
 71
     2
 72
    12
 73
     9
 74
     0
 42
0.0000000001
 43
0.0000000001
 40
0.0
 40
0.0
 40
0.0
 40
1.500007284915587
 40
1.500007284915587
 40
4.565753021944529
 40
4.565753021944529
 40
6.07158168237236
 40
6.07158168237236
 40
9.005038703131103
 40
9.005038703131103
 40
9.005038703131103
 10
71.43510034255442
 20
8.000999995956427
 30
0.0
 10
71.43510034290395
 20
7.250996353498634
 30
0.0
 10
71.4351003432535
 20
6.50099271104084
 30
0.0
 10
69.90222747473902
 20
6.500992710326448
 30
0.0
 10
68.36935460622455
 20
6.500992709612056
 30
0.0
 10
68.43549896401011
 20
7.250996352100678
 30
0.0
 10
68.50164332179567
 20
8.000999994589298
 30
0.0
 10
69.96837183217504
 20
8.000999995272863
 30
0.0
 10
71.43510034255442
 20
8.000999995956427
 30
0.0
  0
SPLINE
  5
4D
330
1F
100
AcDbEntity
  8
30x90 C
100
AcDbSpline
210
0.0
220
0.0
230
1.0
 70
    15
 71
     2
 72
    16
 73
    13
 74
     0
 42
0.0000000001
 43
0.0000000001
 40
0.0
 40
0.0
 40
0.0
 40
2.790914725409877
 40
2.790914725409877
 40
2.978914721366277
 40
2.978914721366277
 40
3.175092058140855
 40
3.175092058140855
 40
5.698831706186326
 40
5.698831706186326
 40
5.908289486528923
 40
5.908289486528923
 40
6.096289482485321
 40
6.096289482485321
 40
6.096289482485321
 10
67.65143453729506
 20
0.3129999959563987
 30
0.0
 41
1.0
 10
66.25597717459013
 20
0.3129999959563987
 30
0.0
 41
1.0
 10
64.86051981188518
 20
0.3129999959563987
 30
0.0
 41
1.0
 10
64.86045120864075
 20
0.2189999979781989
 30
0.0
 41
1.0
 10
64.86038260539634
 20
0.1249999999999991
 30
0.0
 41
1.0
 10
64.86076570666911
 20
0.0004688893556256
 30
0.0
 41
0.7099102601513743
 10
64.98551127396327
 20
0.0000000000029722
 30
0.0
 41
1.000001881067515
 10
66.24748851083518
 20
0.0000000000014861
 30
0.0
 41
1.000001881067515
 10
67.50946574770711
 20
0.0
 30
0.0
 41
1.000001881067515
 10
67.64155447159304
 20
-0.0068992611181206
 30
0.0
 41
0.7150467987835217
 10
67.6514345372953
 20
0.125000000000001
 30
0.0
 41
1.000001881067515
 10
67.65143453729517
 20
0.2189999979781999
 30
0.0
 41
1.000001881067515
 10
67.65143453729506
 20
0.3129999959563987
 30
0.0
 41
1.0
  0
SPLINE
  5
4E
330
1F
100
AcDbEntity
  8
30x90 C
100
AcDbSpline
210
0.0
220
0.0
230
1.0
 70
    15
 71
     2
 72
    18
 73
    15
 74
     0
 42
0.0000000001
 43
0.0000000001
 40
0.0
 40
0.0
 40
0.0
 40
34.59511698187037
 40
34.59511698187037
 40
37.65145112807966
 40
37.65145112807966
 40
68.86080797887902
 40
68.86080797887902
 40
69.61304878351115
 40
69.61304878351115
 40
69.91637312948508
 40
69.91637312948508
 40
72.94404903069326
 40
72.94404903069326
 40
75.28205644912099
 40
75.28205644912099
 40
75.28205644912099
 10
67.33090319583458
 20
34.8129999959564
 30
0.0
 41
1.0
 10
66.04896693979383
 20
17.56300958437853
 30
0.0
 41
1.0
 10
64.76703068375309
 20
0.313019172800655
 30
0.0
 41
1.0
 10
66.2953274339688
 20
0.3130171411801541
 30
0.0
 41
1.0
 10
67.8236241841845
 20
0.3130151095596533
 30
0.0
 41
1.0
 10
69.19451246652731
 20
15.85736748705817
 30
0.0
 41
1.0
 10
70.56540074887013
 20
31.40171986455668
 30
0.0
 41
1.0
 10
70.19603947443169
 20
31.47295585260362
 30
0.0
 41
1.0
 10
69.82667819999322
 20
31.54419184065055
 30
0.0
 41
1.0
 10
69.65826527384209
 20
31.6040675890763
 30
0.0
 41
0.788094268021899
 10
69.67557275228758
 20
31.78360196274713
 30
0.0
 41
1.0
 10
69.67224168327492
 20
33.29830075536641
 30
0.0
 41
1.0
 10
69.66891061426226
 20
34.81299954798569
 30
0.0
 41
1.0
 10
68.49990690504842
 20
34.81299977197104
 30
0.0
 41
1.0
 10
67.33090319583458
 20
34.8129999959564
 30
0.0
 41
1.0
  0
SPLINE
  5
4F
330
1F
100
AcDbEntity
  8
30x90 C
100
AcDbSpline
210
0.0
220
0.0
230
1.0
 70
    15
 71
     2
 72
    16
 73
    13
 74
     0
 42
0.0000000001
 43
0.0000000001
 40
0.0
 40
0.0
 40
0.0
 40
3.175809548287447
 40
3.175809548287447
 40
6.199883641578445
 40
6.199883641578445
 40
6.437320578566601
 40
6.437320578566601
 40
7.189617391048195
 40
7.189617391048195
 40
9.63981605560816
 40
9.63981605560816
 40
12.20206605560816
 40
12.20206605560816
 40
12.20206605560816
 10
72.89301937132275
 20
34.8129999959564
 30
0.0
 41
1.0
 10
71.30511459717903
 20
34.8129999959564
 30
0.0
 41
1.0
 10
69.7172098230353
 20
34.8129999959564
 30
0.0
 41
1.0
 10
69.7172098230353
 20
33.3009629493109
 30
0.0
 41
1.0
 10
69.7172098230353
 20
31.7889259026654
 30
0.0
 41
1.0
 10
69.7032551588269
 20
31.64968472412696
 30
0.0
 41
0.7873178403761734
 10
69.83509023350639
 20
31.60275550574226
 30
0.0
 41
1.0
 10
70.20442664075235
 20
31.53149372215431
 30
0.0
 41
1.0
 10
70.57376304799831
 20
31.46023193856637
 30
0.0
 41
1.0
 10
71.73339120966054
 20
31.85542846726138
 30
0.0
 41
1.0
 10
72.89301937132277
 20
32.2506249959564
 30
0.0
 41
1.0
 10
72.89301937132275
 20
33.5318124959564
 30
0.0
 41
1.0
 10
72.89301937132275
 20
34.8129999959564
 30
0.0
 41
1.0
  0
SPLINE
  5
50
330
1F
100
AcDbEntity
  8
30x90 C
100
AcDbSpline
210
0.0
220
0.0
230
1.0
 70
    24
 71
     2
 72
     6
 73
     3
 74
     0
 42
0.0000000001
 43
0.0000000001
 40
0.0
 40
0.0
 40
0.0
 40
34.59512045666924
 40
34.59512045666924
 40
34.59512045666924
 10
68.5947699355182
 20
34.8129999959564
 30
0.0
 10
67.31270454004354
 20
17.56301744018
 30
0.0
 10
66.03063914456888
 20
0.3130348844036019
 30
0.0
  0
SPLINE
  5
51
330
1F
100
AcDbEntity
  8
30x90 C
100
AcDbSpline
210
0.0
220
0.0
230
1.0
 70
    11
 71
     2
 72
    12
 73
     9
 74
     0
 42
0.0000000001
 43
0.0000000001
 40
0.0
 40
0.0
 40
0.0
 40
7.381635493493285
 40
7.381635493493285
 40
7.569635493493287
 40
7.569635493493287
 40
14.95127098698657
 40
14.95127098698657
 40
15.13927098698657
 40
15.13927098698657
 40
15.13927098698657
 10
72.89301937132275
 20
34.8129999959564
 30
0.0
 10
69.2022016245761
 20
34.8129999959564
 30
0.0
 10
65.51138387782947
 20
34.8129999959564
 30
0.0
 10
65.51138387782947
 20
34.9069999959564
 30
0.0
 10
65.51138387782947
 20
35.0009999959564
 30
0.0
 10
69.2022016245761
 20
35.0009999959564
 30
0.0
 10
72.89301937132275
 20
35.0009999959564
 30
0.0
 10
72.89301937132275
 20
34.9069999959564
 30
0.0
 10
72.89301937132275
 20
34.8129999959564
 30
0.0
  0
SPLINE
  5
52
330
1F
100
AcDbEntity
  8
30x90 C
100
AcDbSpline
210
0.0
220
0.0
230
1.0
 70
    11
 71
     2
 72
    12
 73
     9
 74
     0
 42
0.0000000001
 43
0.0000000001
 40
0.0
 40
0.0
 40
0.0
 40
31.77560337649145
 40
31.77560337649145
 40
33.27560337649148
 40
33.27560337649148
 40
65.05120675298294
 40
65.05120675298294
 40
66.55120675298296
 40
66.55120675298296
 40
66.55120675298296
 10
71.44072250722452
 20
6.500999995956396
 30
0.0
 10
78.33261813194578
 20
6.500999995956396
 30
0.0
 10
85.22451375666704
 20
6.500999995956396
 30
0.0
 10
85.22451375666704
 20
7.250999995956411
 30
0.0
 10
85.22451375666704
 20
8.000999995956427
 30
0.0
 10
78.33261813194578
 20
8.000999995956427
 30
0.0
 10
71.44072250722452
 20
8.000999995956427
 30
0.0
 10
71.44072250722452
 20
7.250999995956411
 30
0.0
 10
71.44072250722452
 20
6.500999995956396
 30
0.0
  0
SPLINE
  5
53
330
1F
100
AcDbEntity
  8
30x90 C
100
AcDbSpline
210
0.0
220
0.0
230
1.0
 70
    11
 71
     2
 72
    12
 73
     9
 74
     0
 42
0.0000000001
 43
0.0000000001
 40
0.0
 40
0.0
 40
0.0
 40
28.86538748362489
 40
28.86538748362489
 40
31.61563748362489
 40
31.61563748362489
 40
60.48102496724977
 40
60.48102496724977
 40
63.23127496724977
 40
63.23127496724977
 40
63.23127496724977
 10
72.89301937132275
 20
35.0009999959564
 30
0.0
 10
78.32980704961072
 20
35.0009999959564
 30
0.0
 10
83.76659472789869
 20
35.0009999959564
 30
0.0
 10
83.76659472789869
 20
33.62587499595639
 30
0.0
 10
83.76659472789869
 20
32.2507499959564
 30
0.0
 10
78.32980704961072
 20
32.2507499959564
 30
0.0
 10
72.89301937132275
 20
32.2507499959564
 30
0.0
 10
72.89301937132275
 20
33.62587499595639
 30
0.0
 10
72.89301937132275
 20
35.0009999959564
 30
0.0
  0
SPLINE
  5
54
330
1F
100
AcDbEntity
  8
30x90 C
100
AcDbSpline
210
0.0
220
0.0
230
1.0
 70
     8
 71
     2
 72
    20
 73
    17
 74
     0
 42
0.0000000001
 43
0.0000000001
 40
-1.493932362919318
 40
-1.493932362919318
 40
-1.493932362919318
 40
46.5
 40
46.5
 40
46.81300000019795
 40
46.81300000019795
 40
48.43308134108953
 40
48.43308134108953
 40
48.45980508669223
 40
48.45980508669223
 40
93.45980508669223
 40
93.45980508669223
 40
93.4865288323019
 40
93.4865288323019
 40
95.1066101731925
 40
95.1066101731925
 40
95.41961017319203
 40
95.41961017319203
 40
95.41961017319203
 10
63.33178075021588
 20
36.00099999595641
 30
0.0
 10
78.33284086815107
 20
36.00099999595635
 30
0.0
 10
93.33390098608625
 20
36.00099999595629
 30
0.0
 10
93.33265500616373
 20
35.8439189859275
 30
0.0
 10
93.33140902624122
 20
35.68683797589871
 30
0.0
 10
92.59601687896509
 20
35.34391898592663
 30
0.0
 10
91.86062473168896
 20
35.00099999595456
 30
0.0
 10
91.8472628588876
 20
35.0009999959558
 30
0.0
 10
91.83390098608625
 20
35.00099999595705
 30
0.0
 10
78.32980704961072
 20
35.00099999595705
 30
0.0
 10
64.8257131131352
 20
35.00099999595705
 30
0.0
 10
64.81235124033036
 20
35.00099999595705
 30
0.0
 10
64.79898936752552
 20
35.00099999595705
 30
0.0
 10
64.0635972202075
 20
35.34391898599839
 30
0.0
 10
63.32820507288947
 20
35.68683797603974
 30
0.0
 10
63.32695909301233
 20
35.84391898599807
 30
0.0
 10
63.32571311313519
 20
36.0009999959564
 30
0.0
  0
SPLINE
  5
55
330
1F
100
AcDbEntity
  8
30x90 C
100
AcDbSpline
210
0.0
220
0.0
230
1.0
 70
    11
 71
     2
 72
    12
 73
     9
 74
     0
 42
0.0000000001
 43
0.0000000001
 40
0.0
 40
0.0
 40
0.0
 40
1.500007284915587
 40
1.500007284915587
 40
4.565753021944529
 40
4.565753021944529
 40
6.07158168237236
 40
6.07158168237236
 40
9.005038703131103
 40
9.005038703131103
 40
9.005038703131103
 10
36.89210823894842
 20
8.000999995956427
 30
0.0
 10
36.89210823859889
 20
7.250996353498634
 30
0.0
 10
36.89210823824935
 20
6.50099271104084
 30
0.0
 10
38.42498110676382
 20
6.500992710326448
 30
0.0
 10
39.9578539752783
 20
6.500992709612056
 30
0.0
 10
39.89170961749274
 20
7.250996352100678
 30
0.0
 10
39.82556525970718
 20
8.000999994589298
 30
0.0
 10
38.3588367493278
 20
8.000999995272863
 30
0.0
 10
36.89210823894842
 20
8.000999995956427
 30
0.0
  0
SPLINE
  5
56
330
1F
100
AcDbEntity
  8
30x90 C
100
AcDbSpline
210
0.0
220
0.0
230
1.0
 70
    15
 71
     2
 72
    16
 73
    13
 74
     0
 42
0.0000000001
 43
0.0000000001
 40
0.0
 40
0.0
 40
0.0
 40
2.790914725409877
 40
2.790914725409877
 40
2.978914721366277
 40
2.978914721366277
 40
3.175092058140855
 40
3.175092058140855
 40
5.698831706186326
 40
5.698831706186326
 40
5.908289486528923
 40
5.908289486528923
 40
6.096289482485321
 40
6.096289482485321
 40
6.096289482485321
 10
40.67577404420778
 20
0.3129999959563987
 30
0.0
 41
1.0
 10
42.07123140691272
 20
0.3129999959563987
 30
0.0
 41
1.0
 10
43.46668876961766
 20
0.3129999959563987
 30
0.0
 41
1.0
 10
43.46675737286208
 20
0.2189999979781989
 30
0.0
 41
1.0
 10
43.46682597610651
 20
0.1249999999999991
 30
0.0
 41
1.0
 10
43.46644287483373
 20
0.0004688893556256
 30
0.0
 41
0.7099102601513743
 10
43.34169730753957
 20
0.0000000000029722
 30
0.0
 41
1.000001881067515
 10
42.07972007066765
 20
0.0000000000014861
 30
0.0
 41
1.000001881067515
 10
40.81774283379573
 20
0.0
 30
0.0
 41
1.000001881067515
 10
40.68565410990981
 20
-0.0068992611181206
 30
0.0
 41
0.7150467987835217
 10
40.67577404420754
 20
0.125000000000001
 30
0.0
 41
1.000001881067515
 10
40.67577404420766
 20
0.2189999979781999
 30
0.0
 41
1.000001881067515
 10
40.67577404420778
 20
0.3129999959563987
 30
0.0
 41
1.0
  0
SPLINE
  5
57
330
1F
100
AcDbEntity
  8
30x90 C
100
AcDbSpline
210
0.0
220
0.0
230
1.0
 70
    15
 71
     2
 72
    18
 73
    15
 74
     0
 42
0.0000000001
 43
0.0000000001
 40
0.0
 40
0.0
 40
0.0
 40
34.59511698187037
 40
34.59511698187037
 40
37.65145112807966
 40
37.65145112807966
 40
68.86080797887902
 40
68.86080797887902
 40
69.61304878351115
 40
69.61304878351115
 40
69.91637312948508
 40
69.91637312948508
 40
72.94404903069326
 40
72.94404903069326
 40
75.28205644912099
 40
75.28205644912099
 40
75.28205644912099
 10
40.99630538566826
 20
34.8129999959564
 30
0.0
 41
1.0
 10
42.278241641709
 20
17.56300958437853
 30
0.0
 41
1.0
 10
43.56017789774975
 20
0.313019172800655
 30
0.0
 41
1.0
 10
42.03188114753405
 20
0.3130171411801541
 30
0.0
 41
1.0
 10
40.50358439731835
 20
0.3130151095596533
 30
0.0
 41
1.0
 10
39.13269611497553
 20
15.85736748705817
 30
0.0
 41
1.0
 10
37.76180783263271
 20
31.40171986455668
 30
0.0
 41
1.0
 10
38.13116910707116
 20
31.47295585260362
 30
0.0
 41
1.0
 10
38.50053038150962
 20
31.54419184065055
 30
0.0
 41
1.0
 10
38.66894330766074
 20
31.6040675890763
 30
0.0
 41
0.788094268021899
 10
38.65163582921527
 20
31.78360196274713
 30
0.0
 41
1.0
 10
38.65496689822793
 20
33.29830075536641
 30
0.0
 41
1.0
 10
38.65829796724059
 20
34.81299954798569
 30
0.0
 41
1.0
 10
39.82730167645443
 20
34.81299977197104
 30
0.0
 41
1.0
 10
40.99630538566826
 20
34.8129999959564
 30
0.0
 41
1.0
  0
SPLINE
  5
58
330
1F
100
AcDbEntity
  8
30x90 C
100
AcDbSpline
210
0.0
220
0.0
230
1.0
 70
    15
 71
     2
 72
    16
 73
    13
 74
     0
 42
0.0000000001
 43
0.0000000001
 40
0.0
 40
0.0
 40
0.0
 40
3.175809548287447
 40
3.175809548287447
 40
6.199883641578445
 40
6.199883641578445
 40
6.437320578566601
 40
6.437320578566601
 40
7.189617391048195
 40
7.189617391048195
 40
9.63981605560816
 40
9.63981605560816
 40
12.20206605560816
 40
12.20206605560816
 40
12.20206605560816
 10
35.43418921018009
 20
34.8129999959564
 30
0.0
 41
1.0
 10
37.02209398432382
 20
34.8129999959564
 30
0.0
 41
1.0
 10
38.60999875846754
 20
34.8129999959564
 30
0.0
 41
1.0
 10
38.60999875846754
 20
33.3009629493109
 30
0.0
 41
1.0
 10
38.60999875846754
 20
31.7889259026654
 30
0.0
 41
1.0
 10
38.62395342267595
 20
31.64968472412696
 30
0.0
 41
0.7873178403761734
 10
38.49211834799645
 20
31.60275550574226
 30
0.0
 41
1.0
 10
38.12278194075049
 20
31.53149372215431
 30
0.0
 41
1.0
 10
37.75344553350453
 20
31.46023193856637
 30
0.0
 41
1.0
 10
36.59381737184231
 20
31.85542846726138
 30
0.0
 41
1.0
 10
35.43418921018008
 20
32.2506249959564
 30
0.0
 41
1.0
 10
35.43418921018009
 20
33.5318124959564
 30
0.0
 41
1.0
 10
35.43418921018009
 20
34.8129999959564
 30
0.0
 41
1.0
  0
SPLINE
  5
59
330
1F
100
AcDbEntity
  8
30x90 C
100
AcDbSpline
210
0.0
220
0.0
230
1.0
 70
    24
 71
     2
 72
     6
 73
     3
 74
     0
 42
0.0000000001
 43
0.0000000001
 40
0.0
 40
0.0
 40
0.0
 40
34.59512045666924
 40
34.59512045666924
 40
34.59512045666924
 10
39.73243864598464
 20
34.8129999959564
 30
0.0
 10
41.0145040414593
 20
17.56301744018
 30
0.0
 10
42.29656943693396
 20
0.3130348844036019
 30
0.0
  0
SPLINE
  5
5A
330
1F
100
AcDbEntity
  8
30x90 C
100
AcDbSpline
210
0.0
220
0.0
230
1.0
 70
    11
 71
     2
 72
    12
 73
     9
 74
     0
 42
0.0000000001
 43
0.0000000001
 40
0.0
 40
0.0
 40
0.0
 40
7.381635493493285
 40
7.381635493493285
 40
7.569635493493287
 40
7.569635493493287
 40
14.95127098698657
 40
14.95127098698657
 40
15.13927098698657
 40
15.13927098698657
 40
15.13927098698657
 10
35.43418921018009
 20
34.8129999959564
 30
0.0
 10
39.12500695692673
 20
34.8129999959564
 30
0.0
 10
42.81582470367337
 20
34.8129999959564
 30
0.0
 10
42.81582470367337
 20
34.9069999959564
 30
0.0
 10
42.81582470367337
 20
35.0009999959564
 30
0.0
 10
39.12500695692673
 20
35.0009999959564
 30
0.0
 10
35.43418921018009
 20
35.0009999959564
 30
0.0
 10
35.43418921018009
 20
34.9069999959564
 30
0.0
 10
35.43418921018009
 20
34.8129999959564
 30
0.0
  0
ENDSEC
  0
SECTION
  2
OBJECTS
  0
DICTIONARY
  5
C
330
0
100
AcDbDictionary
281
     1
  3
ACAD_GROUP
350
D
  3
ACAD_LAYOUT
350
1A
  3
ACAD_MLEADERSTYLE
350
5C
  3
ACAD_MLINESTYLE
350
17
  3
ACAD_PLOTSETTINGS
350
19
  3
ACAD_PLOTSTYLENAME
350
E
  3
ACAD_TABLESTYLE
350
5B
  3
ACAD_VISUALSTYLE
350
2A
  0
DICTIONARY
  5
D
102
{ACAD_REACTORS
330
C
102
}
330
C
100
AcDbDictionary
281
     1
  0
DICTIONARY
  5
1A
102
{ACAD_REACTORS
330
C
102
}
330
C
100
AcDbDictionary
281
     1
  3
Layout1
350
1E
  3
Layout2
350
26
  3
Model
350
22
  0
DICTIONARY
  5
5C
102
{ACAD_REACTORS
330
C
102
}
330
C
100
AcDbDictionary
281
     1
  0
DICTIONARY
  5
17
102
{ACAD_REACTORS
330
C
102
}
330
C
100
AcDbDictionary
281
     1
  3
Standard
350
18
  0
DICTIONARY
  5
19
102
{ACAD_REACTORS
330
C
102
}
330
C
100
AcDbDictionary
281
     1
  0
ACDBDICTIONARYWDFLT
  5
E
102
{ACAD_REACTORS
330
C
102
}
330
C
100
AcDbDictionary
281
     1
  3
Normal
350
F
100
AcDbDictionaryWithDefault
340
F
  0
DICTIONARY
  5
5B
102
{ACAD_REACTORS
330
C
102
}
330
C
100
AcDbDictionary
281
     1
  0
DICTIONARY
  5
2A
102
{ACAD_REACTORS
330
C
102
}
330
C
100
AcDbDictionary
281
     1
  3
2dWireframe
350
2F
  3
3D Hidden
350
31
  3
3dWireframe
350
30
  3
Basic
350
32
  3
Brighten
350
36
  3
ColorChange
350
3A
  3
Conceptual
350
34
  3
Dim
350
35
  3
Facepattern
350
39
  3
Flat
350
2B
  3
FlatWithEdges
350
2C
  3
Gouraud
350
2D
  3
GouraudWithEdges
350
2E
  3
Linepattern
350
38
  3
Realistic
350
33
  3
Thicken
350
37
  0
LAYOUT
  5
1E
102
{ACAD_REACTORS
330
1A
102
}
330
1A
100
AcDbPlotSettings
  1

  2
none_device
  4

  6

 40
0.0
 41
0.0
 42
0.0
 43
0.0
 44
0.0
 45
0.0
 46
0.0
 47
0.0
 48
0.0
 49
0.0
140
0.0
141
0.0
142
1.0
143
1.0
 70
   688
 72
     0
 73
     0
 74
     5
  7

 75
    16
 76
     0
 77
     2
 78
   300
147
1.0
148
0.0
149
0.0
100
AcDbLayout
  1
Layout1
 70
     1
 71
     1
 10
0.0
 20
0.0
 11
12.0
 21
9.0
 12
0.0
 22
0.0
 32
0.0
 14
1.000000000000000E+20
 24
1.000000000000000E+20
 34
1.000000000000000E+20
 15
-1.000000000000000E+20
 25
-1.000000000000000E+20
 35
-1.000000000000000E+20
146
0.0
 13
0.0
 23
0.0
 33
0.0
 16
1.0
 26
0.0
 36
0.0
 17
0.0
 27
1.0
 37
0.0
 76
     0
330
1B
  0
LAYOUT
  5
26
102
{ACAD_REACTORS
330
1A
102
}
330
1A
100
AcDbPlotSettings
  1

  2
none_device
  4

  6

 40
0.0
 41
0.0
 42
0.0
 43
0.0
 44
0.0
 45
0.0
 46
0.0
 47
0.0
 48
0.0
 49
0.0
140
0.0
141
0.0
142
1.0
143
1.0
 70
   688
 72
     0
 73
     0
 74
     5
  7

 75
    16
 76
     0
 77
     2
 78
   300
147
1.0
148
0.0
149
0.0
100
AcDbLayout
  1
Layout2
 70
     1
 71
     2
 10
0.0
 20
0.0
 11
0.0
 21
0.0
 12
0.0
 22
0.0
 32
0.0
 14
0.0
 24
0.0
 34
0.0
 15
0.0
 25
0.0
 35
0.0
146
0.0
 13
0.0
 23
0.0
 33
0.0
 16
1.0
 26
0.0
 36
0.0
 17
0.0
 27
1.0
 37
0.0
 76
     0
330
23
  0
LAYOUT
  5
22
102
{ACAD_REACTORS
330
1A
102
}
330
1A
100
AcDbPlotSettings
  1

  2
none_device
  4

  6

 40
0.0
 41
0.0
 42
0.0
 43
0.0
 44
0.0
 45
0.0
 46
0.0
 47
0.0
 48
0.0
 49
0.0
140
0.0
141
0.0
142
1.0
143
1.0
 70
  1712
 72
     0
 73
     0
 74
     0
  7

 75
     0
 76
     0
 77
     2
 78
   300
147
1.0
148
0.0
149
0.0
100
AcDbLayout
  1
Model
 70
     1
 71
     0
 10
0.0
 20
0.0
 11
12.0
 21
9.0
 12
0.0
 22
0.0
 32
0.0
 14
-45.00149546836685
 24
0.0
 34
0.0
 15
93.33390098608625
 25
84.22685930801515
 35
0.0
146
0.0
 13
0.0
 23
0.0
 33
0.0
 16
1.0
 26
0.0
 36
0.0
 17
0.0
 27
1.0
 37
0.0
 76
     0
330
1F
331
29
  0
MLINESTYLE
  5
18
102
{ACAD_REACTORS
330
17
102
}
330
17
100
AcDbMlineStyle
  2
Standard
 70
     0
  3

 62
   256
 51
90.0
 52
90.0
 71
     2
 49
0.5
 62
   256
  6
BYLAYER
 49
-0.5
 62
   256
  6
BYLAYER
  0
ACDBPLACEHOLDER
  5
F
102
{ACAD_REACTORS
330
E
102
}
330
E
  0
VISUALSTYLE
  5
2F
102
{ACAD_REACTORS
330
2A
102
}
330
2A
100
AcDbVisualStyle
  2
2dWireframe
 70
     4
 71
     0
 72
     2
 73
     0
 90
        0
 40
-0.6
 41
-30.0
 62
     5
 63
     7
421
 16777215
 74
     1
 91
        4
 64
     7
 65
   257
 75
     1
175
     1
 42
1.0
 92
        0
 66
   257
 43
1.0
 76
     1
 77
     6
 78
     2
 67
     7
 79
     5
170
     0
171
     0
290
     0
174
     0
 93
        1
 44
0.0
173
     0
291
     0
 45
0.0
1001
ACAD
1000
AcDbSavedByObjectVersion
1070
     0
  0
VISUALSTYLE
  5
31
102
{ACAD_REACTORS
330
2A
102
}
330
2A
100
AcDbVisualStyle
  2
3D Hidden
 70
     6
 71
     1
 72
     2
 73
     2
 90
        0
 40
-0.6
 41
-30.0
 62
     5
 63
     7
421
 16777215
 74
     2
 91
        2
 64
     7
 65
   257
 75
     2
175
     1
 42
40.0
 92
        0
 66
   257
 43
1.0
 76
     1
 77
     6
 78
     2
 67
     7
 79
     3
170
     0
171
     0
290
     0
174
     0
 93
        1
 44
0.0
173
     0
291
     0
 45
0.0
1001
ACAD
1000
AcDbSavedByObjectVersion
1070
     0
  0
VISUALSTYLE
  5
30
102
{ACAD_REACTORS
330
2A
102
}
330
2A
100
AcDbVisualStyle
  2
3dWireframe
 70
     5
 71
     0
 72
     2
 73
     0
 90
        0
 40
-0.6
 41
-30.0
 62
     5
 63
     7
421
 16777215
 74
     1
 91
        4
 64
     7
 65
   257
 75
     1
175
     1
 42
1.0
 92
        0
 66
   257
 43
1.0
 76
     1
 77
     6
 78
     2
 67
     7
 79
     5
170
     0
171
     0
290
     0
174
     0
 93
        1
 44
0.0
173
     0
291
     0
 45
0.0
1001
ACAD
1000
AcDbSavedByObjectVersion
1070
     0
  0
VISUALSTYLE
  5
32
102
{ACAD_REACTORS
330
2A
102
}
330
2A
100
AcDbVisualStyle
  2
Basic
 70
     7
 71
     1
 72
     0
 73
     1
 90
        0
 40
-0.6
 41
-30.0
 62
     5
 63
     7
421
 16777215
 74
     0
 91
        4
 64
     7
 65
   257
 75
     1
175
     1
 42
1.0
 92
        8
 66
     7
 43
1.0
 76
     1
 77
     6
 78
     2
 67
     7
 79
     5
170
     0
171
     0
290
     0
174
     0
 93
        1
 44
0.0
173
     0
291
     1
 45
0.0
1001
ACAD
1000
AcDbSavedByObjectVersion
1070
     0
  0
VISUALSTYLE
  5
36
102
{ACAD_REACTORS
330
2A
102
}
330
2A
100
AcDbVisualStyle
  2
Brighten
 70
    12
 71
     2
 72
     2
 73
     0
 90
        0
 40
-0.6
 41
-30.0
 62
     5
 63
     7
421
 16777215
 74
     1
 91
        4
 64
     7
 65
   257
 75
     1
175
     1
 42
1.0
 92
        8
 66
     7
 43
1.0
 76
     1
 77
     6
 78
     2
 67
     7
 79
     5
170
     0
171
     0
290
     0
174
     0
 93
        1
 44
50.0
173
     0
291
     1
 45
0.0
1001
ACAD
1000
AcDbSavedByObjectVersion
1070
     0
  0
VISUALSTYLE
  5
3A
102
{ACAD_REACTORS
330
2A
102
}
330
2A
100
AcDbVisualStyle
  2
ColorChange
 70
    16
 71
     2
 72
     2
 73
     3
 90
        0
 40
-0.6
 41
-30.0
 62
     5
 63
     8
421
  8421504
 74
     1
 91
        4
 64
     7
 65
   257
 75
     1
175
     1
 42
1.0
 92
        8
 66
     8
424
  8421504
 43
1.0
 76
     1
 77
     6
 78
     2
 67
     7
 79
     5
170
     0
171
     0
290
     0
174
     0
 93
        1
 44
0.0
173
     0
291
     1
 45
0.0
1001
ACAD
1000
AcDbSavedByObjectVersion
1070
     0
  0
VISUALSTYLE
  5
34
102
{ACAD_REACTORS
330
2A
102
}
330
2A
100
AcDbVisualStyle
  2
Conceptual
 70
     9
 71
     3
 72
     2
 73
     0
 90
        0
 40
-0.6
 41
-30.0
 62
     5
 63
     7
421
 16777215
 74
     2
 91
        2
 64
     7
 65
   257
 75
     1
175
     1
 42
40.0
 92
        8
 66
     7
 43
1.0
 76
     1
 77
     6
 78
     2
 67
     7
 79
     3
170
     0
171
     0
290
     0
174
     0
 93
        1
 44
0.0
173
     0
291
     0
 45
0.0
1001
ACAD
1000
AcDbSavedByObjectVersion
1070
     0
  0
VISUALSTYLE
  5
35
102
{ACAD_REACTORS
330
2A
102
}
330
2A
100
AcDbVisualStyle
  2
Dim
 70
    11
 71
     2
 72
     2
 73
     0
 90
        0
 40
-0.6
 41
-30.0
 62
     5
 63
     7
421
 16777215
 74
     1
 91
        4
 64
     7
 65
   257
 75
     1
175
     1
 42
1.0
 92
        8
 66
     7
 43
1.0
 76
     1
 77
     6
 78
     2
 67
     7
 79
     5
170
     0
171
     0
290
     0
174
     0
 93
        1
 44
-50.0
173
     0
291
     1
 45
0.0
1001
ACAD
1000
AcDbSavedByObjectVersion
1070
     0
  0
VISUALSTYLE
  5
39
102
{ACAD_REACTORS
330
2A
102
}
330
2A
100
AcDbVisualStyle
  2
Facepattern
 70
    15
 71
     2
 72
     2
 73
     0
 90
        0
 40
-0.6
 41
-30.0
 62
     5
 63
     7
421
 16777215
 74
     1
 91
        4
 64
     7
 65
   257
 75
     1
175
     1
 42
1.0
 92
        8
 66
     7
 43
1.0
 76
     1
 77
     6
 78
     2
 67
     7
 79
     5
170
     0
171
     0
290
     0
174
     0
 93
        1
 44
0.0
173
     0
291
     1
 45
0.0
1001
ACAD
1000
AcDbSavedByObjectVersion
1070
     0
  0
VISUALSTYLE
  5
2B
102
{ACAD_REACTORS
330
2A
102
}
330
2A
100
AcDbVisualStyle
  2
Flat
 70
     0
 71
     2
 72
     1
 73
     1
 90
        2
 40
-0.6
 41
30.0
 62
     5
 63
     7
421
 16777215
 74
     0
 91
        4
 64
     7
 65
   257
 75
     1
175
     1
 42
1.0
 92
        8
 66
     7
 43
1.0
 76
     1
 77
     6
 78
     2
 67
     7
 79
     5
170
     0
171
     0
290
     0
174
     0
 93
       13
 44
0.0
173
     0
291
     1
 45
0.0
1001
ACAD
1000
AcDbSavedByObjectVersion
1070
     0
  0
VISUALSTYLE
  5
2C
102
{ACAD_REACTORS
330
2A
102
}
330
2A
100
AcDbVisualStyle
  2
FlatWithEdges
 70
     1
 71
     2
 72
     1
 73
     1
 90
        2
 40
-0.6
 41
30.0
 62
     5
 63
     7
421
 16777215
 74
     1
 91
        4
 64
     7
 65
   257
 75
     1
175
     1
 42
1.0
 92
        0
 66
   257
 43
1.0
 76
     1
 77
     6
 78
     2
 67
     7
 79
     5
170
     0
171
     0
290
     0
174
     0
 93
       13
 44
0.0
173
     0
291
     1
 45
0.0
1001
ACAD
1000
AcDbSavedByObjectVersion
1070
     0
  0
VISUALSTYLE
  5
2D
102
{ACAD_REACTORS
330
2A
102
}
330
2A
100
AcDbVisualStyle
  2
Gouraud
 70
     2
 71
     2
 72
     2
 73
     1
 90
        2
 40
-0.6
 41
30.0
 62
     5
 63
     7
421
 16777215
 74
     0
 91
        4
 64
     7
 65
   257
 75
     1
175
     1
 42
1.0
 92
        0
 66
     7
 43
1.0
 76
     1
 77
     6
 78
     2
 67
     7
 79
     5
170
     0
171
     0
290
     0
174
     0
 93
       13
 44
0.0
173
     0
291
     1
 45
0.0
1001
ACAD
1000
AcDbSavedByObjectVersion
1070
     0
  0
VISUALSTYLE
  5
2E
102
{ACAD_REACTORS
330
2A
102
}
330
2A
100
AcDbVisualStyle
  2
GouraudWithEdges
 70
     3
 71
     2
 72
     2
 73
     1
 90
        2
 40
-0.6
 41
30.0
 62
     5
 63
     7
421
 16777215
 74
     1
 91
        4
 64
     7
 65
   257
 75
     1
175
     1
 42
1.0
 92
        0
 66
   257
 43
1.0
 76
     1
 77
     6
 78
     2
 67
     7
 79
     5
170
     0
171
     0
290
     0
174
     0
 93
       13
 44
0.0
173
     0
291
     1
 45
0.0
1001
ACAD
1000
AcDbSavedByObjectVersion
1070
     0
  0
VISUALSTYLE
  5
38
102
{ACAD_REACTORS
330
2A
102
}
330
2A
100
AcDbVisualStyle
  2
Linepattern
 70
    14
 71
     2
 72
     2
 73
     0
 90
        0
 40
-0.6
 41
-30.0
 62
     5
 63
     7
421
 16777215
 74
     1
 91
        4
 64
     7
 65
   257
 75
     7
175
     7
 42
1.0
 92
        8
 66
     7
 43
1.0
 76
     1
 77
     6
 78
     2
 67
     7
 79
     5
170
     0
171
     0
290
     0
174
     0
 93
        1
 44
0.0
173
     0
291
     1
 45
0.0
1001
ACAD
1000
AcDbSavedByObjectVersion
1070
     0
  0
VISUALSTYLE
  5
33
102
{ACAD_REACTORS
330
2A
102
}
330
2A
100
AcDbVisualStyle
  2
Realistic
 70
     8
 71
     2
 72
     2
 73
     0
 90
        0
 40
-0.6
 41
-30.0
 62
     5
 63
     7
421
 16777215
 74
     1
 91
        0
 64
     7
 65
   257
 75
     1
175
     1
 42
1.0
 92
        8
 66
     8
424
  7895160
 43
1.0
 76
     1
 77
     6
 78
     2
 67
     7
 79
     5
170
     0
171
     0
290
     0
174
     0
 93
       13
 44
0.0
173
     0
291
     0
 45
0.0
1001
ACAD
1000
AcDbSavedByObjectVersion
1070
     0
  0
VISUALSTYLE
  5
37
102
{ACAD_REACTORS
330
2A
102
}
330
2A
100
AcDbVisualStyle
  2
Thicken
 70
    13
 71
     2
 72
     2
 73
     0
 90
        0
 40
-0.6
 41
-30.0
 62
     5
 63
     7
421
 16777215
 74
     1
 91
        4
 64
     7
 65
   257
 75
     1
175
     1
 42
1.0
 92
       12
 66
     7
 43
1.0
 76
     1
 77
     6
 78
     2
 67
     7
 79
     5
170
     0
171
     0
290
     0
174
     0
 93
        1
 44
0.0
173
     0
291
     1
 45
0.0
1001
ACAD
1000
AcDbSavedByObjectVersion
1070
     0
  0
ENDSEC
  0
EOF
