  0
SECTION
  2
HEADER
  9
$ACADVER
  1
AC1018
  9
$ACADMAINTVER
 70
     0
  9
$DWGCODEPAGE
  3
ANSI_1252
  9
$INSBASE
 10
0.0
 20
0.0
 30
0.0
  9
$EXTMIN
 10
-24.0
 20
-0.0000191768443114
 30
0.0
  9
$EXTMAX
 10
87.21181376062594
 20
109.0743437112947
 30
0.0
  9
$LIMMIN
 10
0.0
 20
0.0
  9
$LIMMAX
 10
12.0
 20
9.0
  9
$ORTHOMODE
 70
     0
  9
$REGENMODE
 70
     1
  9
$FILLMODE
 70
     1
  9
$QTEXTMODE
 70
     0
  9
$MIRRTEXT
 70
     1
  9
$LTSCALE
 40
0.0393700787401575
  9
$ATTMODE
 70
     1
  9
$TEXTSIZE
 40
0.2
  9
$TRACEWID
 40
0.05
  9
$TEXTSTYLE
  7
Standard
  9
$CLAYER
  8
0
  9
$CELTYPE
  6
ByLayer
  9
$CECOLOR
 62
   256
  9
$CELTSCALE
 40
1.0
  9
$DISPSILH
 70
     0
  9
$DIMSCALE
 40
1.0
  9
$DIMASZ
 40
0.18
  9
$DIMEXO
 40
0.0625
  9
$DIMDLI
 40
0.38
  9
$DIMRND
 40
0.0
  9
$DIMDLE
 40
0.0
  9
$DIMEXE
 40
0.18
  9
$DIMTP
 40
0.0
  9
$DIMTM
 40
0.0
  9
$DIMTXT
 40
0.18
  9
$DIMCEN
 40
0.09
  9
$DIMTSZ
 40
0.0
  9
$DIMTOL
 70
     0
  9
$DIMLIM
 70
     0
  9
$DIMTIH
 70
     1
  9
$DIMTOH
 70
     1
  9
$DIMSE1
 70
     0
  9
$DIMSE2
 70
     0
  9
$DIMTAD
 70
     0
  9
$DIMZIN
 70
     0
  9
$DIMBLK
  1

  9
$DIMASO
 70
     1
  9
$DIMSHO
 70
     1
  9
$DIMPOST
  1

  9
$DIMAPOST
  1

  9
$DIMALT
 70
     0
  9
$DIMALTD
 70
     2
  9
$DIMALTF
 40
25.4
  9
$DIMLFAC
 40
1.0
  9
$DIMTOFL
 70
     0
  9
$DIMTVP
 40
0.0
  9
$DIMTIX
 70
     0
  9
$DIMSOXD
 70
     0
  9
$DIMSAH
 70
     0
  9
$DIMBLK1
  1

  9
$DIMBLK2
  1

  9
$DIMSTYLE
  2
Standard
  9
$DIMCLRD
 70
     0
  9
$DIMCLRE
 70
     0
  9
$DIMCLRT
 70
     0
  9
$DIMTFAC
 40
1.0
  9
$DIMGAP
 40
0.09
  9
$DIMJUST
 70
     0
  9
$DIMSD1
 70
     0
  9
$DIMSD2
 70
     0
  9
$DIMTOLJ
 70
     1
  9
$DIMTZIN
 70
     0
  9
$DIMALTZ
 70
     0
  9
$DIMALTTZ
 70
     0
  9
$DIMUPT
 70
     0
  9
$DIMDEC
 70
     4
  9
$DIMTDEC
 70
     4
  9
$DIMALTU
 70
     2
  9
$DIMALTTD
 70
     2
  9
$DIMTXSTY
  7
Standard
  9
$DIMAUNIT
 70
     0
  9
$DIMADEC
 70
     0
  9
$DIMALTRND
 40
0.0
  9
$DIMAZIN
 70
     0
  9
$DIMDSEP
 70
    46
  9
$DIMATFIT
 70
     3
  9
$DIMFRAC
 70
     0
  9
$DIMLDRBLK
  1

  9
$DIMLUNIT
 70
     2
  9
$DIMLWD
 70
    -2
  9
$DIMLWE
 70
    -2
  9
$DIMTMOVE
 70
     2
  9
$LUNITS
 70
     2
  9
$LUPREC
 70
     3
  9
$SKETCHINC
 40
0.1
  9
$FILLETRAD
 40
0.5
  9
$AUNITS
 70
     0
  9
$AUPREC
 70
     0
  9
$MENU
  1
.
  9
$ELEVATION
 40
0.0
  9
$PELEVATION
 40
0.0
  9
$THICKNESS
 40
0.0
  9
$LIMCHECK
 70
     0
  9
$CHAMFERA
 40
0.5
  9
$CHAMFERB
 40
0.5
  9
$CHAMFERC
 40
1.0
  9
$CHAMFERD
 40
0.0
  9
$SKPOLY
 70
     0
  9
$TDCREATE
 40
2458058.535415452
  9
$TDUCREATE
 40
2458058.702082118
  9
$TDUPDATE
 40
2458058.535415463
  9
$TDUUPDATE
 40
2458058.70208213
  9
$TDINDWG
 40
0.0000000116
  9
$TDUSRTIMER
 40
0.0000000116
  9
$USRTIMER
 70
     1
  9
$ANGBASE
 50
0.0
  9
$ANGDIR
 70
     0
  9
$PDMODE
 70
     0
  9
$PDSIZE
 40
0.0
  9
$PLINEWID
 40
0.0
  9
$SPLFRAME
 70
     0
  9
$SPLINETYPE
 70
     6
  9
$SPLINESEGS
 70
     8
  9
$HANDSEED
  5
FA
  9
$SURFTAB1
 70
     6
  9
$SURFTAB2
 70
     6
  9
$SURFTYPE
 70
     6
  9
$SURFU
 70
     6
  9
$SURFV
 70
     6
  9
$UCSBASE
  2

  9
$UCSNAME
  2

  9
$UCSORG
 10
0.0
 20
0.0
 30
0.0
  9
$UCSXDIR
 10
1.0
 20
0.0
 30
0.0
  9
$UCSYDIR
 10
0.0
 20
1.0
 30
0.0
  9
$UCSORTHOREF
  2

  9
$UCSORTHOVIEW
 70
     0
  9
$UCSORGTOP
 10
0.0
 20
0.0
 30
0.0
  9
$UCSORGBOTTOM
 10
0.0
 20
0.0
 30
0.0
  9
$UCSORGLEFT
 10
0.0
 20
0.0
 30
0.0
  9
$UCSORGRIGHT
 10
0.0
 20
0.0
 30
0.0
  9
$UCSORGFRONT
 10
0.0
 20
0.0
 30
0.0
  9
$UCSORGBACK
 10
0.0
 20
0.0
 30
0.0
  9
$PUCSBASE
  2

  9
$PUCSNAME
  2

  9
$PUCSORG
 10
0.0
 20
0.0
 30
0.0
  9
$PUCSXDIR
 10
1.0
 20
0.0
 30
0.0
  9
$PUCSYDIR
 10
0.0
 20
1.0
 30
0.0
  9
$PUCSORTHOREF
  2

  9
$PUCSORTHOVIEW
 70
     0
  9
$PUCSORGTOP
 10
0.0
 20
0.0
 30
0.0
  9
$PUCSORGBOTTOM
 10
0.0
 20
0.0
 30
0.0
  9
$PUCSORGLEFT
 10
0.0
 20
0.0
 30
0.0
  9
$PUCSORGRIGHT
 10
0.0
 20
0.0
 30
0.0
  9
$PUCSORGFRONT
 10
0.0
 20
0.0
 30
0.0
  9
$PUCSORGBACK
 10
0.0
 20
0.0
 30
0.0
  9
$USERI1
 70
     0
  9
$USERI2
 70
     0
  9
$USERI3
 70
     0
  9
$USERI4
 70
     0
  9
$USERI5
 70
     0
  9
$USERR1
 40
0.0
  9
$USERR2
 40
0.0
  9
$USERR3
 40
0.0
  9
$USERR4
 40
0.0
  9
$USERR5
 40
0.0
  9
$WORLDVIEW
 70
     1
  9
$SHADEDGE
 70
     3
  9
$SHADEDIF
 70
    70
  9
$TILEMODE
 70
     1
  9
$MAXACTVP
 70
    64
  9
$PINSBASE
 10
0.0
 20
0.0
 30
0.0
  9
$PLIMCHECK
 70
     0
  9
$PEXTMIN
 10
1.000000000000000E+20
 20
1.000000000000000E+20
 30
1.000000000000000E+20
  9
$PEXTMAX
 10
-1.000000000000000E+20
 20
-1.000000000000000E+20
 30
-1.000000000000000E+20
  9
$PLIMMIN
 10
0.0
 20
0.0
  9
$PLIMMAX
 10
12.0
 20
9.0
  9
$UNITMODE
 70
     0
  9
$VISRETAIN
 70
     1
  9
$PLINEGEN
 70
     0
  9
$PSLTSCALE
 70
     1
  9
$TREEDEPTH
 70
  3020
  9
$CMLSTYLE
  2
Standard
  9
$CMLJUST
 70
     0
  9
$CMLSCALE
 40
1.0
  9
$PROXYGRAPHICS
 70
     1
  9
$MEASUREMENT
 70
     0
  9
$CELWEIGHT
370
    -1
  9
$ENDCAPS
280
     0
  9
$JOINSTYLE
280
     0
  9
$LWDISPLAY
290
     0
  9
$INSUNITS
 70
     1
  9
$HYPERLINKBASE
  1

  9
$STYLESHEET
  1

  9
$XEDIT
290
     1
  9
$CEPSNTYPE
380
     0
  9
$PSTYLEMODE
290
     1
  9
$FINGERPRINTGUID
  2
{AB12385D-6E2C-4E96-9B50-0EA04282EBC9}
  9
$VERSIONGUID
  2
{FAEB1C32-E019-11D5-929B-00C0DF256EC4}
  9
$EXTNAMES
290
     1
  9
$PSVPSCALE
 40
0.0
  9
$OLESTARTUP
290
     0
  9
$SORTENTS
280
   127
  9
$INDEXCTL
280
     0
  9
$HIDETEXT
280
     1
  9
$XCLIPFRAME
290
     0
  9
$HALOGAP
280
     0
  9
$OBSCOLOR
 70
   257
  9
$OBSLTYPE
280
     0
  9
$INTERSECTIONDISPLAY
280
     0
  9
$INTERSECTIONCOLOR
 70
   257
  9
$DIMASSOC
280
     2
  9
$PROJECTNAME
  1

  0
ENDSEC
  0
SECTION
  2
CLASSES
  0
CLASS
  1
ACDBDICTIONARYWDFLT
  2
AcDbDictionaryWithDefault
  3
ObjectDBX Classes
 90
        0
 91
        4
280
     0
281
     0
  0
CLASS
  1
VISUALSTYLE
  2
AcDbVisualStyle
  3
ObjectDBX Classes
 90
     4095
 91
        4
280
     0
281
     0
  0
ENDSEC
  0
SECTION
  2
TABLES
  0
TABLE
  2
VPORT
  5
8
330
0
100
AcDbSymbolTable
 70
     1
  0
VPORT
  5
29
330
8
100
AcDbSymbolTableRecord
100
AcDbViewportTableRecord
  2
*Active
 70
     0
 10
0.0
 20
0.0
 11
1.0
 21
1.0
 12
31.60590688031297
 22
54.53716226722522
 13
0.0
 23
0.0
 14
0.5
 24
0.5
 15
0.5
 25
0.5
 16
0.0
 26
0.0
 36
1.0
 17
0.0
 27
0.0
 37
0.0
 40
111.2558501459018
 41
1.019596271900107
 42
50.0
 43
0.0
 44
0.0
 50
0.0
 51
0.0
 71
     0
 72
   100
 73
     1
 74
     3
 75
     0
 76
     0
 77
     0
 78
     0
281
     0
 65
     1
110
0.0
120
0.0
130
0.0
111
1.0
121
0.0
131
0.0
112
0.0
122
1.0
132
0.0
 79
     0
146
0.0
  0
ENDTAB
  0
TABLE
  2
LTYPE
  5
5
330
0
100
AcDbSymbolTable
 70
     1
  0
LTYPE
  5
14
330
5
100
AcDbSymbolTableRecord
100
AcDbLinetypeTableRecord
  2
ByBlock
 70
     0
  3

 72
    65
 73
     0
 40
0.0
  0
LTYPE
  5
15
330
5
100
AcDbSymbolTableRecord
100
AcDbLinetypeTableRecord
  2
ByLayer
 70
     0
  3

 72
    65
 73
     0
 40
0.0
  0
LTYPE
  5
16
330
5
100
AcDbSymbolTableRecord
100
AcDbLinetypeTableRecord
  2
Continuous
 70
     0
  3
Solid line
 72
    65
 73
     0
 40
0.0
  0
ENDTAB
  0
TABLE
  2
LAYER
  5
2
330
0
100
AcDbSymbolTable
 70
     2
  0
LAYER
  5
10
330
2
100
AcDbSymbolTableRecord
100
AcDbLayerTableRecord
  2
0
 70
     0
 62
     7
  6
Continuous
370
    -3
390
F
  0
LAYER
  5
3B
330
2
100
AcDbSymbolTableRecord
100
AcDbLayerTableRecord
  2
48x48 B
 70
     0
 62
     7
  6
Continuous
370
    -3
390
F
  0
ENDTAB
  0
TABLE
  2
STYLE
  5
3
330
0
100
AcDbSymbolTable
 70
     1
  0
STYLE
  5
11
330
3
100
AcDbSymbolTableRecord
100
AcDbTextStyleTableRecord
  2
Standard
 70
     0
 40
0.0
 41
1.0
 50
0.0
 71
     0
 42
0.2
  3
txt
  4

  0
ENDTAB
  0
TABLE
  2
VIEW
  5
6
330
0
100
AcDbSymbolTable
 70
     0
  0
ENDTAB
  0
TABLE
  2
UCS
  5
7
330
0
100
AcDbSymbolTable
 70
     0
  0
ENDTAB
  0
TABLE
  2
APPID
  5
9
330
0
100
AcDbSymbolTable
 70
     1
  0
APPID
  5
12
330
9
100
AcDbSymbolTableRecord
100
AcDbRegAppTableRecord
  2
ACAD
 70
     0
  0
ENDTAB
  0
TABLE
  2
DIMSTYLE
  5
A
330
0
100
AcDbSymbolTable
 70
     1
100
AcDbDimStyleTable
  0
DIMSTYLE
105
27
330
A
100
AcDbSymbolTableRecord
100
AcDbDimStyleTableRecord
  2
Standard
 70
     0
340
11
  0
ENDTAB
  0
TABLE
  2
BLOCK_RECORD
  5
1
330
0
100
AcDbSymbolTable
 70
     1
  0
BLOCK_RECORD
  5
1F
330
1
100
AcDbSymbolTableRecord
100
AcDbBlockTableRecord
  2
*Model_Space
340
22
  0
BLOCK_RECORD
  5
1B
330
1
100
AcDbSymbolTableRecord
100
AcDbBlockTableRecord
  2
*Paper_Space
340
1E
  0
BLOCK_RECORD
  5
23
330
1
100
AcDbSymbolTableRecord
100
AcDbBlockTableRecord
  2
*Paper_Space0
340
26
  0
ENDTAB
  0
ENDSEC
  0
SECTION
  2
BLOCKS
  0
BLOCK
  5
20
330
1F
100
AcDbEntity
  8
0
100
AcDbBlockBegin
  2
*Model_Space
 70
     0
 10
0.0
 20
0.0
 30
0.0
  3
*Model_Space
  1

  0
ENDBLK
  5
21
330
1F
100
AcDbEntity
  8
0
100
AcDbBlockEnd
  0
BLOCK
  5
1C
330
1B
100
AcDbEntity
 67
     1
  8
0
100
AcDbBlockBegin
  2
*Paper_Space
 70
     0
 10
0.0
 20
0.0
 30
0.0
  3
*Paper_Space
  1

  0
ENDBLK
  5
1D
330
1B
100
AcDbEntity
 67
     1
  8
0
100
AcDbBlockEnd
  0
BLOCK
  5
24
330
23
100
AcDbEntity
  8
0
100
AcDbBlockBegin
  2
*Paper_Space0
 70
     0
 10
0.0
 20
0.0
 30
0.0
  3
*Paper_Space0
  1

  0
ENDBLK
  5
25
330
23
100
AcDbEntity
  8
0
100
AcDbBlockEnd
  0
ENDSEC
  0
SECTION
  2
ENTITIES
  0
SPLINE
  5
3C
330
1F
100
AcDbEntity
  8
48x48 B
100
AcDbSpline
210
0.0
220
0.0
230
1.0
 70
    12
 71
     2
 72
     6
 73
     3
 74
     0
 42
0.0000000001
 43
0.0000000001
 40
0.0
 40
0.0
 40
0.0
 40
2.356194490192349
 40
2.356194490192349
 40
2.356194490192349
 10
24.0
 20
62.57434371129473
 30
0.0
 41
1.0
 10
24.0
 20
61.07434371129472
 30
0.0
 41
0.7071067811865492
 10
22.5
 20
61.07434371129473
 30
0.0
 41
1.0
  0
SPLINE
  5
3D
330
1F
100
AcDbEntity
  8
48x48 B
100
AcDbSpline
210
0.0
220
0.0
230
1.0
 70
    24
 71
     2
 72
     6
 73
     3
 74
     0
 42
0.0000000001
 43
0.0000000001
 40
0.0
 40
0.0
 40
0.0
 40
45.0
 40
45.0
 40
45.0
 10
22.5
 20
61.07434371129473
 30
0.0
 10
0.0
 20
61.07434371129473
 30
0.0
 10
-22.5
 20
61.07434371129473
 30
0.0
  0
SPLINE
  5
3E
330
1F
100
AcDbEntity
  8
48x48 B
100
AcDbSpline
210
0.0
220
0.0
230
1.0
 70
    12
 71
     2
 72
     6
 73
     3
 74
     0
 42
0.0000000001
 43
0.0000000001
 40
0.0
 40
0.0
 40
0.0
 40
2.356194490192333
 40
2.356194490192333
 40
2.356194490192333
 10
-22.5
 20
61.07434371129473
 30
0.0
 41
1.0
 10
-23.99999999999999
 20
61.07434371129474
 30
0.0
 41
0.7071067811865502
 10
-23.99999999999999
 20
62.57434371129473
 30
0.0
 41
1.0
  0
SPLINE
  5
3F
330
1F
100
AcDbEntity
  8
48x48 B
100
AcDbSpline
210
0.0
220
0.0
230
1.0
 70
    24
 71
     2
 72
     6
 73
     3
 74
     0
 42
0.0000000001
 43
0.0000000001
 40
0.0
 40
0.0
 40
0.0
 40
45.0
 40
45.0
 40
45.0
 10
-23.99999999999999
 20
62.57434371129473
 30
0.0
 10
-24.0
 20
85.07434371129474
 30
0.0
 10
-24.0
 20
107.5743437112947
 30
0.0
  0
SPLINE
  5
40
330
1F
100
AcDbEntity
  8
48x48 B
100
AcDbSpline
210
0.0
220
0.0
230
1.0
 70
    12
 71
     2
 72
     6
 73
     3
 74
     0
 42
0.0000000001
 43
0.0000000001
 40
0.0
 40
0.0
 40
0.0
 40
2.356194490192362
 40
2.356194490192362
 40
2.356194490192362
 10
-24.0
 20
107.5743437112947
 30
0.0
 41
1.0
 10
-24.00000000000003
 20
109.0743437112948
 30
0.0
 41
0.7071067811865359
 10
-22.5
 20
109.0743437112947
 30
0.0
 41
1.0
  0
SPLINE
  5
41
330
1F
100
AcDbEntity
  8
48x48 B
100
AcDbSpline
210
0.0
220
0.0
230
1.0
 70
    24
 71
     2
 72
     6
 73
     3
 74
     0
 42
0.0000000001
 43
0.0000000001
 40
0.0
 40
0.0
 40
0.0
 40
45.0
 40
45.0
 40
45.0
 10
-22.5
 20
109.0743437112947
 30
0.0
 10
0.0
 20
109.0743437112947
 30
0.0
 10
22.5
 20
109.0743437112947
 30
0.0
  0
SPLINE
  5
42
330
1F
100
AcDbEntity
  8
48x48 B
100
AcDbSpline
210
0.0
220
0.0
230
1.0
 70
    12
 71
     2
 72
     6
 73
     3
 74
     0
 42
0.0000000001
 43
0.0000000001
 40
0.0
 40
0.0
 40
0.0
 40
2.35619449019235
 40
2.35619449019235
 40
2.35619449019235
 10
22.5
 20
109.0743437112947
 30
0.0
 41
1.0
 10
24.00000000000002
 20
109.0743437112947
 30
0.0
 41
0.7071067811865358
 10
24.0
 20
107.5743437112947
 30
0.0
 41
1.0
  0
SPLINE
  5
43
330
1F
100
AcDbEntity
  8
48x48 B
100
AcDbSpline
210
0.0
220
0.0
230
1.0
 70
    24
 71
     2
 72
     6
 73
     3
 74
     0
 42
0.0000000001
 43
0.0000000001
 40
0.0
 40
0.0
 40
0.0
 40
45.0
 40
45.0
 40
45.0
 10
24.0
 20
107.5743437112947
 30
0.0
 10
24.0
 20
85.07434371129474
 30
0.0
 10
24.0
 20
62.57434371129473
 30
0.0
  0
POLYLINE
  5
44
330
1F
100
AcDbEntity
  8
48x48 B
100
AcDb2dPolyline
 66
     1
 10
0.0
 20
0.0
 30
0.0
  0
VERTEX
  5
45
330
44
100
AcDbEntity
  8
48x48 B
100
AcDbVertex
100
AcDb2dVertex
 10
48.77912001881349
 20
40.81299999595639
 30
0.0
  0
VERTEX
  5
46
330
44
100
AcDbEntity
  8
48x48 B
100
AcDbVertex
100
AcDb2dVertex
 10
45.60331047052605
 20
40.81299999595639
 30
0.0
  0
SEQEND
  5
47
330
44
100
AcDbEntity
  8
48x48 B
  0
SPLINE
  5
48
330
1F
100
AcDbEntity
  8
48x48 B
100
AcDbSpline
210
0.0
220
0.0
230
1.0
 70
    24
 71
     2
 72
     6
 73
     3
 74
     0
 42
0.0000000001
 43
0.0000000001
 40
-3.024074093290999
 40
-3.024074093290999
 40
-3.024074093290999
 40
0.0
 40
0.0
 40
0.0
 10
45.60331047052605
 20
40.81299999595639
 30
0.0
 10
45.60331047052605
 20
39.30096294931089
 30
0.0
 10
45.60331047052605
 20
37.78892590266539
 30
0.0
  0
SPLINE
  5
49
330
1F
100
AcDbEntity
  8
48x48 B
100
AcDbSpline
210
0.0
220
0.0
230
1.0
 70
    12
 71
     2
 72
     6
 73
     3
 74
     0
 42
0.0000000001
 43
0.0000000001
 40
-0.2374369369881551
 40
-0.2374369369881551
 40
-0.2374369369881551
 40
0.0
 40
0.0
 40
0.0
 10
45.60331047052605
 20
37.78892590266539
 30
0.0
 41
1.0
 10
45.58935580631766
 20
37.64968472412696
 30
0.0
 41
0.7873178403761734
 10
45.72119088099713
 20
37.60275550574225
 30
0.0
 41
1.0
  0
SPLINE
  5
4A
330
1F
100
AcDbEntity
  8
48x48 B
100
AcDbSpline
210
0.0
220
0.0
230
1.0
 70
    24
 71
     2
 72
     6
 73
     3
 74
     0
 42
0.0000000001
 43
0.0000000001
 40
-0.752296812481594
 40
-0.752296812481594
 40
-0.752296812481594
 40
0.0
 40
0.0
 40
0.0
 10
45.72119088099713
 20
37.60275550574225
 30
0.0
 10
46.09052728824309
 20
37.53149372215431
 30
0.0
 10
46.45986369548906
 20
37.46023193856636
 30
0.0
  0
SPLINE
  5
4B
330
1F
100
AcDbEntity
  8
48x48 B
100
AcDbSpline
210
0.0
220
0.0
230
1.0
 70
    24
 71
     2
 72
     6
 73
     3
 74
     0
 42
0.0000000001
 43
0.0000000001
 40
-2.450198664559965
 40
-2.450198664559965
 40
-2.450198664559965
 40
0.0
 40
0.0
 40
0.0
 10
46.45986369548906
 20
37.46023193856636
 30
0.0
 10
47.61949185715127
 20
37.85542846726138
 30
0.0
 10
48.7791200188135
 20
38.25062499595639
 30
0.0
  0
SPLINE
  5
4C
330
1F
100
AcDbEntity
  8
48x48 B
100
AcDbSpline
210
0.0
220
0.0
230
1.0
 70
    24
 71
     2
 72
     6
 73
     3
 74
     0
 42
0.0000000001
 43
0.0000000001
 40
-2.562249999999999
 40
-2.562249999999999
 40
-2.562249999999999
 40
0.0
 40
0.0
 40
0.0
 10
48.7791200188135
 20
38.25062499595639
 30
0.0
 10
48.7791200188135
 20
39.53181249595639
 30
0.0
 10
48.77912001881349
 20
40.81299999595639
 30
0.0
  0
POLYLINE
  5
4D
330
1F
100
AcDbEntity
  8
48x48 B
100
AcDb2dPolyline
 66
     1
 10
0.0
 20
0.0
 30
0.0
  0
VERTEX
  5
4E
330
4D
100
AcDbEntity
  8
48x48 B
100
AcDbVertex
100
AcDb2dVertex
 10
77.64450750243839
 20
40.81299999595639
 30
0.0
  0
VERTEX
  5
4F
330
4D
100
AcDbEntity
  8
48x48 B
100
AcDbVertex
100
AcDb2dVertex
 10
80.82031705072583
 20
40.81299999595639
 30
0.0
  0
SEQEND
  5
50
330
4D
100
AcDbEntity
  8
48x48 B
  0
SPLINE
  5
51
330
1F
100
AcDbEntity
  8
48x48 B
100
AcDbSpline
210
0.0
220
0.0
230
1.0
 70
    24
 71
     2
 72
     6
 73
     3
 74
     0
 42
0.0000000001
 43
0.0000000001
 40
-3.024074093290999
 40
-3.024074093290999
 40
-3.024074093290999
 40
0.0
 40
0.0
 40
0.0
 10
80.82031705072583
 20
40.81299999595639
 30
0.0
 10
80.82031705072583
 20
39.30096294931089
 30
0.0
 10
80.82031705072583
 20
37.78892590266539
 30
0.0
  0
SPLINE
  5
52
330
1F
100
AcDbEntity
  8
48x48 B
100
AcDbSpline
210
0.0
220
0.0
230
1.0
 70
    12
 71
     2
 72
     6
 73
     3
 74
     0
 42
0.0000000001
 43
0.0000000001
 40
-0.2374369369881551
 40
-0.2374369369881551
 40
-0.2374369369881551
 40
0.0
 40
0.0
 40
0.0
 10
80.82031705072583
 20
37.78892590266539
 30
0.0
 41
1.0
 10
80.83427171493423
 20
37.64968472412696
 30
0.0
 41
0.7873178403761734
 10
80.70243664025475
 20
37.60275550574225
 30
0.0
 41
1.0
  0
SPLINE
  5
53
330
1F
100
AcDbEntity
  8
48x48 B
100
AcDbSpline
210
0.0
220
0.0
230
1.0
 70
    24
 71
     2
 72
     6
 73
     3
 74
     0
 42
0.0000000001
 43
0.0000000001
 40
-0.752296812481594
 40
-0.752296812481594
 40
-0.752296812481594
 40
0.0
 40
0.0
 40
0.0
 10
80.70243664025475
 20
37.60275550574225
 30
0.0
 10
80.33310023300878
 20
37.53149372215431
 30
0.0
 10
79.96376382576281
 20
37.46023193856636
 30
0.0
  0
SPLINE
  5
54
330
1F
100
AcDbEntity
  8
48x48 B
100
AcDbSpline
210
0.0
220
0.0
230
1.0
 70
    24
 71
     2
 72
     6
 73
     3
 74
     0
 42
0.0000000001
 43
0.0000000001
 40
-2.450198664559965
 40
-2.450198664559965
 40
-2.450198664559965
 40
0.0
 40
0.0
 40
0.0
 10
79.96376382576281
 20
37.46023193856636
 30
0.0
 10
78.80413566410058
 20
37.85542846726138
 30
0.0
 10
77.64450750243837
 20
38.25062499595639
 30
0.0
  0
SPLINE
  5
55
330
1F
100
AcDbEntity
  8
48x48 B
100
AcDbSpline
210
0.0
220
0.0
230
1.0
 70
    24
 71
     2
 72
     6
 73
     3
 74
     0
 42
0.0000000001
 43
0.0000000001
 40
-2.562249999999999
 40
-2.562249999999999
 40
-2.562249999999999
 40
0.0
 40
0.0
 40
0.0
 10
77.64450750243837
 20
38.25062499595639
 30
0.0
 10
77.64450750243839
 20
39.53181249595639
 30
0.0
 10
77.64450750243839
 20
40.81299999595639
 30
0.0
  0
POLYLINE
  5
56
330
1F
100
AcDbEntity
  8
48x48 B
100
AcDb2dPolyline
 66
     1
 10
0.0
 20
0.0
 30
0.0
  0
VERTEX
  5
57
330
56
100
AcDbEntity
  8
48x48 B
100
AcDbVertex
100
AcDb2dVertex
 10
48.77912001881349
 20
41.00099999595639
 30
0.0
  0
VERTEX
  5
58
330
56
100
AcDbEntity
  8
48x48 B
100
AcDbVertex
100
AcDb2dVertex
 10
77.64450750243839
 20
41.00099999595639
 30
0.0
  0
VERTEX
  5
59
330
56
100
AcDbEntity
  8
48x48 B
100
AcDbVertex
100
AcDb2dVertex
 10
77.64450750243839
 20
38.25074999595639
 30
0.0
  0
VERTEX
  5
5A
330
56
100
AcDbEntity
  8
48x48 B
100
AcDbVertex
100
AcDb2dVertex
 10
48.77912001881349
 20
38.25074999595639
 30
0.0
  0
VERTEX
  5
5B
330
56
100
AcDbEntity
  8
48x48 B
100
AcDbVertex
100
AcDb2dVertex
 10
48.77912001881349
 20
41.00099999595639
 30
0.0
  0
SEQEND
  5
5C
330
56
100
AcDbEntity
  8
48x48 B
  0
POLYLINE
  5
5D
330
1F
100
AcDbEntity
  8
48x48 B
100
AcDb2dPolyline
 66
     1
 10
0.0
 20
0.0
 30
0.0
  0
VERTEX
  5
5E
330
5D
100
AcDbEntity
  8
48x48 B
100
AcDbVertex
100
AcDb2dVertex
 10
48.77912001881349
 20
40.81299999595639
 30
0.0
  0
VERTEX
  5
5F
330
5D
100
AcDbEntity
  8
48x48 B
100
AcDbVertex
100
AcDb2dVertex
 10
41.39748452532021
 20
40.81299999595639
 30
0.0
  0
VERTEX
  5
60
330
5D
100
AcDbEntity
  8
48x48 B
100
AcDbVertex
100
AcDb2dVertex
 10
41.39748452532021
 20
41.00099999595639
 30
0.0
  0
VERTEX
  5
61
330
5D
100
AcDbEntity
  8
48x48 B
100
AcDbVertex
100
AcDb2dVertex
 10
48.77912001881349
 20
41.00099999595639
 30
0.0
  0
VERTEX
  5
62
330
5D
100
AcDbEntity
  8
48x48 B
100
AcDbVertex
100
AcDb2dVertex
 10
48.77912001881349
 20
40.81299999595639
 30
0.0
  0
SEQEND
  5
63
330
5D
100
AcDbEntity
  8
48x48 B
  0
POLYLINE
  5
64
330
1F
100
AcDbEntity
  8
48x48 B
100
AcDb2dPolyline
 66
     1
 10
0.0
 20
0.0
 30
0.0
  0
VERTEX
  5
65
330
64
100
AcDbEntity
  8
48x48 B
100
AcDbVertex
100
AcDb2dVertex
 10
77.64450750243839
 20
40.81299999595639
 30
0.0
  0
VERTEX
  5
66
330
64
100
AcDbEntity
  8
48x48 B
100
AcDbVertex
100
AcDb2dVertex
 10
85.02614299593166
 20
40.81299999595639
 30
0.0
  0
VERTEX
  5
67
330
64
100
AcDbEntity
  8
48x48 B
100
AcDbVertex
100
AcDb2dVertex
 10
85.02614299593166
 20
41.00099999595639
 30
0.0
  0
VERTEX
  5
68
330
64
100
AcDbEntity
  8
48x48 B
100
AcDbVertex
100
AcDb2dVertex
 10
77.64450750243839
 20
41.00099999595639
 30
0.0
  0
VERTEX
  5
69
330
64
100
AcDbEntity
  8
48x48 B
100
AcDbVertex
100
AcDb2dVertex
 10
77.64450750243839
 20
40.81299999595639
 30
0.0
  0
SEQEND
  5
6A
330
64
100
AcDbEntity
  8
48x48 B
  0
LINE
  5
6B
330
1F
100
AcDbEntity
  8
48x48 B
100
AcDbLine
 10
39.21788139770662
 20
42.0009999959564
 30
0.0
 11
87.21181376062594
 21
42.00099999595628
 31
0.0
  0
SPLINE
  5
6C
330
1F
100
AcDbEntity
  8
48x48 B
100
AcDbSpline
210
0.0
220
0.0
230
1.0
 70
    24
 71
     2
 72
     6
 73
     3
 74
     0
 42
0.0000000001
 43
0.0000000001
 40
0.0
 40
0.0
 40
0.0
 40
0.3130000001979454
 40
0.3130000001979454
 40
0.3130000001979454
 10
87.21181376062594
 20
42.00099999595628
 30
0.0
 10
87.21056778070343
 20
41.84391898592749
 30
0.0
 10
87.20932180078091
 20
41.6868379758987
 30
0.0
  0
SPLINE
  5
6D
330
1F
100
AcDbEntity
  8
48x48 B
100
AcDbSpline
210
0.0
220
0.0
230
1.0
 70
    24
 71
     2
 72
     6
 73
     3
 74
     0
 42
0.0000000001
 43
0.0000000001
 40
0.0
 40
0.0
 40
0.0
 40
1.620081340891578
 40
1.620081340891578
 40
1.620081340891578
 10
87.20932180078091
 20
41.6868379758987
 30
0.0
 10
86.47392965350477
 20
41.34391898592663
 30
0.0
 10
85.73853750622864
 20
41.00099999595455
 30
0.0
  0
SPLINE
  5
6E
330
1F
100
AcDbEntity
  8
48x48 B
100
AcDbSpline
210
0.0
220
0.0
230
1.0
 70
    24
 71
     2
 72
     6
 73
     3
 74
     0
 42
0.0000000001
 43
0.0000000001
 40
-0.0267237456027019
 40
-0.0267237456027019
 40
-0.0267237456027019
 40
0.0
 40
0.0
 40
0.0
 10
85.73853750622864
 20
41.00099999595455
 30
0.0
 10
85.72517563342728
 20
41.00099999595579
 30
0.0
 10
85.71181376062594
 20
41.00099999595704
 30
0.0
  0
SPLINE
  5
6F
330
1F
100
AcDbEntity
  8
48x48 B
100
AcDbSpline
210
0.0
220
0.0
230
1.0
 70
    24
 71
     2
 72
     6
 73
     3
 74
     0
 42
0.0000000001
 43
0.0000000001
 40
-45.0
 40
-45.0
 40
-45.0
 40
0.0
 40
0.0
 40
0.0
 10
85.71181376062594
 20
41.00099999595704
 30
0.0
 10
63.21181376062594
 20
41.00099999595704
 30
0.0
 10
40.71181376062594
 20
41.00099999595704
 30
0.0
  0
SPLINE
  5
70
330
1F
100
AcDbEntity
  8
48x48 B
100
AcDbSpline
210
0.0
220
0.0
230
1.0
 70
    24
 71
     2
 72
     6
 73
     3
 74
     0
 42
0.0000000001
 43
0.0000000001
 40
-0.0267237456096723
 40
-0.0267237456096723
 40
-0.0267237456096723
 40
0.0
 40
0.0
 40
0.0
 10
40.71181376062594
 20
41.00099999595704
 30
0.0
 10
40.6984518878211
 20
41.00099999595704
 30
0.0
 10
40.68509001501626
 20
41.00099999595704
 30
0.0
  0
SPLINE
  5
71
330
1F
100
AcDbEntity
  8
48x48 B
100
AcDbSpline
210
0.0
220
0.0
230
1.0
 70
    24
 71
     2
 72
     6
 73
     3
 74
     0
 42
0.0000000001
 43
0.0000000001
 40
-1.620081340890597
 40
-1.620081340890597
 40
-1.620081340890597
 40
0.0
 40
0.0
 40
0.0
 10
40.68509001501626
 20
41.00099999595704
 30
0.0
 10
39.94969786769823
 20
41.34391898599839
 30
0.0
 10
39.21430572038021
 20
41.68683797603973
 30
0.0
  0
SPLINE
  5
72
330
1F
100
AcDbEntity
  8
48x48 B
100
AcDbSpline
210
0.0
220
0.0
230
1.0
 70
    24
 71
     2
 72
     6
 73
     3
 74
     0
 42
0.0000000001
 43
0.0000000001
 40
-0.3129999999995334
 40
-0.3129999999995334
 40
-0.3129999999995334
 40
0.0
 40
0.0
 40
0.0
 10
39.21430572038021
 20
41.68683797603973
 30
0.0
 10
39.21305974050307
 20
41.84391898599806
 30
0.0
 10
39.21181376062594
 20
42.00099999595639
 30
0.0
  0
POLYLINE
  5
73
330
1F
100
AcDbEntity
  8
48x48 B
100
AcDb2dPolyline
 66
     1
 10
0.0
 20
0.0
 30
0.0
  0
VERTEX
  5
74
330
73
100
AcDbEntity
  8
48x48 B
100
AcDbVertex
100
AcDb2dVertex
 10
43.09180255040475
 20
0.3129808191120874
 30
0.0
  0
VERTEX
  5
75
330
73
100
AcDbEntity
  8
48x48 B
100
AcDbVertex
100
AcDb2dVertex
 10
40.30088782499487
 20
0.3129808191120874
 30
0.0
  0
SEQEND
  5
76
330
73
100
AcDbEntity
  8
48x48 B
  0
SPLINE
  5
77
330
1F
100
AcDbEntity
  8
48x48 B
100
AcDbSpline
210
0.0
220
0.0
230
1.0
 70
    24
 71
     2
 72
     6
 73
     3
 74
     0
 42
0.0000000001
 43
0.0000000001
 40
0.0
 40
0.0
 40
0.0
 40
0.1879999959563996
 40
0.1879999959563996
 40
0.1879999959563996
 10
40.30088782499487
 20
0.3129808191120874
 30
0.0
 10
40.30081922175044
 20
0.2189808211338876
 30
0.0
 10
40.30075061850602
 20
0.1249808231556878
 30
0.0
  0
SPLINE
  5
78
330
1F
100
AcDbEntity
  8
48x48 B
100
AcDbSpline
210
0.0
220
0.0
230
1.0
 70
    12
 71
     2
 72
     6
 73
     3
 74
     0
 42
0.0000000001
 43
0.0000000001
 40
0.0
 40
0.0
 40
0.0
 40
0.196177336774579
 40
0.196177336774579
 40
0.196177336774579
 10
40.30075061850602
 20
0.1249808231556878
 30
0.0
 41
0.9999981189360231
 10
40.3011337197788
 20
0.0004497125113142
 30
0.0
 41
0.7099089247647571
 10
40.42587928707295
 20
-0.0000191768413391
 30
0.0
 41
1.0
  0
SPLINE
  5
79
330
1F
100
AcDbEntity
  8
48x48 B
100
AcDbSpline
210
0.0
220
0.0
230
1.0
 70
    24
 71
     2
 72
     6
 73
     3
 74
     0
 42
0.0000000001
 43
0.0000000001
 40
-2.523739648045471
 40
-2.523739648045471
 40
-2.523739648045471
 40
0.0
 40
0.0
 40
0.0
 10
40.42587928707295
 20
-0.0000191768413391
 30
0.0
 10
41.68785652394487
 20
-0.0000191768428252
 30
0.0
 10
42.9498337608168
 20
-0.0000191768443114
 30
0.0
  0
SPLINE
  5
7A
330
1F
100
AcDbEntity
  8
48x48 B
100
AcDbSpline
210
0.0
220
0.0
230
1.0
 70
    12
 71
     2
 72
     6
 73
     3
 74
     0
 42
0.0000000001
 43
0.0000000001
 40
0.0
 40
0.0
 40
0.0
 40
0.2094577803425973
 40
0.2094577803425973
 40
0.2094577803425973
 10
42.9498337608168
 20
-0.0000191768443114
 30
0.0
 41
1.0
 10
43.08192248470272
 20
-0.0069184379624319
 30
0.0
 41
0.7150454537347467
 10
43.09180255040499
 20
0.1249808231556896
 30
0.0
 41
1.0
  0
SPLINE
  5
7B
330
1F
100
AcDbEntity
  8
48x48 B
100
AcDbSpline
210
0.0
220
0.0
230
1.0
 70
    24
 71
     2
 72
     6
 73
     3
 74
     0
 42
0.0000000001
 43
0.0000000001
 40
0.0
 40
0.0
 40
0.0
 40
0.1879999959563978
 40
0.1879999959563978
 40
0.1879999959563978
 10
43.09180255040499
 20
0.1249808231556896
 30
0.0
 10
43.09180255040486
 20
0.2189808211338885
 30
0.0
 10
43.09180255040475
 20
0.3129808191120874
 30
0.0
  0
LINE
  5
7C
330
1F
100
AcDbEntity
  8
48x48 B
100
AcDbLine
 10
44.48107561459037
 20
40.81299999595639
 30
0.0
 11
41.47100715767857
 21
0.3130157075592905
 31
0.0
  0
LINE
  5
7D
330
1F
100
AcDbEntity
  8
48x48 B
100
AcDbLine
 10
45.55524897070099
 20
40.81298834977266
 30
0.0
 11
43.21720223683368
 21
40.81298879775099
 31
0.0
  0
POLYLINE
  5
7E
330
1F
100
AcDbEntity
  8
48x48 B
100
AcDb2dPolyline
 66
     1
 10
0.0
 20
0.0
 30
0.0
  0
VERTEX
  5
7F
330
7E
100
AcDbEntity
  8
48x48 B
100
AcDbVertex
100
AcDb2dVertex
 10
43.21720223683368
 20
40.81298879775099
 30
0.0
  0
VERTEX
  5
80
330
7E
100
AcDbEntity
  8
48x48 B
100
AcDbVertex
100
AcDb2dVertex
 10
40.20739869686278
 20
0.3129999959563436
 30
0.0
  0
VERTEX
  5
81
330
7E
100
AcDbEntity
  8
48x48 B
100
AcDbVertex
100
AcDb2dVertex
 10
43.26399219729418
 20
0.3129959327153419
 30
0.0
  0
VERTEX
  5
82
330
7E
100
AcDbEntity
  8
48x48 B
100
AcDbVertex
100
AcDb2dVertex
 10
46.45173425826967
 20
37.40169978788093
 30
0.0
  0
SEQEND
  5
83
330
7E
100
AcDbEntity
  8
48x48 B
  0
SPLINE
  5
84
330
1F
100
AcDbEntity
  8
48x48 B
100
AcDbSpline
210
0.0
220
0.0
230
1.0
 70
    24
 71
     2
 72
     6
 73
     3
 74
     0
 42
0.0000000001
 43
0.0000000001
 40
0.0
 40
0.0
 40
0.0
 40
0.752240804632124
 40
0.752240804632124
 40
0.752240804632124
 10
46.45173425826967
 20
37.40169978788093
 30
0.0
 10
46.08237540735082
 20
37.47294021515923
 30
0.0
 10
45.71301655643197
 20
37.54418064243752
 30
0.0
  0
SPLINE
  5
85
330
1F
100
AcDbEntity
  8
48x48 B
100
AcDbSpline
210
0.0
220
0.0
230
1.0
 70
    12
 71
     2
 72
     6
 73
     3
 74
     0
 42
0.0000000001
 43
0.0000000001
 40
0.0
 40
0.0
 40
0.0
 40
0.3033243459739306
 40
0.3033243459739306
 40
0.3033243459739306
 10
45.71301655643197
 20
37.54418064243752
 30
0.0
 41
1.0
 10
45.54460363028084
 20
37.60405639086327
 30
0.0
 41
0.788094268021899
 10
45.56191110872632
 20
37.7835907645341
 30
0.0
 41
1.0
  0
SPLINE
  5
86
330
1F
100
AcDbEntity
  8
48x48 B
100
AcDbSpline
210
0.0
220
0.0
230
1.0
 70
    24
 71
     2
 72
     6
 73
     3
 74
     0
 42
0.0000000001
 43
0.0000000001
 40
0.0
 40
0.0
 40
0.0
 40
3.027675901208182
 40
3.027675901208182
 40
3.027675901208182
 10
45.56191110872632
 20
37.7835907645341
 30
0.0
 10
45.55858003971366
 20
39.29828955715338
 30
0.0
 10
45.55524897070099
 20
40.81298834977266
 30
0.0
  0
SPLINE
  5
87
330
1F
100
AcDbEntity
  8
48x48 B
100
AcDbSpline
210
0.0
220
0.0
230
1.0
 70
    11
 71
     2
 72
    12
 73
     9
 74
     0
 42
0.0000000001
 43
0.0000000001
 40
0.0
 40
0.0
 40
0.0
 40
31.77560337649145
 40
31.77560337649145
 40
33.27560337649148
 40
33.27560337649148
 40
65.05120675298294
 40
65.05120675298294
 40
66.55120675298296
 40
66.55120675298296
 40
66.55120675298296
 10
47.45066552662365
 20
10.50099999595636
 30
0.0
 10
63.33565195048612
 20
10.50099999595636
 30
0.0
 10
79.2206383743486
 20
10.50099999595636
 30
0.0
 10
79.2206383743486
 20
11.25099999595638
 30
0.0
 10
79.2206383743486
 20
12.00099999595639
 30
0.0
 10
63.33565195048612
 20
12.00099999595639
 30
0.0
 10
47.45066552662365
 20
12.00099999595639
 30
0.0
 10
47.45066552662365
 20
11.25099999595638
 30
0.0
 10
47.45066552662365
 20
10.50099999595636
 30
0.0
  0
SPLINE
  5
88
330
1F
100
AcDbEntity
  8
48x48 B
100
AcDbSpline
210
0.0
220
0.0
230
1.0
 70
    11
 71
     2
 72
    12
 73
     9
 74
     0
 42
0.0000000001
 43
0.0000000001
 40
0.0
 40
0.0
 40
0.0
 40
1.500007284915587
 40
1.500007284915587
 40
4.565753021944529
 40
4.565753021944529
 40
6.07158168237236
 40
6.07158168237236
 40
9.005038703131103
 40
9.005038703131103
 40
9.005038703131103
 10
47.4506655265968
 20
12.00099999595639
 30
0.0
 10
47.45066552694634
 20
11.2509963534986
 30
0.0
 10
47.45066552729588
 20
10.50099271104081
 30
0.0
 10
45.91779265878141
 20
10.50099271032641
 30
0.0
 10
44.13976712553495
 20
10.50099270949777
 30
0.0
 10
44.20422507877063
 20
11.25099635210065
 30
0.0
 10
44.268683651072
 20
12.00099999458926
 30
0.0
 10
45.98393701621742
 20
12.00099999527283
 30
0.0
 10
47.4506655265968
 20
12.00099999595639
 30
0.0
  0
SPLINE
  5
89
330
1F
100
AcDbEntity
  8
48x48 B
100
AcDbSpline
210
0.0
220
0.0
230
1.0
 70
    11
 71
     2
 72
    12
 73
     9
 74
     0
 42
0.0000000001
 43
0.0000000001
 40
0.0
 40
0.0
 40
0.0
 40
1.500007284915587
 40
1.500007284915587
 40
4.565753021944529
 40
4.565753021944529
 40
6.07158168237236
 40
6.07158168237236
 40
9.005038703131103
 40
9.005038703131103
 40
9.005038703131103
 10
78.97296199465508
 20
12.00099999595639
 30
0.0
 10
78.97296199430554
 20
11.2509963534986
 30
0.0
 10
78.972961993956
 20
10.50099271104081
 30
0.0
 10
80.50583486247046
 20
10.50099271032641
 30
0.0
 10
82.28386039571693
 20
10.50099270949777
 30
0.0
 10
82.21940244248124
 20
11.25099635210065
 30
0.0
 10
82.15494387017988
 20
12.00099999458926
 30
0.0
 10
80.43969050503445
 20
12.00099999527283
 30
0.0
 10
78.97296199465508
 20
12.00099999595639
 30
0.0
  0
POLYLINE
  5
8A
330
1F
100
AcDbEntity
  8
48x48 B
100
AcDb2dPolyline
 66
     1
 10
0.0
 20
0.0
 30
0.0
  0
VERTEX
  5
8B
330
8A
100
AcDbEntity
  8
48x48 B
100
AcDbVertex
100
AcDb2dVertex
 10
83.33182497084712
 20
0.3129808191120874
 30
0.0
  0
VERTEX
  5
8C
330
8A
100
AcDbEntity
  8
48x48 B
100
AcDbVertex
100
AcDb2dVertex
 10
86.122739696257
 20
0.3129808191120874
 30
0.0
  0
SEQEND
  5
8D
330
8A
100
AcDbEntity
  8
48x48 B
  0
SPLINE
  5
8E
330
1F
100
AcDbEntity
  8
48x48 B
100
AcDbSpline
210
0.0
220
0.0
230
1.0
 70
    24
 71
     2
 72
     6
 73
     3
 74
     0
 42
0.0000000001
 43
0.0000000001
 40
0.0
 40
0.0
 40
0.0
 40
0.1879999959563996
 40
0.1879999959563996
 40
0.1879999959563996
 10
86.122739696257
 20
0.3129808191120874
 30
0.0
 10
86.12280829950143
 20
0.2189808211338876
 30
0.0
 10
86.12287690274584
 20
0.1249808231556878
 30
0.0
  0
SPLINE
  5
8F
330
1F
100
AcDbEntity
  8
48x48 B
100
AcDbSpline
210
0.0
220
0.0
230
1.0
 70
    12
 71
     2
 72
     6
 73
     3
 74
     0
 42
0.0000000001
 43
0.0000000001
 40
0.0
 40
0.0
 40
0.0
 40
0.196177336774579
 40
0.196177336774579
 40
0.196177336774579
 10
86.12287690274586
 20
0.1249808231556878
 30
0.0
 41
0.9999981189360231
 10
86.12249380147308
 20
0.0004497125113142
 30
0.0
 41
0.7099089247647571
 10
85.99774823417891
 20
-0.0000191768413391
 30
0.0
 41
1.0
  0
SPLINE
  5
90
330
1F
100
AcDbEntity
  8
48x48 B
100
AcDbSpline
210
0.0
220
0.0
230
1.0
 70
    24
 71
     2
 72
     6
 73
     3
 74
     0
 42
0.0000000001
 43
0.0000000001
 40
-2.523739648045471
 40
-2.523739648045471
 40
-2.523739648045471
 40
0.0
 40
0.0
 40
0.0
 10
85.99774823417891
 20
-0.0000191768413391
 30
0.0
 10
84.73577099730699
 20
-0.0000191768428252
 30
0.0
 10
83.47379376043507
 20
-0.0000191768443114
 30
0.0
  0
SPLINE
  5
91
330
1F
100
AcDbEntity
  8
48x48 B
100
AcDbSpline
210
0.0
220
0.0
230
1.0
 70
    12
 71
     2
 72
     6
 73
     3
 74
     0
 42
0.0000000001
 43
0.0000000001
 40
0.0
 40
0.0
 40
0.0
 40
0.2094577803425973
 40
0.2094577803425973
 40
0.2094577803425973
 10
83.47379376043507
 20
-0.0000191768443114
 30
0.0
 41
1.0
 10
83.34170503654916
 20
-0.0069184379624319
 30
0.0
 41
0.7150454537347467
 10
83.3318249708469
 20
0.1249808231556896
 30
0.0
 41
1.0
  0
SPLINE
  5
92
330
1F
100
AcDbEntity
  8
48x48 B
100
AcDbSpline
210
0.0
220
0.0
230
1.0
 70
    24
 71
     2
 72
     6
 73
     3
 74
     0
 42
0.0000000001
 43
0.0000000001
 40
0.0
 40
0.0
 40
0.0
 40
0.1879999959563978
 40
0.1879999959563978
 40
0.1879999959563978
 10
83.3318249708469
 20
0.1249808231556896
 30
0.0
 10
83.33182497084701
 20
0.2189808211338885
 30
0.0
 10
83.33182497084712
 20
0.3129808191120874
 30
0.0
  0
LINE
  5
93
330
1F
100
AcDbEntity
  8
48x48 B
100
AcDbLine
 10
81.9425519066615
 20
40.81299999595639
 30
0.0
 11
84.9526203635733
 21
0.3130157075592905
 31
0.0
  0
LINE
  5
94
330
1F
100
AcDbEntity
  8
48x48 B
100
AcDbLine
 10
80.86837855055089
 20
40.81298834977266
 30
0.0
 11
83.2064252844182
 21
40.81298879775099
 31
0.0
  0
POLYLINE
  5
95
330
1F
100
AcDbEntity
  8
48x48 B
100
AcDb2dPolyline
 66
     1
 10
0.0
 20
0.0
 30
0.0
  0
VERTEX
  5
96
330
95
100
AcDbEntity
  8
48x48 B
100
AcDbVertex
100
AcDb2dVertex
 10
83.2064252844182
 20
40.81298879775099
 30
0.0
  0
VERTEX
  5
97
330
95
100
AcDbEntity
  8
48x48 B
100
AcDbVertex
100
AcDb2dVertex
 10
86.21622882438909
 20
0.3129999959563436
 30
0.0
  0
VERTEX
  5
98
330
95
100
AcDbEntity
  8
48x48 B
100
AcDbVertex
100
AcDb2dVertex
 10
83.1596353239577
 20
0.3129959327153419
 30
0.0
  0
VERTEX
  5
99
330
95
100
AcDbEntity
  8
48x48 B
100
AcDbVertex
100
AcDb2dVertex
 10
79.9718932629822
 20
37.40169978788093
 30
0.0
  0
SEQEND
  5
9A
330
95
100
AcDbEntity
  8
48x48 B
  0
SPLINE
  5
9B
330
1F
100
AcDbEntity
  8
48x48 B
100
AcDbSpline
210
0.0
220
0.0
230
1.0
 70
    24
 71
     2
 72
     6
 73
     3
 74
     0
 42
0.0000000001
 43
0.0000000001
 40
0.0
 40
0.0
 40
0.0
 40
0.752240804632124
 40
0.752240804632124
 40
0.752240804632124
 10
79.9718932629822
 20
37.40169978788093
 30
0.0
 10
80.34125211390105
 20
37.47294021515923
 30
0.0
 10
80.7106109648199
 20
37.54418064243752
 30
0.0
  0
SPLINE
  5
9C
330
1F
100
AcDbEntity
  8
48x48 B
100
AcDbSpline
210
0.0
220
0.0
230
1.0
 70
    12
 71
     2
 72
     6
 73
     3
 74
     0
 42
0.0000000001
 43
0.0000000001
 40
0.0
 40
0.0
 40
0.0
 40
0.3033243459739306
 40
0.3033243459739306
 40
0.3033243459739306
 10
80.7106109648199
 20
37.54418064243752
 30
0.0
 41
1.0
 10
80.87902389097104
 20
37.60405639086327
 30
0.0
 41
0.788094268021899
 10
80.86171641252555
 20
37.7835907645341
 30
0.0
 41
1.0
  0
SPLINE
  5
9D
330
1F
100
AcDbEntity
  8
48x48 B
100
AcDbSpline
210
0.0
220
0.0
230
1.0
 70
    24
 71
     2
 72
     6
 73
     3
 74
     0
 42
0.0000000001
 43
0.0000000001
 40
0.0
 40
0.0
 40
0.0
 40
3.027675901208182
 40
3.027675901208182
 40
3.027675901208182
 10
80.86171641252555
 20
37.7835907645341
 30
0.0
 10
80.86504748153823
 20
39.29828955715338
 30
0.0
 10
80.86837855055089
 20
40.81298834977266
 30
0.0
  0
POLYLINE
  5
9E
330
1F
100
AcDbEntity
  8
48x48 B
100
AcDb2dPolyline
 66
     1
 10
0.0
 20
0.0
 30
0.0
  0
VERTEX
  5
9F
330
9E
100
AcDbEntity
  8
48x48 B
100
AcDbVertex
100
AcDb2dVertex
 10
-14.43269374181244
 20
40.81299999595639
 30
0.0
  0
VERTEX
  5
A0
330
9E
100
AcDbEntity
  8
48x48 B
100
AcDbVertex
100
AcDb2dVertex
 10
-17.60850329009989
 20
40.81299999595639
 30
0.0
  0
SEQEND
  5
A1
330
9E
100
AcDbEntity
  8
48x48 B
  0
SPLINE
  5
A2
330
1F
100
AcDbEntity
  8
48x48 B
100
AcDbSpline
210
0.0
220
0.0
230
1.0
 70
    24
 71
     2
 72
     6
 73
     3
 74
     0
 42
0.0000000001
 43
0.0000000001
 40
-3.024074093290999
 40
-3.024074093290999
 40
-3.024074093290999
 40
0.0
 40
0.0
 40
0.0
 10
-17.60850329009989
 20
40.81299999595639
 30
0.0
 10
-17.60850329009989
 20
39.30096294931089
 30
0.0
 10
-17.60850329009989
 20
37.78892590266539
 30
0.0
  0
SPLINE
  5
A3
330
1F
100
AcDbEntity
  8
48x48 B
100
AcDbSpline
210
0.0
220
0.0
230
1.0
 70
    12
 71
     2
 72
     6
 73
     3
 74
     0
 42
0.0000000001
 43
0.0000000001
 40
-0.2374369369881551
 40
-0.2374369369881551
 40
-0.2374369369881551
 40
0.0
 40
0.0
 40
0.0
 10
-17.60850329009989
 20
37.78892590266539
 30
0.0
 41
1.0
 10
-17.62245795430829
 20
37.64968472412696
 30
0.0
 41
0.7873178403761734
 10
-17.49062287962881
 20
37.60275550574225
 30
0.0
 41
1.0
  0
SPLINE
  5
A4
330
1F
100
AcDbEntity
  8
48x48 B
100
AcDbSpline
210
0.0
220
0.0
230
1.0
 70
    24
 71
     2
 72
     6
 73
     3
 74
     0
 42
0.0000000001
 43
0.0000000001
 40
-0.752296812481594
 40
-0.752296812481594
 40
-0.752296812481594
 40
0.0
 40
0.0
 40
0.0
 10
-17.49062287962881
 20
37.60275550574225
 30
0.0
 10
-17.12128647238285
 20
37.53149372215431
 30
0.0
 10
-16.75195006513688
 20
37.46023193856636
 30
0.0
  0
SPLINE
  5
A5
330
1F
100
AcDbEntity
  8
48x48 B
100
AcDbSpline
210
0.0
220
0.0
230
1.0
 70
    24
 71
     2
 72
     6
 73
     3
 74
     0
 42
0.0000000001
 43
0.0000000001
 40
-2.450198664559965
 40
-2.450198664559965
 40
-2.450198664559965
 40
0.0
 40
0.0
 40
0.0
 10
-16.75195006513688
 20
37.46023193856636
 30
0.0
 10
-15.59232190347466
 20
37.85542846726138
 30
0.0
 10
-14.43269374181244
 20
38.25062499595639
 30
0.0
  0
SPLINE
  5
A6
330
1F
100
AcDbEntity
  8
48x48 B
100
AcDbSpline
210
0.0
220
0.0
230
1.0
 70
    24
 71
     2
 72
     6
 73
     3
 74
     0
 42
0.0000000001
 43
0.0000000001
 40
-2.562249999999999
 40
-2.562249999999999
 40
-2.562249999999999
 40
0.0
 40
0.0
 40
0.0
 10
-14.43269374181244
 20
38.25062499595639
 30
0.0
 10
-14.43269374181244
 20
39.53181249595639
 30
0.0
 10
-14.43269374181244
 20
40.81299999595639
 30
0.0
  0
POLYLINE
  5
A7
330
1F
100
AcDbEntity
  8
48x48 B
100
AcDb2dPolyline
 66
     1
 10
0.0
 20
0.0
 30
0.0
  0
VERTEX
  5
A8
330
A7
100
AcDbEntity
  8
48x48 B
100
AcDbVertex
100
AcDb2dVertex
 10
14.43269374181244
 20
40.81299999595639
 30
0.0
  0
VERTEX
  5
A9
330
A7
100
AcDbEntity
  8
48x48 B
100
AcDbVertex
100
AcDb2dVertex
 10
17.60850329009989
 20
40.81299999595639
 30
0.0
  0
SEQEND
  5
AA
330
A7
100
AcDbEntity
  8
48x48 B
  0
SPLINE
  5
AB
330
1F
100
AcDbEntity
  8
48x48 B
100
AcDbSpline
210
0.0
220
0.0
230
1.0
 70
    24
 71
     2
 72
     6
 73
     3
 74
     0
 42
0.0000000001
 43
0.0000000001
 40
-3.024074093290999
 40
-3.024074093290999
 40
-3.024074093290999
 40
0.0
 40
0.0
 40
0.0
 10
17.60850329009989
 20
40.81299999595639
 30
0.0
 10
17.60850329009989
 20
39.30096294931089
 30
0.0
 10
17.60850329009989
 20
37.78892590266539
 30
0.0
  0
SPLINE
  5
AC
330
1F
100
AcDbEntity
  8
48x48 B
100
AcDbSpline
210
0.0
220
0.0
230
1.0
 70
    12
 71
     2
 72
     6
 73
     3
 74
     0
 42
0.0000000001
 43
0.0000000001
 40
-0.2374369369881551
 40
-0.2374369369881551
 40
-0.2374369369881551
 40
0.0
 40
0.0
 40
0.0
 10
17.60850329009989
 20
37.78892590266539
 30
0.0
 41
1.0
 10
17.62245795430829
 20
37.64968472412696
 30
0.0
 41
0.7873178403761734
 10
17.49062287962881
 20
37.60275550574225
 30
0.0
 41
1.0
  0
SPLINE
  5
AD
330
1F
100
AcDbEntity
  8
48x48 B
100
AcDbSpline
210
0.0
220
0.0
230
1.0
 70
    24
 71
     2
 72
     6
 73
     3
 74
     0
 42
0.0000000001
 43
0.0000000001
 40
-0.752296812481594
 40
-0.752296812481594
 40
-0.752296812481594
 40
0.0
 40
0.0
 40
0.0
 10
17.49062287962881
 20
37.60275550574225
 30
0.0
 10
17.12128647238285
 20
37.53149372215431
 30
0.0
 10
16.75195006513688
 20
37.46023193856636
 30
0.0
  0
SPLINE
  5
AE
330
1F
100
AcDbEntity
  8
48x48 B
100
AcDbSpline
210
0.0
220
0.0
230
1.0
 70
    24
 71
     2
 72
     6
 73
     3
 74
     0
 42
0.0000000001
 43
0.0000000001
 40
-2.450198664559965
 40
-2.450198664559965
 40
-2.450198664559965
 40
0.0
 40
0.0
 40
0.0
 10
16.75195006513688
 20
37.46023193856636
 30
0.0
 10
15.59232190347466
 20
37.85542846726138
 30
0.0
 10
14.43269374181244
 20
38.25062499595639
 30
0.0
  0
SPLINE
  5
AF
330
1F
100
AcDbEntity
  8
48x48 B
100
AcDbSpline
210
0.0
220
0.0
230
1.0
 70
    24
 71
     2
 72
     6
 73
     3
 74
     0
 42
0.0000000001
 43
0.0000000001
 40
-2.562249999999999
 40
-2.562249999999999
 40
-2.562249999999999
 40
0.0
 40
0.0
 40
0.0
 10
14.43269374181244
 20
38.25062499595639
 30
0.0
 10
14.43269374181244
 20
39.53181249595639
 30
0.0
 10
14.43269374181244
 20
40.81299999595639
 30
0.0
  0
POLYLINE
  5
B0
330
1F
100
AcDbEntity
  8
48x48 B
100
AcDb2dPolyline
 66
     1
 10
0.0
 20
0.0
 30
0.0
  0
VERTEX
  5
B1
330
B0
100
AcDbEntity
  8
48x48 B
100
AcDbVertex
100
AcDb2dVertex
 10
-14.43269374181244
 20
41.00099999595639
 30
0.0
  0
VERTEX
  5
B2
330
B0
100
AcDbEntity
  8
48x48 B
100
AcDbVertex
100
AcDb2dVertex
 10
14.43269374181244
 20
41.00099999595639
 30
0.0
  0
VERTEX
  5
B3
330
B0
100
AcDbEntity
  8
48x48 B
100
AcDbVertex
100
AcDb2dVertex
 10
14.43269374181244
 20
38.25074999595639
 30
0.0
  0
VERTEX
  5
B4
330
B0
100
AcDbEntity
  8
48x48 B
100
AcDbVertex
100
AcDb2dVertex
 10
-14.43269374181244
 20
38.25074999595639
 30
0.0
  0
VERTEX
  5
B5
330
B0
100
AcDbEntity
  8
48x48 B
100
AcDbVertex
100
AcDb2dVertex
 10
-14.43269374181244
 20
41.00099999595639
 30
0.0
  0
SEQEND
  5
B6
330
B0
100
AcDbEntity
  8
48x48 B
  0
POLYLINE
  5
B7
330
1F
100
AcDbEntity
  8
48x48 B
100
AcDb2dPolyline
 66
     1
 10
0.0
 20
0.0
 30
0.0
  0
VERTEX
  5
B8
330
B7
100
AcDbEntity
  8
48x48 B
100
AcDbVertex
100
AcDb2dVertex
 10
-14.43269374181244
 20
40.81299999595639
 30
0.0
  0
VERTEX
  5
B9
330
B7
100
AcDbEntity
  8
48x48 B
100
AcDbVertex
100
AcDb2dVertex
 10
-21.81432923530573
 20
40.81299999595639
 30
0.0
  0
VERTEX
  5
BA
330
B7
100
AcDbEntity
  8
48x48 B
100
AcDbVertex
100
AcDb2dVertex
 10
-21.81432923530573
 20
41.00099999595639
 30
0.0
  0
VERTEX
  5
BB
330
B7
100
AcDbEntity
  8
48x48 B
100
AcDbVertex
100
AcDb2dVertex
 10
-14.43269374181244
 20
41.00099999595639
 30
0.0
  0
VERTEX
  5
BC
330
B7
100
AcDbEntity
  8
48x48 B
100
AcDbVertex
100
AcDb2dVertex
 10
-14.43269374181244
 20
40.81299999595639
 30
0.0
  0
SEQEND
  5
BD
330
B7
100
AcDbEntity
  8
48x48 B
  0
POLYLINE
  5
BE
330
1F
100
AcDbEntity
  8
48x48 B
100
AcDb2dPolyline
 66
     1
 10
0.0
 20
0.0
 30
0.0
  0
VERTEX
  5
BF
330
BE
100
AcDbEntity
  8
48x48 B
100
AcDbVertex
100
AcDb2dVertex
 10
14.43269374181244
 20
40.81299999595639
 30
0.0
  0
VERTEX
  5
C0
330
BE
100
AcDbEntity
  8
48x48 B
100
AcDbVertex
100
AcDb2dVertex
 10
21.81432923530573
 20
40.81299999595639
 30
0.0
  0
VERTEX
  5
C1
330
BE
100
AcDbEntity
  8
48x48 B
100
AcDbVertex
100
AcDb2dVertex
 10
21.81432923530573
 20
41.00099999595639
 30
0.0
  0
VERTEX
  5
C2
330
BE
100
AcDbEntity
  8
48x48 B
100
AcDbVertex
100
AcDb2dVertex
 10
14.43269374181244
 20
41.00099999595639
 30
0.0
  0
VERTEX
  5
C3
330
BE
100
AcDbEntity
  8
48x48 B
100
AcDbVertex
100
AcDb2dVertex
 10
14.43269374181244
 20
40.81299999595639
 30
0.0
  0
SEQEND
  5
C4
330
BE
100
AcDbEntity
  8
48x48 B
  0
LINE
  5
C5
330
1F
100
AcDbEntity
  8
48x48 B
100
AcDbLine
 10
-23.99393236291932
 20
42.0009999959564
 30
0.0
 11
24.0
 21
42.00099999595628
 31
0.0
  0
SPLINE
  5
C6
330
1F
100
AcDbEntity
  8
48x48 B
100
AcDbSpline
210
0.0
220
0.0
230
1.0
 70
    24
 71
     2
 72
     6
 73
     3
 74
     0
 42
0.0000000001
 43
0.0000000001
 40
0.0
 40
0.0
 40
0.0
 40
0.3130000001979454
 40
0.3130000001979454
 40
0.3130000001979454
 10
24.0
 20
42.00099999595628
 30
0.0
 10
23.99875402007749
 20
41.84391898592749
 30
0.0
 10
23.99750804015498
 20
41.6868379758987
 30
0.0
  0
SPLINE
  5
C7
330
1F
100
AcDbEntity
  8
48x48 B
100
AcDbSpline
210
0.0
220
0.0
230
1.0
 70
    24
 71
     2
 72
     6
 73
     3
 74
     0
 42
0.0000000001
 43
0.0000000001
 40
0.0
 40
0.0
 40
0.0
 40
1.620081340891578
 40
1.620081340891578
 40
1.620081340891578
 10
23.99750804015498
 20
41.6868379758987
 30
0.0
 10
23.26211589287884
 20
41.34391898592663
 30
0.0
 10
22.5267237456027
 20
41.00099999595455
 30
0.0
  0
SPLINE
  5
C8
330
1F
100
AcDbEntity
  8
48x48 B
100
AcDbSpline
210
0.0
220
0.0
230
1.0
 70
    24
 71
     2
 72
     6
 73
     3
 74
     0
 42
0.0000000001
 43
0.0000000001
 40
-0.0267237456027019
 40
-0.0267237456027019
 40
-0.0267237456027019
 40
0.0
 40
0.0
 40
0.0
 10
22.5267237456027
 20
41.00099999595455
 30
0.0
 10
22.51336187280135
 20
41.00099999595579
 30
0.0
 10
22.5
 20
41.00099999595704
 30
0.0
  0
SPLINE
  5
C9
330
1F
100
AcDbEntity
  8
48x48 B
100
AcDbSpline
210
0.0
220
0.0
230
1.0
 70
    24
 71
     2
 72
     6
 73
     3
 74
     0
 42
0.0000000001
 43
0.0000000001
 40
-45.0
 40
-45.0
 40
-45.0
 40
0.0
 40
0.0
 40
0.0
 10
22.5
 20
41.00099999595704
 30
0.0
 10
0.0
 20
41.00099999595704
 30
0.0
 10
-22.5
 20
41.00099999595704
 30
0.0
  0
SPLINE
  5
CA
330
1F
100
AcDbEntity
  8
48x48 B
100
AcDbSpline
210
0.0
220
0.0
230
1.0
 70
    24
 71
     2
 72
     6
 73
     3
 74
     0
 42
0.0000000001
 43
0.0000000001
 40
-0.0267237456096723
 40
-0.0267237456096723
 40
-0.0267237456096723
 40
0.0
 40
0.0
 40
0.0
 10
-22.5
 20
41.00099999595704
 30
0.0
 10
-22.51336187280484
 20
41.00099999595704
 30
0.0
 10
-22.52672374560967
 20
41.00099999595704
 30
0.0
  0
SPLINE
  5
CB
330
1F
100
AcDbEntity
  8
48x48 B
100
AcDbSpline
210
0.0
220
0.0
230
1.0
 70
    24
 71
     2
 72
     6
 73
     3
 74
     0
 42
0.0000000001
 43
0.0000000001
 40
-1.620081340890597
 40
-1.620081340890597
 40
-1.620081340890597
 40
0.0
 40
0.0
 40
0.0
 10
-22.52672374560967
 20
41.00099999595704
 30
0.0
 10
-23.2621158929277
 20
41.34391898599839
 30
0.0
 10
-23.99750804024573
 20
41.68683797603973
 30
0.0
  0
SPLINE
  5
CC
330
1F
100
AcDbEntity
  8
48x48 B
100
AcDbSpline
210
0.0
220
0.0
230
1.0
 70
    24
 71
     2
 72
     6
 73
     3
 74
     0
 42
0.0000000001
 43
0.0000000001
 40
-0.3129999999995334
 40
-0.3129999999995334
 40
-0.3129999999995334
 40
0.0
 40
0.0
 40
0.0
 10
-23.99750804024573
 20
41.68683797603973
 30
0.0
 10
-23.99875402012286
 20
41.84391898599806
 30
0.0
 10
-24.0
 20
42.00099999595639
 30
0.0
  0
POLYLINE
  5
CD
330
1F
100
AcDbEntity
  8
48x48 B
100
AcDb2dPolyline
 66
     1
 10
0.0
 20
0.0
 30
0.0
  0
VERTEX
  5
CE
330
CD
100
AcDbEntity
  8
48x48 B
100
AcDbVertex
100
AcDb2dVertex
 10
-20.12001121022119
 20
0.3129808191120874
 30
0.0
  0
VERTEX
  5
CF
330
CD
100
AcDbEntity
  8
48x48 B
100
AcDbVertex
100
AcDb2dVertex
 10
-22.91092593563106
 20
0.3129808191120874
 30
0.0
  0
SEQEND
  5
D0
330
CD
100
AcDbEntity
  8
48x48 B
  0
SPLINE
  5
D1
330
1F
100
AcDbEntity
  8
48x48 B
100
AcDbSpline
210
0.0
220
0.0
230
1.0
 70
    24
 71
     2
 72
     6
 73
     3
 74
     0
 42
0.0000000001
 43
0.0000000001
 40
0.0
 40
0.0
 40
0.0
 40
0.1879999959563996
 40
0.1879999959563996
 40
0.1879999959563996
 10
-22.91092593563106
 20
0.3129808191120874
 30
0.0
 10
-22.91099453887549
 20
0.2189808211338876
 30
0.0
 10
-22.91106314211991
 20
0.1249808231556878
 30
0.0
  0
SPLINE
  5
D2
330
1F
100
AcDbEntity
  8
48x48 B
100
AcDbSpline
210
0.0
220
0.0
230
1.0
 70
    12
 71
     2
 72
     6
 73
     3
 74
     0
 42
0.0000000001
 43
0.0000000001
 40
0.0
 40
0.0
 40
0.0
 40
0.196177336774579
 40
0.196177336774579
 40
0.196177336774579
 10
-22.91106314211991
 20
0.1249808231556878
 30
0.0
 41
0.9999981189360231
 10
-22.91068004084714
 20
0.0004497125113142
 30
0.0
 41
0.7099089247647571
 10
-22.78593447355298
 20
-0.0000191768413391
 30
0.0
 41
1.0
  0
SPLINE
  5
D3
330
1F
100
AcDbEntity
  8
48x48 B
100
AcDbSpline
210
0.0
220
0.0
230
1.0
 70
    24
 71
     2
 72
     6
 73
     3
 74
     0
 42
0.0000000001
 43
0.0000000001
 40
-2.523739648045471
 40
-2.523739648045471
 40
-2.523739648045471
 40
0.0
 40
0.0
 40
0.0
 10
-22.78593447355298
 20
-0.0000191768413391
 30
0.0
 10
-21.52395723668106
 20
-0.0000191768428252
 30
0.0
 10
-20.26197999980914
 20
-0.0000191768443114
 30
0.0
  0
SPLINE
  5
D4
330
1F
100
AcDbEntity
  8
48x48 B
100
AcDbSpline
210
0.0
220
0.0
230
1.0
 70
    12
 71
     2
 72
     6
 73
     3
 74
     0
 42
0.0000000001
 43
0.0000000001
 40
0.0
 40
0.0
 40
0.0
 40
0.2094577803425973
 40
0.2094577803425973
 40
0.2094577803425973
 10
-20.26197999980914
 20
-0.0000191768443114
 30
0.0
 41
1.0
 10
-20.12989127592322
 20
-0.0069184379624319
 30
0.0
 41
0.7150454537347467
 10
-20.12001121022095
 20
0.1249808231556896
 30
0.0
 41
1.0
  0
SPLINE
  5
D5
330
1F
100
AcDbEntity
  8
48x48 B
100
AcDbSpline
210
0.0
220
0.0
230
1.0
 70
    24
 71
     2
 72
     6
 73
     3
 74
     0
 42
0.0000000001
 43
0.0000000001
 40
0.0
 40
0.0
 40
0.0
 40
0.1879999959563978
 40
0.1879999959563978
 40
0.1879999959563978
 10
-20.12001121022095
 20
0.1249808231556896
 30
0.0
 10
-20.12001121022107
 20
0.2189808211338885
 30
0.0
 10
-20.12001121022119
 20
0.3129808191120874
 30
0.0
  0
LINE
  5
D6
330
1F
100
AcDbEntity
  8
48x48 B
100
AcDbLine
 10
-18.73073814603557
 20
40.81299999595639
 30
0.0
 11
-21.74080660294737
 21
0.3130157075592905
 31
0.0
  0
LINE
  5
D7
330
1F
100
AcDbEntity
  8
48x48 B
100
AcDbLine
 10
-17.65656478992494
 20
40.81298834977266
 30
0.0
 11
-19.99461152379226
 21
40.81298879775099
 31
0.0
  0
POLYLINE
  5
D8
330
1F
100
AcDbEntity
  8
48x48 B
100
AcDb2dPolyline
 66
     1
 10
0.0
 20
0.0
 30
0.0
  0
VERTEX
  5
D9
330
D8
100
AcDbEntity
  8
48x48 B
100
AcDbVertex
100
AcDb2dVertex
 10
-19.99461152379226
 20
40.81298879775099
 30
0.0
  0
VERTEX
  5
DA
330
D8
100
AcDbEntity
  8
48x48 B
100
AcDbVertex
100
AcDb2dVertex
 10
-23.00441506376315
 20
0.3129999959563436
 30
0.0
  0
VERTEX
  5
DB
330
D8
100
AcDbEntity
  8
48x48 B
100
AcDbVertex
100
AcDb2dVertex
 10
-19.94782156333176
 20
0.3129959327153419
 30
0.0
  0
VERTEX
  5
DC
330
D8
100
AcDbEntity
  8
48x48 B
100
AcDbVertex
100
AcDb2dVertex
 10
-16.76007950235627
 20
37.40169978788093
 30
0.0
  0
SEQEND
  5
DD
330
D8
100
AcDbEntity
  8
48x48 B
  0
SPLINE
  5
DE
330
1F
100
AcDbEntity
  8
48x48 B
100
AcDbSpline
210
0.0
220
0.0
230
1.0
 70
    24
 71
     2
 72
     6
 73
     3
 74
     0
 42
0.0000000001
 43
0.0000000001
 40
0.0
 40
0.0
 40
0.0
 40
0.752240804632124
 40
0.752240804632124
 40
0.752240804632124
 10
-16.76007950235627
 20
37.40169978788093
 30
0.0
 10
-17.12943835327512
 20
37.47294021515923
 30
0.0
 10
-17.49879720419397
 20
37.54418064243752
 30
0.0
  0
SPLINE
  5
DF
330
1F
100
AcDbEntity
  8
48x48 B
100
AcDbSpline
210
0.0
220
0.0
230
1.0
 70
    12
 71
     2
 72
     6
 73
     3
 74
     0
 42
0.0000000001
 43
0.0000000001
 40
0.0
 40
0.0
 40
0.0
 40
0.3033243459739306
 40
0.3033243459739306
 40
0.3033243459739306
 10
-17.49879720419397
 20
37.54418064243752
 30
0.0
 41
1.0
 10
-17.6672101303451
 20
37.60405639086327
 30
0.0
 41
0.788094268021899
 10
-17.64990265189962
 20
37.7835907645341
 30
0.0
 41
1.0
  0
SPLINE
  5
E0
330
1F
100
AcDbEntity
  8
48x48 B
100
AcDbSpline
210
0.0
220
0.0
230
1.0
 70
    24
 71
     2
 72
     6
 73
     3
 74
     0
 42
0.0000000001
 43
0.0000000001
 40
0.0
 40
0.0
 40
0.0
 40
3.027675901208182
 40
3.027675901208182
 40
3.027675901208182
 10
-17.64990265189962
 20
37.7835907645341
 30
0.0
 10
-17.65323372091228
 20
39.29828955715338
 30
0.0
 10
-17.65656478992494
 20
40.81298834977266
 30
0.0
  0
SPLINE
  5
E1
330
1F
100
AcDbEntity
  8
48x48 B
100
AcDbSpline
210
0.0
220
0.0
230
1.0
 70
    11
 71
     2
 72
    12
 73
     9
 74
     0
 42
0.0000000001
 43
0.0000000001
 40
0.0
 40
0.0
 40
0.0
 40
31.77560337649145
 40
31.77560337649145
 40
33.27560337649148
 40
33.27560337649148
 40
65.05120675298294
 40
65.05120675298294
 40
66.55120675298296
 40
66.55120675298296
 40
66.55120675298296
 10
-15.76114823400228
 20
10.50099999595636
 30
0.0
 10
0.1238381898601864
 20
10.50099999595636
 30
0.0
 10
16.00882461372266
 20
10.50099999595636
 30
0.0
 10
16.00882461372266
 20
11.25099999595638
 30
0.0
 10
16.00882461372266
 20
12.00099999595639
 30
0.0
 10
0.1238381898601864
 20
12.00099999595639
 30
0.0
 10
-15.76114823400228
 20
12.00099999595639
 30
0.0
 10
-15.76114823400228
 20
11.25099999595638
 30
0.0
 10
-15.76114823400228
 20
10.50099999595636
 30
0.0
  0
SPLINE
  5
E2
330
1F
100
AcDbEntity
  8
48x48 B
100
AcDbSpline
210
0.0
220
0.0
230
1.0
 70
    11
 71
     2
 72
    12
 73
     9
 74
     0
 42
0.0000000001
 43
0.0000000001
 40
0.0
 40
0.0
 40
0.0
 40
1.500007284915587
 40
1.500007284915587
 40
4.565753021944529
 40
4.565753021944529
 40
6.07158168237236
 40
6.07158168237236
 40
9.005038703131103
 40
9.005038703131103
 40
9.005038703131103
 10
-15.76114823402914
 20
12.00099999595639
 30
0.0
 10
-15.7611482336796
 20
11.2509963534986
 30
0.0
 10
-15.76114823333006
 20
10.50099271104081
 30
0.0
 10
-17.29402110184453
 20
10.50099271032641
 30
0.0
 10
-19.072046635091
 20
10.50099270949777
 30
0.0
 10
-19.0075886818553
 20
11.25099635210065
 30
0.0
 10
-18.94313010955394
 20
12.00099999458926
 30
0.0
 10
-17.22787674440851
 20
12.00099999527283
 30
0.0
 10
-15.76114823402914
 20
12.00099999595639
 30
0.0
  0
SPLINE
  5
E3
330
1F
100
AcDbEntity
  8
48x48 B
100
AcDbSpline
210
0.0
220
0.0
230
1.0
 70
    11
 71
     2
 72
    12
 73
     9
 74
     0
 42
0.0000000001
 43
0.0000000001
 40
0.0
 40
0.0
 40
0.0
 40
1.500007284915587
 40
1.500007284915587
 40
4.565753021944529
 40
4.565753021944529
 40
6.07158168237236
 40
6.07158168237236
 40
9.005038703131103
 40
9.005038703131103
 40
9.005038703131103
 10
15.76114823402914
 20
12.00099999595639
 30
0.0
 10
15.7611482336796
 20
11.2509963534986
 30
0.0
 10
15.76114823333006
 20
10.50099271104081
 30
0.0
 10
17.29402110184453
 20
10.50099271032641
 30
0.0
 10
19.072046635091
 20
10.50099270949777
 30
0.0
 10
19.0075886818553
 20
11.25099635210065
 30
0.0
 10
18.94313010955394
 20
12.00099999458926
 30
0.0
 10
17.22787674440851
 20
12.00099999527283
 30
0.0
 10
15.76114823402914
 20
12.00099999595639
 30
0.0
  0
POLYLINE
  5
E4
330
1F
100
AcDbEntity
  8
48x48 B
100
AcDb2dPolyline
 66
     1
 10
0.0
 20
0.0
 30
0.0
  0
VERTEX
  5
E5
330
E4
100
AcDbEntity
  8
48x48 B
100
AcDbVertex
100
AcDb2dVertex
 10
20.12001121022119
 20
0.3129808191120874
 30
0.0
  0
VERTEX
  5
E6
330
E4
100
AcDbEntity
  8
48x48 B
100
AcDbVertex
100
AcDb2dVertex
 10
22.91092593563106
 20
0.3129808191120874
 30
0.0
  0
SEQEND
  5
E7
330
E4
100
AcDbEntity
  8
48x48 B
  0
SPLINE
  5
E8
330
1F
100
AcDbEntity
  8
48x48 B
100
AcDbSpline
210
0.0
220
0.0
230
1.0
 70
    24
 71
     2
 72
     6
 73
     3
 74
     0
 42
0.0000000001
 43
0.0000000001
 40
0.0
 40
0.0
 40
0.0
 40
0.1879999959563996
 40
0.1879999959563996
 40
0.1879999959563996
 10
22.91092593563106
 20
0.3129808191120874
 30
0.0
 10
22.91099453887549
 20
0.2189808211338876
 30
0.0
 10
22.91106314211991
 20
0.1249808231556878
 30
0.0
  0
SPLINE
  5
E9
330
1F
100
AcDbEntity
  8
48x48 B
100
AcDbSpline
210
0.0
220
0.0
230
1.0
 70
    12
 71
     2
 72
     6
 73
     3
 74
     0
 42
0.0000000001
 43
0.0000000001
 40
0.0
 40
0.0
 40
0.0
 40
0.196177336774579
 40
0.196177336774579
 40
0.196177336774579
 10
22.91106314211991
 20
0.1249808231556878
 30
0.0
 41
0.9999981189360231
 10
22.91068004084714
 20
0.0004497125113142
 30
0.0
 41
0.7099089247647571
 10
22.78593447355298
 20
-0.0000191768413391
 30
0.0
 41
1.0
  0
SPLINE
  5
EA
330
1F
100
AcDbEntity
  8
48x48 B
100
AcDbSpline
210
0.0
220
0.0
230
1.0
 70
    24
 71
     2
 72
     6
 73
     3
 74
     0
 42
0.0000000001
 43
0.0000000001
 40
-2.523739648045471
 40
-2.523739648045471
 40
-2.523739648045471
 40
0.0
 40
0.0
 40
0.0
 10
22.78593447355298
 20
-0.0000191768413391
 30
0.0
 10
21.52395723668106
 20
-0.0000191768428252
 30
0.0
 10
20.26197999980914
 20
-0.0000191768443114
 30
0.0
  0
SPLINE
  5
EB
330
1F
100
AcDbEntity
  8
48x48 B
100
AcDbSpline
210
0.0
220
0.0
230
1.0
 70
    12
 71
     2
 72
     6
 73
     3
 74
     0
 42
0.0000000001
 43
0.0000000001
 40
0.0
 40
0.0
 40
0.0
 40
0.2094577803425973
 40
0.2094577803425973
 40
0.2094577803425973
 10
20.26197999980914
 20
-0.0000191768443114
 30
0.0
 41
1.0
 10
20.12989127592322
 20
-0.0069184379624319
 30
0.0
 41
0.7150454537347467
 10
20.12001121022095
 20
0.1249808231556896
 30
0.0
 41
1.0
  0
SPLINE
  5
EC
330
1F
100
AcDbEntity
  8
48x48 B
100
AcDbSpline
210
0.0
220
0.0
230
1.0
 70
    24
 71
     2
 72
     6
 73
     3
 74
     0
 42
0.0000000001
 43
0.0000000001
 40
0.0
 40
0.0
 40
0.0
 40
0.1879999959563978
 40
0.1879999959563978
 40
0.1879999959563978
 10
20.12001121022095
 20
0.1249808231556896
 30
0.0
 10
20.12001121022107
 20
0.2189808211338885
 30
0.0
 10
20.12001121022119
 20
0.3129808191120874
 30
0.0
  0
LINE
  5
ED
330
1F
100
AcDbEntity
  8
48x48 B
100
AcDbLine
 10
18.73073814603557
 20
40.81299999595639
 30
0.0
 11
21.74080660294737
 21
0.3130157075592905
 31
0.0
  0
LINE
  5
EE
330
1F
100
AcDbEntity
  8
48x48 B
100
AcDbLine
 10
17.65656478992494
 20
40.81298834977266
 30
0.0
 11
19.99461152379226
 21
40.81298879775099
 31
0.0
  0
POLYLINE
  5
EF
330
1F
100
AcDbEntity
  8
48x48 B
100
AcDb2dPolyline
 66
     1
 10
0.0
 20
0.0
 30
0.0
  0
VERTEX
  5
F0
330
EF
100
AcDbEntity
  8
48x48 B
100
AcDbVertex
100
AcDb2dVertex
 10
19.99461152379226
 20
40.81298879775099
 30
0.0
  0
VERTEX
  5
F1
330
EF
100
AcDbEntity
  8
48x48 B
100
AcDbVertex
100
AcDb2dVertex
 10
23.00441506376315
 20
0.3129999959563436
 30
0.0
  0
VERTEX
  5
F2
330
EF
100
AcDbEntity
  8
48x48 B
100
AcDbVertex
100
AcDb2dVertex
 10
19.94782156333176
 20
0.3129959327153419
 30
0.0
  0
VERTEX
  5
F3
330
EF
100
AcDbEntity
  8
48x48 B
100
AcDbVertex
100
AcDb2dVertex
 10
16.76007950235627
 20
37.40169978788093
 30
0.0
  0
SEQEND
  5
F4
330
EF
100
AcDbEntity
  8
48x48 B
  0
SPLINE
  5
F5
330
1F
100
AcDbEntity
  8
48x48 B
100
AcDbSpline
210
0.0
220
0.0
230
1.0
 70
    24
 71
     2
 72
     6
 73
     3
 74
     0
 42
0.0000000001
 43
0.0000000001
 40
0.0
 40
0.0
 40
0.0
 40
0.752240804632124
 40
0.752240804632124
 40
0.752240804632124
 10
16.76007950235627
 20
37.40169978788093
 30
0.0
 10
17.12943835327512
 20
37.47294021515923
 30
0.0
 10
17.49879720419397
 20
37.54418064243752
 30
0.0
  0
SPLINE
  5
F6
330
1F
100
AcDbEntity
  8
48x48 B
100
AcDbSpline
210
0.0
220
0.0
230
1.0
 70
    12
 71
     2
 72
     6
 73
     3
 74
     0
 42
0.0000000001
 43
0.0000000001
 40
0.0
 40
0.0
 40
0.0
 40
0.3033243459739306
 40
0.3033243459739306
 40
0.3033243459739306
 10
17.49879720419397
 20
37.54418064243752
 30
0.0
 41
1.0
 10
17.6672101303451
 20
37.60405639086327
 30
0.0
 41
0.788094268021899
 10
17.64990265189962
 20
37.7835907645341
 30
0.0
 41
1.0
  0
SPLINE
  5
F7
330
1F
100
AcDbEntity
  8
48x48 B
100
AcDbSpline
210
0.0
220
0.0
230
1.0
 70
    24
 71
     2
 72
     6
 73
     3
 74
     0
 42
0.0000000001
 43
0.0000000001
 40
0.0
 40
0.0
 40
0.0
 40
3.027675901208182
 40
3.027675901208182
 40
3.027675901208182
 10
17.64990265189962
 20
37.7835907645341
 30
0.0
 10
17.65323372091228
 20
39.29828955715338
 30
0.0
 10
17.65656478992494
 20
40.81298834977266
 30
0.0
  0
ENDSEC
  0
SECTION
  2
OBJECTS
  0
DICTIONARY
  5
C
330
0
100
AcDbDictionary
281
     1
  3
ACAD_GROUP
350
D
  3
ACAD_LAYOUT
350
1A
  3
ACAD_MLEADERSTYLE
350
F9
  3
ACAD_MLINESTYLE
350
17
  3
ACAD_PLOTSETTINGS
350
19
  3
ACAD_PLOTSTYLENAME
350
E
  3
ACAD_TABLESTYLE
350
F8
  3
ACAD_VISUALSTYLE
350
2A
  0
DICTIONARY
  5
D
102
{ACAD_REACTORS
330
C
102
}
330
C
100
AcDbDictionary
281
     1
  0
DICTIONARY
  5
1A
102
{ACAD_REACTORS
330
C
102
}
330
C
100
AcDbDictionary
281
     1
  3
Layout1
350
1E
  3
Layout2
350
26
  3
Model
350
22
  0
DICTIONARY
  5
F9
102
{ACAD_REACTORS
330
C
102
}
330
C
100
AcDbDictionary
281
     1
  0
DICTIONARY
  5
17
102
{ACAD_REACTORS
330
C
102
}
330
C
100
AcDbDictionary
281
     1
  3
Standard
350
18
  0
DICTIONARY
  5
19
102
{ACAD_REACTORS
330
C
102
}
330
C
100
AcDbDictionary
281
     1
  0
ACDBDICTIONARYWDFLT
  5
E
102
{ACAD_REACTORS
330
C
102
}
330
C
100
AcDbDictionary
281
     1
  3
Normal
350
F
100
AcDbDictionaryWithDefault
340
F
  0
DICTIONARY
  5
F8
102
{ACAD_REACTORS
330
C
102
}
330
C
100
AcDbDictionary
281
     1
  0
DICTIONARY
  5
2A
102
{ACAD_REACTORS
330
C
102
}
330
C
100
AcDbDictionary
281
     1
  3
2dWireframe
350
2F
  3
3D Hidden
350
31
  3
3dWireframe
350
30
  3
Basic
350
32
  3
Brighten
350
36
  3
ColorChange
350
3A
  3
Conceptual
350
34
  3
Dim
350
35
  3
Facepattern
350
39
  3
Flat
350
2B
  3
FlatWithEdges
350
2C
  3
Gouraud
350
2D
  3
GouraudWithEdges
350
2E
  3
Linepattern
350
38
  3
Realistic
350
33
  3
Thicken
350
37
  0
LAYOUT
  5
1E
102
{ACAD_REACTORS
330
1A
102
}
330
1A
100
AcDbPlotSettings
  1

  2
none_device
  4

  6

 40
0.0
 41
0.0
 42
0.0
 43
0.0
 44
0.0
 45
0.0
 46
0.0
 47
0.0
 48
0.0
 49
0.0
140
0.0
141
0.0
142
1.0
143
1.0
 70
   688
 72
     0
 73
     0
 74
     5
  7

 75
    16
 76
     0
 77
     2
 78
   300
147
1.0
148
0.0
149
0.0
100
AcDbLayout
  1
Layout1
 70
     1
 71
     1
 10
0.0
 20
0.0
 11
12.0
 21
9.0
 12
0.0
 22
0.0
 32
0.0
 14
1.000000000000000E+20
 24
1.000000000000000E+20
 34
1.000000000000000E+20
 15
-1.000000000000000E+20
 25
-1.000000000000000E+20
 35
-1.000000000000000E+20
146
0.0
 13
0.0
 23
0.0
 33
0.0
 16
1.0
 26
0.0
 36
0.0
 17
0.0
 27
1.0
 37
0.0
 76
     0
330
1B
  0
LAYOUT
  5
26
102
{ACAD_REACTORS
330
1A
102
}
330
1A
100
AcDbPlotSettings
  1

  2
none_device
  4

  6

 40
0.0
 41
0.0
 42
0.0
 43
0.0
 44
0.0
 45
0.0
 46
0.0
 47
0.0
 48
0.0
 49
0.0
140
0.0
141
0.0
142
1.0
143
1.0
 70
   688
 72
     0
 73
     0
 74
     5
  7

 75
    16
 76
     0
 77
     2
 78
   300
147
1.0
148
0.0
149
0.0
100
AcDbLayout
  1
Layout2
 70
     1
 71
     2
 10
0.0
 20
0.0
 11
0.0
 21
0.0
 12
0.0
 22
0.0
 32
0.0
 14
0.0
 24
0.0
 34
0.0
 15
0.0
 25
0.0
 35
0.0
146
0.0
 13
0.0
 23
0.0
 33
0.0
 16
1.0
 26
0.0
 36
0.0
 17
0.0
 27
1.0
 37
0.0
 76
     0
330
23
  0
LAYOUT
  5
22
102
{ACAD_REACTORS
330
1A
102
}
330
1A
100
AcDbPlotSettings
  1

  2
none_device
  4

  6

 40
0.0
 41
0.0
 42
0.0
 43
0.0
 44
0.0
 45
0.0
 46
0.0
 47
0.0
 48
0.0
 49
0.0
140
0.0
141
0.0
142
1.0
143
1.0
 70
  1712
 72
     0
 73
     0
 74
     0
  7

 75
     0
 76
     0
 77
     2
 78
   300
147
1.0
148
0.0
149
0.0
100
AcDbLayout
  1
Model
 70
     1
 71
     0
 10
0.0
 20
0.0
 11
12.0
 21
9.0
 12
0.0
 22
0.0
 32
0.0
 14
-24.0
 24
-0.0000191768443114
 34
0.0
 15
87.21181376062594
 25
109.0743437112947
 35
0.0
146
0.0
 13
0.0
 23
0.0
 33
0.0
 16
1.0
 26
0.0
 36
0.0
 17
0.0
 27
1.0
 37
0.0
 76
     0
330
1F
331
29
  0
MLINESTYLE
  5
18
102
{ACAD_REACTORS
330
17
102
}
330
17
100
AcDbMlineStyle
  2
Standard
 70
     0
  3

 62
   256
 51
90.0
 52
90.0
 71
     2
 49
0.5
 62
   256
  6
BYLAYER
 49
-0.5
 62
   256
  6
BYLAYER
  0
ACDBPLACEHOLDER
  5
F
102
{ACAD_REACTORS
330
E
102
}
330
E
  0
VISUALSTYLE
  5
2F
102
{ACAD_REACTORS
330
2A
102
}
330
2A
100
AcDbVisualStyle
  2
2dWireframe
 70
     4
 71
     0
 72
     2
 73
     0
 90
        0
 40
-0.6
 41
-30.0
 62
     5
 63
     7
421
 16777215
 74
     1
 91
        4
 64
     7
 65
   257
 75
     1
175
     1
 42
1.0
 92
        0
 66
   257
 43
1.0
 76
     1
 77
     6
 78
     2
 67
     7
 79
     5
170
     0
171
     0
290
     0
174
     0
 93
        1
 44
0.0
173
     0
291
     0
 45
0.0
1001
ACAD
1000
AcDbSavedByObjectVersion
1070
     0
  0
VISUALSTYLE
  5
31
102
{ACAD_REACTORS
330
2A
102
}
330
2A
100
AcDbVisualStyle
  2
3D Hidden
 70
     6
 71
     1
 72
     2
 73
     2
 90
        0
 40
-0.6
 41
-30.0
 62
     5
 63
     7
421
 16777215
 74
     2
 91
        2
 64
     7
 65
   257
 75
     2
175
     1
 42
40.0
 92
        0
 66
   257
 43
1.0
 76
     1
 77
     6
 78
     2
 67
     7
 79
     3
170
     0
171
     0
290
     0
174
     0
 93
        1
 44
0.0
173
     0
291
     0
 45
0.0
1001
ACAD
1000
AcDbSavedByObjectVersion
1070
     0
  0
VISUALSTYLE
  5
30
102
{ACAD_REACTORS
330
2A
102
}
330
2A
100
AcDbVisualStyle
  2
3dWireframe
 70
     5
 71
     0
 72
     2
 73
     0
 90
        0
 40
-0.6
 41
-30.0
 62
     5
 63
     7
421
 16777215
 74
     1
 91
        4
 64
     7
 65
   257
 75
     1
175
     1
 42
1.0
 92
        0
 66
   257
 43
1.0
 76
     1
 77
     6
 78
     2
 67
     7
 79
     5
170
     0
171
     0
290
     0
174
     0
 93
        1
 44
0.0
173
     0
291
     0
 45
0.0
1001
ACAD
1000
AcDbSavedByObjectVersion
1070
     0
  0
VISUALSTYLE
  5
32
102
{ACAD_REACTORS
330
2A
102
}
330
2A
100
AcDbVisualStyle
  2
Basic
 70
     7
 71
     1
 72
     0
 73
     1
 90
        0
 40
-0.6
 41
-30.0
 62
     5
 63
     7
421
 16777215
 74
     0
 91
        4
 64
     7
 65
   257
 75
     1
175
     1
 42
1.0
 92
        8
 66
     7
 43
1.0
 76
     1
 77
     6
 78
     2
 67
     7
 79
     5
170
     0
171
     0
290
     0
174
     0
 93
        1
 44
0.0
173
     0
291
     1
 45
0.0
1001
ACAD
1000
AcDbSavedByObjectVersion
1070
     0
  0
VISUALSTYLE
  5
36
102
{ACAD_REACTORS
330
2A
102
}
330
2A
100
AcDbVisualStyle
  2
Brighten
 70
    12
 71
     2
 72
     2
 73
     0
 90
        0
 40
-0.6
 41
-30.0
 62
     5
 63
     7
421
 16777215
 74
     1
 91
        4
 64
     7
 65
   257
 75
     1
175
     1
 42
1.0
 92
        8
 66
     7
 43
1.0
 76
     1
 77
     6
 78
     2
 67
     7
 79
     5
170
     0
171
     0
290
     0
174
     0
 93
        1
 44
50.0
173
     0
291
     1
 45
0.0
1001
ACAD
1000
AcDbSavedByObjectVersion
1070
     0
  0
VISUALSTYLE
  5
3A
102
{ACAD_REACTORS
330
2A
102
}
330
2A
100
AcDbVisualStyle
  2
ColorChange
 70
    16
 71
     2
 72
     2
 73
     3
 90
        0
 40
-0.6
 41
-30.0
 62
     5
 63
     8
421
  8421504
 74
     1
 91
        4
 64
     7
 65
   257
 75
     1
175
     1
 42
1.0
 92
        8
 66
     8
424
  8421504
 43
1.0
 76
     1
 77
     6
 78
     2
 67
     7
 79
     5
170
     0
171
     0
290
     0
174
     0
 93
        1
 44
0.0
173
     0
291
     1
 45
0.0
1001
ACAD
1000
AcDbSavedByObjectVersion
1070
     0
  0
VISUALSTYLE
  5
34
102
{ACAD_REACTORS
330
2A
102
}
330
2A
100
AcDbVisualStyle
  2
Conceptual
 70
     9
 71
     3
 72
     2
 73
     0
 90
        0
 40
-0.6
 41
-30.0
 62
     5
 63
     7
421
 16777215
 74
     2
 91
        2
 64
     7
 65
   257
 75
     1
175
     1
 42
40.0
 92
        8
 66
     7
 43
1.0
 76
     1
 77
     6
 78
     2
 67
     7
 79
     3
170
     0
171
     0
290
     0
174
     0
 93
        1
 44
0.0
173
     0
291
     0
 45
0.0
1001
ACAD
1000
AcDbSavedByObjectVersion
1070
     0
  0
VISUALSTYLE
  5
35
102
{ACAD_REACTORS
330
2A
102
}
330
2A
100
AcDbVisualStyle
  2
Dim
 70
    11
 71
     2
 72
     2
 73
     0
 90
        0
 40
-0.6
 41
-30.0
 62
     5
 63
     7
421
 16777215
 74
     1
 91
        4
 64
     7
 65
   257
 75
     1
175
     1
 42
1.0
 92
        8
 66
     7
 43
1.0
 76
     1
 77
     6
 78
     2
 67
     7
 79
     5
170
     0
171
     0
290
     0
174
     0
 93
        1
 44
-50.0
173
     0
291
     1
 45
0.0
1001
ACAD
1000
AcDbSavedByObjectVersion
1070
     0
  0
VISUALSTYLE
  5
39
102
{ACAD_REACTORS
330
2A
102
}
330
2A
100
AcDbVisualStyle
  2
Facepattern
 70
    15
 71
     2
 72
     2
 73
     0
 90
        0
 40
-0.6
 41
-30.0
 62
     5
 63
     7
421
 16777215
 74
     1
 91
        4
 64
     7
 65
   257
 75
     1
175
     1
 42
1.0
 92
        8
 66
     7
 43
1.0
 76
     1
 77
     6
 78
     2
 67
     7
 79
     5
170
     0
171
     0
290
     0
174
     0
 93
        1
 44
0.0
173
     0
291
     1
 45
0.0
1001
ACAD
1000
AcDbSavedByObjectVersion
1070
     0
  0
VISUALSTYLE
  5
2B
102
{ACAD_REACTORS
330
2A
102
}
330
2A
100
AcDbVisualStyle
  2
Flat
 70
     0
 71
     2
 72
     1
 73
     1
 90
        2
 40
-0.6
 41
30.0
 62
     5
 63
     7
421
 16777215
 74
     0
 91
        4
 64
     7
 65
   257
 75
     1
175
     1
 42
1.0
 92
        8
 66
     7
 43
1.0
 76
     1
 77
     6
 78
     2
 67
     7
 79
     5
170
     0
171
     0
290
     0
174
     0
 93
       13
 44
0.0
173
     0
291
     1
 45
0.0
1001
ACAD
1000
AcDbSavedByObjectVersion
1070
     0
  0
VISUALSTYLE
  5
2C
102
{ACAD_REACTORS
330
2A
102
}
330
2A
100
AcDbVisualStyle
  2
FlatWithEdges
 70
     1
 71
     2
 72
     1
 73
     1
 90
        2
 40
-0.6
 41
30.0
 62
     5
 63
     7
421
 16777215
 74
     1
 91
        4
 64
     7
 65
   257
 75
     1
175
     1
 42
1.0
 92
        0
 66
   257
 43
1.0
 76
     1
 77
     6
 78
     2
 67
     7
 79
     5
170
     0
171
     0
290
     0
174
     0
 93
       13
 44
0.0
173
     0
291
     1
 45
0.0
1001
ACAD
1000
AcDbSavedByObjectVersion
1070
     0
  0
VISUALSTYLE
  5
2D
102
{ACAD_REACTORS
330
2A
102
}
330
2A
100
AcDbVisualStyle
  2
Gouraud
 70
     2
 71
     2
 72
     2
 73
     1
 90
        2
 40
-0.6
 41
30.0
 62
     5
 63
     7
421
 16777215
 74
     0
 91
        4
 64
     7
 65
   257
 75
     1
175
     1
 42
1.0
 92
        0
 66
     7
 43
1.0
 76
     1
 77
     6
 78
     2
 67
     7
 79
     5
170
     0
171
     0
290
     0
174
     0
 93
       13
 44
0.0
173
     0
291
     1
 45
0.0
1001
ACAD
1000
AcDbSavedByObjectVersion
1070
     0
  0
VISUALSTYLE
  5
2E
102
{ACAD_REACTORS
330
2A
102
}
330
2A
100
AcDbVisualStyle
  2
GouraudWithEdges
 70
     3
 71
     2
 72
     2
 73
     1
 90
        2
 40
-0.6
 41
30.0
 62
     5
 63
     7
421
 16777215
 74
     1
 91
        4
 64
     7
 65
   257
 75
     1
175
     1
 42
1.0
 92
        0
 66
   257
 43
1.0
 76
     1
 77
     6
 78
     2
 67
     7
 79
     5
170
     0
171
     0
290
     0
174
     0
 93
       13
 44
0.0
173
     0
291
     1
 45
0.0
1001
ACAD
1000
AcDbSavedByObjectVersion
1070
     0
  0
VISUALSTYLE
  5
38
102
{ACAD_REACTORS
330
2A
102
}
330
2A
100
AcDbVisualStyle
  2
Linepattern
 70
    14
 71
     2
 72
     2
 73
     0
 90
        0
 40
-0.6
 41
-30.0
 62
     5
 63
     7
421
 16777215
 74
     1
 91
        4
 64
     7
 65
   257
 75
     7
175
     7
 42
1.0
 92
        8
 66
     7
 43
1.0
 76
     1
 77
     6
 78
     2
 67
     7
 79
     5
170
     0
171
     0
290
     0
174
     0
 93
        1
 44
0.0
173
     0
291
     1
 45
0.0
1001
ACAD
1000
AcDbSavedByObjectVersion
1070
     0
  0
VISUALSTYLE
  5
33
102
{ACAD_REACTORS
330
2A
102
}
330
2A
100
AcDbVisualStyle
  2
Realistic
 70
     8
 71
     2
 72
     2
 73
     0
 90
        0
 40
-0.6
 41
-30.0
 62
     5
 63
     7
421
 16777215
 74
     1
 91
        0
 64
     7
 65
   257
 75
     1
175
     1
 42
1.0
 92
        8
 66
     8
424
  7895160
 43
1.0
 76
     1
 77
     6
 78
     2
 67
     7
 79
     5
170
     0
171
     0
290
     0
174
     0
 93
       13
 44
0.0
173
     0
291
     0
 45
0.0
1001
ACAD
1000
AcDbSavedByObjectVersion
1070
     0
  0
VISUALSTYLE
  5
37
102
{ACAD_REACTORS
330
2A
102
}
330
2A
100
AcDbVisualStyle
  2
Thicken
 70
    13
 71
     2
 72
     2
 73
     0
 90
        0
 40
-0.6
 41
-30.0
 62
     5
 63
     7
421
 16777215
 74
     1
 91
        4
 64
     7
 65
   257
 75
     1
175
     1
 42
1.0
 92
       12
 66
     7
 43
1.0
 76
     1
 77
     6
 78
     2
 67
     7
 79
     5
170
     0
171
     0
290
     0
174
     0
 93
        1
 44
0.0
173
     0
291
     1
 45
0.0
1001
ACAD
1000
AcDbSavedByObjectVersion
1070
     0
  0
ENDSEC
  0
EOF
