  0
SECTION
  2
HEADER
  9
$ACADVER
  1
AC1018
  9
$ACADMAINTVER
 70
     0
  9
$DWGCODEPAGE
  3
ANSI_1252
  9
$INSBASE
 10
0.0
 20
0.0
 30
0.0
  9
$EXTMIN
 10
-30.00000000000001
 20
-0.0000191768443114
 30
0.0
  9
$EXTMAX
 10
78.21646694733418
 20
91.08365008471125
 30
0.0
  9
$LIMMIN
 10
0.0
 20
0.0
  9
$LIMMAX
 10
12.0
 20
9.0
  9
$ORTHOMODE
 70
     0
  9
$REGENMODE
 70
     1
  9
$FILLMODE
 70
     1
  9
$QTEXTMODE
 70
     0
  9
$MIRRTEXT
 70
     1
  9
$LTSCALE
 40
0.0393700787401575
  9
$ATTMODE
 70
     1
  9
$TEXTSIZE
 40
0.2
  9
$TRACEWID
 40
0.05
  9
$TEXTSTYLE
  7
Standard
  9
$CLAYER
  8
0
  9
$CELTYPE
  6
ByLayer
  9
$CECOLOR
 62
   256
  9
$CELTSCALE
 40
1.0
  9
$DISPSILH
 70
     0
  9
$DIMSCALE
 40
1.0
  9
$DIMASZ
 40
0.18
  9
$DIMEXO
 40
0.0625
  9
$DIMDLI
 40
0.38
  9
$DIMRND
 40
0.0
  9
$DIMDLE
 40
0.0
  9
$DIMEXE
 40
0.18
  9
$DIMTP
 40
0.0
  9
$DIMTM
 40
0.0
  9
$DIMTXT
 40
0.18
  9
$DIMCEN
 40
0.09
  9
$DIMTSZ
 40
0.0
  9
$DIMTOL
 70
     0
  9
$DIMLIM
 70
     0
  9
$DIMTIH
 70
     1
  9
$DIMTOH
 70
     1
  9
$DIMSE1
 70
     0
  9
$DIMSE2
 70
     0
  9
$DIMTAD
 70
     0
  9
$DIMZIN
 70
     0
  9
$DIMBLK
  1

  9
$DIMASO
 70
     1
  9
$DIMSHO
 70
     1
  9
$DIMPOST
  1

  9
$DIMAPOST
  1

  9
$DIMALT
 70
     0
  9
$DIMALTD
 70
     2
  9
$DIMALTF
 40
25.4
  9
$DIMLFAC
 40
1.0
  9
$DIMTOFL
 70
     0
  9
$DIMTVP
 40
0.0
  9
$DIMTIX
 70
     0
  9
$DIMSOXD
 70
     0
  9
$DIMSAH
 70
     0
  9
$DIMBLK1
  1

  9
$DIMBLK2
  1

  9
$DIMSTYLE
  2
Standard
  9
$DIMCLRD
 70
     0
  9
$DIMCLRE
 70
     0
  9
$DIMCLRT
 70
     0
  9
$DIMTFAC
 40
1.0
  9
$DIMGAP
 40
0.09
  9
$DIMJUST
 70
     0
  9
$DIMSD1
 70
     0
  9
$DIMSD2
 70
     0
  9
$DIMTOLJ
 70
     1
  9
$DIMTZIN
 70
     0
  9
$DIMALTZ
 70
     0
  9
$DIMALTTZ
 70
     0
  9
$DIMUPT
 70
     0
  9
$DIMDEC
 70
     4
  9
$DIMTDEC
 70
     4
  9
$DIMALTU
 70
     2
  9
$DIMALTTD
 70
     2
  9
$DIMTXSTY
  7
Standard
  9
$DIMAUNIT
 70
     0
  9
$DIMADEC
 70
     0
  9
$DIMALTRND
 40
0.0
  9
$DIMAZIN
 70
     0
  9
$DIMDSEP
 70
    46
  9
$DIMATFIT
 70
     3
  9
$DIMFRAC
 70
     0
  9
$DIMLDRBLK
  1

  9
$DIMLUNIT
 70
     2
  9
$DIMLWD
 70
    -2
  9
$DIMLWE
 70
    -2
  9
$DIMTMOVE
 70
     2
  9
$LUNITS
 70
     2
  9
$LUPREC
 70
     3
  9
$SKETCHINC
 40
0.1
  9
$FILLETRAD
 40
0.5
  9
$AUNITS
 70
     0
  9
$AUPREC
 70
     0
  9
$MENU
  1
.
  9
$ELEVATION
 40
0.0
  9
$PELEVATION
 40
0.0
  9
$THICKNESS
 40
0.0
  9
$LIMCHECK
 70
     0
  9
$CHAMFERA
 40
0.5
  9
$CHAMFERB
 40
0.5
  9
$CHAMFERC
 40
1.0
  9
$CHAMFERD
 40
0.0
  9
$SKPOLY
 70
     0
  9
$TDCREATE
 40
2458058.539548935
  9
$TDUCREATE
 40
2458058.706215602
  9
$TDUPDATE
 40
2458058.539548947
  9
$TDUUPDATE
 40
2458058.706215614
  9
$TDINDWG
 40
0.0000000116
  9
$TDUSRTIMER
 40
0.0000000116
  9
$USRTIMER
 70
     1
  9
$ANGBASE
 50
0.0
  9
$ANGDIR
 70
     0
  9
$PDMODE
 70
     0
  9
$PDSIZE
 40
0.0
  9
$PLINEWID
 40
0.0
  9
$SPLFRAME
 70
     0
  9
$SPLINETYPE
 70
     6
  9
$SPLINESEGS
 70
     8
  9
$HANDSEED
  5
5D
  9
$SURFTAB1
 70
     6
  9
$SURFTAB2
 70
     6
  9
$SURFTYPE
 70
     6
  9
$SURFU
 70
     6
  9
$SURFV
 70
     6
  9
$UCSBASE
  2

  9
$UCSNAME
  2

  9
$UCSORG
 10
0.0
 20
0.0
 30
0.0
  9
$UCSXDIR
 10
1.0
 20
0.0
 30
0.0
  9
$UCSYDIR
 10
0.0
 20
1.0
 30
0.0
  9
$UCSORTHOREF
  2

  9
$UCSORTHOVIEW
 70
     0
  9
$UCSORGTOP
 10
0.0
 20
0.0
 30
0.0
  9
$UCSORGBOTTOM
 10
0.0
 20
0.0
 30
0.0
  9
$UCSORGLEFT
 10
0.0
 20
0.0
 30
0.0
  9
$UCSORGRIGHT
 10
0.0
 20
0.0
 30
0.0
  9
$UCSORGFRONT
 10
0.0
 20
0.0
 30
0.0
  9
$UCSORGBACK
 10
0.0
 20
0.0
 30
0.0
  9
$PUCSBASE
  2

  9
$PUCSNAME
  2

  9
$PUCSORG
 10
0.0
 20
0.0
 30
0.0
  9
$PUCSXDIR
 10
1.0
 20
0.0
 30
0.0
  9
$PUCSYDIR
 10
0.0
 20
1.0
 30
0.0
  9
$PUCSORTHOREF
  2

  9
$PUCSORTHOVIEW
 70
     0
  9
$PUCSORGTOP
 10
0.0
 20
0.0
 30
0.0
  9
$PUCSORGBOTTOM
 10
0.0
 20
0.0
 30
0.0
  9
$PUCSORGLEFT
 10
0.0
 20
0.0
 30
0.0
  9
$PUCSORGRIGHT
 10
0.0
 20
0.0
 30
0.0
  9
$PUCSORGFRONT
 10
0.0
 20
0.0
 30
0.0
  9
$PUCSORGBACK
 10
0.0
 20
0.0
 30
0.0
  9
$USERI1
 70
     0
  9
$USERI2
 70
     0
  9
$USERI3
 70
     0
  9
$USERI4
 70
     0
  9
$USERI5
 70
     0
  9
$USERR1
 40
0.0
  9
$USERR2
 40
0.0
  9
$USERR3
 40
0.0
  9
$USERR4
 40
0.0
  9
$USERR5
 40
0.0
  9
$WORLDVIEW
 70
     1
  9
$SHADEDGE
 70
     3
  9
$SHADEDIF
 70
    70
  9
$TILEMODE
 70
     1
  9
$MAXACTVP
 70
    64
  9
$PINSBASE
 10
0.0
 20
0.0
 30
0.0
  9
$PLIMCHECK
 70
     0
  9
$PEXTMIN
 10
1.000000000000000E+20
 20
1.000000000000000E+20
 30
1.000000000000000E+20
  9
$PEXTMAX
 10
-1.000000000000000E+20
 20
-1.000000000000000E+20
 30
-1.000000000000000E+20
  9
$PLIMMIN
 10
0.0
 20
0.0
  9
$PLIMMAX
 10
12.0
 20
9.0
  9
$UNITMODE
 70
     0
  9
$VISRETAIN
 70
     1
  9
$PLINEGEN
 70
     0
  9
$PSLTSCALE
 70
     1
  9
$TREEDEPTH
 70
  3020
  9
$CMLSTYLE
  2
Standard
  9
$CMLJUST
 70
     0
  9
$CMLSCALE
 40
1.0
  9
$PROXYGRAPHICS
 70
     1
  9
$MEASUREMENT
 70
     0
  9
$CELWEIGHT
370
    -1
  9
$ENDCAPS
280
     0
  9
$JOINSTYLE
280
     0
  9
$LWDISPLAY
290
     0
  9
$INSUNITS
 70
     1
  9
$HYPERLINKBASE
  1

  9
$STYLESHEET
  1

  9
$XEDIT
290
     1
  9
$CEPSNTYPE
380
     0
  9
$PSTYLEMODE
290
     1
  9
$FINGERPRINTGUID
  2
{C053E629-354B-4780-B508-12F0FD483951}
  9
$VERSIONGUID
  2
{FAEB1C32-E019-11D5-929B-00C0DF256EC4}
  9
$EXTNAMES
290
     1
  9
$PSVPSCALE
 40
0.0
  9
$OLESTARTUP
290
     0
  9
$SORTENTS
280
   127
  9
$INDEXCTL
280
     0
  9
$HIDETEXT
280
     1
  9
$XCLIPFRAME
290
     0
  9
$HALOGAP
280
     0
  9
$OBSCOLOR
 70
   257
  9
$OBSLTYPE
280
     0
  9
$INTERSECTIONDISPLAY
280
     0
  9
$INTERSECTIONCOLOR
 70
   257
  9
$DIMASSOC
280
     2
  9
$PROJECTNAME
  1

  0
ENDSEC
  0
SECTION
  2
CLASSES
  0
CLASS
  1
ACDBDICTIONARYWDFLT
  2
AcDbDictionaryWithDefault
  3
ObjectDBX Classes
 90
        0
 91
        4
280
     0
281
     0
  0
CLASS
  1
VISUALSTYLE
  2
AcDbVisualStyle
  3
ObjectDBX Classes
 90
     4095
 91
        4
280
     0
281
     0
  0
ENDSEC
  0
SECTION
  2
TABLES
  0
TABLE
  2
VPORT
  5
8
330
0
100
AcDbSymbolTable
 70
     1
  0
VPORT
  5
29
330
8
100
AcDbSymbolTableRecord
100
AcDbViewportTableRecord
  2
*Active
 70
     0
 10
0.0
 20
0.0
 11
1.0
 21
1.0
 12
24.10823347366708
 22
45.54181545393347
 13
0.0
 23
0.0
 14
0.5
 24
0.5
 15
0.5
 25
0.5
 16
0.0
 26
0.0
 36
1.0
 17
0.0
 27
0.0
 37
0.0
 40
92.90534264678666
 41
1.188099555328411
 42
50.0
 43
0.0
 44
0.0
 50
0.0
 51
0.0
 71
     0
 72
   100
 73
     1
 74
     3
 75
     0
 76
     0
 77
     0
 78
     0
281
     0
 65
     1
110
0.0
120
0.0
130
0.0
111
1.0
121
0.0
131
0.0
112
0.0
122
1.0
132
0.0
 79
     0
146
0.0
  0
ENDTAB
  0
TABLE
  2
LTYPE
  5
5
330
0
100
AcDbSymbolTable
 70
     1
  0
LTYPE
  5
14
330
5
100
AcDbSymbolTableRecord
100
AcDbLinetypeTableRecord
  2
ByBlock
 70
     0
  3

 72
    65
 73
     0
 40
0.0
  0
LTYPE
  5
15
330
5
100
AcDbSymbolTableRecord
100
AcDbLinetypeTableRecord
  2
ByLayer
 70
     0
  3

 72
    65
 73
     0
 40
0.0
  0
LTYPE
  5
16
330
5
100
AcDbSymbolTableRecord
100
AcDbLinetypeTableRecord
  2
Continuous
 70
     0
  3
Solid line
 72
    65
 73
     0
 40
0.0
  0
ENDTAB
  0
TABLE
  2
LAYER
  5
2
330
0
100
AcDbSymbolTable
 70
     2
  0
LAYER
  5
10
330
2
100
AcDbSymbolTableRecord
100
AcDbLayerTableRecord
  2
0
 70
     0
 62
     7
  6
Continuous
370
    -3
390
F
  0
LAYER
  5
3B
330
2
100
AcDbSymbolTableRecord
100
AcDbLayerTableRecord
  2
30x60 B
 70
     0
 62
     7
  6
Continuous
370
    -3
390
F
  0
ENDTAB
  0
TABLE
  2
STYLE
  5
3
330
0
100
AcDbSymbolTable
 70
     1
  0
STYLE
  5
11
330
3
100
AcDbSymbolTableRecord
100
AcDbTextStyleTableRecord
  2
Standard
 70
     0
 40
0.0
 41
1.0
 50
0.0
 71
     0
 42
0.2
  3
txt
  4

  0
ENDTAB
  0
TABLE
  2
VIEW
  5
6
330
0
100
AcDbSymbolTable
 70
     0
  0
ENDTAB
  0
TABLE
  2
UCS
  5
7
330
0
100
AcDbSymbolTable
 70
     0
  0
ENDTAB
  0
TABLE
  2
APPID
  5
9
330
0
100
AcDbSymbolTable
 70
     1
  0
APPID
  5
12
330
9
100
AcDbSymbolTableRecord
100
AcDbRegAppTableRecord
  2
ACAD
 70
     0
  0
ENDTAB
  0
TABLE
  2
DIMSTYLE
  5
A
330
0
100
AcDbSymbolTable
 70
     1
100
AcDbDimStyleTable
  0
DIMSTYLE
105
27
330
A
100
AcDbSymbolTableRecord
100
AcDbDimStyleTableRecord
  2
Standard
 70
     0
340
11
  0
ENDTAB
  0
TABLE
  2
BLOCK_RECORD
  5
1
330
0
100
AcDbSymbolTable
 70
     1
  0
BLOCK_RECORD
  5
1F
330
1
100
AcDbSymbolTableRecord
100
AcDbBlockTableRecord
  2
*Model_Space
340
22
  0
BLOCK_RECORD
  5
1B
330
1
100
AcDbSymbolTableRecord
100
AcDbBlockTableRecord
  2
*Paper_Space
340
1E
  0
BLOCK_RECORD
  5
23
330
1
100
AcDbSymbolTableRecord
100
AcDbBlockTableRecord
  2
*Paper_Space0
340
26
  0
ENDTAB
  0
ENDSEC
  0
SECTION
  2
BLOCKS
  0
BLOCK
  5
20
330
1F
100
AcDbEntity
  8
0
100
AcDbBlockBegin
  2
*Model_Space
 70
     0
 10
0.0
 20
0.0
 30
0.0
  3
*Model_Space
  1

  0
ENDBLK
  5
21
330
1F
100
AcDbEntity
  8
0
100
AcDbBlockEnd
  0
BLOCK
  5
1C
330
1B
100
AcDbEntity
 67
     1
  8
0
100
AcDbBlockBegin
  2
*Paper_Space
 70
     0
 10
0.0
 20
0.0
 30
0.0
  3
*Paper_Space
  1

  0
ENDBLK
  5
1D
330
1B
100
AcDbEntity
 67
     1
  8
0
100
AcDbBlockEnd
  0
BLOCK
  5
24
330
23
100
AcDbEntity
  8
0
100
AcDbBlockBegin
  2
*Paper_Space0
 70
     0
 10
0.0
 20
0.0
 30
0.0
  3
*Paper_Space0
  1

  0
ENDBLK
  5
25
330
23
100
AcDbEntity
  8
0
100
AcDbBlockEnd
  0
ENDSEC
  0
SECTION
  2
ENTITIES
  0
SPLINE
  5
3C
330
1F
100
AcDbEntity
  8
30x60 B
100
AcDbSpline
210
0.0
220
0.0
230
1.0
 70
    15
 71
     2
 72
    20
 73
    17
 74
     0
 42
0.0000000001
 43
0.0000000001
 40
92.35619449019235
 40
92.35619449019235
 40
92.35619449019235
 40
94.7123889803847
 40
94.7123889803847
 40
139.7123889803847
 40
139.7123889803847
 40
142.068583470577
 40
142.068583470577
 40
187.068583470577
 40
187.068583470577
 40
189.4247779607694
 40
189.4247779607694
 40
234.4247779607694
 40
234.4247779607694
 40
236.7809724509618
 40
236.7809724509618
 40
281.7809724509618
 40
281.7809724509618
 40
281.7809724509618
 10
30.0
 20
62.57434371129474
 30
0.0
 41
1.0
 10
30.0
 20
61.07434371129473
 30
0.0
 41
0.7071067811865492
 10
28.5
 20
61.07434371129474
 30
0.0
 41
1.0
 10
0.0
 20
61.07434371129474
 30
0.0
 41
1.0
 10
-28.50000000000001
 20
61.07434371129474
 30
0.0
 41
1.0
 10
-29.99999999999999
 20
61.07434371129474
 30
0.0
 41
0.7071067811865502
 10
-30.0
 20
62.57434371129474
 30
0.0
 41
1.0
 10
-30.0
 20
76.078996898003
 30
0.0
 41
1.0
 10
-30.00000000000001
 20
89.58365008471125
 30
0.0
 41
1.0
 10
-30.00000000000004
 20
91.08365008471128
 30
0.0
 41
0.7071067811865359
 10
-28.50000000000001
 20
91.08365008471125
 30
0.0
 41
1.0
 10
0.0
 20
91.08365008471125
 30
0.0
 41
1.0
 10
28.5
 20
91.08365008471125
 30
0.0
 41
1.0
 10
30.00000000000001
 20
91.08365008471127
 30
0.0
 41
0.7071067811865358
 10
30.0
 20
89.58365008471125
 30
0.0
 41
1.0
 10
30.0
 20
76.078996898003
 30
0.0
 41
1.0
 10
30.0
 20
62.57434371129474
 30
0.0
 41
1.0
  0
SPLINE
  5
3D
330
1F
100
AcDbEntity
  8
30x60 B
100
AcDbSpline
210
0.0
220
0.0
230
1.0
 70
    11
 71
     2
 72
    12
 73
     9
 74
     0
 42
0.0000000001
 43
0.0000000001
 40
0.0
 40
0.0
 40
0.0
 40
31.77560337649145
 40
31.77560337649145
 40
33.27560337649148
 40
33.27560337649148
 40
65.05120675298294
 40
65.05120675298294
 40
66.55120675298296
 40
66.55120675298296
 40
66.55120675298296
 10
56.44601233991541
 20
10.50099999595636
 30
0.0
 10
63.33565195048612
 20
10.50099999595636
 30
0.0
 10
70.22529156105684
 20
10.50099999595636
 30
0.0
 10
70.22529156105684
 20
11.25099999595638
 30
0.0
 10
70.22529156105684
 20
12.00099999595639
 30
0.0
 10
63.33565195048612
 20
12.00099999595639
 30
0.0
 10
56.44601233991541
 20
12.00099999595639
 30
0.0
 10
56.44601233991541
 20
11.25099999595638
 30
0.0
 10
56.44601233991541
 20
10.50099999595636
 30
0.0
  0
SPLINE
  5
3E
330
1F
100
AcDbEntity
  8
30x60 B
100
AcDbSpline
210
0.0
220
0.0
230
1.0
 70
     8
 71
     2
 72
    20
 73
    17
 74
     0
 42
0.0000000001
 43
0.0000000001
 40
-1.493932362919318
 40
-1.493932362919318
 40
-1.493932362919318
 40
46.5
 40
46.5
 40
46.81300000019795
 40
46.81300000019795
 40
48.43308134108953
 40
48.43308134108953
 40
48.45980508669223
 40
48.45980508669223
 40
93.45980508669223
 40
93.45980508669223
 40
93.4865288323019
 40
93.4865288323019
 40
95.1066101731925
 40
95.1066101731925
 40
95.41961017319203
 40
95.41961017319203
 40
95.41961017319203
 10
48.21322821099838
 20
42.0009999959564
 30
0.0
 10
63.21484757916628
 20
42.00099999595634
 30
0.0
 10
78.21646694733418
 20
42.00099999595628
 30
0.0
 10
78.21522096741167
 20
41.84391898592749
 30
0.0
 10
78.21397498748915
 20
41.6868379758987
 30
0.0
 10
77.47858284021302
 20
41.34391898592663
 30
0.0
 10
76.74319069293688
 20
41.00099999595455
 30
0.0
 10
76.72982882013554
 20
41.00099999595579
 30
0.0
 10
76.71646694733418
 20
41.00099999595704
 30
0.0
 10
63.21181376062594
 20
41.00099999595704
 30
0.0
 10
49.7071605739177
 20
41.00099999595704
 30
0.0
 10
49.69379870111286
 20
41.00099999595704
 30
0.0
 10
49.68043682830803
 20
41.00099999595704
 30
0.0
 10
48.94504468098999
 20
41.34391898599839
 30
0.0
 10
48.20965253367197
 20
41.68683797603973
 30
0.0
 10
48.20840655379483
 20
41.84391898599806
 30
0.0
 10
48.2071605739177
 20
42.00099999595639
 30
0.0
  0
SPLINE
  5
3F
330
1F
100
AcDbEntity
  8
30x60 B
100
AcDbSpline
210
0.0
220
0.0
230
1.0
 70
    11
 71
     2
 72
    12
 73
     9
 74
     0
 42
0.0000000001
 43
0.0000000001
 40
0.0
 40
0.0
 40
0.0
 40
28.86538748362489
 40
28.86538748362489
 40
31.61563748362489
 40
31.61563748362489
 40
60.48102496724977
 40
60.48102496724977
 40
63.23127496724977
 40
63.23127496724977
 40
63.23127496724977
 10
57.77446683210525
 20
41.00099999595639
 30
0.0
 10
63.21181376062594
 20
41.00099999595639
 30
0.0
 10
68.64916068914663
 20
41.00099999595639
 30
0.0
 10
68.64916068914663
 20
39.62587499595639
 30
0.0
 10
68.64916068914663
 20
38.25074999595639
 30
0.0
 10
63.21181376062594
 20
38.25074999595639
 30
0.0
 10
57.77446683210525
 20
38.25074999595639
 30
0.0
 10
57.77446683210525
 20
39.62587499595639
 30
0.0
 10
57.77446683210525
 20
41.00099999595639
 30
0.0
  0
SPLINE
  5
40
330
1F
100
AcDbEntity
  8
30x60 B
100
AcDbSpline
210
0.0
220
0.0
230
1.0
 70
    11
 71
     2
 72
    12
 73
     9
 74
     0
 42
0.0000000001
 43
0.0000000001
 40
0.0
 40
0.0
 40
0.0
 40
1.500007284915587
 40
1.500007284915587
 40
4.565753021944529
 40
4.565753021944529
 40
6.07158168237236
 40
6.07158168237236
 40
9.005038703131103
 40
9.005038703131103
 40
9.005038703131103
 10
56.44601233988856
 20
12.00099999595639
 30
0.0
 10
56.4460123402381
 20
11.2509963534986
 30
0.0
 10
56.44601234058764
 20
10.50099271104081
 30
0.0
 10
54.91313947207317
 20
10.50099271032641
 30
0.0
 10
53.13511393882671
 20
10.50099270949777
 30
0.0
 10
53.19957189206239
 20
11.25099635210065
 30
0.0
 10
53.26403046436376
 20
12.00099999458926
 30
0.0
 10
54.97928382950919
 20
12.00099999527283
 30
0.0
 10
56.44601233988856
 20
12.00099999595639
 30
0.0
  0
SPLINE
  5
41
330
1F
100
AcDbEntity
  8
30x60 B
100
AcDbSpline
210
0.0
220
0.0
230
1.0
 70
    15
 71
     2
 72
    18
 73
    15
 74
     0
 42
0.0000000001
 43
0.0000000001
 40
4.083241051814237
 40
4.083241051814237
 40
4.083241051814237
 40
6.421248470241959
 40
6.421248470241959
 40
47.03291888086422
 40
47.03291888086422
 40
50.08925302707351
 40
50.08925302707351
 40
81.29860987787288
 40
81.29860987787288
 40
82.050850682505
 40
82.050850682505
 40
82.35417502847893
 40
82.35417502847893
 40
85.38185092968712
 40
85.38185092968712
 40
85.38185092968712
 10
54.55059578399275
 20
40.81298834977266
 30
0.0
 41
1.0
 10
53.3815724170591
 20
40.81298857376183
 30
0.0
 41
1.0
 10
52.21254905012544
 20
40.81298879775099
 30
0.0
 41
1.0
 10
50.70764728013999
 20
20.56299439685367
 30
0.0
 41
1.0
 10
49.20274551015454
 20
0.3129999959563436
 30
0.0
 41
1.0
 10
50.73104226037024
 20
0.3129979643358428
 30
0.0
 41
1.0
 10
52.25933901058594
 20
0.3129959327153419
 30
0.0
 41
1.0
 10
53.85321004107368
 20
18.85734786029813
 30
0.0
 41
1.0
 10
55.44708107156143
 20
37.40169978788093
 30
0.0
 41
1.0
 10
55.07772222064258
 20
37.47294021515923
 30
0.0
 41
1.0
 10
54.70836336972373
 20
37.54418064243752
 30
0.0
 41
1.0
 10
54.5399504435726
 20
37.60405639086327
 30
0.0
 41
0.788094268021899
 10
54.55725792201808
 20
37.7835907645341
 30
0.0
 41
1.0
 10
54.55392685300542
 20
39.29828955715338
 30
0.0
 41
1.0
 10
54.55059578399275
 20
40.81298834977266
 30
0.0
 41
1.0
  0
SPLINE
  5
42
330
1F
100
AcDbEntity
  8
30x60 B
100
AcDbSpline
210
0.0
220
0.0
230
1.0
 70
    24
 71
     2
 72
     6
 73
     3
 74
     0
 42
0.0000000001
 43
0.0000000001
 40
-6.016568002144036
 40
-6.016568002144036
 40
-6.016568002144036
 40
34.59512045666924
 40
34.59512045666924
 40
34.59512045666924
 10
53.47642242788213
 20
40.81299999595639
 30
0.0
 10
51.97138819942623
 20
20.56300785175784
 30
0.0
 10
50.46635397097033
 20
0.3130157075592905
 30
0.0
  0
SPLINE
  5
43
330
1F
100
AcDbEntity
  8
30x60 B
100
AcDbSpline
210
0.0
220
0.0
230
1.0
 70
    15
 71
     2
 72
    16
 73
    13
 74
     0
 42
0.0000000001
 43
0.0000000001
 40
0.0
 40
0.0
 40
0.0
 40
2.790914725409877
 40
2.790914725409877
 40
2.978914721366277
 40
2.978914721366277
 40
3.175092058140855
 40
3.175092058140855
 40
5.698831706186326
 40
5.698831706186326
 40
5.908289486528923
 40
5.908289486528923
 40
6.096289482485321
 40
6.096289482485321
 40
6.096289482485321
 10
52.08714936369651
 20
0.3129808191120874
 30
0.0
 41
1.0
 10
50.69169200099157
 20
0.3129808191120874
 30
0.0
 41
1.0
 10
49.29623463828663
 20
0.3129808191120874
 30
0.0
 41
1.0
 10
49.29616603504221
 20
0.2189808211338876
 30
0.0
 41
1.0
 10
49.29609743179778
 20
0.1249808231556878
 30
0.0
 41
1.0
 10
49.29648053307056
 20
0.0004497125113142
 30
0.0
 41
0.7099102601513743
 10
49.42122610036471
 20
-0.0000191768413391
 30
0.0
 41
1.000001881067515
 10
50.68320333723663
 20
-0.0000191768428252
 30
0.0
 41
1.000001881067515
 10
51.94518057410856
 20
-0.0000191768443114
 30
0.0
 41
1.000001881067515
 10
52.07726929799449
 20
-0.0069184379624319
 30
0.0
 41
0.7150467987835217
 10
52.08714936369675
 20
0.1249808231556896
 30
0.0
 41
1.000001881067515
 10
52.08714936369662
 20
0.2189808211338885
 30
0.0
 41
1.000001881067515
 10
52.08714936369651
 20
0.3129808191120874
 30
0.0
 41
1.0
  0
SPLINE
  5
44
330
1F
100
AcDbEntity
  8
30x60 B
100
AcDbSpline
210
0.0
220
0.0
230
1.0
 70
    11
 71
     2
 72
    12
 73
     9
 74
     0
 42
0.0000000001
 43
0.0000000001
 40
0.0
 40
0.0
 40
0.0
 40
7.381635493493285
 40
7.381635493493285
 40
7.569635493493287
 40
7.569635493493287
 40
14.95127098698657
 40
14.95127098698657
 40
15.13927098698657
 40
15.13927098698657
 40
15.13927098698657
 10
57.77446683210525
 20
40.81299999595639
 30
0.0
 10
54.08364908535862
 20
40.81299999595639
 30
0.0
 10
50.39283133861197
 20
40.81299999595639
 30
0.0
 10
50.39283133861197
 20
40.90699999595639
 30
0.0
 10
50.39283133861197
 20
41.00099999595639
 30
0.0
 10
54.08364908535862
 20
41.00099999595639
 30
0.0
 10
57.77446683210525
 20
41.00099999595639
 30
0.0
 10
57.77446683210525
 20
40.90699999595639
 30
0.0
 10
57.77446683210525
 20
40.81299999595639
 30
0.0
  0
SPLINE
  5
45
330
1F
100
AcDbEntity
  8
30x60 B
100
AcDbSpline
210
0.0
220
0.0
230
1.0
 70
    15
 71
     2
 72
    16
 73
    13
 74
     0
 42
0.0000000001
 43
0.0000000001
 40
0.0
 40
0.0
 40
0.0
 40
3.175809548287447
 40
3.175809548287447
 40
6.199883641578445
 40
6.199883641578445
 40
6.437320578566601
 40
6.437320578566601
 40
7.189617391048195
 40
7.189617391048195
 40
9.63981605560816
 40
9.63981605560816
 40
12.20206605560816
 40
12.20206605560816
 40
12.20206605560816
 10
57.77446683210525
 20
40.81299999595639
 30
0.0
 41
1.0
 10
56.18656205796153
 20
40.81299999595639
 30
0.0
 41
1.0
 10
54.59865728381781
 20
40.81299999595639
 30
0.0
 41
1.0
 10
54.59865728381781
 20
39.30096294931089
 30
0.0
 41
1.0
 10
54.59865728381781
 20
37.78892590266539
 30
0.0
 41
1.0
 10
54.58470261960942
 20
37.64968472412695
 30
0.0
 41
0.7873178403761734
 10
54.71653769428889
 20
37.60275550574225
 30
0.0
 41
1.0
 10
55.08587410153486
 20
37.53149372215431
 30
0.0
 41
1.0
 10
55.45521050878082
 20
37.46023193856636
 30
0.0
 41
1.0
 10
56.61483867044304
 20
37.85542846726138
 30
0.0
 41
1.0
 10
57.77446683210526
 20
38.25062499595639
 30
0.0
 41
1.0
 10
57.77446683210526
 20
39.53181249595639
 30
0.0
 41
1.0
 10
57.77446683210525
 20
40.81299999595639
 30
0.0
 41
1.0
  0
SPLINE
  5
46
330
1F
100
AcDbEntity
  8
30x60 B
100
AcDbSpline
210
0.0
220
0.0
230
1.0
 70
    15
 71
     2
 72
    18
 73
    15
 74
     0
 42
0.0000000001
 43
0.0000000001
 40
4.083241051814237
 40
4.083241051814237
 40
4.083241051814237
 40
6.421248470241959
 40
6.421248470241959
 40
47.03291888086422
 40
47.03291888086422
 40
50.08925302707351
 40
50.08925302707351
 40
81.29860987787288
 40
81.29860987787288
 40
82.050850682505
 40
82.050850682505
 40
82.35417502847893
 40
82.35417502847893
 40
85.38185092968712
 40
85.38185092968712
 40
85.38185092968712
 10
71.87303173725913
 20
40.81298834977266
 30
0.0
 41
1.0
 10
73.04205510419278
 20
40.81298857376183
 30
0.0
 41
1.0
 10
74.21107847112644
 20
40.81298879775099
 30
0.0
 41
1.0
 10
75.7159802411119
 20
20.56299439685367
 30
0.0
 41
1.0
 10
77.22088201109733
 20
0.3129999959563436
 30
0.0
 41
1.0
 10
75.69258526088164
 20
0.3129979643358428
 30
0.0
 41
1.0
 10
74.16428851066594
 20
0.3129959327153419
 30
0.0
 41
1.0
 10
72.5704174801782
 20
18.85734786029813
 30
0.0
 41
1.0
 10
70.97654644969045
 20
37.40169978788093
 30
0.0
 41
1.0
 10
71.34590530060929
 20
37.47294021515923
 30
0.0
 41
1.0
 10
71.71526415152815
 20
37.54418064243752
 30
0.0
 41
1.0
 10
71.88367707767928
 20
37.60405639086327
 30
0.0
 41
0.788094268021899
 10
71.86636959923379
 20
37.7835907645341
 30
0.0
 41
1.0
 10
71.86970066824647
 20
39.29828955715338
 30
0.0
 41
1.0
 10
71.87303173725913
 20
40.81298834977266
 30
0.0
 41
1.0
  0
SPLINE
  5
47
330
1F
100
AcDbEntity
  8
30x60 B
100
AcDbSpline
210
0.0
220
0.0
230
1.0
 70
    24
 71
     2
 72
     6
 73
     3
 74
     0
 42
0.0000000001
 43
0.0000000001
 40
-6.016568002144036
 40
-6.016568002144036
 40
-6.016568002144036
 40
34.59512045666924
 40
34.59512045666924
 40
34.59512045666924
 10
72.94720509336975
 20
40.81299999595639
 30
0.0
 10
74.45223932182564
 20
20.56300785175784
 30
0.0
 10
75.95727355028154
 20
0.3130157075592905
 30
0.0
  0
SPLINE
  5
48
330
1F
100
AcDbEntity
  8
30x60 B
100
AcDbSpline
210
0.0
220
0.0
230
1.0
 70
    15
 71
     2
 72
    16
 73
    13
 74
     0
 42
0.0000000001
 43
0.0000000001
 40
0.0
 40
0.0
 40
0.0
 40
2.790914725409877
 40
2.790914725409877
 40
2.978914721366277
 40
2.978914721366277
 40
3.175092058140855
 40
3.175092058140855
 40
5.698831706186326
 40
5.698831706186326
 40
5.908289486528923
 40
5.908289486528923
 40
6.096289482485321
 40
6.096289482485321
 40
6.096289482485321
 10
74.33647815755536
 20
0.3129808191120874
 30
0.0
 41
1.0
 10
75.73193552026031
 20
0.3129808191120874
 30
0.0
 41
1.0
 10
77.12739288296524
 20
0.3129808191120874
 30
0.0
 41
1.0
 10
77.12746148620967
 20
0.2189808211338876
 30
0.0
 41
1.0
 10
77.12753008945408
 20
0.1249808231556878
 30
0.0
 41
1.0
 10
77.12714698818131
 20
0.0004497125113142
 30
0.0
 41
0.7099102601513743
 10
77.00240142088715
 20
-0.0000191768413391
 30
0.0
 41
1.000001881067515
 10
75.74042418401521
 20
-0.0000191768428252
 30
0.0
 41
1.000001881067515
 10
74.47844694714331
 20
-0.0000191768443114
 30
0.0
 41
1.000001881067515
 10
74.34635822325738
 20
-0.0069184379624319
 30
0.0
 41
0.7150467987835217
 10
74.33647815755513
 20
0.1249808231556896
 30
0.0
 41
1.000001881067515
 10
74.33647815755525
 20
0.2189808211338885
 30
0.0
 41
1.000001881067515
 10
74.33647815755536
 20
0.3129808191120874
 30
0.0
 41
1.0
  0
SPLINE
  5
49
330
1F
100
AcDbEntity
  8
30x60 B
100
AcDbSpline
210
0.0
220
0.0
230
1.0
 70
    11
 71
     2
 72
    12
 73
     9
 74
     0
 42
0.0000000001
 43
0.0000000001
 40
0.0
 40
0.0
 40
0.0
 40
1.500007284915587
 40
1.500007284915587
 40
4.565753021944529
 40
4.565753021944529
 40
6.07158168237236
 40
6.07158168237236
 40
9.005038703131103
 40
9.005038703131103
 40
9.005038703131103
 10
69.97761518136332
 20
12.00099999595639
 30
0.0
 10
69.97761518101377
 20
11.2509963534986
 30
0.0
 10
69.97761518066424
 20
10.50099271104081
 30
0.0
 10
71.5104880491787
 20
10.50099271032641
 30
0.0
 10
73.28851358242517
 20
10.50099270949777
 30
0.0
 10
73.22405562918948
 20
11.25099635210065
 30
0.0
 10
73.15959705688812
 20
12.00099999458926
 30
0.0
 10
71.44434369174269
 20
12.00099999527283
 30
0.0
 10
69.97761518136332
 20
12.00099999595639
 30
0.0
  0
SPLINE
  5
4A
330
1F
100
AcDbEntity
  8
30x60 B
100
AcDbSpline
210
0.0
220
0.0
230
1.0
 70
    11
 71
     2
 72
    12
 73
     9
 74
     0
 42
0.0000000001
 43
0.0000000001
 40
0.0
 40
0.0
 40
0.0
 40
7.381635493493285
 40
7.381635493493285
 40
7.569635493493287
 40
7.569635493493287
 40
14.95127098698657
 40
14.95127098698657
 40
15.13927098698657
 40
15.13927098698657
 40
15.13927098698657
 10
68.64916068914663
 20
40.81299999595639
 30
0.0
 10
72.33997843589327
 20
40.81299999595639
 30
0.0
 10
76.0307961826399
 20
40.81299999595639
 30
0.0
 10
76.0307961826399
 20
40.90699999595639
 30
0.0
 10
76.0307961826399
 20
41.00099999595639
 30
0.0
 10
72.33997843589327
 20
41.00099999595639
 30
0.0
 10
68.64916068914663
 20
41.00099999595639
 30
0.0
 10
68.64916068914663
 20
40.90699999595639
 30
0.0
 10
68.64916068914663
 20
40.81299999595639
 30
0.0
  0
SPLINE
  5
4B
330
1F
100
AcDbEntity
  8
30x60 B
100
AcDbSpline
210
0.0
220
0.0
230
1.0
 70
    15
 71
     2
 72
    16
 73
    13
 74
     0
 42
0.0000000001
 43
0.0000000001
 40
0.0
 40
0.0
 40
0.0
 40
3.175809548287447
 40
3.175809548287447
 40
6.199883641578445
 40
6.199883641578445
 40
6.437320578566601
 40
6.437320578566601
 40
7.189617391048195
 40
7.189617391048195
 40
9.63981605560816
 40
9.63981605560816
 40
12.20206605560816
 40
12.20206605560816
 40
12.20206605560816
 10
68.64916068914663
 20
40.81299999595639
 30
0.0
 41
1.0
 10
70.23706546329035
 20
40.81299999595639
 30
0.0
 41
1.0
 10
71.82497023743407
 20
40.81299999595639
 30
0.0
 41
1.0
 10
71.82497023743407
 20
39.30096294931089
 30
0.0
 41
1.0
 10
71.82497023743407
 20
37.78892590266539
 30
0.0
 41
1.0
 10
71.83892490164249
 20
37.64968472412695
 30
0.0
 41
0.7873178403761734
 10
71.70708982696299
 20
37.60275550574225
 30
0.0
 41
1.0
 10
71.33775341971702
 20
37.53149372215431
 30
0.0
 41
1.0
 10
70.96841701247105
 20
37.46023193856636
 30
0.0
 41
1.0
 10
69.80878885080882
 20
37.85542846726138
 30
0.0
 41
1.0
 10
68.64916068914661
 20
38.25062499595639
 30
0.0
 41
1.0
 10
68.64916068914663
 20
39.53181249595639
 30
0.0
 41
1.0
 10
68.64916068914663
 20
40.81299999595639
 30
0.0
 41
1.0
  0
SPLINE
  5
4C
330
1F
100
AcDbEntity
  8
30x60 B
100
AcDbSpline
210
0.0
220
0.0
230
1.0
 70
    11
 71
     2
 72
    12
 73
     9
 74
     0
 42
0.0000000001
 43
0.0000000001
 40
0.0
 40
0.0
 40
0.0
 40
31.77560337649145
 40
31.77560337649145
 40
33.27560337649148
 40
33.27560337649148
 40
65.05120675298294
 40
65.05120675298294
 40
66.55120675298296
 40
66.55120675298296
 40
66.55120675298296
 10
-21.76114823400229
 20
10.50099999595636
 30
0.0
 10
0.1238381898601819
 20
10.50099999595636
 30
0.0
 10
22.00882461372266
 20
10.50099999595636
 30
0.0
 10
22.00882461372266
 20
11.25099999595638
 30
0.0
 10
22.00882461372266
 20
12.00099999595639
 30
0.0
 10
0.1238381898601819
 20
12.00099999595639
 30
0.0
 10
-21.76114823400229
 20
12.00099999595639
 30
0.0
 10
-21.76114823400229
 20
11.25099999595638
 30
0.0
 10
-21.76114823400229
 20
10.50099999595636
 30
0.0
  0
SPLINE
  5
4D
330
1F
100
AcDbEntity
  8
30x60 B
100
AcDbSpline
210
0.0
220
0.0
230
1.0
 70
     8
 71
     2
 72
    20
 73
    17
 74
     0
 42
0.0000000001
 43
0.0000000001
 40
-1.493932362919318
 40
-1.493932362919318
 40
-1.493932362919318
 40
46.5
 40
46.5
 40
46.81300000019795
 40
46.81300000019795
 40
48.43308134108953
 40
48.43308134108953
 40
48.45980508669223
 40
48.45980508669223
 40
93.45980508669223
 40
93.45980508669223
 40
93.4865288323019
 40
93.4865288323019
 40
95.1066101731925
 40
95.1066101731925
 40
95.41961017319203
 40
95.41961017319203
 40
95.41961017319203
 10
-29.99393236291932
 20
42.0009999959564
 30
0.0
 10
0.003033818540338
 20
42.00099999595634
 30
0.0
 10
30.0
 20
42.00099999595628
 30
0.0
 10
29.99875402007749
 20
41.84391898592749
 30
0.0
 10
29.99750804015498
 20
41.6868379758987
 30
0.0
 10
29.26211589287884
 20
41.34391898592663
 30
0.0
 10
28.5267237456027
 20
41.00099999595455
 30
0.0
 10
28.51336187280135
 20
41.00099999595579
 30
0.0
 10
28.5
 20
41.00099999595704
 30
0.0
 10
-0.0000000000000036
 20
41.00099999595704
 30
0.0
 10
-28.50000000000001
 20
41.00099999595704
 30
0.0
 10
-28.51336187280484
 20
41.00099999595704
 30
0.0
 10
-28.52672374560968
 20
41.00099999595704
 30
0.0
 10
-29.26211589292771
 20
41.34391898599839
 30
0.0
 10
-29.99750804024573
 20
41.68683797603973
 30
0.0
 10
-29.99875402012287
 20
41.84391898599806
 30
0.0
 10
-30.00000000000001
 20
42.00099999595639
 30
0.0
  0
SPLINE
  5
4E
330
1F
100
AcDbEntity
  8
30x60 B
100
AcDbSpline
210
0.0
220
0.0
230
1.0
 70
    11
 71
     2
 72
    12
 73
     9
 74
     0
 42
0.0000000001
 43
0.0000000001
 40
0.0
 40
0.0
 40
0.0
 40
28.86538748362489
 40
28.86538748362489
 40
31.61563748362489
 40
31.61563748362489
 40
60.48102496724977
 40
60.48102496724977
 40
63.23127496724977
 40
63.23127496724977
 40
63.23127496724977
 10
-20.43269374181245
 20
41.00099999595639
 30
0.0
 10
-0.0000000000000036
 20
41.00099999595639
 30
0.0
 10
20.43269374181244
 20
41.00099999595639
 30
0.0
 10
20.43269374181244
 20
39.62587499595639
 30
0.0
 10
20.43269374181244
 20
38.25074999595639
 30
0.0
 10
-0.0000000000000036
 20
38.25074999595639
 30
0.0
 10
-20.43269374181245
 20
38.25074999595639
 30
0.0
 10
-20.43269374181245
 20
39.62587499595639
 30
0.0
 10
-20.43269374181245
 20
41.00099999595639
 30
0.0
  0
SPLINE
  5
4F
330
1F
100
AcDbEntity
  8
30x60 B
100
AcDbSpline
210
0.0
220
0.0
230
1.0
 70
    11
 71
     2
 72
    12
 73
     9
 74
     0
 42
0.0000000001
 43
0.0000000001
 40
0.0
 40
0.0
 40
0.0
 40
1.500007284915587
 40
1.500007284915587
 40
4.565753021944529
 40
4.565753021944529
 40
6.07158168237236
 40
6.07158168237236
 40
9.005038703131103
 40
9.005038703131103
 40
9.005038703131103
 10
-21.76114823402914
 20
12.00099999595639
 30
0.0
 10
-21.76114823367961
 20
11.2509963534986
 30
0.0
 10
-21.76114823333007
 20
10.50099271104081
 30
0.0
 10
-23.29402110184454
 20
10.50099271032641
 30
0.0
 10
-25.072046635091
 20
10.50099270949777
 30
0.0
 10
-25.00758868185531
 20
11.25099635210065
 30
0.0
 10
-24.94313010955394
 20
12.00099999458926
 30
0.0
 10
-23.22787674440852
 20
12.00099999527283
 30
0.0
 10
-21.76114823402914
 20
12.00099999595639
 30
0.0
  0
SPLINE
  5
50
330
1F
100
AcDbEntity
  8
30x60 B
100
AcDbSpline
210
0.0
220
0.0
230
1.0
 70
    15
 71
     2
 72
    18
 73
    15
 74
     0
 42
0.0000000001
 43
0.0000000001
 40
4.083241051814237
 40
4.083241051814237
 40
4.083241051814237
 40
6.421248470241959
 40
6.421248470241959
 40
47.03291888086422
 40
47.03291888086422
 40
50.08925302707351
 40
50.08925302707351
 40
81.29860987787288
 40
81.29860987787288
 40
82.050850682505
 40
82.050850682505
 40
82.35417502847893
 40
82.35417502847893
 40
85.38185092968712
 40
85.38185092968712
 40
85.38185092968712
 10
-23.65656478992495
 20
40.81298834977266
 30
0.0
 41
1.0
 10
-24.82558815685861
 20
40.81298857376183
 30
0.0
 41
1.0
 10
-25.99461152379227
 20
40.81298879775099
 30
0.0
 41
1.0
 10
-27.49951329377771
 20
20.56299439685367
 30
0.0
 41
1.0
 10
-29.00441506376316
 20
0.3129999959563436
 30
0.0
 41
1.0
 10
-27.47611831354746
 20
0.3129979643358428
 30
0.0
 41
1.0
 10
-25.94782156333176
 20
0.3129959327153419
 30
0.0
 41
1.0
 10
-24.35395053284402
 20
18.85734786029813
 30
0.0
 41
1.0
 10
-22.76007950235628
 20
37.40169978788093
 30
0.0
 41
1.0
 10
-23.12943835327513
 20
37.47294021515923
 30
0.0
 41
1.0
 10
-23.49879720419398
 20
37.54418064243752
 30
0.0
 41
1.0
 10
-23.66721013034511
 20
37.60405639086327
 30
0.0
 41
0.788094268021899
 10
-23.64990265189962
 20
37.7835907645341
 30
0.0
 41
1.0
 10
-23.65323372091229
 20
39.29828955715338
 30
0.0
 41
1.0
 10
-23.65656478992495
 20
40.81298834977266
 30
0.0
 41
1.0
  0
SPLINE
  5
51
330
1F
100
AcDbEntity
  8
30x60 B
100
AcDbSpline
210
0.0
220
0.0
230
1.0
 70
    24
 71
     2
 72
     6
 73
     3
 74
     0
 42
0.0000000001
 43
0.0000000001
 40
-6.016568002144036
 40
-6.016568002144036
 40
-6.016568002144036
 40
34.59512045666924
 40
34.59512045666924
 40
34.59512045666924
 10
-24.73073814603558
 20
40.81299999595639
 30
0.0
 10
-26.23577237449148
 20
20.56300785175784
 30
0.0
 10
-27.74080660294737
 20
0.3130157075592905
 30
0.0
  0
SPLINE
  5
52
330
1F
100
AcDbEntity
  8
30x60 B
100
AcDbSpline
210
0.0
220
0.0
230
1.0
 70
    15
 71
     2
 72
    16
 73
    13
 74
     0
 42
0.0000000001
 43
0.0000000001
 40
0.0
 40
0.0
 40
0.0
 40
2.790914725409877
 40
2.790914725409877
 40
2.978914721366277
 40
2.978914721366277
 40
3.175092058140855
 40
3.175092058140855
 40
5.698831706186326
 40
5.698831706186326
 40
5.908289486528923
 40
5.908289486528923
 40
6.096289482485321
 40
6.096289482485321
 40
6.096289482485321
 10
-26.12001121022119
 20
0.3129808191120874
 30
0.0
 41
1.0
 10
-27.51546857292613
 20
0.3129808191120874
 30
0.0
 41
1.0
 10
-28.91092593563107
 20
0.3129808191120874
 30
0.0
 41
1.0
 10
-28.9109945388755
 20
0.2189808211338876
 30
0.0
 41
1.0
 10
-28.91106314211992
 20
0.1249808231556878
 30
0.0
 41
1.0
 10
-28.91068004084714
 20
0.0004497125113142
 30
0.0
 41
0.7099102601513743
 10
-28.78593447355299
 20
-0.0000191768413391
 30
0.0
 41
1.000001881067515
 10
-27.52395723668107
 20
-0.0000191768428252
 30
0.0
 41
1.000001881067515
 10
-26.26197999980914
 20
-0.0000191768443114
 30
0.0
 41
1.000001881067515
 10
-26.12989127592322
 20
-0.0069184379624319
 30
0.0
 41
0.7150467987835217
 10
-26.12001121022096
 20
0.1249808231556896
 30
0.0
 41
1.000001881067515
 10
-26.12001121022108
 20
0.2189808211338885
 30
0.0
 41
1.000001881067515
 10
-26.12001121022119
 20
0.3129808191120874
 30
0.0
 41
1.0
  0
SPLINE
  5
53
330
1F
100
AcDbEntity
  8
30x60 B
100
AcDbSpline
210
0.0
220
0.0
230
1.0
 70
    11
 71
     2
 72
    12
 73
     9
 74
     0
 42
0.0000000001
 43
0.0000000001
 40
0.0
 40
0.0
 40
0.0
 40
7.381635493493285
 40
7.381635493493285
 40
7.569635493493287
 40
7.569635493493287
 40
14.95127098698657
 40
14.95127098698657
 40
15.13927098698657
 40
15.13927098698657
 40
15.13927098698657
 10
-20.43269374181245
 20
40.81299999595639
 30
0.0
 10
-24.12351148855909
 20
40.81299999595639
 30
0.0
 10
-27.81432923530573
 20
40.81299999595639
 30
0.0
 10
-27.81432923530573
 20
40.90699999595639
 30
0.0
 10
-27.81432923530573
 20
41.00099999595639
 30
0.0
 10
-24.12351148855909
 20
41.00099999595639
 30
0.0
 10
-20.43269374181245
 20
41.00099999595639
 30
0.0
 10
-20.43269374181245
 20
40.90699999595639
 30
0.0
 10
-20.43269374181245
 20
40.81299999595639
 30
0.0
  0
SPLINE
  5
54
330
1F
100
AcDbEntity
  8
30x60 B
100
AcDbSpline
210
0.0
220
0.0
230
1.0
 70
    15
 71
     2
 72
    16
 73
    13
 74
     0
 42
0.0000000001
 43
0.0000000001
 40
0.0
 40
0.0
 40
0.0
 40
3.175809548287447
 40
3.175809548287447
 40
6.199883641578445
 40
6.199883641578445
 40
6.437320578566601
 40
6.437320578566601
 40
7.189617391048195
 40
7.189617391048195
 40
9.63981605560816
 40
9.63981605560816
 40
12.20206605560816
 40
12.20206605560816
 40
12.20206605560816
 10
-20.43269374181245
 20
40.81299999595639
 30
0.0
 41
1.0
 10
-22.02059851595617
 20
40.81299999595639
 30
0.0
 41
1.0
 10
-23.6085032900999
 20
40.81299999595639
 30
0.0
 41
1.0
 10
-23.6085032900999
 20
39.30096294931089
 30
0.0
 41
1.0
 10
-23.6085032900999
 20
37.78892590266539
 30
0.0
 41
1.0
 10
-23.6224579543083
 20
37.64968472412695
 30
0.0
 41
0.7873178403761734
 10
-23.49062287962882
 20
37.60275550574225
 30
0.0
 41
1.0
 10
-23.12128647238285
 20
37.53149372215431
 30
0.0
 41
1.0
 10
-22.75195006513689
 20
37.46023193856636
 30
0.0
 41
1.0
 10
-21.59232190347467
 20
37.85542846726138
 30
0.0
 41
1.0
 10
-20.43269374181244
 20
38.25062499595639
 30
0.0
 41
1.0
 10
-20.43269374181245
 20
39.53181249595639
 30
0.0
 41
1.0
 10
-20.43269374181245
 20
40.81299999595639
 30
0.0
 41
1.0
  0
SPLINE
  5
55
330
1F
100
AcDbEntity
  8
30x60 B
100
AcDbSpline
210
0.0
220
0.0
230
1.0
 70
    15
 71
     2
 72
    18
 73
    15
 74
     0
 42
0.0000000001
 43
0.0000000001
 40
4.083241051814237
 40
4.083241051814237
 40
4.083241051814237
 40
6.421248470241959
 40
6.421248470241959
 40
47.03291888086422
 40
47.03291888086422
 40
50.08925302707351
 40
50.08925302707351
 40
81.29860987787288
 40
81.29860987787288
 40
82.050850682505
 40
82.050850682505
 40
82.35417502847893
 40
82.35417502847893
 40
85.38185092968712
 40
85.38185092968712
 40
85.38185092968712
 10
23.65656478992494
 20
40.81298834977266
 30
0.0
 41
1.0
 10
24.8255881568586
 20
40.81298857376183
 30
0.0
 41
1.0
 10
25.99461152379226
 20
40.81298879775099
 30
0.0
 41
1.0
 10
27.4995132937777
 20
20.56299439685367
 30
0.0
 41
1.0
 10
29.00441506376315
 20
0.3129999959563436
 30
0.0
 41
1.0
 10
27.47611831354745
 20
0.3129979643358428
 30
0.0
 41
1.0
 10
25.94782156333176
 20
0.3129959327153419
 30
0.0
 41
1.0
 10
24.35395053284401
 20
18.85734786029813
 30
0.0
 41
1.0
 10
22.76007950235627
 20
37.40169978788093
 30
0.0
 41
1.0
 10
23.12943835327512
 20
37.47294021515923
 30
0.0
 41
1.0
 10
23.49879720419397
 20
37.54418064243752
 30
0.0
 41
1.0
 10
23.6672101303451
 20
37.60405639086327
 30
0.0
 41
0.788094268021899
 10
23.64990265189962
 20
37.7835907645341
 30
0.0
 41
1.0
 10
23.65323372091228
 20
39.29828955715338
 30
0.0
 41
1.0
 10
23.65656478992494
 20
40.81298834977266
 30
0.0
 41
1.0
  0
SPLINE
  5
56
330
1F
100
AcDbEntity
  8
30x60 B
100
AcDbSpline
210
0.0
220
0.0
230
1.0
 70
    24
 71
     2
 72
     6
 73
     3
 74
     0
 42
0.0000000001
 43
0.0000000001
 40
-6.016568002144036
 40
-6.016568002144036
 40
-6.016568002144036
 40
34.59512045666924
 40
34.59512045666924
 40
34.59512045666924
 10
24.73073814603557
 20
40.81299999595639
 30
0.0
 10
26.23577237449147
 20
20.56300785175784
 30
0.0
 10
27.74080660294737
 20
0.3130157075592905
 30
0.0
  0
SPLINE
  5
57
330
1F
100
AcDbEntity
  8
30x60 B
100
AcDbSpline
210
0.0
220
0.0
230
1.0
 70
    15
 71
     2
 72
    16
 73
    13
 74
     0
 42
0.0000000001
 43
0.0000000001
 40
0.0
 40
0.0
 40
0.0
 40
2.790914725409877
 40
2.790914725409877
 40
2.978914721366277
 40
2.978914721366277
 40
3.175092058140855
 40
3.175092058140855
 40
5.698831706186326
 40
5.698831706186326
 40
5.908289486528923
 40
5.908289486528923
 40
6.096289482485321
 40
6.096289482485321
 40
6.096289482485321
 10
26.12001121022119
 20
0.3129808191120874
 30
0.0
 41
1.0
 10
27.51546857292612
 20
0.3129808191120874
 30
0.0
 41
1.0
 10
28.91092593563106
 20
0.3129808191120874
 30
0.0
 41
1.0
 10
28.91099453887549
 20
0.2189808211338876
 30
0.0
 41
1.0
 10
28.91106314211991
 20
0.1249808231556878
 30
0.0
 41
1.0
 10
28.91068004084713
 20
0.0004497125113142
 30
0.0
 41
0.7099102601513743
 10
28.78593447355298
 20
-0.0000191768413391
 30
0.0
 41
1.000001881067515
 10
27.52395723668106
 20
-0.0000191768428252
 30
0.0
 41
1.000001881067515
 10
26.26197999980914
 20
-0.0000191768443114
 30
0.0
 41
1.000001881067515
 10
26.12989127592321
 20
-0.0069184379624319
 30
0.0
 41
0.7150467987835217
 10
26.12001121022095
 20
0.1249808231556896
 30
0.0
 41
1.000001881067515
 10
26.12001121022107
 20
0.2189808211338885
 30
0.0
 41
1.000001881067515
 10
26.12001121022119
 20
0.3129808191120874
 30
0.0
 41
1.0
  0
SPLINE
  5
58
330
1F
100
AcDbEntity
  8
30x60 B
100
AcDbSpline
210
0.0
220
0.0
230
1.0
 70
    11
 71
     2
 72
    12
 73
     9
 74
     0
 42
0.0000000001
 43
0.0000000001
 40
0.0
 40
0.0
 40
0.0
 40
1.500007284915587
 40
1.500007284915587
 40
4.565753021944529
 40
4.565753021944529
 40
6.07158168237236
 40
6.07158168237236
 40
9.005038703131103
 40
9.005038703131103
 40
9.005038703131103
 10
21.76114823402914
 20
12.00099999595639
 30
0.0
 10
21.7611482336796
 20
11.2509963534986
 30
0.0
 10
21.76114823333006
 20
10.50099271104081
 30
0.0
 10
23.29402110184453
 20
10.50099271032641
 30
0.0
 10
25.072046635091
 20
10.50099270949777
 30
0.0
 10
25.0075886818553
 20
11.25099635210065
 30
0.0
 10
24.94313010955394
 20
12.00099999458926
 30
0.0
 10
23.22787674440851
 20
12.00099999527283
 30
0.0
 10
21.76114823402914
 20
12.00099999595639
 30
0.0
  0
SPLINE
  5
59
330
1F
100
AcDbEntity
  8
30x60 B
100
AcDbSpline
210
0.0
220
0.0
230
1.0
 70
    11
 71
     2
 72
    12
 73
     9
 74
     0
 42
0.0000000001
 43
0.0000000001
 40
0.0
 40
0.0
 40
0.0
 40
7.381635493493285
 40
7.381635493493285
 40
7.569635493493287
 40
7.569635493493287
 40
14.95127098698657
 40
14.95127098698657
 40
15.13927098698657
 40
15.13927098698657
 40
15.13927098698657
 10
20.43269374181244
 20
40.81299999595639
 30
0.0
 10
24.12351148855909
 20
40.81299999595639
 30
0.0
 10
27.81432923530573
 20
40.81299999595639
 30
0.0
 10
27.81432923530573
 20
40.90699999595639
 30
0.0
 10
27.81432923530573
 20
41.00099999595639
 30
0.0
 10
24.12351148855909
 20
41.00099999595639
 30
0.0
 10
20.43269374181244
 20
41.00099999595639
 30
0.0
 10
20.43269374181244
 20
40.90699999595639
 30
0.0
 10
20.43269374181244
 20
40.81299999595639
 30
0.0
  0
SPLINE
  5
5A
330
1F
100
AcDbEntity
  8
30x60 B
100
AcDbSpline
210
0.0
220
0.0
230
1.0
 70
    15
 71
     2
 72
    16
 73
    13
 74
     0
 42
0.0000000001
 43
0.0000000001
 40
0.0
 40
0.0
 40
0.0
 40
3.175809548287447
 40
3.175809548287447
 40
6.199883641578445
 40
6.199883641578445
 40
6.437320578566601
 40
6.437320578566601
 40
7.189617391048195
 40
7.189617391048195
 40
9.63981605560816
 40
9.63981605560816
 40
12.20206605560816
 40
12.20206605560816
 40
12.20206605560816
 10
20.43269374181244
 20
40.81299999595639
 30
0.0
 41
1.0
 10
22.02059851595617
 20
40.81299999595639
 30
0.0
 41
1.0
 10
23.60850329009989
 20
40.81299999595639
 30
0.0
 41
1.0
 10
23.60850329009989
 20
39.30096294931089
 30
0.0
 41
1.0
 10
23.60850329009989
 20
37.78892590266539
 30
0.0
 41
1.0
 10
23.62245795430829
 20
37.64968472412695
 30
0.0
 41
0.7873178403761734
 10
23.49062287962881
 20
37.60275550574225
 30
0.0
 41
1.0
 10
23.12128647238285
 20
37.53149372215431
 30
0.0
 41
1.0
 10
22.75195006513688
 20
37.46023193856636
 30
0.0
 41
1.0
 10
21.59232190347466
 20
37.85542846726138
 30
0.0
 41
1.0
 10
20.43269374181244
 20
38.25062499595639
 30
0.0
 41
1.0
 10
20.43269374181244
 20
39.53181249595639
 30
0.0
 41
1.0
 10
20.43269374181244
 20
40.81299999595639
 30
0.0
 41
1.0
  0
ENDSEC
  0
SECTION
  2
OBJECTS
  0
DICTIONARY
  5
C
330
0
100
AcDbDictionary
281
     1
  3
ACAD_GROUP
350
D
  3
ACAD_LAYOUT
350
1A
  3
ACAD_MLEADERSTYLE
350
5C
  3
ACAD_MLINESTYLE
350
17
  3
ACAD_PLOTSETTINGS
350
19
  3
ACAD_PLOTSTYLENAME
350
E
  3
ACAD_TABLESTYLE
350
5B
  3
ACAD_VISUALSTYLE
350
2A
  0
DICTIONARY
  5
D
102
{ACAD_REACTORS
330
C
102
}
330
C
100
AcDbDictionary
281
     1
  0
DICTIONARY
  5
1A
102
{ACAD_REACTORS
330
C
102
}
330
C
100
AcDbDictionary
281
     1
  3
Layout1
350
1E
  3
Layout2
350
26
  3
Model
350
22
  0
DICTIONARY
  5
5C
102
{ACAD_REACTORS
330
C
102
}
330
C
100
AcDbDictionary
281
     1
  0
DICTIONARY
  5
17
102
{ACAD_REACTORS
330
C
102
}
330
C
100
AcDbDictionary
281
     1
  3
Standard
350
18
  0
DICTIONARY
  5
19
102
{ACAD_REACTORS
330
C
102
}
330
C
100
AcDbDictionary
281
     1
  0
ACDBDICTIONARYWDFLT
  5
E
102
{ACAD_REACTORS
330
C
102
}
330
C
100
AcDbDictionary
281
     1
  3
Normal
350
F
100
AcDbDictionaryWithDefault
340
F
  0
DICTIONARY
  5
5B
102
{ACAD_REACTORS
330
C
102
}
330
C
100
AcDbDictionary
281
     1
  0
DICTIONARY
  5
2A
102
{ACAD_REACTORS
330
C
102
}
330
C
100
AcDbDictionary
281
     1
  3
2dWireframe
350
2F
  3
3D Hidden
350
31
  3
3dWireframe
350
30
  3
Basic
350
32
  3
Brighten
350
36
  3
ColorChange
350
3A
  3
Conceptual
350
34
  3
Dim
350
35
  3
Facepattern
350
39
  3
Flat
350
2B
  3
FlatWithEdges
350
2C
  3
Gouraud
350
2D
  3
GouraudWithEdges
350
2E
  3
Linepattern
350
38
  3
Realistic
350
33
  3
Thicken
350
37
  0
LAYOUT
  5
1E
102
{ACAD_REACTORS
330
1A
102
}
330
1A
100
AcDbPlotSettings
  1

  2
none_device
  4

  6

 40
0.0
 41
0.0
 42
0.0
 43
0.0
 44
0.0
 45
0.0
 46
0.0
 47
0.0
 48
0.0
 49
0.0
140
0.0
141
0.0
142
1.0
143
1.0
 70
   688
 72
     0
 73
     0
 74
     5
  7

 75
    16
 76
     0
 77
     2
 78
   300
147
1.0
148
0.0
149
0.0
100
AcDbLayout
  1
Layout1
 70
     1
 71
     1
 10
0.0
 20
0.0
 11
12.0
 21
9.0
 12
0.0
 22
0.0
 32
0.0
 14
1.000000000000000E+20
 24
1.000000000000000E+20
 34
1.000000000000000E+20
 15
-1.000000000000000E+20
 25
-1.000000000000000E+20
 35
-1.000000000000000E+20
146
0.0
 13
0.0
 23
0.0
 33
0.0
 16
1.0
 26
0.0
 36
0.0
 17
0.0
 27
1.0
 37
0.0
 76
     0
330
1B
  0
LAYOUT
  5
26
102
{ACAD_REACTORS
330
1A
102
}
330
1A
100
AcDbPlotSettings
  1

  2
none_device
  4

  6

 40
0.0
 41
0.0
 42
0.0
 43
0.0
 44
0.0
 45
0.0
 46
0.0
 47
0.0
 48
0.0
 49
0.0
140
0.0
141
0.0
142
1.0
143
1.0
 70
   688
 72
     0
 73
     0
 74
     5
  7

 75
    16
 76
     0
 77
     2
 78
   300
147
1.0
148
0.0
149
0.0
100
AcDbLayout
  1
Layout2
 70
     1
 71
     2
 10
0.0
 20
0.0
 11
0.0
 21
0.0
 12
0.0
 22
0.0
 32
0.0
 14
0.0
 24
0.0
 34
0.0
 15
0.0
 25
0.0
 35
0.0
146
0.0
 13
0.0
 23
0.0
 33
0.0
 16
1.0
 26
0.0
 36
0.0
 17
0.0
 27
1.0
 37
0.0
 76
     0
330
23
  0
LAYOUT
  5
22
102
{ACAD_REACTORS
330
1A
102
}
330
1A
100
AcDbPlotSettings
  1

  2
none_device
  4

  6

 40
0.0
 41
0.0
 42
0.0
 43
0.0
 44
0.0
 45
0.0
 46
0.0
 47
0.0
 48
0.0
 49
0.0
140
0.0
141
0.0
142
1.0
143
1.0
 70
  1712
 72
     0
 73
     0
 74
     0
  7

 75
     0
 76
     0
 77
     2
 78
   300
147
1.0
148
0.0
149
0.0
100
AcDbLayout
  1
Model
 70
     1
 71
     0
 10
0.0
 20
0.0
 11
12.0
 21
9.0
 12
0.0
 22
0.0
 32
0.0
 14
-30.00000000000001
 24
-0.0000191768443114
 34
0.0
 15
78.21646694733418
 25
91.08365008471125
 35
0.0
146
0.0
 13
0.0
 23
0.0
 33
0.0
 16
1.0
 26
0.0
 36
0.0
 17
0.0
 27
1.0
 37
0.0
 76
     0
330
1F
331
29
  0
MLINESTYLE
  5
18
102
{ACAD_REACTORS
330
17
102
}
330
17
100
AcDbMlineStyle
  2
Standard
 70
     0
  3

 62
   256
 51
90.0
 52
90.0
 71
     2
 49
0.5
 62
   256
  6
BYLAYER
 49
-0.5
 62
   256
  6
BYLAYER
  0
ACDBPLACEHOLDER
  5
F
102
{ACAD_REACTORS
330
E
102
}
330
E
  0
VISUALSTYLE
  5
2F
102
{ACAD_REACTORS
330
2A
102
}
330
2A
100
AcDbVisualStyle
  2
2dWireframe
 70
     4
 71
     0
 72
     2
 73
     0
 90
        0
 40
-0.6
 41
-30.0
 62
     5
 63
     7
421
 16777215
 74
     1
 91
        4
 64
     7
 65
   257
 75
     1
175
     1
 42
1.0
 92
        0
 66
   257
 43
1.0
 76
     1
 77
     6
 78
     2
 67
     7
 79
     5
170
     0
171
     0
290
     0
174
     0
 93
        1
 44
0.0
173
     0
291
     0
 45
0.0
1001
ACAD
1000
AcDbSavedByObjectVersion
1070
     0
  0
VISUALSTYLE
  5
31
102
{ACAD_REACTORS
330
2A
102
}
330
2A
100
AcDbVisualStyle
  2
3D Hidden
 70
     6
 71
     1
 72
     2
 73
     2
 90
        0
 40
-0.6
 41
-30.0
 62
     5
 63
     7
421
 16777215
 74
     2
 91
        2
 64
     7
 65
   257
 75
     2
175
     1
 42
40.0
 92
        0
 66
   257
 43
1.0
 76
     1
 77
     6
 78
     2
 67
     7
 79
     3
170
     0
171
     0
290
     0
174
     0
 93
        1
 44
0.0
173
     0
291
     0
 45
0.0
1001
ACAD
1000
AcDbSavedByObjectVersion
1070
     0
  0
VISUALSTYLE
  5
30
102
{ACAD_REACTORS
330
2A
102
}
330
2A
100
AcDbVisualStyle
  2
3dWireframe
 70
     5
 71
     0
 72
     2
 73
     0
 90
        0
 40
-0.6
 41
-30.0
 62
     5
 63
     7
421
 16777215
 74
     1
 91
        4
 64
     7
 65
   257
 75
     1
175
     1
 42
1.0
 92
        0
 66
   257
 43
1.0
 76
     1
 77
     6
 78
     2
 67
     7
 79
     5
170
     0
171
     0
290
     0
174
     0
 93
        1
 44
0.0
173
     0
291
     0
 45
0.0
1001
ACAD
1000
AcDbSavedByObjectVersion
1070
     0
  0
VISUALSTYLE
  5
32
102
{ACAD_REACTORS
330
2A
102
}
330
2A
100
AcDbVisualStyle
  2
Basic
 70
     7
 71
     1
 72
     0
 73
     1
 90
        0
 40
-0.6
 41
-30.0
 62
     5
 63
     7
421
 16777215
 74
     0
 91
        4
 64
     7
 65
   257
 75
     1
175
     1
 42
1.0
 92
        8
 66
     7
 43
1.0
 76
     1
 77
     6
 78
     2
 67
     7
 79
     5
170
     0
171
     0
290
     0
174
     0
 93
        1
 44
0.0
173
     0
291
     1
 45
0.0
1001
ACAD
1000
AcDbSavedByObjectVersion
1070
     0
  0
VISUALSTYLE
  5
36
102
{ACAD_REACTORS
330
2A
102
}
330
2A
100
AcDbVisualStyle
  2
Brighten
 70
    12
 71
     2
 72
     2
 73
     0
 90
        0
 40
-0.6
 41
-30.0
 62
     5
 63
     7
421
 16777215
 74
     1
 91
        4
 64
     7
 65
   257
 75
     1
175
     1
 42
1.0
 92
        8
 66
     7
 43
1.0
 76
     1
 77
     6
 78
     2
 67
     7
 79
     5
170
     0
171
     0
290
     0
174
     0
 93
        1
 44
50.0
173
     0
291
     1
 45
0.0
1001
ACAD
1000
AcDbSavedByObjectVersion
1070
     0
  0
VISUALSTYLE
  5
3A
102
{ACAD_REACTORS
330
2A
102
}
330
2A
100
AcDbVisualStyle
  2
ColorChange
 70
    16
 71
     2
 72
     2
 73
     3
 90
        0
 40
-0.6
 41
-30.0
 62
     5
 63
     8
421
  8421504
 74
     1
 91
        4
 64
     7
 65
   257
 75
     1
175
     1
 42
1.0
 92
        8
 66
     8
424
  8421504
 43
1.0
 76
     1
 77
     6
 78
     2
 67
     7
 79
     5
170
     0
171
     0
290
     0
174
     0
 93
        1
 44
0.0
173
     0
291
     1
 45
0.0
1001
ACAD
1000
AcDbSavedByObjectVersion
1070
     0
  0
VISUALSTYLE
  5
34
102
{ACAD_REACTORS
330
2A
102
}
330
2A
100
AcDbVisualStyle
  2
Conceptual
 70
     9
 71
     3
 72
     2
 73
     0
 90
        0
 40
-0.6
 41
-30.0
 62
     5
 63
     7
421
 16777215
 74
     2
 91
        2
 64
     7
 65
   257
 75
     1
175
     1
 42
40.0
 92
        8
 66
     7
 43
1.0
 76
     1
 77
     6
 78
     2
 67
     7
 79
     3
170
     0
171
     0
290
     0
174
     0
 93
        1
 44
0.0
173
     0
291
     0
 45
0.0
1001
ACAD
1000
AcDbSavedByObjectVersion
1070
     0
  0
VISUALSTYLE
  5
35
102
{ACAD_REACTORS
330
2A
102
}
330
2A
100
AcDbVisualStyle
  2
Dim
 70
    11
 71
     2
 72
     2
 73
     0
 90
        0
 40
-0.6
 41
-30.0
 62
     5
 63
     7
421
 16777215
 74
     1
 91
        4
 64
     7
 65
   257
 75
     1
175
     1
 42
1.0
 92
        8
 66
     7
 43
1.0
 76
     1
 77
     6
 78
     2
 67
     7
 79
     5
170
     0
171
     0
290
     0
174
     0
 93
        1
 44
-50.0
173
     0
291
     1
 45
0.0
1001
ACAD
1000
AcDbSavedByObjectVersion
1070
     0
  0
VISUALSTYLE
  5
39
102
{ACAD_REACTORS
330
2A
102
}
330
2A
100
AcDbVisualStyle
  2
Facepattern
 70
    15
 71
     2
 72
     2
 73
     0
 90
        0
 40
-0.6
 41
-30.0
 62
     5
 63
     7
421
 16777215
 74
     1
 91
        4
 64
     7
 65
   257
 75
     1
175
     1
 42
1.0
 92
        8
 66
     7
 43
1.0
 76
     1
 77
     6
 78
     2
 67
     7
 79
     5
170
     0
171
     0
290
     0
174
     0
 93
        1
 44
0.0
173
     0
291
     1
 45
0.0
1001
ACAD
1000
AcDbSavedByObjectVersion
1070
     0
  0
VISUALSTYLE
  5
2B
102
{ACAD_REACTORS
330
2A
102
}
330
2A
100
AcDbVisualStyle
  2
Flat
 70
     0
 71
     2
 72
     1
 73
     1
 90
        2
 40
-0.6
 41
30.0
 62
     5
 63
     7
421
 16777215
 74
     0
 91
        4
 64
     7
 65
   257
 75
     1
175
     1
 42
1.0
 92
        8
 66
     7
 43
1.0
 76
     1
 77
     6
 78
     2
 67
     7
 79
     5
170
     0
171
     0
290
     0
174
     0
 93
       13
 44
0.0
173
     0
291
     1
 45
0.0
1001
ACAD
1000
AcDbSavedByObjectVersion
1070
     0
  0
VISUALSTYLE
  5
2C
102
{ACAD_REACTORS
330
2A
102
}
330
2A
100
AcDbVisualStyle
  2
FlatWithEdges
 70
     1
 71
     2
 72
     1
 73
     1
 90
        2
 40
-0.6
 41
30.0
 62
     5
 63
     7
421
 16777215
 74
     1
 91
        4
 64
     7
 65
   257
 75
     1
175
     1
 42
1.0
 92
        0
 66
   257
 43
1.0
 76
     1
 77
     6
 78
     2
 67
     7
 79
     5
170
     0
171
     0
290
     0
174
     0
 93
       13
 44
0.0
173
     0
291
     1
 45
0.0
1001
ACAD
1000
AcDbSavedByObjectVersion
1070
     0
  0
VISUALSTYLE
  5
2D
102
{ACAD_REACTORS
330
2A
102
}
330
2A
100
AcDbVisualStyle
  2
Gouraud
 70
     2
 71
     2
 72
     2
 73
     1
 90
        2
 40
-0.6
 41
30.0
 62
     5
 63
     7
421
 16777215
 74
     0
 91
        4
 64
     7
 65
   257
 75
     1
175
     1
 42
1.0
 92
        0
 66
     7
 43
1.0
 76
     1
 77
     6
 78
     2
 67
     7
 79
     5
170
     0
171
     0
290
     0
174
     0
 93
       13
 44
0.0
173
     0
291
     1
 45
0.0
1001
ACAD
1000
AcDbSavedByObjectVersion
1070
     0
  0
VISUALSTYLE
  5
2E
102
{ACAD_REACTORS
330
2A
102
}
330
2A
100
AcDbVisualStyle
  2
GouraudWithEdges
 70
     3
 71
     2
 72
     2
 73
     1
 90
        2
 40
-0.6
 41
30.0
 62
     5
 63
     7
421
 16777215
 74
     1
 91
        4
 64
     7
 65
   257
 75
     1
175
     1
 42
1.0
 92
        0
 66
   257
 43
1.0
 76
     1
 77
     6
 78
     2
 67
     7
 79
     5
170
     0
171
     0
290
     0
174
     0
 93
       13
 44
0.0
173
     0
291
     1
 45
0.0
1001
ACAD
1000
AcDbSavedByObjectVersion
1070
     0
  0
VISUALSTYLE
  5
38
102
{ACAD_REACTORS
330
2A
102
}
330
2A
100
AcDbVisualStyle
  2
Linepattern
 70
    14
 71
     2
 72
     2
 73
     0
 90
        0
 40
-0.6
 41
-30.0
 62
     5
 63
     7
421
 16777215
 74
     1
 91
        4
 64
     7
 65
   257
 75
     7
175
     7
 42
1.0
 92
        8
 66
     7
 43
1.0
 76
     1
 77
     6
 78
     2
 67
     7
 79
     5
170
     0
171
     0
290
     0
174
     0
 93
        1
 44
0.0
173
     0
291
     1
 45
0.0
1001
ACAD
1000
AcDbSavedByObjectVersion
1070
     0
  0
VISUALSTYLE
  5
33
102
{ACAD_REACTORS
330
2A
102
}
330
2A
100
AcDbVisualStyle
  2
Realistic
 70
     8
 71
     2
 72
     2
 73
     0
 90
        0
 40
-0.6
 41
-30.0
 62
     5
 63
     7
421
 16777215
 74
     1
 91
        0
 64
     7
 65
   257
 75
     1
175
     1
 42
1.0
 92
        8
 66
     8
424
  7895160
 43
1.0
 76
     1
 77
     6
 78
     2
 67
     7
 79
     5
170
     0
171
     0
290
     0
174
     0
 93
       13
 44
0.0
173
     0
291
     0
 45
0.0
1001
ACAD
1000
AcDbSavedByObjectVersion
1070
     0
  0
VISUALSTYLE
  5
37
102
{ACAD_REACTORS
330
2A
102
}
330
2A
100
AcDbVisualStyle
  2
Thicken
 70
    13
 71
     2
 72
     2
 73
     0
 90
        0
 40
-0.6
 41
-30.0
 62
     5
 63
     7
421
 16777215
 74
     1
 91
        4
 64
     7
 65
   257
 75
     1
175
     1
 42
1.0
 92
       12
 66
     7
 43
1.0
 76
     1
 77
     6
 78
     2
 67
     7
 79
     5
170
     0
171
     0
290
     0
174
     0
 93
        1
 44
0.0
173
     0
291
     1
 45
0.0
1001
ACAD
1000
AcDbSavedByObjectVersion
1070
     0
  0
ENDSEC
  0
EOF
