  0
SECTION
  2
HEADER
  9
$ACADVER
  1
AC1018
  9
$ACADMAINTVER
 70
     0
  9
$DWGCODEPAGE
  3
ANSI_1252
  9
$INSBASE
 10
0.0
 20
0.0
 30
0.0
  9
$EXTMIN
 10
-44.99696618145966
 20
-0.0000191768443114
 30
0.0
  9
$EXTMAX
 10
93.21343312879384
 20
91.08365008471125
 30
0.0
  9
$LIMMIN
 10
0.0
 20
0.0
  9
$LIMMAX
 10
12.0
 20
9.0
  9
$ORTHOMODE
 70
     0
  9
$REGENMODE
 70
     1
  9
$FILLMODE
 70
     1
  9
$QTEXTMODE
 70
     0
  9
$MIRRTEXT
 70
     1
  9
$LTSCALE
 40
0.0393700787401575
  9
$ATTMODE
 70
     1
  9
$TEXTSIZE
 40
0.2
  9
$TRACEWID
 40
0.05
  9
$TEXTSTYLE
  7
Standard
  9
$CLAYER
  8
0
  9
$CELTYPE
  6
ByLayer
  9
$CECOLOR
 62
   256
  9
$CELTSCALE
 40
1.0
  9
$DISPSILH
 70
     0
  9
$DIMSCALE
 40
1.0
  9
$DIMASZ
 40
0.18
  9
$DIMEXO
 40
0.0625
  9
$DIMDLI
 40
0.38
  9
$DIMRND
 40
0.0
  9
$DIMDLE
 40
0.0
  9
$DIMEXE
 40
0.18
  9
$DIMTP
 40
0.0
  9
$DIMTM
 40
0.0
  9
$DIMTXT
 40
0.18
  9
$DIMCEN
 40
0.09
  9
$DIMTSZ
 40
0.0
  9
$DIMTOL
 70
     0
  9
$DIMLIM
 70
     0
  9
$DIMTIH
 70
     1
  9
$DIMTOH
 70
     1
  9
$DIMSE1
 70
     0
  9
$DIMSE2
 70
     0
  9
$DIMTAD
 70
     0
  9
$DIMZIN
 70
     0
  9
$DIMBLK
  1

  9
$DIMASO
 70
     1
  9
$DIMSHO
 70
     1
  9
$DIMPOST
  1

  9
$DIMAPOST
  1

  9
$DIMALT
 70
     0
  9
$DIMALTD
 70
     2
  9
$DIMALTF
 40
25.4
  9
$DIMLFAC
 40
1.0
  9
$DIMTOFL
 70
     0
  9
$DIMTVP
 40
0.0
  9
$DIMTIX
 70
     0
  9
$DIMSOXD
 70
     0
  9
$DIMSAH
 70
     0
  9
$DIMBLK1
  1

  9
$DIMBLK2
  1

  9
$DIMSTYLE
  2
Standard
  9
$DIMCLRD
 70
     0
  9
$DIMCLRE
 70
     0
  9
$DIMCLRT
 70
     0
  9
$DIMTFAC
 40
1.0
  9
$DIMGAP
 40
0.09
  9
$DIMJUST
 70
     0
  9
$DIMSD1
 70
     0
  9
$DIMSD2
 70
     0
  9
$DIMTOLJ
 70
     1
  9
$DIMTZIN
 70
     0
  9
$DIMALTZ
 70
     0
  9
$DIMALTTZ
 70
     0
  9
$DIMUPT
 70
     0
  9
$DIMDEC
 70
     4
  9
$DIMTDEC
 70
     4
  9
$DIMALTU
 70
     2
  9
$DIMALTTD
 70
     2
  9
$DIMTXSTY
  7
Standard
  9
$DIMAUNIT
 70
     0
  9
$DIMADEC
 70
     0
  9
$DIMALTRND
 40
0.0
  9
$DIMAZIN
 70
     0
  9
$DIMDSEP
 70
    46
  9
$DIMATFIT
 70
     3
  9
$DIMFRAC
 70
     0
  9
$DIMLDRBLK
  1

  9
$DIMLUNIT
 70
     2
  9
$DIMLWD
 70
    -2
  9
$DIMLWE
 70
    -2
  9
$DIMTMOVE
 70
     2
  9
$LUNITS
 70
     2
  9
$LUPREC
 70
     3
  9
$SKETCHINC
 40
0.1
  9
$FILLETRAD
 40
0.5
  9
$AUNITS
 70
     0
  9
$AUPREC
 70
     0
  9
$MENU
  1
.
  9
$ELEVATION
 40
0.0
  9
$PELEVATION
 40
0.0
  9
$THICKNESS
 40
0.0
  9
$LIMCHECK
 70
     0
  9
$CHAMFERA
 40
0.5
  9
$CHAMFERB
 40
0.5
  9
$CHAMFERC
 40
1.0
  9
$CHAMFERD
 40
0.0
  9
$SKPOLY
 70
     0
  9
$TDCREATE
 40
2458058.541983739
  9
$TDUCREATE
 40
2458058.708650405
  9
$TDUPDATE
 40
2458058.54198375
  9
$TDUUPDATE
 40
2458058.708650417
  9
$TDINDWG
 40
0.0000000116
  9
$TDUSRTIMER
 40
0.0000000116
  9
$USRTIMER
 70
     1
  9
$ANGBASE
 50
0.0
  9
$ANGDIR
 70
     0
  9
$PDMODE
 70
     0
  9
$PDSIZE
 40
0.0
  9
$PLINEWID
 40
0.0
  9
$SPLFRAME
 70
     0
  9
$SPLINETYPE
 70
     6
  9
$SPLINESEGS
 70
     8
  9
$HANDSEED
  5
5D
  9
$SURFTAB1
 70
     6
  9
$SURFTAB2
 70
     6
  9
$SURFTYPE
 70
     6
  9
$SURFU
 70
     6
  9
$SURFV
 70
     6
  9
$UCSBASE
  2

  9
$UCSNAME
  2

  9
$UCSORG
 10
0.0
 20
0.0
 30
0.0
  9
$UCSXDIR
 10
1.0
 20
0.0
 30
0.0
  9
$UCSYDIR
 10
0.0
 20
1.0
 30
0.0
  9
$UCSORTHOREF
  2

  9
$UCSORTHOVIEW
 70
     0
  9
$UCSORGTOP
 10
0.0
 20
0.0
 30
0.0
  9
$UCSORGBOTTOM
 10
0.0
 20
0.0
 30
0.0
  9
$UCSORGLEFT
 10
0.0
 20
0.0
 30
0.0
  9
$UCSORGRIGHT
 10
0.0
 20
0.0
 30
0.0
  9
$UCSORGFRONT
 10
0.0
 20
0.0
 30
0.0
  9
$UCSORGBACK
 10
0.0
 20
0.0
 30
0.0
  9
$PUCSBASE
  2

  9
$PUCSNAME
  2

  9
$PUCSORG
 10
0.0
 20
0.0
 30
0.0
  9
$PUCSXDIR
 10
1.0
 20
0.0
 30
0.0
  9
$PUCSYDIR
 10
0.0
 20
1.0
 30
0.0
  9
$PUCSORTHOREF
  2

  9
$PUCSORTHOVIEW
 70
     0
  9
$PUCSORGTOP
 10
0.0
 20
0.0
 30
0.0
  9
$PUCSORGBOTTOM
 10
0.0
 20
0.0
 30
0.0
  9
$PUCSORGLEFT
 10
0.0
 20
0.0
 30
0.0
  9
$PUCSORGRIGHT
 10
0.0
 20
0.0
 30
0.0
  9
$PUCSORGFRONT
 10
0.0
 20
0.0
 30
0.0
  9
$PUCSORGBACK
 10
0.0
 20
0.0
 30
0.0
  9
$USERI1
 70
     0
  9
$USERI2
 70
     0
  9
$USERI3
 70
     0
  9
$USERI4
 70
     0
  9
$USERI5
 70
     0
  9
$USERR1
 40
0.0
  9
$USERR2
 40
0.0
  9
$USERR3
 40
0.0
  9
$USERR4
 40
0.0
  9
$USERR5
 40
0.0
  9
$WORLDVIEW
 70
     1
  9
$SHADEDGE
 70
     3
  9
$SHADEDIF
 70
    70
  9
$TILEMODE
 70
     1
  9
$MAXACTVP
 70
    64
  9
$PINSBASE
 10
0.0
 20
0.0
 30
0.0
  9
$PLIMCHECK
 70
     0
  9
$PEXTMIN
 10
1.000000000000000E+20
 20
1.000000000000000E+20
 30
1.000000000000000E+20
  9
$PEXTMAX
 10
-1.000000000000000E+20
 20
-1.000000000000000E+20
 30
-1.000000000000000E+20
  9
$PLIMMIN
 10
0.0
 20
0.0
  9
$PLIMMAX
 10
12.0
 20
9.0
  9
$UNITMODE
 70
     0
  9
$VISRETAIN
 70
     1
  9
$PLINEGEN
 70
     0
  9
$PSLTSCALE
 70
     1
  9
$TREEDEPTH
 70
  3020
  9
$CMLSTYLE
  2
Standard
  9
$CMLJUST
 70
     0
  9
$CMLSCALE
 40
1.0
  9
$PROXYGRAPHICS
 70
     1
  9
$MEASUREMENT
 70
     0
  9
$CELWEIGHT
370
    -1
  9
$ENDCAPS
280
     0
  9
$JOINSTYLE
280
     0
  9
$LWDISPLAY
290
     0
  9
$INSUNITS
 70
     1
  9
$HYPERLINKBASE
  1

  9
$STYLESHEET
  1

  9
$XEDIT
290
     1
  9
$CEPSNTYPE
380
     0
  9
$PSTYLEMODE
290
     1
  9
$FINGERPRINTGUID
  2
{4AC17D14-7898-479E-966A-4052206CFD28}
  9
$VERSIONGUID
  2
{FAEB1C32-E019-11D5-929B-00C0DF256EC4}
  9
$EXTNAMES
290
     1
  9
$PSVPSCALE
 40
0.0
  9
$OLESTARTUP
290
     0
  9
$SORTENTS
280
   127
  9
$INDEXCTL
280
     0
  9
$HIDETEXT
280
     1
  9
$XCLIPFRAME
290
     0
  9
$HALOGAP
280
     0
  9
$OBSCOLOR
 70
   257
  9
$OBSLTYPE
280
     0
  9
$INTERSECTIONDISPLAY
280
     0
  9
$INTERSECTIONCOLOR
 70
   257
  9
$DIMASSOC
280
     2
  9
$PROJECTNAME
  1

  0
ENDSEC
  0
SECTION
  2
CLASSES
  0
CLASS
  1
ACDBDICTIONARYWDFLT
  2
AcDbDictionaryWithDefault
  3
ObjectDBX Classes
 90
        0
 91
        4
280
     0
281
     0
  0
CLASS
  1
VISUALSTYLE
  2
AcDbVisualStyle
  3
ObjectDBX Classes
 90
     4095
 91
        4
280
     0
281
     0
  0
ENDSEC
  0
SECTION
  2
TABLES
  0
TABLE
  2
VPORT
  5
8
330
0
100
AcDbSymbolTable
 70
     1
  0
VPORT
  5
29
330
8
100
AcDbSymbolTableRecord
100
AcDbViewportTableRecord
  2
*Active
 70
     0
 10
0.0
 20
0.0
 11
1.0
 21
1.0
 12
24.10823347366708
 22
45.54181545393347
 13
0.0
 23
0.0
 14
0.5
 24
0.5
 15
0.5
 25
0.5
 16
0.0
 26
0.0
 36
1.0
 17
0.0
 27
0.0
 37
0.0
 40
92.90534264678666
 41
1.517400434466128
 42
50.0
 43
0.0
 44
0.0
 50
0.0
 51
0.0
 71
     0
 72
   100
 73
     1
 74
     3
 75
     0
 76
     0
 77
     0
 78
     0
281
     0
 65
     1
110
0.0
120
0.0
130
0.0
111
1.0
121
0.0
131
0.0
112
0.0
122
1.0
132
0.0
 79
     0
146
0.0
  0
ENDTAB
  0
TABLE
  2
LTYPE
  5
5
330
0
100
AcDbSymbolTable
 70
     1
  0
LTYPE
  5
14
330
5
100
AcDbSymbolTableRecord
100
AcDbLinetypeTableRecord
  2
ByBlock
 70
     0
  3

 72
    65
 73
     0
 40
0.0
  0
LTYPE
  5
15
330
5
100
AcDbSymbolTableRecord
100
AcDbLinetypeTableRecord
  2
ByLayer
 70
     0
  3

 72
    65
 73
     0
 40
0.0
  0
LTYPE
  5
16
330
5
100
AcDbSymbolTableRecord
100
AcDbLinetypeTableRecord
  2
Continuous
 70
     0
  3
Solid line
 72
    65
 73
     0
 40
0.0
  0
ENDTAB
  0
TABLE
  2
LAYER
  5
2
330
0
100
AcDbSymbolTable
 70
     2
  0
LAYER
  5
10
330
2
100
AcDbSymbolTableRecord
100
AcDbLayerTableRecord
  2
0
 70
     0
 62
     7
  6
Continuous
370
    -3
390
F
  0
LAYER
  5
3B
330
2
100
AcDbSymbolTableRecord
100
AcDbLayerTableRecord
  2
30x90 B
 70
     0
 62
     7
  6
Continuous
370
    -3
390
F
  0
ENDTAB
  0
TABLE
  2
STYLE
  5
3
330
0
100
AcDbSymbolTable
 70
     1
  0
STYLE
  5
11
330
3
100
AcDbSymbolTableRecord
100
AcDbTextStyleTableRecord
  2
Standard
 70
     0
 40
0.0
 41
1.0
 50
0.0
 71
     0
 42
0.2
  3
txt
  4

  0
ENDTAB
  0
TABLE
  2
VIEW
  5
6
330
0
100
AcDbSymbolTable
 70
     0
  0
ENDTAB
  0
TABLE
  2
UCS
  5
7
330
0
100
AcDbSymbolTable
 70
     0
  0
ENDTAB
  0
TABLE
  2
APPID
  5
9
330
0
100
AcDbSymbolTable
 70
     1
  0
APPID
  5
12
330
9
100
AcDbSymbolTableRecord
100
AcDbRegAppTableRecord
  2
ACAD
 70
     0
  0
ENDTAB
  0
TABLE
  2
DIMSTYLE
  5
A
330
0
100
AcDbSymbolTable
 70
     1
100
AcDbDimStyleTable
  0
DIMSTYLE
105
27
330
A
100
AcDbSymbolTableRecord
100
AcDbDimStyleTableRecord
  2
Standard
 70
     0
340
11
  0
ENDTAB
  0
TABLE
  2
BLOCK_RECORD
  5
1
330
0
100
AcDbSymbolTable
 70
     1
  0
BLOCK_RECORD
  5
1F
330
1
100
AcDbSymbolTableRecord
100
AcDbBlockTableRecord
  2
*Model_Space
340
22
  0
BLOCK_RECORD
  5
1B
330
1
100
AcDbSymbolTableRecord
100
AcDbBlockTableRecord
  2
*Paper_Space
340
1E
  0
BLOCK_RECORD
  5
23
330
1
100
AcDbSymbolTableRecord
100
AcDbBlockTableRecord
  2
*Paper_Space0
340
26
  0
ENDTAB
  0
ENDSEC
  0
SECTION
  2
BLOCKS
  0
BLOCK
  5
20
330
1F
100
AcDbEntity
  8
0
100
AcDbBlockBegin
  2
*Model_Space
 70
     0
 10
0.0
 20
0.0
 30
0.0
  3
*Model_Space
  1

  0
ENDBLK
  5
21
330
1F
100
AcDbEntity
  8
0
100
AcDbBlockEnd
  0
BLOCK
  5
1C
330
1B
100
AcDbEntity
 67
     1
  8
0
100
AcDbBlockBegin
  2
*Paper_Space
 70
     0
 10
0.0
 20
0.0
 30
0.0
  3
*Paper_Space
  1

  0
ENDBLK
  5
1D
330
1B
100
AcDbEntity
 67
     1
  8
0
100
AcDbBlockEnd
  0
BLOCK
  5
24
330
23
100
AcDbEntity
  8
0
100
AcDbBlockBegin
  2
*Paper_Space0
 70
     0
 10
0.0
 20
0.0
 30
0.0
  3
*Paper_Space0
  1

  0
ENDBLK
  5
25
330
23
100
AcDbEntity
  8
0
100
AcDbBlockEnd
  0
ENDSEC
  0
SECTION
  2
ENTITIES
  0
SPLINE
  5
3C
330
1F
100
AcDbEntity
  8
30x90 B
100
AcDbSpline
210
0.0
220
0.0
230
1.0
 70
    11
 71
     2
 72
    12
 73
     9
 74
     0
 42
0.0000000001
 43
0.0000000001
 40
0.0
 40
0.0
 40
0.0
 40
28.86538748362489
 40
28.86538748362489
 40
31.61563748362489
 40
31.61563748362489
 40
60.48102496724977
 40
60.48102496724977
 40
63.23127496724977
 40
63.23127496724977
 40
63.23127496724977
 10
-35.42965992327211
 20
41.00099999595639
 30
0.0
 10
-0.0000000000000036
 20
41.00099999595639
 30
0.0
 10
35.4296599232721
 20
41.00099999595639
 30
0.0
 10
35.4296599232721
 20
39.62587499595639
 30
0.0
 10
35.4296599232721
 20
38.25074999595639
 30
0.0
 10
-0.0000000000000036
 20
38.25074999595639
 30
0.0
 10
-35.42965992327211
 20
38.25074999595639
 30
0.0
 10
-35.42965992327211
 20
39.62587499595639
 30
0.0
 10
-35.42965992327211
 20
41.00099999595639
 30
0.0
  0
SPLINE
  5
3D
330
1F
100
AcDbEntity
  8
30x90 B
100
AcDbSpline
210
0.0
220
0.0
230
1.0
 70
     8
 71
     2
 72
    20
 73
    17
 74
     0
 42
0.0000000001
 43
0.0000000001
 40
-1.493932362919318
 40
-1.493932362919318
 40
-1.493932362919318
 40
46.5
 40
46.5
 40
46.81300000019795
 40
46.81300000019795
 40
48.43308134108953
 40
48.43308134108953
 40
48.45980508669223
 40
48.45980508669223
 40
93.45980508669223
 40
93.45980508669223
 40
93.4865288323019
 40
93.4865288323019
 40
95.1066101731925
 40
95.1066101731925
 40
95.41961017319203
 40
95.41961017319203
 40
95.41961017319203
 10
-44.99089854437898
 20
42.0009999959564
 30
0.0
 10
0.003033818540338
 20
42.00099999595634
 30
0.0
 10
44.99696618145965
 20
42.00099999595628
 30
0.0
 10
44.99572020153714
 20
41.84391898592749
 30
0.0
 10
44.99447422161463
 20
41.6868379758987
 30
0.0
 10
44.25908207433849
 20
41.34391898592663
 30
0.0
 10
43.52368992706236
 20
41.00099999595455
 30
0.0
 10
43.51032805426101
 20
41.00099999595579
 30
0.0
 10
43.49696618145965
 20
41.00099999595704
 30
0.0
 10
-0.0000000000000036
 20
41.00099999595704
 30
0.0
 10
-43.49696618145966
 20
41.00099999595704
 30
0.0
 10
-43.5103280542645
 20
41.00099999595704
 30
0.0
 10
-43.52368992706933
 20
41.00099999595704
 30
0.0
 10
-44.25908207438736
 20
41.34391898599839
 30
0.0
 10
-44.99447422170539
 20
41.68683797603973
 30
0.0
 10
-44.99572020158253
 20
41.84391898599806
 30
0.0
 10
-44.99696618145966
 20
42.00099999595639
 30
0.0
  0
SPLINE
  5
3E
330
1F
100
AcDbEntity
  8
30x90 B
100
AcDbSpline
210
0.0
220
0.0
230
1.0
 70
    11
 71
     2
 72
    12
 73
     9
 74
     0
 42
0.0000000001
 43
0.0000000001
 40
0.0
 40
0.0
 40
0.0
 40
31.77560337649145
 40
31.77560337649145
 40
33.27560337649148
 40
33.27560337649148
 40
65.05120675298294
 40
65.05120675298294
 40
66.55120675298296
 40
66.55120675298296
 40
66.55120675298296
 10
-36.75811441546195
 20
10.50099999595636
 30
0.0
 10
0.1238381898601801
 20
10.50099999595636
 30
0.0
 10
37.00579079518231
 20
10.50099999595636
 30
0.0
 10
37.00579079518231
 20
11.25099999595638
 30
0.0
 10
37.00579079518231
 20
12.00099999595639
 30
0.0
 10
0.1238381898601801
 20
12.00099999595639
 30
0.0
 10
-36.75811441546195
 20
12.00099999595639
 30
0.0
 10
-36.75811441546195
 20
11.25099999595638
 30
0.0
 10
-36.75811441546195
 20
10.50099999595636
 30
0.0
  0
SPLINE
  5
3F
330
1F
100
AcDbEntity
  8
30x90 B
100
AcDbSpline
210
0.0
220
0.0
230
1.0
 70
    15
 71
     2
 72
    20
 73
    17
 74
     0
 42
0.0000000001
 43
0.0000000001
 40
92.35619449019235
 40
92.35619449019235
 40
92.35619449019235
 40
94.7123889803847
 40
94.7123889803847
 40
139.7123889803847
 40
139.7123889803847
 40
142.068583470577
 40
142.068583470577
 40
187.068583470577
 40
187.068583470577
 40
189.4247779607694
 40
189.4247779607694
 40
234.4247779607694
 40
234.4247779607694
 40
236.7809724509618
 40
236.7809724509618
 40
281.7809724509618
 40
281.7809724509618
 40
281.7809724509618
 10
44.99696618145965
 20
62.57434371129474
 30
0.0
 41
1.0
 10
44.99696618145965
 20
61.07434371129473
 30
0.0
 41
0.7071067811865492
 10
43.49696618145965
 20
61.07434371129474
 30
0.0
 41
1.0
 10
0.0
 20
61.07434371129474
 30
0.0
 41
1.0
 10
-43.49696618145966
 20
61.07434371129474
 30
0.0
 41
1.0
 10
-44.99696618145965
 20
61.07434371129474
 30
0.0
 41
0.7071067811865502
 10
-44.99696618145965
 20
62.57434371129474
 30
0.0
 41
1.0
 10
-44.99696618145966
 20
76.078996898003
 30
0.0
 41
1.0
 10
-44.99696618145966
 20
89.58365008471125
 30
0.0
 41
1.0
 10
-44.99696618145969
 20
91.08365008471128
 30
0.0
 41
0.7071067811865359
 10
-43.49696618145966
 20
91.08365008471125
 30
0.0
 41
1.0
 10
0.0
 20
91.08365008471125
 30
0.0
 41
1.0
 10
43.49696618145965
 20
91.08365008471125
 30
0.0
 41
1.0
 10
44.99696618145967
 20
91.08365008471127
 30
0.0
 41
0.7071067811865358
 10
44.99696618145965
 20
89.58365008471125
 30
0.0
 41
1.0
 10
44.99696618145965
 20
76.078996898003
 30
0.0
 41
1.0
 10
44.99696618145965
 20
62.57434371129474
 30
0.0
 41
1.0
  0
SPLINE
  5
40
330
1F
100
AcDbEntity
  8
30x90 B
100
AcDbSpline
210
0.0
220
0.0
230
1.0
 70
    15
 71
     2
 72
    16
 73
    13
 74
     0
 42
0.0000000001
 43
0.0000000001
 40
0.0
 40
0.0
 40
0.0
 40
3.175809548287447
 40
3.175809548287447
 40
6.199883641578445
 40
6.199883641578445
 40
6.437320578566601
 40
6.437320578566601
 40
7.189617391048195
 40
7.189617391048195
 40
9.63981605560816
 40
9.63981605560816
 40
12.20206605560816
 40
12.20206605560816
 40
12.20206605560816
 10
-35.42965992327211
 20
40.81299999595639
 30
0.0
 41
1.0
 10
-37.01756469741583
 20
40.81299999595639
 30
0.0
 41
1.0
 10
-38.60546947155955
 20
40.81299999595639
 30
0.0
 41
1.0
 10
-38.60546947155955
 20
39.30096294931089
 30
0.0
 41
1.0
 10
-38.60546947155955
 20
37.78892590266539
 30
0.0
 41
1.0
 10
-38.61942413576795
 20
37.64968472412695
 30
0.0
 41
0.7873178403761734
 10
-38.48758906108847
 20
37.60275550574225
 30
0.0
 41
1.0
 10
-38.11825265384251
 20
37.53149372215431
 30
0.0
 41
1.0
 10
-37.74891624659654
 20
37.46023193856636
 30
0.0
 41
1.0
 10
-36.58928808493432
 20
37.85542846726138
 30
0.0
 41
1.0
 10
-35.4296599232721
 20
38.25062499595639
 30
0.0
 41
1.0
 10
-35.42965992327211
 20
39.53181249595639
 30
0.0
 41
1.0
 10
-35.42965992327211
 20
40.81299999595639
 30
0.0
 41
1.0
  0
SPLINE
  5
41
330
1F
100
AcDbEntity
  8
30x90 B
100
AcDbSpline
210
0.0
220
0.0
230
1.0
 70
    11
 71
     2
 72
    12
 73
     9
 74
     0
 42
0.0000000001
 43
0.0000000001
 40
0.0
 40
0.0
 40
0.0
 40
7.381635493493285
 40
7.381635493493285
 40
7.569635493493287
 40
7.569635493493287
 40
14.95127098698657
 40
14.95127098698657
 40
15.13927098698657
 40
15.13927098698657
 40
15.13927098698657
 10
-35.42965992327211
 20
40.81299999595639
 30
0.0
 10
-39.12047767001874
 20
40.81299999595639
 30
0.0
 10
-42.81129541676539
 20
40.81299999595639
 30
0.0
 10
-42.81129541676539
 20
40.90699999595639
 30
0.0
 10
-42.81129541676539
 20
41.00099999595639
 30
0.0
 10
-39.12047767001874
 20
41.00099999595639
 30
0.0
 10
-35.42965992327211
 20
41.00099999595639
 30
0.0
 10
-35.42965992327211
 20
40.90699999595639
 30
0.0
 10
-35.42965992327211
 20
40.81299999595639
 30
0.0
  0
SPLINE
  5
42
330
1F
100
AcDbEntity
  8
30x90 B
100
AcDbSpline
210
0.0
220
0.0
230
1.0
 70
    15
 71
     2
 72
    16
 73
    13
 74
     0
 42
0.0000000001
 43
0.0000000001
 40
0.0
 40
0.0
 40
0.0
 40
2.790914725409877
 40
2.790914725409877
 40
2.978914721366277
 40
2.978914721366277
 40
3.175092058140855
 40
3.175092058140855
 40
5.698831706186326
 40
5.698831706186326
 40
5.908289486528923
 40
5.908289486528923
 40
6.096289482485321
 40
6.096289482485321
 40
6.096289482485321
 10
-41.11697739168085
 20
0.3129808191120874
 30
0.0
 41
1.0
 10
-42.51243475438579
 20
0.3129808191120874
 30
0.0
 41
1.0
 10
-43.90789211709073
 20
0.3129808191120874
 30
0.0
 41
1.0
 10
-43.90796072033515
 20
0.2189808211338876
 30
0.0
 41
1.0
 10
-43.90802932357958
 20
0.1249808231556878
 30
0.0
 41
1.0
 10
-43.90764622230679
 20
0.0004497125113142
 30
0.0
 41
0.7099102601513743
 10
-43.78290065501264
 20
-0.0000191768413391
 30
0.0
 41
1.000001881067515
 10
-42.52092341814073
 20
-0.0000191768428252
 30
0.0
 41
1.000001881067515
 10
-41.2589461812688
 20
-0.0000191768443114
 30
0.0
 41
1.000001881067515
 10
-41.12685745738288
 20
-0.0069184379624319
 30
0.0
 41
0.7150467987835217
 10
-41.11697739168061
 20
0.1249808231556896
 30
0.0
 41
1.000001881067515
 10
-41.11697739168073
 20
0.2189808211338885
 30
0.0
 41
1.000001881067515
 10
-41.11697739168085
 20
0.3129808191120874
 30
0.0
 41
1.0
  0
SPLINE
  5
43
330
1F
100
AcDbEntity
  8
30x90 B
100
AcDbSpline
210
0.0
220
0.0
230
1.0
 70
    24
 71
     2
 72
     6
 73
     3
 74
     0
 42
0.0000000001
 43
0.0000000001
 40
-6.016568002144036
 40
-6.016568002144036
 40
-6.016568002144036
 40
34.59512045666924
 40
34.59512045666924
 40
34.59512045666924
 10
-39.72770432749524
 20
40.81299999595639
 30
0.0
 10
-41.23273855595113
 20
20.56300785175784
 30
0.0
 10
-42.73777278440703
 20
0.3130157075592905
 30
0.0
  0
SPLINE
  5
44
330
1F
100
AcDbEntity
  8
30x90 B
100
AcDbSpline
210
0.0
220
0.0
230
1.0
 70
    15
 71
     2
 72
    18
 73
    15
 74
     0
 42
0.0000000001
 43
0.0000000001
 40
4.083241051814237
 40
4.083241051814237
 40
4.083241051814237
 40
6.421248470241959
 40
6.421248470241959
 40
47.03291888086422
 40
47.03291888086422
 40
50.08925302707351
 40
50.08925302707351
 40
81.29860987787288
 40
81.29860987787288
 40
82.050850682505
 40
82.050850682505
 40
82.35417502847893
 40
82.35417502847893
 40
85.38185092968712
 40
85.38185092968712
 40
85.38185092968712
 10
-38.6535309713846
 20
40.81298834977266
 30
0.0
 41
1.0
 10
-39.82255433831826
 20
40.81298857376183
 30
0.0
 41
1.0
 10
-40.99157770525192
 20
40.81298879775099
 30
0.0
 41
1.0
 10
-42.49647947523736
 20
20.56299439685367
 30
0.0
 41
1.0
 10
-44.00138124522282
 20
0.3129999959563436
 30
0.0
 41
1.0
 10
-42.47308449500711
 20
0.3129979643358428
 30
0.0
 41
1.0
 10
-40.94478774479142
 20
0.3129959327153419
 30
0.0
 41
1.0
 10
-39.35091671430368
 20
18.85734786029813
 30
0.0
 41
1.0
 10
-37.75704568381593
 20
37.40169978788093
 30
0.0
 41
1.0
 10
-38.12640453473478
 20
37.47294021515923
 30
0.0
 41
1.0
 10
-38.49576338565363
 20
37.54418064243752
 30
0.0
 41
1.0
 10
-38.66417631180477
 20
37.60405639086327
 30
0.0
 41
0.788094268021899
 10
-38.64686883335928
 20
37.7835907645341
 30
0.0
 41
1.0
 10
-38.65019990237194
 20
39.29828955715338
 30
0.0
 41
1.0
 10
-38.6535309713846
 20
40.81298834977266
 30
0.0
 41
1.0
  0
SPLINE
  5
45
330
1F
100
AcDbEntity
  8
30x90 B
100
AcDbSpline
210
0.0
220
0.0
230
1.0
 70
    11
 71
     2
 72
    12
 73
     9
 74
     0
 42
0.0000000001
 43
0.0000000001
 40
0.0
 40
0.0
 40
0.0
 40
1.500007284915587
 40
1.500007284915587
 40
4.565753021944529
 40
4.565753021944529
 40
6.07158168237236
 40
6.07158168237236
 40
9.005038703131103
 40
9.005038703131103
 40
9.005038703131103
 10
-36.7581144154888
 20
12.00099999595639
 30
0.0
 10
-36.75811441513926
 20
11.2509963534986
 30
0.0
 10
-36.75811441478972
 20
10.50099271104081
 30
0.0
 10
-38.2909872833042
 20
10.50099271032641
 30
0.0
 10
-40.06901281655066
 20
10.50099270949777
 30
0.0
 10
-40.00455486331497
 20
11.25099635210065
 30
0.0
 10
-39.9400962910136
 20
12.00099999458926
 30
0.0
 10
-38.22484292586817
 20
12.00099999527283
 30
0.0
 10
-36.7581144154888
 20
12.00099999595639
 30
0.0
  0
SPLINE
  5
46
330
1F
100
AcDbEntity
  8
30x90 B
100
AcDbSpline
210
0.0
220
0.0
230
1.0
 70
    15
 71
     2
 72
    16
 73
    13
 74
     0
 42
0.0000000001
 43
0.0000000001
 40
0.0
 40
0.0
 40
0.0
 40
3.175809548287447
 40
3.175809548287447
 40
6.199883641578445
 40
6.199883641578445
 40
6.437320578566601
 40
6.437320578566601
 40
7.189617391048195
 40
7.189617391048195
 40
9.63981605560816
 40
9.63981605560816
 40
12.20206605560816
 40
12.20206605560816
 40
12.20206605560816
 10
35.4296599232721
 20
40.81299999595639
 30
0.0
 41
1.0
 10
37.01756469741582
 20
40.81299999595639
 30
0.0
 41
1.0
 10
38.60546947155954
 20
40.81299999595639
 30
0.0
 41
1.0
 10
38.60546947155954
 20
39.30096294931089
 30
0.0
 41
1.0
 10
38.60546947155954
 20
37.78892590266539
 30
0.0
 41
1.0
 10
38.61942413576794
 20
37.64968472412695
 30
0.0
 41
0.7873178403761734
 10
38.48758906108846
 20
37.60275550574225
 30
0.0
 41
1.0
 10
38.1182526538425
 20
37.53149372215431
 30
0.0
 41
1.0
 10
37.74891624659654
 20
37.46023193856636
 30
0.0
 41
1.0
 10
36.58928808493431
 20
37.85542846726138
 30
0.0
 41
1.0
 10
35.42965992327209
 20
38.25062499595639
 30
0.0
 41
1.0
 10
35.4296599232721
 20
39.53181249595639
 30
0.0
 41
1.0
 10
35.4296599232721
 20
40.81299999595639
 30
0.0
 41
1.0
  0
SPLINE
  5
47
330
1F
100
AcDbEntity
  8
30x90 B
100
AcDbSpline
210
0.0
220
0.0
230
1.0
 70
    11
 71
     2
 72
    12
 73
     9
 74
     0
 42
0.0000000001
 43
0.0000000001
 40
0.0
 40
0.0
 40
0.0
 40
7.381635493493285
 40
7.381635493493285
 40
7.569635493493287
 40
7.569635493493287
 40
14.95127098698657
 40
14.95127098698657
 40
15.13927098698657
 40
15.13927098698657
 40
15.13927098698657
 10
35.4296599232721
 20
40.81299999595639
 30
0.0
 10
39.12047767001874
 20
40.81299999595639
 30
0.0
 10
42.81129541676538
 20
40.81299999595639
 30
0.0
 10
42.81129541676538
 20
40.90699999595639
 30
0.0
 10
42.81129541676538
 20
41.00099999595639
 30
0.0
 10
39.12047767001874
 20
41.00099999595639
 30
0.0
 10
35.4296599232721
 20
41.00099999595639
 30
0.0
 10
35.4296599232721
 20
40.90699999595639
 30
0.0
 10
35.4296599232721
 20
40.81299999595639
 30
0.0
  0
SPLINE
  5
48
330
1F
100
AcDbEntity
  8
30x90 B
100
AcDbSpline
210
0.0
220
0.0
230
1.0
 70
    11
 71
     2
 72
    12
 73
     9
 74
     0
 42
0.0000000001
 43
0.0000000001
 40
0.0
 40
0.0
 40
0.0
 40
1.500007284915587
 40
1.500007284915587
 40
4.565753021944529
 40
4.565753021944529
 40
6.07158168237236
 40
6.07158168237236
 40
9.005038703131103
 40
9.005038703131103
 40
9.005038703131103
 10
36.75811441548879
 20
12.00099999595639
 30
0.0
 10
36.75811441513925
 20
11.2509963534986
 30
0.0
 10
36.75811441478972
 20
10.50099271104081
 30
0.0
 10
38.29098728330419
 20
10.50099271032641
 30
0.0
 10
40.06901281655065
 20
10.50099270949777
 30
0.0
 10
40.00455486331496
 20
11.25099635210065
 30
0.0
 10
39.94009629101359
 20
12.00099999458926
 30
0.0
 10
38.22484292586816
 20
12.00099999527283
 30
0.0
 10
36.75811441548879
 20
12.00099999595639
 30
0.0
  0
SPLINE
  5
49
330
1F
100
AcDbEntity
  8
30x90 B
100
AcDbSpline
210
0.0
220
0.0
230
1.0
 70
    15
 71
     2
 72
    16
 73
    13
 74
     0
 42
0.0000000001
 43
0.0000000001
 40
0.0
 40
0.0
 40
0.0
 40
2.790914725409877
 40
2.790914725409877
 40
2.978914721366277
 40
2.978914721366277
 40
3.175092058140855
 40
3.175092058140855
 40
5.698831706186326
 40
5.698831706186326
 40
5.908289486528923
 40
5.908289486528923
 40
6.096289482485321
 40
6.096289482485321
 40
6.096289482485321
 10
41.11697739168084
 20
0.3129808191120874
 30
0.0
 41
1.0
 10
42.51243475438578
 20
0.3129808191120874
 30
0.0
 41
1.0
 10
43.90789211709072
 20
0.3129808191120874
 30
0.0
 41
1.0
 10
43.90796072033514
 20
0.2189808211338876
 30
0.0
 41
1.0
 10
43.90802932357957
 20
0.1249808231556878
 30
0.0
 41
1.0
 10
43.90764622230679
 20
0.0004497125113142
 30
0.0
 41
0.7099102601513743
 10
43.78290065501263
 20
-0.0000191768413391
 30
0.0
 41
1.000001881067515
 10
42.52092341814071
 20
-0.0000191768428252
 30
0.0
 41
1.000001881067515
 10
41.25894618126879
 20
-0.0000191768443114
 30
0.0
 41
1.000001881067515
 10
41.12685745738287
 20
-0.0069184379624319
 30
0.0
 41
0.7150467987835217
 10
41.1169773916806
 20
0.1249808231556896
 30
0.0
 41
1.000001881067515
 10
41.11697739168071
 20
0.2189808211338885
 30
0.0
 41
1.000001881067515
 10
41.11697739168084
 20
0.3129808191120874
 30
0.0
 41
1.0
  0
SPLINE
  5
4A
330
1F
100
AcDbEntity
  8
30x90 B
100
AcDbSpline
210
0.0
220
0.0
230
1.0
 70
    24
 71
     2
 72
     6
 73
     3
 74
     0
 42
0.0000000001
 43
0.0000000001
 40
-6.016568002144036
 40
-6.016568002144036
 40
-6.016568002144036
 40
34.59512045666924
 40
34.59512045666924
 40
34.59512045666924
 10
39.72770432749523
 20
40.81299999595639
 30
0.0
 10
41.23273855595113
 20
20.56300785175784
 30
0.0
 10
42.73777278440702
 20
0.3130157075592905
 30
0.0
  0
SPLINE
  5
4B
330
1F
100
AcDbEntity
  8
30x90 B
100
AcDbSpline
210
0.0
220
0.0
230
1.0
 70
    15
 71
     2
 72
    18
 73
    15
 74
     0
 42
0.0000000001
 43
0.0000000001
 40
4.083241051814237
 40
4.083241051814237
 40
4.083241051814237
 40
6.421248470241959
 40
6.421248470241959
 40
47.03291888086422
 40
47.03291888086422
 40
50.08925302707351
 40
50.08925302707351
 40
81.29860987787288
 40
81.29860987787288
 40
82.050850682505
 40
82.050850682505
 40
82.35417502847893
 40
82.35417502847893
 40
85.38185092968712
 40
85.38185092968712
 40
85.38185092968712
 10
38.6535309713846
 20
40.81298834977266
 30
0.0
 41
1.0
 10
39.82255433831826
 20
40.81298857376183
 30
0.0
 41
1.0
 10
40.99157770525191
 20
40.81298879775099
 30
0.0
 41
1.0
 10
42.49647947523736
 20
20.56299439685367
 30
0.0
 41
1.0
 10
44.0013812452228
 20
0.3129999959563436
 30
0.0
 41
1.0
 10
42.47308449500711
 20
0.3129979643358428
 30
0.0
 41
1.0
 10
40.94478774479141
 20
0.3129959327153419
 30
0.0
 41
1.0
 10
39.35091671430366
 20
18.85734786029813
 30
0.0
 41
1.0
 10
37.75704568381592
 20
37.40169978788093
 30
0.0
 41
1.0
 10
38.12640453473477
 20
37.47294021515923
 30
0.0
 41
1.0
 10
38.49576338565362
 20
37.54418064243752
 30
0.0
 41
1.0
 10
38.66417631180475
 20
37.60405639086327
 30
0.0
 41
0.788094268021899
 10
38.64686883335927
 20
37.7835907645341
 30
0.0
 41
1.0
 10
38.65019990237194
 20
39.29828955715338
 30
0.0
 41
1.0
 10
38.6535309713846
 20
40.81298834977266
 30
0.0
 41
1.0
  0
SPLINE
  5
4C
330
1F
100
AcDbEntity
  8
30x90 B
100
AcDbSpline
210
0.0
220
0.0
230
1.0
 70
    15
 71
     2
 72
    16
 73
    13
 74
     0
 42
0.0000000001
 43
0.0000000001
 40
0.0
 40
0.0
 40
0.0
 40
3.175809548287447
 40
3.175809548287447
 40
6.199883641578445
 40
6.199883641578445
 40
6.437320578566601
 40
6.437320578566601
 40
7.189617391048195
 40
7.189617391048195
 40
9.63981605560816
 40
9.63981605560816
 40
12.20206605560816
 40
12.20206605560816
 40
12.20206605560816
 10
83.64612687060628
 20
40.81299999595639
 30
0.0
 41
1.0
 10
85.23403164475
 20
40.81299999595639
 30
0.0
 41
1.0
 10
86.82193641889373
 20
40.81299999595639
 30
0.0
 41
1.0
 10
86.82193641889373
 20
39.30096294931089
 30
0.0
 41
1.0
 10
86.82193641889373
 20
37.78892590266539
 30
0.0
 41
1.0
 10
86.83589108310213
 20
37.64968472412695
 30
0.0
 41
0.7873178403761734
 10
86.70405600842264
 20
37.60275550574225
 30
0.0
 41
1.0
 10
86.33471960117667
 20
37.53149372215431
 30
0.0
 41
1.0
 10
85.9653831939307
 20
37.46023193856636
 30
0.0
 41
1.0
 10
84.80575503226848
 20
37.85542846726138
 30
0.0
 41
1.0
 10
83.64612687060627
 20
38.25062499595639
 30
0.0
 41
1.0
 10
83.64612687060628
 20
39.53181249595639
 30
0.0
 41
1.0
 10
83.64612687060628
 20
40.81299999595639
 30
0.0
 41
1.0
  0
SPLINE
  5
4D
330
1F
100
AcDbEntity
  8
30x90 B
100
AcDbSpline
210
0.0
220
0.0
230
1.0
 70
    11
 71
     2
 72
    12
 73
     9
 74
     0
 42
0.0000000001
 43
0.0000000001
 40
0.0
 40
0.0
 40
0.0
 40
7.381635493493285
 40
7.381635493493285
 40
7.569635493493287
 40
7.569635493493287
 40
14.95127098698657
 40
14.95127098698657
 40
15.13927098698657
 40
15.13927098698657
 40
15.13927098698657
 10
83.64612687060628
 20
40.81299999595639
 30
0.0
 10
87.33694461735291
 20
40.81299999595639
 30
0.0
 10
91.02776236409956
 20
40.81299999595639
 30
0.0
 10
91.02776236409956
 20
40.90699999595639
 30
0.0
 10
91.02776236409956
 20
41.00099999595639
 30
0.0
 10
87.33694461735291
 20
41.00099999595639
 30
0.0
 10
83.64612687060628
 20
41.00099999595639
 30
0.0
 10
83.64612687060628
 20
40.90699999595639
 30
0.0
 10
83.64612687060628
 20
40.81299999595639
 30
0.0
  0
SPLINE
  5
4E
330
1F
100
AcDbEntity
  8
30x90 B
100
AcDbSpline
210
0.0
220
0.0
230
1.0
 70
    11
 71
     2
 72
    12
 73
     9
 74
     0
 42
0.0000000001
 43
0.0000000001
 40
0.0
 40
0.0
 40
0.0
 40
1.500007284915587
 40
1.500007284915587
 40
4.565753021944529
 40
4.565753021944529
 40
6.07158168237236
 40
6.07158168237236
 40
9.005038703131103
 40
9.005038703131103
 40
9.005038703131103
 10
84.97458136282297
 20
12.00099999595639
 30
0.0
 10
84.97458136247343
 20
11.2509963534986
 30
0.0
 10
84.9745813621239
 20
10.50099271104081
 30
0.0
 10
86.50745423063836
 20
10.50099271032641
 30
0.0
 10
88.28547976388482
 20
10.50099270949777
 30
0.0
 10
88.22102181064913
 20
11.25099635210065
 30
0.0
 10
88.15656323834777
 20
12.00099999458926
 30
0.0
 10
86.44130987320234
 20
12.00099999527283
 30
0.0
 10
84.97458136282297
 20
12.00099999595639
 30
0.0
  0
SPLINE
  5
4F
330
1F
100
AcDbEntity
  8
30x90 B
100
AcDbSpline
210
0.0
220
0.0
230
1.0
 70
    15
 71
     2
 72
    16
 73
    13
 74
     0
 42
0.0000000001
 43
0.0000000001
 40
0.0
 40
0.0
 40
0.0
 40
2.790914725409877
 40
2.790914725409877
 40
2.978914721366277
 40
2.978914721366277
 40
3.175092058140855
 40
3.175092058140855
 40
5.698831706186326
 40
5.698831706186326
 40
5.908289486528923
 40
5.908289486528923
 40
6.096289482485321
 40
6.096289482485321
 40
6.096289482485321
 10
89.33344433901502
 20
0.3129808191120874
 30
0.0
 41
1.0
 10
90.72890170171996
 20
0.3129808191120874
 30
0.0
 41
1.0
 10
92.1243590644249
 20
0.3129808191120874
 30
0.0
 41
1.0
 10
92.12442766766932
 20
0.2189808211338876
 30
0.0
 41
1.0
 10
92.12449627091374
 20
0.1249808231556878
 30
0.0
 41
1.0
 10
92.12411316964095
 20
0.0004497125113142
 30
0.0
 41
0.7099102601513743
 10
91.99936760234681
 20
-0.0000191768413391
 30
0.0
 41
1.000001881067515
 10
90.73739036547488
 20
-0.0000191768428252
 30
0.0
 41
1.000001881067515
 10
89.47541312860297
 20
-0.0000191768443114
 30
0.0
 41
1.000001881067515
 10
89.34332440471704
 20
-0.0069184379624319
 30
0.0
 41
0.7150467987835217
 10
89.33344433901479
 20
0.1249808231556896
 30
0.0
 41
1.000001881067515
 10
89.3334443390149
 20
0.2189808211338885
 30
0.0
 41
1.000001881067515
 10
89.33344433901502
 20
0.3129808191120874
 30
0.0
 41
1.0
  0
SPLINE
  5
50
330
1F
100
AcDbEntity
  8
30x90 B
100
AcDbSpline
210
0.0
220
0.0
230
1.0
 70
    24
 71
     2
 72
     6
 73
     3
 74
     0
 42
0.0000000001
 43
0.0000000001
 40
-6.016568002144036
 40
-6.016568002144036
 40
-6.016568002144036
 40
34.59512045666924
 40
34.59512045666924
 40
34.59512045666924
 10
87.9441712748294
 20
40.81299999595639
 30
0.0
 10
89.4492055032853
 20
20.56300785175784
 30
0.0
 10
90.9542397317412
 20
0.3130157075592905
 30
0.0
  0
SPLINE
  5
51
330
1F
100
AcDbEntity
  8
30x90 B
100
AcDbSpline
210
0.0
220
0.0
230
1.0
 70
    15
 71
     2
 72
    18
 73
    15
 74
     0
 42
0.0000000001
 43
0.0000000001
 40
4.083241051814237
 40
4.083241051814237
 40
4.083241051814237
 40
6.421248470241959
 40
6.421248470241959
 40
47.03291888086422
 40
47.03291888086422
 40
50.08925302707351
 40
50.08925302707351
 40
81.29860987787288
 40
81.29860987787288
 40
82.050850682505
 40
82.050850682505
 40
82.35417502847893
 40
82.35417502847893
 40
85.38185092968712
 40
85.38185092968712
 40
85.38185092968712
 10
86.86999791871878
 20
40.81298834977266
 30
0.0
 41
1.0
 10
88.03902128565244
 20
40.81298857376183
 30
0.0
 41
1.0
 10
89.2080446525861
 20
40.81298879775099
 30
0.0
 41
1.0
 10
90.71294642257155
 20
20.56299439685367
 30
0.0
 41
1.0
 10
92.21784819255699
 20
0.3129999959563436
 30
0.0
 41
1.0
 10
90.6895514423413
 20
0.3129979643358428
 30
0.0
 41
1.0
 10
89.1612546921256
 20
0.3129959327153419
 30
0.0
 41
1.0
 10
87.56738366163785
 20
18.85734786029813
 30
0.0
 41
1.0
 10
85.9735126311501
 20
37.40169978788093
 30
0.0
 41
1.0
 10
86.34287148206894
 20
37.47294021515923
 30
0.0
 41
1.0
 10
86.7122303329878
 20
37.54418064243752
 30
0.0
 41
1.0
 10
86.88064325913894
 20
37.60405639086327
 30
0.0
 41
0.788094268021899
 10
86.86333578069345
 20
37.7835907645341
 30
0.0
 41
1.0
 10
86.86666684970612
 20
39.29828955715338
 30
0.0
 41
1.0
 10
86.86999791871878
 20
40.81298834977266
 30
0.0
 41
1.0
  0
SPLINE
  5
52
330
1F
100
AcDbEntity
  8
30x90 B
100
AcDbSpline
210
0.0
220
0.0
230
1.0
 70
    15
 71
     2
 72
    16
 73
    13
 74
     0
 42
0.0000000001
 43
0.0000000001
 40
0.0
 40
0.0
 40
0.0
 40
3.175809548287447
 40
3.175809548287447
 40
6.199883641578445
 40
6.199883641578445
 40
6.437320578566601
 40
6.437320578566601
 40
7.189617391048195
 40
7.189617391048195
 40
9.63981605560816
 40
9.63981605560816
 40
12.20206605560816
 40
12.20206605560816
 40
12.20206605560816
 10
72.77143301356492
 20
40.81299999595639
 30
0.0
 41
1.0
 10
71.18352823942118
 20
40.81299999595639
 30
0.0
 41
1.0
 10
69.59562346527747
 20
40.81299999595639
 30
0.0
 41
1.0
 10
69.59562346527747
 20
39.30096294931089
 30
0.0
 41
1.0
 10
69.59562346527747
 20
37.78892590266539
 30
0.0
 41
1.0
 10
69.58166880106909
 20
37.64968472412695
 30
0.0
 41
0.7873178403761734
 10
69.71350387574854
 20
37.60275550574225
 30
0.0
 41
1.0
 10
70.08284028299451
 20
37.53149372215431
 30
0.0
 41
1.0
 10
70.45217669024046
 20
37.46023193856636
 30
0.0
 41
1.0
 10
71.61180485190269
 20
37.85542846726138
 30
0.0
 41
1.0
 10
72.77143301356492
 20
38.25062499595639
 30
0.0
 41
1.0
 10
72.77143301356492
 20
39.53181249595639
 30
0.0
 41
1.0
 10
72.77143301356492
 20
40.81299999595639
 30
0.0
 41
1.0
  0
SPLINE
  5
53
330
1F
100
AcDbEntity
  8
30x90 B
100
AcDbSpline
210
0.0
220
0.0
230
1.0
 70
    11
 71
     2
 72
    12
 73
     9
 74
     0
 42
0.0000000001
 43
0.0000000001
 40
0.0
 40
0.0
 40
0.0
 40
7.381635493493285
 40
7.381635493493285
 40
7.569635493493287
 40
7.569635493493287
 40
14.95127098698657
 40
14.95127098698657
 40
15.13927098698657
 40
15.13927098698657
 40
15.13927098698657
 10
72.77143301356492
 20
40.81299999595639
 30
0.0
 10
69.08061526681827
 20
40.81299999595639
 30
0.0
 10
65.38979752007162
 20
40.81299999595639
 30
0.0
 10
65.38979752007162
 20
40.90699999595639
 30
0.0
 10
65.38979752007162
 20
41.00099999595639
 30
0.0
 10
69.08061526681827
 20
41.00099999595639
 30
0.0
 10
72.77143301356492
 20
41.00099999595639
 30
0.0
 10
72.77143301356492
 20
40.90699999595639
 30
0.0
 10
72.77143301356492
 20
40.81299999595639
 30
0.0
  0
SPLINE
  5
54
330
1F
100
AcDbEntity
  8
30x90 B
100
AcDbSpline
210
0.0
220
0.0
230
1.0
 70
    15
 71
     2
 72
    16
 73
    13
 74
     0
 42
0.0000000001
 43
0.0000000001
 40
0.0
 40
0.0
 40
0.0
 40
2.790914725409877
 40
2.790914725409877
 40
2.978914721366277
 40
2.978914721366277
 40
3.175092058140855
 40
3.175092058140855
 40
5.698831706186326
 40
5.698831706186326
 40
5.908289486528923
 40
5.908289486528923
 40
6.096289482485321
 40
6.096289482485321
 40
6.096289482485321
 10
67.08411554515617
 20
0.3129808191120874
 30
0.0
 41
1.0
 10
65.68865818245123
 20
0.3129808191120874
 30
0.0
 41
1.0
 10
64.29320081974629
 20
0.3129808191120874
 30
0.0
 41
1.0
 10
64.29313221650186
 20
0.2189808211338876
 30
0.0
 41
1.0
 10
64.29306361325743
 20
0.1249808231556878
 30
0.0
 41
1.0
 10
64.29344671453022
 20
0.0004497125113142
 30
0.0
 41
0.7099102601513743
 10
64.41819228182436
 20
-0.0000191768413391
 30
0.0
 41
1.000001881067515
 10
65.68016951869629
 20
-0.0000191768428252
 30
0.0
 41
1.000001881067515
 10
66.94214675556822
 20
-0.0000191768443114
 30
0.0
 41
1.000001881067515
 10
67.07423547945413
 20
-0.0069184379624319
 30
0.0
 41
0.7150467987835217
 10
67.08411554515641
 20
0.1249808231556896
 30
0.0
 41
1.000001881067515
 10
67.08411554515628
 20
0.2189808211338885
 30
0.0
 41
1.000001881067515
 10
67.08411554515617
 20
0.3129808191120874
 30
0.0
 41
1.0
  0
SPLINE
  5
55
330
1F
100
AcDbEntity
  8
30x90 B
100
AcDbSpline
210
0.0
220
0.0
230
1.0
 70
    24
 71
     2
 72
     6
 73
     3
 74
     0
 42
0.0000000001
 43
0.0000000001
 40
-6.016568002144036
 40
-6.016568002144036
 40
-6.016568002144036
 40
34.59512045666924
 40
34.59512045666924
 40
34.59512045666924
 10
68.47338860934178
 20
40.81299999595639
 30
0.0
 10
66.96835438088588
 20
20.56300785175784
 30
0.0
 10
65.46332015242999
 20
0.3130157075592905
 30
0.0
  0
SPLINE
  5
56
330
1F
100
AcDbEntity
  8
30x90 B
100
AcDbSpline
210
0.0
220
0.0
230
1.0
 70
    15
 71
     2
 72
    18
 73
    15
 74
     0
 42
0.0000000001
 43
0.0000000001
 40
4.083241051814237
 40
4.083241051814237
 40
4.083241051814237
 40
6.421248470241959
 40
6.421248470241959
 40
47.03291888086422
 40
47.03291888086422
 40
50.08925302707351
 40
50.08925302707351
 40
81.29860987787288
 40
81.29860987787288
 40
82.050850682505
 40
82.050850682505
 40
82.35417502847893
 40
82.35417502847893
 40
85.38185092968712
 40
85.38185092968712
 40
85.38185092968712
 10
69.54756196545242
 20
40.81298834977266
 30
0.0
 41
1.0
 10
68.37853859851876
 20
40.81298857376183
 30
0.0
 41
1.0
 10
67.2095152315851
 20
40.81298879775099
 30
0.0
 41
1.0
 10
65.70461346159965
 20
20.56299439685367
 30
0.0
 41
1.0
 10
64.1997116916142
 20
0.3129999959563436
 30
0.0
 41
1.0
 10
65.7280084418299
 20
0.3129979643358428
 30
0.0
 41
1.0
 10
67.2563051920456
 20
0.3129959327153419
 30
0.0
 41
1.0
 10
68.85017622253334
 20
18.85734786029813
 30
0.0
 41
1.0
 10
70.44404725302108
 20
37.40169978788093
 30
0.0
 41
1.0
 10
70.07468840210223
 20
37.47294021515923
 30
0.0
 41
1.0
 10
69.70532955118338
 20
37.54418064243752
 30
0.0
 41
1.0
 10
69.53691662503226
 20
37.60405639086327
 30
0.0
 41
0.788094268021899
 10
69.55422410347774
 20
37.7835907645341
 30
0.0
 41
1.0
 10
69.55089303446508
 20
39.29828955715338
 30
0.0
 41
1.0
 10
69.54756196545242
 20
40.81298834977266
 30
0.0
 41
1.0
  0
SPLINE
  5
57
330
1F
100
AcDbEntity
  8
30x90 B
100
AcDbSpline
210
0.0
220
0.0
230
1.0
 70
    11
 71
     2
 72
    12
 73
     9
 74
     0
 42
0.0000000001
 43
0.0000000001
 40
0.0
 40
0.0
 40
0.0
 40
1.500007284915587
 40
1.500007284915587
 40
4.565753021944529
 40
4.565753021944529
 40
6.07158168237236
 40
6.07158168237236
 40
9.005038703131103
 40
9.005038703131103
 40
9.005038703131103
 10
71.44297852134821
 20
12.00099999595639
 30
0.0
 10
71.44297852169775
 20
11.2509963534986
 30
0.0
 10
71.4429785220473
 20
10.50099271104081
 30
0.0
 10
69.91010565353282
 20
10.50099271032641
 30
0.0
 10
68.13208012028636
 20
10.50099270949777
 30
0.0
 10
68.19653807352205
 20
11.25099635210065
 30
0.0
 10
68.26099664582341
 20
12.00099999458926
 30
0.0
 10
69.97625001096884
 20
12.00099999527283
 30
0.0
 10
71.44297852134821
 20
12.00099999595639
 30
0.0
  0
SPLINE
  5
58
330
1F
100
AcDbEntity
  8
30x90 B
100
AcDbSpline
210
0.0
220
0.0
230
1.0
 70
    11
 71
     2
 72
    12
 73
     9
 74
     0
 42
0.0000000001
 43
0.0000000001
 40
0.0
 40
0.0
 40
0.0
 40
28.86538748362489
 40
28.86538748362489
 40
31.61563748362489
 40
31.61563748362489
 40
60.48102496724977
 40
60.48102496724977
 40
63.23127496724977
 40
63.23127496724977
 40
63.23127496724977
 10
72.77143301356492
 20
41.00099999595639
 30
0.0
 10
78.2087799420856
 20
41.00099999595639
 30
0.0
 10
83.64612687060628
 20
41.00099999595639
 30
0.0
 10
83.64612687060628
 20
39.62587499595639
 30
0.0
 10
83.64612687060628
 20
38.25074999595639
 30
0.0
 10
78.2087799420856
 20
38.25074999595639
 30
0.0
 10
72.77143301356492
 20
38.25074999595639
 30
0.0
 10
72.77143301356492
 20
39.62587499595639
 30
0.0
 10
72.77143301356492
 20
41.00099999595639
 30
0.0
  0
SPLINE
  5
59
330
1F
100
AcDbEntity
  8
30x90 B
100
AcDbSpline
210
0.0
220
0.0
230
1.0
 70
     8
 71
     2
 72
    20
 73
    17
 74
     0
 42
0.0000000001
 43
0.0000000001
 40
-1.493932362919318
 40
-1.493932362919318
 40
-1.493932362919318
 40
46.5
 40
46.5
 40
46.81300000019795
 40
46.81300000019795
 40
48.43308134108953
 40
48.43308134108953
 40
48.45980508669223
 40
48.45980508669223
 40
93.45980508669223
 40
93.45980508669223
 40
93.4865288323019
 40
93.4865288323019
 40
95.1066101731925
 40
95.1066101731925
 40
95.41961017319203
 40
95.41961017319203
 40
95.41961017319203
 10
63.21019439245804
 20
42.0009999959564
 30
0.0
 10
78.21181376062594
 20
42.00099999595634
 30
0.0
 10
93.21343312879384
 20
42.00099999595628
 30
0.0
 10
93.21218714887132
 20
41.84391898592749
 30
0.0
 10
93.2109411689488
 20
41.6868379758987
 30
0.0
 10
92.47554902167266
 20
41.34391898592663
 30
0.0
 10
91.74015687439653
 20
41.00099999595455
 30
0.0
 10
91.72679500159518
 20
41.00099999595579
 30
0.0
 10
91.71343312879384
 20
41.00099999595704
 30
0.0
 10
78.2087799420856
 20
41.00099999595704
 30
0.0
 10
64.70412675537736
 20
41.00099999595704
 30
0.0
 10
64.69076488257252
 20
41.00099999595704
 30
0.0
 10
64.67740300976769
 20
41.00099999595704
 30
0.0
 10
63.94201086244966
 20
41.34391898599839
 30
0.0
 10
63.20661871513163
 20
41.68683797603973
 30
0.0
 10
63.20537273525449
 20
41.84391898599806
 30
0.0
 10
63.20412675537735
 20
42.00099999595639
 30
0.0
  0
SPLINE
  5
5A
330
1F
100
AcDbEntity
  8
30x90 B
100
AcDbSpline
210
0.0
220
0.0
230
1.0
 70
    11
 71
     2
 72
    12
 73
     9
 74
     0
 42
0.0000000001
 43
0.0000000001
 40
0.0
 40
0.0
 40
0.0
 40
31.77560337649145
 40
31.77560337649145
 40
33.27560337649148
 40
33.27560337649148
 40
65.05120675298294
 40
65.05120675298294
 40
66.55120675298296
 40
66.55120675298296
 40
66.55120675298296
 10
71.44297852137507
 20
10.50099999595636
 30
0.0
 10
78.33261813194578
 20
10.50099999595636
 30
0.0
 10
85.22225774251649
 20
10.50099999595636
 30
0.0
 10
85.22225774251649
 20
11.25099999595638
 30
0.0
 10
85.22225774251649
 20
12.00099999595639
 30
0.0
 10
78.33261813194578
 20
12.00099999595639
 30
0.0
 10
71.44297852137507
 20
12.00099999595639
 30
0.0
 10
71.44297852137507
 20
11.25099999595638
 30
0.0
 10
71.44297852137507
 20
10.50099999595636
 30
0.0
  0
ENDSEC
  0
SECTION
  2
OBJECTS
  0
DICTIONARY
  5
C
330
0
100
AcDbDictionary
281
     1
  3
ACAD_GROUP
350
D
  3
ACAD_LAYOUT
350
1A
  3
ACAD_MLEADERSTYLE
350
5C
  3
ACAD_MLINESTYLE
350
17
  3
ACAD_PLOTSETTINGS
350
19
  3
ACAD_PLOTSTYLENAME
350
E
  3
ACAD_TABLESTYLE
350
5B
  3
ACAD_VISUALSTYLE
350
2A
  0
DICTIONARY
  5
D
102
{ACAD_REACTORS
330
C
102
}
330
C
100
AcDbDictionary
281
     1
  0
DICTIONARY
  5
1A
102
{ACAD_REACTORS
330
C
102
}
330
C
100
AcDbDictionary
281
     1
  3
Layout1
350
1E
  3
Layout2
350
26
  3
Model
350
22
  0
DICTIONARY
  5
5C
102
{ACAD_REACTORS
330
C
102
}
330
C
100
AcDbDictionary
281
     1
  0
DICTIONARY
  5
17
102
{ACAD_REACTORS
330
C
102
}
330
C
100
AcDbDictionary
281
     1
  3
Standard
350
18
  0
DICTIONARY
  5
19
102
{ACAD_REACTORS
330
C
102
}
330
C
100
AcDbDictionary
281
     1
  0
ACDBDICTIONARYWDFLT
  5
E
102
{ACAD_REACTORS
330
C
102
}
330
C
100
AcDbDictionary
281
     1
  3
Normal
350
F
100
AcDbDictionaryWithDefault
340
F
  0
DICTIONARY
  5
5B
102
{ACAD_REACTORS
330
C
102
}
330
C
100
AcDbDictionary
281
     1
  0
DICTIONARY
  5
2A
102
{ACAD_REACTORS
330
C
102
}
330
C
100
AcDbDictionary
281
     1
  3
2dWireframe
350
2F
  3
3D Hidden
350
31
  3
3dWireframe
350
30
  3
Basic
350
32
  3
Brighten
350
36
  3
ColorChange
350
3A
  3
Conceptual
350
34
  3
Dim
350
35
  3
Facepattern
350
39
  3
Flat
350
2B
  3
FlatWithEdges
350
2C
  3
Gouraud
350
2D
  3
GouraudWithEdges
350
2E
  3
Linepattern
350
38
  3
Realistic
350
33
  3
Thicken
350
37
  0
LAYOUT
  5
1E
102
{ACAD_REACTORS
330
1A
102
}
330
1A
100
AcDbPlotSettings
  1

  2
none_device
  4

  6

 40
0.0
 41
0.0
 42
0.0
 43
0.0
 44
0.0
 45
0.0
 46
0.0
 47
0.0
 48
0.0
 49
0.0
140
0.0
141
0.0
142
1.0
143
1.0
 70
   688
 72
     0
 73
     0
 74
     5
  7

 75
    16
 76
     0
 77
     2
 78
   300
147
1.0
148
0.0
149
0.0
100
AcDbLayout
  1
Layout1
 70
     1
 71
     1
 10
0.0
 20
0.0
 11
12.0
 21
9.0
 12
0.0
 22
0.0
 32
0.0
 14
1.000000000000000E+20
 24
1.000000000000000E+20
 34
1.000000000000000E+20
 15
-1.000000000000000E+20
 25
-1.000000000000000E+20
 35
-1.000000000000000E+20
146
0.0
 13
0.0
 23
0.0
 33
0.0
 16
1.0
 26
0.0
 36
0.0
 17
0.0
 27
1.0
 37
0.0
 76
     0
330
1B
  0
LAYOUT
  5
26
102
{ACAD_REACTORS
330
1A
102
}
330
1A
100
AcDbPlotSettings
  1

  2
none_device
  4

  6

 40
0.0
 41
0.0
 42
0.0
 43
0.0
 44
0.0
 45
0.0
 46
0.0
 47
0.0
 48
0.0
 49
0.0
140
0.0
141
0.0
142
1.0
143
1.0
 70
   688
 72
     0
 73
     0
 74
     5
  7

 75
    16
 76
     0
 77
     2
 78
   300
147
1.0
148
0.0
149
0.0
100
AcDbLayout
  1
Layout2
 70
     1
 71
     2
 10
0.0
 20
0.0
 11
0.0
 21
0.0
 12
0.0
 22
0.0
 32
0.0
 14
0.0
 24
0.0
 34
0.0
 15
0.0
 25
0.0
 35
0.0
146
0.0
 13
0.0
 23
0.0
 33
0.0
 16
1.0
 26
0.0
 36
0.0
 17
0.0
 27
1.0
 37
0.0
 76
     0
330
23
  0
LAYOUT
  5
22
102
{ACAD_REACTORS
330
1A
102
}
330
1A
100
AcDbPlotSettings
  1

  2
none_device
  4

  6

 40
0.0
 41
0.0
 42
0.0
 43
0.0
 44
0.0
 45
0.0
 46
0.0
 47
0.0
 48
0.0
 49
0.0
140
0.0
141
0.0
142
1.0
143
1.0
 70
  1712
 72
     0
 73
     0
 74
     0
  7

 75
     0
 76
     0
 77
     2
 78
   300
147
1.0
148
0.0
149
0.0
100
AcDbLayout
  1
Model
 70
     1
 71
     0
 10
0.0
 20
0.0
 11
12.0
 21
9.0
 12
0.0
 22
0.0
 32
0.0
 14
-44.99696618145966
 24
-0.0000191768443114
 34
0.0
 15
93.21343312879384
 25
91.08365008471125
 35
0.0
146
0.0
 13
0.0
 23
0.0
 33
0.0
 16
1.0
 26
0.0
 36
0.0
 17
0.0
 27
1.0
 37
0.0
 76
     0
330
1F
331
29
  0
MLINESTYLE
  5
18
102
{ACAD_REACTORS
330
17
102
}
330
17
100
AcDbMlineStyle
  2
Standard
 70
     0
  3

 62
   256
 51
90.0
 52
90.0
 71
     2
 49
0.5
 62
   256
  6
BYLAYER
 49
-0.5
 62
   256
  6
BYLAYER
  0
ACDBPLACEHOLDER
  5
F
102
{ACAD_REACTORS
330
E
102
}
330
E
  0
VISUALSTYLE
  5
2F
102
{ACAD_REACTORS
330
2A
102
}
330
2A
100
AcDbVisualStyle
  2
2dWireframe
 70
     4
 71
     0
 72
     2
 73
     0
 90
        0
 40
-0.6
 41
-30.0
 62
     5
 63
     7
421
 16777215
 74
     1
 91
        4
 64
     7
 65
   257
 75
     1
175
     1
 42
1.0
 92
        0
 66
   257
 43
1.0
 76
     1
 77
     6
 78
     2
 67
     7
 79
     5
170
     0
171
     0
290
     0
174
     0
 93
        1
 44
0.0
173
     0
291
     0
 45
0.0
1001
ACAD
1000
AcDbSavedByObjectVersion
1070
     0
  0
VISUALSTYLE
  5
31
102
{ACAD_REACTORS
330
2A
102
}
330
2A
100
AcDbVisualStyle
  2
3D Hidden
 70
     6
 71
     1
 72
     2
 73
     2
 90
        0
 40
-0.6
 41
-30.0
 62
     5
 63
     7
421
 16777215
 74
     2
 91
        2
 64
     7
 65
   257
 75
     2
175
     1
 42
40.0
 92
        0
 66
   257
 43
1.0
 76
     1
 77
     6
 78
     2
 67
     7
 79
     3
170
     0
171
     0
290
     0
174
     0
 93
        1
 44
0.0
173
     0
291
     0
 45
0.0
1001
ACAD
1000
AcDbSavedByObjectVersion
1070
     0
  0
VISUALSTYLE
  5
30
102
{ACAD_REACTORS
330
2A
102
}
330
2A
100
AcDbVisualStyle
  2
3dWireframe
 70
     5
 71
     0
 72
     2
 73
     0
 90
        0
 40
-0.6
 41
-30.0
 62
     5
 63
     7
421
 16777215
 74
     1
 91
        4
 64
     7
 65
   257
 75
     1
175
     1
 42
1.0
 92
        0
 66
   257
 43
1.0
 76
     1
 77
     6
 78
     2
 67
     7
 79
     5
170
     0
171
     0
290
     0
174
     0
 93
        1
 44
0.0
173
     0
291
     0
 45
0.0
1001
ACAD
1000
AcDbSavedByObjectVersion
1070
     0
  0
VISUALSTYLE
  5
32
102
{ACAD_REACTORS
330
2A
102
}
330
2A
100
AcDbVisualStyle
  2
Basic
 70
     7
 71
     1
 72
     0
 73
     1
 90
        0
 40
-0.6
 41
-30.0
 62
     5
 63
     7
421
 16777215
 74
     0
 91
        4
 64
     7
 65
   257
 75
     1
175
     1
 42
1.0
 92
        8
 66
     7
 43
1.0
 76
     1
 77
     6
 78
     2
 67
     7
 79
     5
170
     0
171
     0
290
     0
174
     0
 93
        1
 44
0.0
173
     0
291
     1
 45
0.0
1001
ACAD
1000
AcDbSavedByObjectVersion
1070
     0
  0
VISUALSTYLE
  5
36
102
{ACAD_REACTORS
330
2A
102
}
330
2A
100
AcDbVisualStyle
  2
Brighten
 70
    12
 71
     2
 72
     2
 73
     0
 90
        0
 40
-0.6
 41
-30.0
 62
     5
 63
     7
421
 16777215
 74
     1
 91
        4
 64
     7
 65
   257
 75
     1
175
     1
 42
1.0
 92
        8
 66
     7
 43
1.0
 76
     1
 77
     6
 78
     2
 67
     7
 79
     5
170
     0
171
     0
290
     0
174
     0
 93
        1
 44
50.0
173
     0
291
     1
 45
0.0
1001
ACAD
1000
AcDbSavedByObjectVersion
1070
     0
  0
VISUALSTYLE
  5
3A
102
{ACAD_REACTORS
330
2A
102
}
330
2A
100
AcDbVisualStyle
  2
ColorChange
 70
    16
 71
     2
 72
     2
 73
     3
 90
        0
 40
-0.6
 41
-30.0
 62
     5
 63
     8
421
  8421504
 74
     1
 91
        4
 64
     7
 65
   257
 75
     1
175
     1
 42
1.0
 92
        8
 66
     8
424
  8421504
 43
1.0
 76
     1
 77
     6
 78
     2
 67
     7
 79
     5
170
     0
171
     0
290
     0
174
     0
 93
        1
 44
0.0
173
     0
291
     1
 45
0.0
1001
ACAD
1000
AcDbSavedByObjectVersion
1070
     0
  0
VISUALSTYLE
  5
34
102
{ACAD_REACTORS
330
2A
102
}
330
2A
100
AcDbVisualStyle
  2
Conceptual
 70
     9
 71
     3
 72
     2
 73
     0
 90
        0
 40
-0.6
 41
-30.0
 62
     5
 63
     7
421
 16777215
 74
     2
 91
        2
 64
     7
 65
   257
 75
     1
175
     1
 42
40.0
 92
        8
 66
     7
 43
1.0
 76
     1
 77
     6
 78
     2
 67
     7
 79
     3
170
     0
171
     0
290
     0
174
     0
 93
        1
 44
0.0
173
     0
291
     0
 45
0.0
1001
ACAD
1000
AcDbSavedByObjectVersion
1070
     0
  0
VISUALSTYLE
  5
35
102
{ACAD_REACTORS
330
2A
102
}
330
2A
100
AcDbVisualStyle
  2
Dim
 70
    11
 71
     2
 72
     2
 73
     0
 90
        0
 40
-0.6
 41
-30.0
 62
     5
 63
     7
421
 16777215
 74
     1
 91
        4
 64
     7
 65
   257
 75
     1
175
     1
 42
1.0
 92
        8
 66
     7
 43
1.0
 76
     1
 77
     6
 78
     2
 67
     7
 79
     5
170
     0
171
     0
290
     0
174
     0
 93
        1
 44
-50.0
173
     0
291
     1
 45
0.0
1001
ACAD
1000
AcDbSavedByObjectVersion
1070
     0
  0
VISUALSTYLE
  5
39
102
{ACAD_REACTORS
330
2A
102
}
330
2A
100
AcDbVisualStyle
  2
Facepattern
 70
    15
 71
     2
 72
     2
 73
     0
 90
        0
 40
-0.6
 41
-30.0
 62
     5
 63
     7
421
 16777215
 74
     1
 91
        4
 64
     7
 65
   257
 75
     1
175
     1
 42
1.0
 92
        8
 66
     7
 43
1.0
 76
     1
 77
     6
 78
     2
 67
     7
 79
     5
170
     0
171
     0
290
     0
174
     0
 93
        1
 44
0.0
173
     0
291
     1
 45
0.0
1001
ACAD
1000
AcDbSavedByObjectVersion
1070
     0
  0
VISUALSTYLE
  5
2B
102
{ACAD_REACTORS
330
2A
102
}
330
2A
100
AcDbVisualStyle
  2
Flat
 70
     0
 71
     2
 72
     1
 73
     1
 90
        2
 40
-0.6
 41
30.0
 62
     5
 63
     7
421
 16777215
 74
     0
 91
        4
 64
     7
 65
   257
 75
     1
175
     1
 42
1.0
 92
        8
 66
     7
 43
1.0
 76
     1
 77
     6
 78
     2
 67
     7
 79
     5
170
     0
171
     0
290
     0
174
     0
 93
       13
 44
0.0
173
     0
291
     1
 45
0.0
1001
ACAD
1000
AcDbSavedByObjectVersion
1070
     0
  0
VISUALSTYLE
  5
2C
102
{ACAD_REACTORS
330
2A
102
}
330
2A
100
AcDbVisualStyle
  2
FlatWithEdges
 70
     1
 71
     2
 72
     1
 73
     1
 90
        2
 40
-0.6
 41
30.0
 62
     5
 63
     7
421
 16777215
 74
     1
 91
        4
 64
     7
 65
   257
 75
     1
175
     1
 42
1.0
 92
        0
 66
   257
 43
1.0
 76
     1
 77
     6
 78
     2
 67
     7
 79
     5
170
     0
171
     0
290
     0
174
     0
 93
       13
 44
0.0
173
     0
291
     1
 45
0.0
1001
ACAD
1000
AcDbSavedByObjectVersion
1070
     0
  0
VISUALSTYLE
  5
2D
102
{ACAD_REACTORS
330
2A
102
}
330
2A
100
AcDbVisualStyle
  2
Gouraud
 70
     2
 71
     2
 72
     2
 73
     1
 90
        2
 40
-0.6
 41
30.0
 62
     5
 63
     7
421
 16777215
 74
     0
 91
        4
 64
     7
 65
   257
 75
     1
175
     1
 42
1.0
 92
        0
 66
     7
 43
1.0
 76
     1
 77
     6
 78
     2
 67
     7
 79
     5
170
     0
171
     0
290
     0
174
     0
 93
       13
 44
0.0
173
     0
291
     1
 45
0.0
1001
ACAD
1000
AcDbSavedByObjectVersion
1070
     0
  0
VISUALSTYLE
  5
2E
102
{ACAD_REACTORS
330
2A
102
}
330
2A
100
AcDbVisualStyle
  2
GouraudWithEdges
 70
     3
 71
     2
 72
     2
 73
     1
 90
        2
 40
-0.6
 41
30.0
 62
     5
 63
     7
421
 16777215
 74
     1
 91
        4
 64
     7
 65
   257
 75
     1
175
     1
 42
1.0
 92
        0
 66
   257
 43
1.0
 76
     1
 77
     6
 78
     2
 67
     7
 79
     5
170
     0
171
     0
290
     0
174
     0
 93
       13
 44
0.0
173
     0
291
     1
 45
0.0
1001
ACAD
1000
AcDbSavedByObjectVersion
1070
     0
  0
VISUALSTYLE
  5
38
102
{ACAD_REACTORS
330
2A
102
}
330
2A
100
AcDbVisualStyle
  2
Linepattern
 70
    14
 71
     2
 72
     2
 73
     0
 90
        0
 40
-0.6
 41
-30.0
 62
     5
 63
     7
421
 16777215
 74
     1
 91
        4
 64
     7
 65
   257
 75
     7
175
     7
 42
1.0
 92
        8
 66
     7
 43
1.0
 76
     1
 77
     6
 78
     2
 67
     7
 79
     5
170
     0
171
     0
290
     0
174
     0
 93
        1
 44
0.0
173
     0
291
     1
 45
0.0
1001
ACAD
1000
AcDbSavedByObjectVersion
1070
     0
  0
VISUALSTYLE
  5
33
102
{ACAD_REACTORS
330
2A
102
}
330
2A
100
AcDbVisualStyle
  2
Realistic
 70
     8
 71
     2
 72
     2
 73
     0
 90
        0
 40
-0.6
 41
-30.0
 62
     5
 63
     7
421
 16777215
 74
     1
 91
        0
 64
     7
 65
   257
 75
     1
175
     1
 42
1.0
 92
        8
 66
     8
424
  7895160
 43
1.0
 76
     1
 77
     6
 78
     2
 67
     7
 79
     5
170
     0
171
     0
290
     0
174
     0
 93
       13
 44
0.0
173
     0
291
     0
 45
0.0
1001
ACAD
1000
AcDbSavedByObjectVersion
1070
     0
  0
VISUALSTYLE
  5
37
102
{ACAD_REACTORS
330
2A
102
}
330
2A
100
AcDbVisualStyle
  2
Thicken
 70
    13
 71
     2
 72
     2
 73
     0
 90
        0
 40
-0.6
 41
-30.0
 62
     5
 63
     7
421
 16777215
 74
     1
 91
        4
 64
     7
 65
   257
 75
     1
175
     1
 42
1.0
 92
       12
 66
     7
 43
1.0
 76
     1
 77
     6
 78
     2
 67
     7
 79
     5
170
     0
171
     0
290
     0
174
     0
 93
        1
 44
0.0
173
     0
291
     1
 45
0.0
1001
ACAD
1000
AcDbSavedByObjectVersion
1070
     0
  0
ENDSEC
  0
EOF
