  0
SECTION
  2
HEADER
  9
$ACADVER
  1
AC1018
  9
$ACADMAINTVER
 70
     0
  9
$DWGCODEPAGE
  3
ANSI_1252
  9
$INSBASE
 10
0.0
 20
0.0
 30
0.0
  9
$EXTMIN
 10
-21.00000000000007
 20
-0.0000000000034689
 30
0.0
  9
$EXTMAX
 10
82.99649845040717
 20
91.00099999595628
 30
0.0
  9
$LIMMIN
 10
0.0
 20
0.0
  9
$LIMMAX
 10
12.0
 20
9.0
  9
$ORTHOMODE
 70
     0
  9
$REGENMODE
 70
     1
  9
$FILLMODE
 70
     1
  9
$QTEXTMODE
 70
     0
  9
$MIRRTEXT
 70
     1
  9
$LTSCALE
 40
0.0393700787401575
  9
$ATTMODE
 70
     1
  9
$TEXTSIZE
 40
0.2
  9
$TRACEWID
 40
0.05
  9
$TEXTSTYLE
  7
Standard
  9
$CLAYER
  8
0
  9
$CELTYPE
  6
ByLayer
  9
$CECOLOR
 62
   256
  9
$CELTSCALE
 40
1.0
  9
$DISPSILH
 70
     0
  9
$DIMSCALE
 40
1.0
  9
$DIMASZ
 40
0.18
  9
$DIMEXO
 40
0.0625
  9
$DIMDLI
 40
0.38
  9
$DIMRND
 40
0.0
  9
$DIMDLE
 40
0.0
  9
$DIMEXE
 40
0.18
  9
$DIMTP
 40
0.0
  9
$DIMTM
 40
0.0
  9
$DIMTXT
 40
0.18
  9
$DIMCEN
 40
0.09
  9
$DIMTSZ
 40
0.0
  9
$DIMTOL
 70
     0
  9
$DIMLIM
 70
     0
  9
$DIMTIH
 70
     1
  9
$DIMTOH
 70
     1
  9
$DIMSE1
 70
     0
  9
$DIMSE2
 70
     0
  9
$DIMTAD
 70
     0
  9
$DIMZIN
 70
     0
  9
$DIMBLK
  1

  9
$DIMASO
 70
     1
  9
$DIMSHO
 70
     1
  9
$DIMPOST
  1

  9
$DIMAPOST
  1

  9
$DIMALT
 70
     0
  9
$DIMALTD
 70
     2
  9
$DIMALTF
 40
25.4
  9
$DIMLFAC
 40
1.0
  9
$DIMTOFL
 70
     0
  9
$DIMTVP
 40
0.0
  9
$DIMTIX
 70
     0
  9
$DIMSOXD
 70
     0
  9
$DIMSAH
 70
     0
  9
$DIMBLK1
  1

  9
$DIMBLK2
  1

  9
$DIMSTYLE
  2
Standard
  9
$DIMCLRD
 70
     0
  9
$DIMCLRE
 70
     0
  9
$DIMCLRT
 70
     0
  9
$DIMTFAC
 40
1.0
  9
$DIMGAP
 40
0.09
  9
$DIMJUST
 70
     0
  9
$DIMSD1
 70
     0
  9
$DIMSD2
 70
     0
  9
$DIMTOLJ
 70
     1
  9
$DIMTZIN
 70
     0
  9
$DIMALTZ
 70
     0
  9
$DIMALTTZ
 70
     0
  9
$DIMUPT
 70
     0
  9
$DIMDEC
 70
     4
  9
$DIMTDEC
 70
     4
  9
$DIMALTU
 70
     2
  9
$DIMALTTD
 70
     2
  9
$DIMTXSTY
  7
Standard
  9
$DIMAUNIT
 70
     0
  9
$DIMADEC
 70
     0
  9
$DIMALTRND
 40
0.0
  9
$DIMAZIN
 70
     0
  9
$DIMDSEP
 70
    46
  9
$DIMATFIT
 70
     3
  9
$DIMFRAC
 70
     0
  9
$DIMLDRBLK
  1

  9
$DIMLUNIT
 70
     2
  9
$DIMLWD
 70
    -2
  9
$DIMLWE
 70
    -2
  9
$DIMTMOVE
 70
     2
  9
$LUNITS
 70
     2
  9
$LUPREC
 70
     3
  9
$SKETCHINC
 40
0.1
  9
$FILLETRAD
 40
0.5
  9
$AUNITS
 70
     0
  9
$AUPREC
 70
     0
  9
$MENU
  1
.
  9
$ELEVATION
 40
0.0
  9
$PELEVATION
 40
0.0
  9
$THICKNESS
 40
0.0
  9
$LIMCHECK
 70
     0
  9
$CHAMFERA
 40
0.5
  9
$CHAMFERB
 40
0.5
  9
$CHAMFERC
 40
1.0
  9
$CHAMFERD
 40
0.0
  9
$SKPOLY
 70
     0
  9
$TDCREATE
 40
2458178.588443808
  9
$TDUCREATE
 40
2458178.796777141
  9
$TDUPDATE
 40
2458178.588443819
  9
$TDUUPDATE
 40
2458178.796777153
  9
$TDINDWG
 40
0.0000000116
  9
$TDUSRTIMER
 40
0.0000000116
  9
$USRTIMER
 70
     1
  9
$ANGBASE
 50
0.0
  9
$ANGDIR
 70
     0
  9
$PDMODE
 70
     0
  9
$PDSIZE
 40
0.0
  9
$PLINEWID
 40
0.0
  9
$SPLFRAME
 70
     0
  9
$SPLINETYPE
 70
     6
  9
$SPLINESEGS
 70
     8
  9
$HANDSEED
  5
F8
  9
$SURFTAB1
 70
     6
  9
$SURFTAB2
 70
     6
  9
$SURFTYPE
 70
     6
  9
$SURFU
 70
     6
  9
$SURFV
 70
     6
  9
$UCSBASE
  2

  9
$UCSNAME
  2

  9
$UCSORG
 10
0.0
 20
0.0
 30
0.0
  9
$UCSXDIR
 10
1.0
 20
0.0
 30
0.0
  9
$UCSYDIR
 10
0.0
 20
1.0
 30
0.0
  9
$UCSORTHOREF
  2

  9
$UCSORTHOVIEW
 70
     0
  9
$UCSORGTOP
 10
0.0
 20
0.0
 30
0.0
  9
$UCSORGBOTTOM
 10
0.0
 20
0.0
 30
0.0
  9
$UCSORGLEFT
 10
0.0
 20
0.0
 30
0.0
  9
$UCSORGRIGHT
 10
0.0
 20
0.0
 30
0.0
  9
$UCSORGFRONT
 10
0.0
 20
0.0
 30
0.0
  9
$UCSORGBACK
 10
0.0
 20
0.0
 30
0.0
  9
$PUCSBASE
  2

  9
$PUCSNAME
  2

  9
$PUCSORG
 10
0.0
 20
0.0
 30
0.0
  9
$PUCSXDIR
 10
1.0
 20
0.0
 30
0.0
  9
$PUCSYDIR
 10
0.0
 20
1.0
 30
0.0
  9
$PUCSORTHOREF
  2

  9
$PUCSORTHOVIEW
 70
     0
  9
$PUCSORGTOP
 10
0.0
 20
0.0
 30
0.0
  9
$PUCSORGBOTTOM
 10
0.0
 20
0.0
 30
0.0
  9
$PUCSORGLEFT
 10
0.0
 20
0.0
 30
0.0
  9
$PUCSORGRIGHT
 10
0.0
 20
0.0
 30
0.0
  9
$PUCSORGFRONT
 10
0.0
 20
0.0
 30
0.0
  9
$PUCSORGBACK
 10
0.0
 20
0.0
 30
0.0
  9
$USERI1
 70
     0
  9
$USERI2
 70
     0
  9
$USERI3
 70
     0
  9
$USERI4
 70
     0
  9
$USERI5
 70
     0
  9
$USERR1
 40
0.0
  9
$USERR2
 40
0.0
  9
$USERR3
 40
0.0
  9
$USERR4
 40
0.0
  9
$USERR5
 40
0.0
  9
$WORLDVIEW
 70
     1
  9
$SHADEDGE
 70
     3
  9
$SHADEDIF
 70
    70
  9
$TILEMODE
 70
     1
  9
$MAXACTVP
 70
    64
  9
$PINSBASE
 10
0.0
 20
0.0
 30
0.0
  9
$PLIMCHECK
 70
     0
  9
$PEXTMIN
 10
1.000000000000000E+20
 20
1.000000000000000E+20
 30
1.000000000000000E+20
  9
$PEXTMAX
 10
-1.000000000000000E+20
 20
-1.000000000000000E+20
 30
-1.000000000000000E+20
  9
$PLIMMIN
 10
0.0
 20
0.0
  9
$PLIMMAX
 10
12.0
 20
9.0
  9
$UNITMODE
 70
     0
  9
$VISRETAIN
 70
     1
  9
$PLINEGEN
 70
     0
  9
$PSLTSCALE
 70
     1
  9
$TREEDEPTH
 70
  3020
  9
$CMLSTYLE
  2
Standard
  9
$CMLJUST
 70
     0
  9
$CMLSCALE
 40
1.0
  9
$PROXYGRAPHICS
 70
     1
  9
$MEASUREMENT
 70
     0
  9
$CELWEIGHT
370
    -1
  9
$ENDCAPS
280
     0
  9
$JOINSTYLE
280
     0
  9
$LWDISPLAY
290
     0
  9
$INSUNITS
 70
     1
  9
$HYPERLINKBASE
  1

  9
$STYLESHEET
  1

  9
$XEDIT
290
     1
  9
$CEPSNTYPE
380
     0
  9
$PSTYLEMODE
290
     1
  9
$FINGERPRINTGUID
  2
{14F19F30-7481-4023-8751-B04EE03C4EBE}
  9
$VERSIONGUID
  2
{FAEB1C32-E019-11D5-929B-00C0DF256EC4}
  9
$EXTNAMES
290
     1
  9
$PSVPSCALE
 40
0.0
  9
$OLESTARTUP
290
     0
  9
$SORTENTS
280
   127
  9
$INDEXCTL
280
     0
  9
$HIDETEXT
280
     1
  9
$XCLIPFRAME
290
     0
  9
$HALOGAP
280
     0
  9
$OBSCOLOR
 70
   257
  9
$OBSLTYPE
280
     0
  9
$INTERSECTIONDISPLAY
280
     0
  9
$INTERSECTIONCOLOR
 70
   257
  9
$DIMASSOC
280
     2
  9
$PROJECTNAME
  1

  0
ENDSEC
  0
SECTION
  2
CLASSES
  0
CLASS
  1
ACDBDICTIONARYWDFLT
  2
AcDbDictionaryWithDefault
  3
ObjectDBX Classes
 90
        0
 91
        4
280
     0
281
     0
  0
CLASS
  1
VISUALSTYLE
  2
AcDbVisualStyle
  3
ObjectDBX Classes
 90
     4095
 91
        4
280
     0
281
     0
  0
ENDSEC
  0
SECTION
  2
TABLES
  0
TABLE
  2
VPORT
  5
8
330
0
100
AcDbSymbolTable
 70
     1
  0
VPORT
  5
29
330
8
100
AcDbSymbolTableRecord
100
AcDbViewportTableRecord
  2
*Active
 70
     0
 10
0.0
 20
0.0
 11
1.0
 21
1.0
 12
30.99824922520355
 22
45.50049999797641
 13
0.0
 23
0.0
 14
0.5
 24
0.5
 15
0.5
 25
0.5
 16
0.0
 26
0.0
 36
1.0
 17
0.0
 27
0.0
 37
0.0
 40
92.82101999587894
 41
1.142806106032071
 42
50.0
 43
0.0
 44
0.0
 50
0.0
 51
0.0
 71
     0
 72
   100
 73
     1
 74
     3
 75
     0
 76
     0
 77
     0
 78
     0
281
     0
 65
     1
110
0.0
120
0.0
130
0.0
111
1.0
121
0.0
131
0.0
112
0.0
122
1.0
132
0.0
 79
     0
146
0.0
  0
ENDTAB
  0
TABLE
  2
LTYPE
  5
5
330
0
100
AcDbSymbolTable
 70
     1
  0
LTYPE
  5
14
330
5
100
AcDbSymbolTableRecord
100
AcDbLinetypeTableRecord
  2
ByBlock
 70
     0
  3

 72
    65
 73
     0
 40
0.0
  0
LTYPE
  5
15
330
5
100
AcDbSymbolTableRecord
100
AcDbLinetypeTableRecord
  2
ByLayer
 70
     0
  3

 72
    65
 73
     0
 40
0.0
  0
LTYPE
  5
16
330
5
100
AcDbSymbolTableRecord
100
AcDbLinetypeTableRecord
  2
Continuous
 70
     0
  3
Solid line
 72
    65
 73
     0
 40
0.0
  0
ENDTAB
  0
TABLE
  2
LAYER
  5
2
330
0
100
AcDbSymbolTable
 70
     2
  0
LAYER
  5
10
330
2
100
AcDbSymbolTableRecord
100
AcDbLayerTableRecord
  2
0
 70
     0
 62
     7
  6
Continuous
370
    -3
390
F
  0
LAYER
  5
3B
330
2
100
AcDbSymbolTableRecord
100
AcDbLayerTableRecord
  2
A 2D
 70
     0
 62
     7
  6
Continuous
370
    -3
390
F
  0
ENDTAB
  0
TABLE
  2
STYLE
  5
3
330
0
100
AcDbSymbolTable
 70
     1
  0
STYLE
  5
11
330
3
100
AcDbSymbolTableRecord
100
AcDbTextStyleTableRecord
  2
Standard
 70
     0
 40
0.0
 41
1.0
 50
0.0
 71
     0
 42
0.2
  3
txt
  4

  0
ENDTAB
  0
TABLE
  2
VIEW
  5
6
330
0
100
AcDbSymbolTable
 70
     0
  0
ENDTAB
  0
TABLE
  2
UCS
  5
7
330
0
100
AcDbSymbolTable
 70
     0
  0
ENDTAB
  0
TABLE
  2
APPID
  5
9
330
0
100
AcDbSymbolTable
 70
     1
  0
APPID
  5
12
330
9
100
AcDbSymbolTableRecord
100
AcDbRegAppTableRecord
  2
ACAD
 70
     0
  0
ENDTAB
  0
TABLE
  2
DIMSTYLE
  5
A
330
0
100
AcDbSymbolTable
 70
     1
100
AcDbDimStyleTable
  0
DIMSTYLE
105
27
330
A
100
AcDbSymbolTableRecord
100
AcDbDimStyleTableRecord
  2
Standard
 70
     0
340
11
  0
ENDTAB
  0
TABLE
  2
BLOCK_RECORD
  5
1
330
0
100
AcDbSymbolTable
 70
     1
  0
BLOCK_RECORD
  5
1F
330
1
100
AcDbSymbolTableRecord
100
AcDbBlockTableRecord
  2
*Model_Space
340
22
  0
BLOCK_RECORD
  5
1B
330
1
100
AcDbSymbolTableRecord
100
AcDbBlockTableRecord
  2
*Paper_Space
340
1E
  0
BLOCK_RECORD
  5
23
330
1
100
AcDbSymbolTableRecord
100
AcDbBlockTableRecord
  2
*Paper_Space0
340
26
  0
ENDTAB
  0
ENDSEC
  0
SECTION
  2
BLOCKS
  0
BLOCK
  5
20
330
1F
100
AcDbEntity
  8
0
100
AcDbBlockBegin
  2
*Model_Space
 70
     0
 10
0.0
 20
0.0
 30
0.0
  3
*Model_Space
  1

  0
ENDBLK
  5
21
330
1F
100
AcDbEntity
  8
0
100
AcDbBlockEnd
  0
BLOCK
  5
1C
330
1B
100
AcDbEntity
 67
     1
  8
0
100
AcDbBlockBegin
  2
*Paper_Space
 70
     0
 10
0.0
 20
0.0
 30
0.0
  3
*Paper_Space
  1

  0
ENDBLK
  5
1D
330
1B
100
AcDbEntity
 67
     1
  8
0
100
AcDbBlockEnd
  0
BLOCK
  5
24
330
23
100
AcDbEntity
  8
0
100
AcDbBlockBegin
  2
*Paper_Space0
 70
     0
 10
0.0
 20
0.0
 30
0.0
  3
*Paper_Space0
  1

  0
ENDBLK
  5
25
330
23
100
AcDbEntity
  8
0
100
AcDbBlockEnd
  0
ENDSEC
  0
SECTION
  2
ENTITIES
  0
SPLINE
  5
3C
330
1F
100
AcDbEntity
  8
A 2D
100
AcDbSpline
210
0.0
220
0.0
230
1.0
 70
    12
 71
     2
 72
     6
 73
     3
 74
     0
 42
0.0000000001
 43
0.0000000001
 40
0.0
 40
0.0
 40
0.0
 40
2.356194490192357
 40
2.356194490192357
 40
2.356194490192357
 10
21.0
 20
50.50099999595628
 30
0.0
 41
1.0
 10
21.00000000000003
 20
49.00099999595625
 30
0.0
 41
0.7071067811865341
 10
19.5
 20
49.00099999595628
 30
0.0
 41
1.0
  0
SPLINE
  5
3D
330
1F
100
AcDbEntity
  8
A 2D
100
AcDbSpline
210
0.0
220
0.0
230
1.0
 70
    24
 71
     2
 72
     6
 73
     3
 74
     0
 42
0.0000000001
 43
0.0000000001
 40
0.0
 40
0.0
 40
0.0
 40
39.0
 40
39.0
 40
39.0
 10
19.5
 20
49.00099999595628
 30
0.0
 10
0.0
 20
49.00099999595628
 30
0.0
 10
-19.5
 20
49.00099999595628
 30
0.0
  0
SPLINE
  5
3E
330
1F
100
AcDbEntity
  8
A 2D
100
AcDbSpline
210
0.0
220
0.0
230
1.0
 70
    12
 71
     2
 72
     6
 73
     3
 74
     0
 42
0.0000000001
 43
0.0000000001
 40
0.0
 40
0.0
 40
0.0
 40
2.356194490192355
 40
2.356194490192355
 40
2.356194490192355
 10
-19.5
 20
49.00099999595628
 30
0.0
 41
1.0
 10
-21.00000000000002
 20
49.00099999595625
 30
0.0
 41
0.7071067811865347
 10
-21.0
 20
50.50099999595628
 30
0.0
 41
1.0
  0
SPLINE
  5
3F
330
1F
100
AcDbEntity
  8
A 2D
100
AcDbSpline
210
0.0
220
0.0
230
1.0
 70
    24
 71
     2
 72
     6
 73
     3
 74
     0
 42
0.0000000001
 43
0.0000000001
 40
0.0
 40
0.0
 40
0.0
 40
39.0
 40
39.0
 40
39.0
 10
-21.0
 20
50.50099999595628
 30
0.0
 10
-21.0
 20
70.00099999595628
 30
0.0
 10
-21.0
 20
89.50099999595628
 30
0.0
  0
SPLINE
  5
40
330
1F
100
AcDbEntity
  8
A 2D
100
AcDbSpline
210
0.0
220
0.0
230
1.0
 70
    12
 71
     2
 72
     6
 73
     3
 74
     0
 42
0.0000000001
 43
0.0000000001
 40
0.0
 40
0.0
 40
0.0
 40
2.35619449019236
 40
2.35619449019236
 40
2.35619449019236
 10
-21.0
 20
89.50099999595628
 30
0.0
 41
1.0
 10
-21.00000000000003
 20
91.00099999595633
 30
0.0
 41
0.7071067811865356
 10
-19.5
 20
91.00099999595628
 30
0.0
 41
1.0
  0
SPLINE
  5
41
330
1F
100
AcDbEntity
  8
A 2D
100
AcDbSpline
210
0.0
220
0.0
230
1.0
 70
    24
 71
     2
 72
     6
 73
     3
 74
     0
 42
0.0000000001
 43
0.0000000001
 40
0.0
 40
0.0
 40
0.0
 40
39.0
 40
39.0
 40
39.0
 10
-19.5
 20
91.00099999595628
 30
0.0
 10
0.0
 20
91.00099999595628
 30
0.0
 10
19.5
 20
91.00099999595628
 30
0.0
  0
SPLINE
  5
42
330
1F
100
AcDbEntity
  8
A 2D
100
AcDbSpline
210
0.0
220
0.0
230
1.0
 70
    12
 71
     2
 72
     6
 73
     3
 74
     0
 42
0.0000000001
 43
0.0000000001
 40
0.0
 40
0.0
 40
0.0
 40
2.356194490192356
 40
2.356194490192356
 40
2.356194490192356
 10
19.5
 20
91.00099999595628
 30
0.0
 41
1.0
 10
21.00000000000002
 20
91.00099999595632
 30
0.0
 41
0.7071067811865291
 10
20.99999999999999
 20
89.50099999595628
 30
0.0
 41
1.0
  0
SPLINE
  5
43
330
1F
100
AcDbEntity
  8
A 2D
100
AcDbSpline
210
0.0
220
0.0
230
1.0
 70
    24
 71
     2
 72
     6
 73
     3
 74
     0
 42
0.0000000001
 43
0.0000000001
 40
0.0
 40
0.0
 40
0.0
 40
39.0
 40
39.0
 40
39.0
 10
21.0
 20
89.50099999595628
 30
0.0
 10
21.0
 20
70.00099999595628
 30
0.0
 10
21.0
 20
50.50099999595628
 30
0.0
  0
SPLINE
  5
44
330
1F
100
AcDbEntity
  8
A 2D
100
AcDbSpline
210
0.0
220
0.0
230
1.0
 70
    24
 71
     2
 72
     6
 73
     3
 74
     0
 42
0.0000000001
 43
0.0000000001
 40
0.0
 40
0.0
 40
0.0
 40
27.603445489506
 40
27.603445489506
 40
27.603445489506
 10
-15.73066363105616
 20
27.81299999595628
 30
0.0
 10
-16.92441851503879
 20
14.06299999595628
 30
0.0
 10
-18.11817339902143
 20
0.3129999959562739
 30
0.0
  0
POLYLINE
  5
45
330
1F
100
AcDbEntity
  8
A 2D
100
AcDb2dPolyline
 66
     1
 10
0.0
 20
0.0
 30
0.0
  0
VERTEX
  5
46
330
45
100
AcDbEntity
  8
A 2D
100
AcDbVertex
100
AcDb2dVertex
 10
-18.81413599867335
 20
28.00099999595628
 30
0.0
  0
VERTEX
  5
47
330
45
100
AcDbEntity
  8
A 2D
100
AcDbVertex
100
AcDb2dVertex
 10
-11.42753746828093
 20
28.00099999595627
 30
0.0
  0
SEQEND
  5
48
330
45
100
AcDbEntity
  8
A 2D
  0
SPLINE
  5
49
330
1F
100
AcDbEntity
  8
A 2D
100
AcDbSpline
210
0.0
220
0.0
230
1.0
 70
    24
 71
     2
 72
     6
 73
     3
 74
     0
 42
0.0000000001
 43
0.0000000001
 40
0.0
 40
0.0
 40
0.0
 40
0.1880000000000024
 40
0.1880000000000024
 40
0.1880000000000024
 10
-11.42753746828093
 20
28.00099999595627
 30
0.0
 10
-11.42753746828093
 20
27.90699999595622
 30
0.0
 10
-11.42753746828094
 20
27.81299999595617
 30
0.0
  0
LINE
  5
4A
330
1F
100
AcDbEntity
  8
A 2D
100
AcDbLine
 10
-11.42753746828094
 20
27.81299999595617
 30
0.0
 11
-18.70429108936179
 21
27.81299999595627
 31
0.0
  0
SPLINE
  5
4B
330
1F
100
AcDbEntity
  8
A 2D
100
AcDbSpline
210
0.0
220
0.0
230
1.0
 70
    28
 71
     2
 72
     6
 73
     3
 74
     0
 42
0.0000000001
 43
0.0000000001
 40
-3.141592653589794
 40
-3.141592653589794
 40
-3.141592653589794
 40
-2.25586805153241
 40
-2.25586805153241
 40
-2.25586805153241
 10
-18.70429108936179
 20
27.81299999595627
 30
0.0
 41
1.0
 10
-18.82531839643671
 20
27.81299999595628
 30
0.0
 41
0.9068261637799945
 10
-18.81319386389364
 20
27.81299999595627
 30
0.0
 41
0.9936306632662366
  0
SPLINE
  5
4C
330
1F
100
AcDbEntity
  8
A 2D
100
AcDbSpline
210
0.0
220
0.0
230
1.0
 70
    24
 71
     2
 72
     6
 73
     3
 74
     0
 42
0.0000000001
 43
0.0000000001
 40
0.0
 40
0.0
 40
0.0
 40
0.1880000000000024
 40
0.1880000000000024
 40
0.1880000000000024
 10
-18.81319386389364
 20
27.81299999595628
 30
0.0
 10
-18.81366493128349
 20
27.90699999595628
 30
0.0
 10
-18.81413599867335
 20
28.00099999595628
 30
0.0
  0
SPLINE
  5
4D
330
1F
100
AcDbEntity
  8
A 2D
100
AcDbSpline
210
0.0
220
0.0
230
1.0
 70
    24
 71
     2
 72
     6
 73
     3
 74
     0
 42
0.0000000001
 43
0.0000000001
 40
0.0
 40
0.0
 40
0.0
 40
0.7522455994824915
 40
0.7522455994824915
 40
0.7522455994824915
 10
-13.75180961197103
 20
24.46023193856624
 30
0.0
 10
-14.121119940401
 20
24.5314937221542
 30
0.0
 10
-14.49043026883098
 20
24.60275550574216
 30
0.0
  0
SPLINE
  5
4E
330
1F
100
AcDbEntity
  8
A 2D
100
AcDbSpline
210
0.0
220
0.0
230
1.0
 70
    12
 71
     2
 72
     6
 73
     3
 74
     0
 42
0.0000000001
 43
0.0000000001
 40
0.0
 40
0.0
 40
0.0
 40
0.23743127559879
 40
0.23743127559879
 40
0.23743127559879
 10
-14.49043026883098
 20
24.60275550574216
 30
0.0
 41
1.0
 10
-14.62225878905383
 20
24.64968949810895
 30
0.0
 41
0.7873276640512697
 10
-14.60830235577514
 20
24.78892590266527
 30
0.0
 41
1.0
  0
SPLINE
  5
4F
330
1F
100
AcDbEntity
  8
A 2D
100
AcDbSpline
210
0.0
220
0.0
230
1.0
 70
    24
 71
     2
 72
     6
 73
     3
 74
     0
 42
0.0000000001
 43
0.0000000001
 40
0.0
 40
0.0
 40
0.0
 40
3.024074093290999
 40
3.024074093290999
 40
3.024074093290999
 10
-14.60830235577514
 20
24.78892590266527
 30
0.0
 10
-14.60830235577514
 20
26.30096294931077
 30
0.0
 10
-14.60830235577514
 20
27.81299999595627
 30
0.0
  0
POLYLINE
  5
50
330
1F
100
AcDbEntity
  8
A 2D
100
AcDb2dPolyline
 66
     1
 10
0.0
 20
0.0
 30
0.0
  0
VERTEX
  5
51
330
50
100
AcDbEntity
  8
A 2D
100
AcDbVertex
100
AcDb2dVertex
 10
-14.60830235577514
 20
27.81299999595627
 30
0.0
  0
VERTEX
  5
52
330
50
100
AcDbEntity
  8
A 2D
100
AcDbVertex
100
AcDb2dVertex
 10
-11.42753746828094
 20
27.81299999595627
 30
0.0
  0
VERTEX
  5
53
330
50
100
AcDbEntity
  8
A 2D
100
AcDbVertex
100
AcDb2dVertex
 10
-11.43271705116143
 20
25.25062485837897
 30
0.0
  0
SEQEND
  5
54
330
50
100
AcDbEntity
  8
A 2D
  0
SPLINE
  5
55
330
1F
100
AcDbEntity
  8
A 2D
100
AcDbSpline
210
0.0
220
0.0
230
1.0
 70
    24
 71
     2
 72
     6
 73
     3
 74
     0
 42
0.0000000001
 43
0.0000000001
 40
0.0
 40
0.0
 40
0.0
 40
2.450043654332194
 40
2.450043654332194
 40
2.450043654332194
 10
-11.43271705116143
 20
25.25062485837897
 30
0.0
 10
-12.59226333156623
 20
24.8554283984726
 30
0.0
 10
-13.75180961197103
 20
24.46023193856624
 30
0.0
  0
POLYLINE
  5
56
330
1F
100
AcDbEntity
  8
A 2D
100
AcDb2dPolyline
 66
     1
 10
0.0
 20
0.0
 30
0.0
  0
VERTEX
  5
57
330
56
100
AcDbEntity
  8
A 2D
100
AcDbVertex
100
AcDb2dVertex
 10
-16.99457137613798
 20
27.81299999595628
 30
0.0
  0
VERTEX
  5
58
330
56
100
AcDbEntity
  8
A 2D
100
AcDbVertex
100
AcDb2dVertex
 10
-14.65659879828989
 20
27.81299999595628
 30
0.0
  0
SEQEND
  5
59
330
56
100
AcDbEntity
  8
A 2D
  0
SPLINE
  5
5A
330
1F
100
AcDbEntity
  8
A 2D
100
AcDbSpline
210
0.0
220
0.0
230
1.0
 70
    24
 71
     2
 72
     6
 73
     3
 74
     0
 42
0.0000000001
 43
0.0000000001
 40
-3.031131383519992
 40
-3.031131383519992
 40
-3.031131383519992
 40
0.0
 40
0.0
 40
0.0
 10
-14.65659879828989
 20
27.81299999595628
 30
0.0
 10
-14.65270475270251
 20
26.29740050193514
 30
0.0
 10
-14.64881070711514
 20
24.78180100791401
 30
0.0
  0
SPLINE
  5
5B
330
1F
100
AcDbEntity
  8
A 2D
100
AcDbSpline
210
0.0
220
0.0
230
1.0
 70
    12
 71
     2
 72
     6
 73
     3
 74
     0
 42
0.0000000001
 43
0.0000000001
 40
-0.3433114792523052
 40
-0.3433114792523052
 40
-0.3433114792523052
 40
0.0
 40
0.0
 40
0.0
 10
-14.64881070711514
 20
24.78180100791401
 30
0.0
 41
0.9997583392229558
 10
-14.6481765788293
 20
24.57323233966721
 30
0.0
 41
0.7548305167534196
 10
-14.49772529274082
 20
24.54421598638542
 30
0.0
 41
1.0
  0
SPLINE
  5
5C
330
1F
100
AcDbEntity
  8
A 2D
100
AcDbSpline
210
0.0
220
0.0
230
1.0
 70
    24
 71
     2
 72
     6
 73
     3
 74
     0
 42
0.0000000001
 43
0.0000000001
 40
-0.7517321041836429
 40
-0.7517321041836429
 40
-0.7517321041836429
 40
0.0
 40
0.0
 40
0.0
 10
-14.49772529274082
 20
24.54421598638542
 30
0.0
 10
-14.12866040541418
 20
24.47303735154557
 30
0.0
 10
-13.75959551808754
 20
24.40185871670573
 30
0.0
  0
SPLINE
  5
5D
330
1F
100
AcDbEntity
  8
A 2D
100
AcDbSpline
210
0.0
220
0.0
230
1.0
 70
    24
 71
     2
 72
     6
 73
     3
 74
     0
 42
0.0000000001
 43
0.0000000001
 40
-24.22511143972562
 40
-24.22511143972562
 40
-24.22511143972562
 40
0.0
 40
0.0
 40
0.0
 10
-13.75959551808754
 20
24.40185871670573
 30
0.0
 10
-15.04245461000863
 20
12.35742935633101
 30
0.0
 10
-16.32531370192973
 20
0.3129999959562819
 30
0.0
  0
LINE
  5
5E
330
1F
100
AcDbEntity
  8
A 2D
100
AcDbLine
 10
-16.32531370192973
 20
0.3129999959562819
 30
0.0
 11
-19.38206044272683
 21
0.3131192180544369
 31
0.0
  0
SPLINE
  5
5F
330
1F
100
AcDbEntity
  8
A 2D
100
AcDbSpline
210
0.0
220
0.0
230
1.0
 70
    24
 71
     2
 72
     6
 73
     3
 74
     0
 42
0.0000000001
 43
0.0000000001
 40
0.0
 40
0.0
 40
0.0
 40
27.60320614836507
 40
27.60320614836507
 40
27.60320614836507
 10
-19.38206044272683
 20
0.3131192180544369
 30
0.0
 10
-18.1883159094324
 20
14.06305960700536
 30
0.0
 10
-16.99457137613798
 20
27.81299999595628
 30
0.0
  0
POLYLINE
  5
60
330
1F
100
AcDbEntity
  8
A 2D
100
AcDb2dPolyline
 66
     1
 10
0.0
 20
0.0
 30
0.0
  0
VERTEX
  5
61
330
60
100
AcDbEntity
  8
A 2D
100
AcDbVertex
100
AcDb2dVertex
 10
-19.28833114410074
 20
0.3129999959563983
 30
0.0
  0
VERTEX
  5
62
330
60
100
AcDbEntity
  8
A 2D
100
AcDbVertex
100
AcDb2dVertex
 10
-16.49749951890335
 20
0.3129999959563974
 30
0.0
  0
SEQEND
  5
63
330
60
100
AcDbEntity
  8
A 2D
  0
SPLINE
  5
64
330
1F
100
AcDbEntity
  8
A 2D
100
AcDbSpline
210
0.0
220
0.0
230
1.0
 70
    24
 71
     2
 72
     6
 73
     3
 74
     0
 42
0.0000000001
 43
0.0000000001
 40
0.0
 40
0.0
 40
0.0
 40
0.1879999959563761
 40
0.1879999959563761
 40
0.1879999959563761
 10
-16.49749951890335
 20
0.3129999959563974
 30
0.0
 10
-16.49749951890337
 20
0.2189999979782093
 30
0.0
 10
-16.4974995189034
 20
0.1250000000000213
 30
0.0
  0
SPLINE
  5
65
330
1F
100
AcDbEntity
  8
A 2D
100
AcDbSpline
210
0.0
220
0.0
230
1.0
 70
    12
 71
     2
 72
     6
 73
     3
 74
     0
 42
0.0000000001
 43
0.0000000001
 40
-0.2086852564238481
 40
-0.2086852564238481
 40
-0.2086852564238481
 40
0.0
 40
0.0
 40
0.0
 10
-16.4974995189034
 20
0.1250000000000213
 30
0.0
 41
1.0
 10
-16.50905931623482
 20
-0.0049944862320145
 30
0.0
 41
0.724703925400524
 10
-16.63947116566712
 20
0.0
 30
0.0
 41
1.0
  0
SPLINE
  5
66
330
1F
100
AcDbEntity
  8
A 2D
100
AcDbSpline
210
0.0
220
0.0
230
1.0
 70
    24
 71
     2
 72
     6
 73
     3
 74
     0
 42
0.0000000001
 43
0.0000000001
 40
0.0
 40
0.0
 40
0.0
 40
2.52289713806227
 40
2.52289713806227
 40
2.52289713806227
 10
-16.63947116566712
 20
0.0
 30
0.0
 10
-17.90123942028305
 20
0.0000000000012587
 30
0.0
 10
-19.16300767489898
 20
0.0000000000025173
 30
0.0
  0
SPLINE
  5
67
330
1F
100
AcDbEntity
  8
A 2D
100
AcDbSpline
210
0.0
220
0.0
230
1.0
 70
    12
 71
     2
 72
     6
 73
     3
 74
     0
 42
0.0000000001
 43
0.0000000001
 40
0.0
 40
0.0
 40
0.0
 40
0.1962284577300907
 40
0.1962284577300907
 40
0.1962284577300907
 10
-19.16300767489898
 20
0.0000000000025173
 30
0.0
 41
1.0
 10
-19.28826755685326
 20
0.0003790246453092
 30
0.0
 41
0.7094608718397355
 10
-19.28852556654691
 20
0.125
 30
0.0
 41
0.9999976805327707
  0
SPLINE
  5
68
330
1F
100
AcDbEntity
  8
A 2D
100
AcDbSpline
210
0.0
220
0.0
230
1.0
 70
    24
 71
     2
 72
     6
 73
     3
 74
     0
 42
0.0000000001
 43
0.0000000001
 40
0.0
 40
0.0
 40
0.0
 40
0.1879999959563983
 40
0.1879999959563983
 40
0.1879999959563983
 10
-19.28852556654691
 20
0.125
 30
0.0
 10
-19.28842835532382
 20
0.2189999979781991
 30
0.0
 10
-19.28833114410074
 20
0.3129999959563983
 30
0.0
  0
SPLINE
  5
69
330
1F
100
AcDbEntity
  8
A 2D
100
AcDbSpline
210
0.0
220
0.0
230
1.0
 70
    24
 71
     2
 72
     6
 73
     3
 74
     0
 42
0.0000000001
 43
0.0000000001
 40
0.0
 40
0.0
 40
0.0
 40
27.603445489506
 40
27.603445489506
 40
27.603445489506
 10
15.73066363105616
 20
27.81299999595628
 30
0.0
 10
16.92441851503879
 20
14.06299999595628
 30
0.0
 10
18.11817339902143
 20
0.3129999959562739
 30
0.0
  0
POLYLINE
  5
6A
330
1F
100
AcDbEntity
  8
A 2D
100
AcDb2dPolyline
 66
     1
 10
0.0
 20
0.0
 30
0.0
  0
VERTEX
  5
6B
330
6A
100
AcDbEntity
  8
A 2D
100
AcDbVertex
100
AcDb2dVertex
 10
18.81413599867335
 20
28.00099999595628
 30
0.0
  0
VERTEX
  5
6C
330
6A
100
AcDbEntity
  8
A 2D
100
AcDbVertex
100
AcDb2dVertex
 10
11.42753746828093
 20
28.00099999595627
 30
0.0
  0
SEQEND
  5
6D
330
6A
100
AcDbEntity
  8
A 2D
  0
SPLINE
  5
6E
330
1F
100
AcDbEntity
  8
A 2D
100
AcDbSpline
210
0.0
220
0.0
230
1.0
 70
    24
 71
     2
 72
     6
 73
     3
 74
     0
 42
0.0000000001
 43
0.0000000001
 40
0.0
 40
0.0
 40
0.0
 40
0.1880000000000024
 40
0.1880000000000024
 40
0.1880000000000024
 10
11.42753746828093
 20
28.00099999595627
 30
0.0
 10
11.42753746828093
 20
27.90699999595622
 30
0.0
 10
11.42753746828094
 20
27.81299999595617
 30
0.0
  0
LINE
  5
6F
330
1F
100
AcDbEntity
  8
A 2D
100
AcDbLine
 10
11.42753746828094
 20
27.81299999595617
 30
0.0
 11
18.70429108936179
 21
27.81299999595627
 31
0.0
  0
SPLINE
  5
70
330
1F
100
AcDbEntity
  8
A 2D
100
AcDbSpline
210
0.0
220
0.0
230
1.0
 70
    28
 71
     2
 72
     6
 73
     3
 74
     0
 42
0.0000000001
 43
0.0000000001
 40
-3.141592653589794
 40
-3.141592653589794
 40
-3.141592653589794
 40
-2.25586805153241
 40
-2.25586805153241
 40
-2.25586805153241
 10
18.70429108936179
 20
27.81299999595627
 30
0.0
 41
1.0
 10
18.82531839643671
 20
27.81299999595628
 30
0.0
 41
0.9068261637799945
 10
18.81319386389364
 20
27.81299999595627
 30
0.0
 41
0.9936306632662366
  0
SPLINE
  5
71
330
1F
100
AcDbEntity
  8
A 2D
100
AcDbSpline
210
0.0
220
0.0
230
1.0
 70
    24
 71
     2
 72
     6
 73
     3
 74
     0
 42
0.0000000001
 43
0.0000000001
 40
0.0
 40
0.0
 40
0.0
 40
0.1880000000000024
 40
0.1880000000000024
 40
0.1880000000000024
 10
18.81319386389364
 20
27.81299999595628
 30
0.0
 10
18.81366493128349
 20
27.90699999595628
 30
0.0
 10
18.81413599867335
 20
28.00099999595628
 30
0.0
  0
SPLINE
  5
72
330
1F
100
AcDbEntity
  8
A 2D
100
AcDbSpline
210
0.0
220
0.0
230
1.0
 70
    24
 71
     2
 72
     6
 73
     3
 74
     0
 42
0.0000000001
 43
0.0000000001
 40
0.0
 40
0.0
 40
0.0
 40
0.7522455994824915
 40
0.7522455994824915
 40
0.7522455994824915
 10
13.75180961197103
 20
24.46023193856624
 30
0.0
 10
14.121119940401
 20
24.5314937221542
 30
0.0
 10
14.49043026883098
 20
24.60275550574216
 30
0.0
  0
SPLINE
  5
73
330
1F
100
AcDbEntity
  8
A 2D
100
AcDbSpline
210
0.0
220
0.0
230
1.0
 70
    12
 71
     2
 72
     6
 73
     3
 74
     0
 42
0.0000000001
 43
0.0000000001
 40
0.0
 40
0.0
 40
0.0
 40
0.23743127559879
 40
0.23743127559879
 40
0.23743127559879
 10
14.49043026883098
 20
24.60275550574216
 30
0.0
 41
1.0
 10
14.62225878905383
 20
24.64968949810895
 30
0.0
 41
0.7873276640512697
 10
14.60830235577514
 20
24.78892590266527
 30
0.0
 41
1.0
  0
SPLINE
  5
74
330
1F
100
AcDbEntity
  8
A 2D
100
AcDbSpline
210
0.0
220
0.0
230
1.0
 70
    24
 71
     2
 72
     6
 73
     3
 74
     0
 42
0.0000000001
 43
0.0000000001
 40
0.0
 40
0.0
 40
0.0
 40
3.024074093290999
 40
3.024074093290999
 40
3.024074093290999
 10
14.60830235577514
 20
24.78892590266527
 30
0.0
 10
14.60830235577514
 20
26.30096294931077
 30
0.0
 10
14.60830235577514
 20
27.81299999595627
 30
0.0
  0
POLYLINE
  5
75
330
1F
100
AcDbEntity
  8
A 2D
100
AcDb2dPolyline
 66
     1
 10
0.0
 20
0.0
 30
0.0
  0
VERTEX
  5
76
330
75
100
AcDbEntity
  8
A 2D
100
AcDbVertex
100
AcDb2dVertex
 10
14.60830235577514
 20
27.81299999595627
 30
0.0
  0
VERTEX
  5
77
330
75
100
AcDbEntity
  8
A 2D
100
AcDbVertex
100
AcDb2dVertex
 10
11.42753746828094
 20
27.81299999595627
 30
0.0
  0
VERTEX
  5
78
330
75
100
AcDbEntity
  8
A 2D
100
AcDbVertex
100
AcDb2dVertex
 10
11.43271705116143
 20
25.25062485837897
 30
0.0
  0
SEQEND
  5
79
330
75
100
AcDbEntity
  8
A 2D
  0
SPLINE
  5
7A
330
1F
100
AcDbEntity
  8
A 2D
100
AcDbSpline
210
0.0
220
0.0
230
1.0
 70
    24
 71
     2
 72
     6
 73
     3
 74
     0
 42
0.0000000001
 43
0.0000000001
 40
0.0
 40
0.0
 40
0.0
 40
2.450043654332194
 40
2.450043654332194
 40
2.450043654332194
 10
11.43271705116143
 20
25.25062485837897
 30
0.0
 10
12.59226333156623
 20
24.8554283984726
 30
0.0
 10
13.75180961197103
 20
24.46023193856624
 30
0.0
  0
POLYLINE
  5
7B
330
1F
100
AcDbEntity
  8
A 2D
100
AcDb2dPolyline
 66
     1
 10
0.0
 20
0.0
 30
0.0
  0
VERTEX
  5
7C
330
7B
100
AcDbEntity
  8
A 2D
100
AcDbVertex
100
AcDb2dVertex
 10
16.99457137613798
 20
27.81299999595628
 30
0.0
  0
VERTEX
  5
7D
330
7B
100
AcDbEntity
  8
A 2D
100
AcDbVertex
100
AcDb2dVertex
 10
14.65659879828989
 20
27.81299999595628
 30
0.0
  0
SEQEND
  5
7E
330
7B
100
AcDbEntity
  8
A 2D
  0
SPLINE
  5
7F
330
1F
100
AcDbEntity
  8
A 2D
100
AcDbSpline
210
0.0
220
0.0
230
1.0
 70
    24
 71
     2
 72
     6
 73
     3
 74
     0
 42
0.0000000001
 43
0.0000000001
 40
-3.031131383519992
 40
-3.031131383519992
 40
-3.031131383519992
 40
0.0
 40
0.0
 40
0.0
 10
14.65659879828989
 20
27.81299999595628
 30
0.0
 10
14.65270475270251
 20
26.29740050193514
 30
0.0
 10
14.64881070711514
 20
24.78180100791401
 30
0.0
  0
SPLINE
  5
80
330
1F
100
AcDbEntity
  8
A 2D
100
AcDbSpline
210
0.0
220
0.0
230
1.0
 70
    12
 71
     2
 72
     6
 73
     3
 74
     0
 42
0.0000000001
 43
0.0000000001
 40
-0.3433114792523052
 40
-0.3433114792523052
 40
-0.3433114792523052
 40
0.0
 40
0.0
 40
0.0
 10
14.64881070711514
 20
24.78180100791401
 30
0.0
 41
0.9997583392229558
 10
14.6481765788293
 20
24.57323233966721
 30
0.0
 41
0.7548305167534196
 10
14.49772529274082
 20
24.54421598638542
 30
0.0
 41
1.0
  0
SPLINE
  5
81
330
1F
100
AcDbEntity
  8
A 2D
100
AcDbSpline
210
0.0
220
0.0
230
1.0
 70
    24
 71
     2
 72
     6
 73
     3
 74
     0
 42
0.0000000001
 43
0.0000000001
 40
-0.7517321041836429
 40
-0.7517321041836429
 40
-0.7517321041836429
 40
0.0
 40
0.0
 40
0.0
 10
14.49772529274082
 20
24.54421598638542
 30
0.0
 10
14.12866040541418
 20
24.47303735154557
 30
0.0
 10
13.75959551808754
 20
24.40185871670573
 30
0.0
  0
SPLINE
  5
82
330
1F
100
AcDbEntity
  8
A 2D
100
AcDbSpline
210
0.0
220
0.0
230
1.0
 70
    24
 71
     2
 72
     6
 73
     3
 74
     0
 42
0.0000000001
 43
0.0000000001
 40
-24.22511143972562
 40
-24.22511143972562
 40
-24.22511143972562
 40
0.0
 40
0.0
 40
0.0
 10
13.75959551808754
 20
24.40185871670573
 30
0.0
 10
15.04245461000863
 20
12.35742935633101
 30
0.0
 10
16.32531370192973
 20
0.3129999959562819
 30
0.0
  0
LINE
  5
83
330
1F
100
AcDbEntity
  8
A 2D
100
AcDbLine
 10
16.32531370192973
 20
0.3129999959562819
 30
0.0
 11
19.38206044272683
 21
0.3131192180544369
 31
0.0
  0
SPLINE
  5
84
330
1F
100
AcDbEntity
  8
A 2D
100
AcDbSpline
210
0.0
220
0.0
230
1.0
 70
    24
 71
     2
 72
     6
 73
     3
 74
     0
 42
0.0000000001
 43
0.0000000001
 40
0.0
 40
0.0
 40
0.0
 40
27.60320614836507
 40
27.60320614836507
 40
27.60320614836507
 10
19.38206044272683
 20
0.3131192180544369
 30
0.0
 10
18.1883159094324
 20
14.06305960700536
 30
0.0
 10
16.99457137613798
 20
27.81299999595628
 30
0.0
  0
POLYLINE
  5
85
330
1F
100
AcDbEntity
  8
A 2D
100
AcDb2dPolyline
 66
     1
 10
0.0
 20
0.0
 30
0.0
  0
VERTEX
  5
86
330
85
100
AcDbEntity
  8
A 2D
100
AcDbVertex
100
AcDb2dVertex
 10
19.28833114410074
 20
0.3129999959563983
 30
0.0
  0
VERTEX
  5
87
330
85
100
AcDbEntity
  8
A 2D
100
AcDbVertex
100
AcDb2dVertex
 10
16.49749951890335
 20
0.3129999959563974
 30
0.0
  0
SEQEND
  5
88
330
85
100
AcDbEntity
  8
A 2D
  0
SPLINE
  5
89
330
1F
100
AcDbEntity
  8
A 2D
100
AcDbSpline
210
0.0
220
0.0
230
1.0
 70
    24
 71
     2
 72
     6
 73
     3
 74
     0
 42
0.0000000001
 43
0.0000000001
 40
0.0
 40
0.0
 40
0.0
 40
0.1879999959563761
 40
0.1879999959563761
 40
0.1879999959563761
 10
16.49749951890335
 20
0.3129999959563974
 30
0.0
 10
16.49749951890337
 20
0.2189999979782093
 30
0.0
 10
16.4974995189034
 20
0.1250000000000213
 30
0.0
  0
SPLINE
  5
8A
330
1F
100
AcDbEntity
  8
A 2D
100
AcDbSpline
210
0.0
220
0.0
230
1.0
 70
    12
 71
     2
 72
     6
 73
     3
 74
     0
 42
0.0000000001
 43
0.0000000001
 40
-0.2086852564238481
 40
-0.2086852564238481
 40
-0.2086852564238481
 40
0.0
 40
0.0
 40
0.0
 10
16.4974995189034
 20
0.1250000000000213
 30
0.0
 41
1.0
 10
16.50905931623482
 20
-0.0049944862320145
 30
0.0
 41
0.724703925400524
 10
16.63947116566712
 20
0.0
 30
0.0
 41
1.0
  0
SPLINE
  5
8B
330
1F
100
AcDbEntity
  8
A 2D
100
AcDbSpline
210
0.0
220
0.0
230
1.0
 70
    24
 71
     2
 72
     6
 73
     3
 74
     0
 42
0.0000000001
 43
0.0000000001
 40
0.0
 40
0.0
 40
0.0
 40
2.52289713806227
 40
2.52289713806227
 40
2.52289713806227
 10
16.63947116566712
 20
0.0
 30
0.0
 10
17.90123942028305
 20
0.0000000000012587
 30
0.0
 10
19.16300767489898
 20
0.0000000000025173
 30
0.0
  0
SPLINE
  5
8C
330
1F
100
AcDbEntity
  8
A 2D
100
AcDbSpline
210
0.0
220
0.0
230
1.0
 70
    12
 71
     2
 72
     6
 73
     3
 74
     0
 42
0.0000000001
 43
0.0000000001
 40
0.0
 40
0.0
 40
0.0
 40
0.1962284577300907
 40
0.1962284577300907
 40
0.1962284577300907
 10
19.16300767489898
 20
0.0000000000025173
 30
0.0
 41
1.0
 10
19.28826755685326
 20
0.0003790246453092
 30
0.0
 41
0.7094608718397355
 10
19.28852556654691
 20
0.125
 30
0.0
 41
0.9999976805327707
  0
SPLINE
  5
8D
330
1F
100
AcDbEntity
  8
A 2D
100
AcDbSpline
210
0.0
220
0.0
230
1.0
 70
    24
 71
     2
 72
     6
 73
     3
 74
     0
 42
0.0000000001
 43
0.0000000001
 40
0.0
 40
0.0
 40
0.0
 40
0.1879999959563983
 40
0.1879999959563983
 40
0.1879999959563983
 10
19.28852556654691
 20
0.125
 30
0.0
 10
19.28842835532382
 20
0.2189999979781991
 30
0.0
 10
19.28833114410074
 20
0.3129999959563983
 30
0.0
  0
SPLINE
  5
8E
330
1F
100
AcDbEntity
  8
A 2D
100
AcDbSpline
210
0.0
220
0.0
230
1.0
 70
    24
 71
     2
 72
     6
 73
     3
 74
     0
 42
0.0000000001
 43
0.0000000001
 40
0.0
 40
0.0
 40
0.0
 40
0.7522455994824915
 40
0.7522455994824915
 40
0.7522455994824915
 10
48.24468883843615
 20
24.46023193856624
 30
0.0
 10
47.87537851000617
 20
24.5314937221542
 30
0.0
 10
47.5060681815762
 20
24.60275550574216
 30
0.0
  0
SPLINE
  5
8F
330
1F
100
AcDbEntity
  8
A 2D
100
AcDbSpline
210
0.0
220
0.0
230
1.0
 70
    12
 71
     2
 72
     6
 73
     3
 74
     0
 42
0.0000000001
 43
0.0000000001
 40
0.0
 40
0.0
 40
0.0
 40
0.23743127559879
 40
0.23743127559879
 40
0.23743127559879
 10
47.5060681815762
 20
24.60275550574216
 30
0.0
 41
1.0
 10
47.37423966135335
 20
24.64968949810895
 30
0.0
 41
0.7873276640512697
 10
47.38819609463204
 20
24.78892590266527
 30
0.0
 41
1.0
  0
SPLINE
  5
90
330
1F
100
AcDbEntity
  8
A 2D
100
AcDbSpline
210
0.0
220
0.0
230
1.0
 70
    24
 71
     2
 72
     6
 73
     3
 74
     0
 42
0.0000000001
 43
0.0000000001
 40
0.0
 40
0.0
 40
0.0
 40
3.024074093290999
 40
3.024074093290999
 40
3.024074093290999
 10
47.38819609463204
 20
24.78892590266527
 30
0.0
 10
47.38819609463204
 20
26.30096294931077
 30
0.0
 10
47.38819609463204
 20
27.81299999595627
 30
0.0
  0
POLYLINE
  5
91
330
1F
100
AcDbEntity
  8
A 2D
100
AcDb2dPolyline
 66
     1
 10
0.0
 20
0.0
 30
0.0
  0
VERTEX
  5
92
330
91
100
AcDbEntity
  8
A 2D
100
AcDbVertex
100
AcDb2dVertex
 10
47.38819609463204
 20
27.81299999595627
 30
0.0
  0
VERTEX
  5
93
330
91
100
AcDbEntity
  8
A 2D
100
AcDbVertex
100
AcDb2dVertex
 10
50.56896098212624
 20
27.81299999595627
 30
0.0
  0
VERTEX
  5
94
330
91
100
AcDbEntity
  8
A 2D
100
AcDbVertex
100
AcDb2dVertex
 10
50.56378139924575
 20
25.25062485837897
 30
0.0
  0
SEQEND
  5
95
330
91
100
AcDbEntity
  8
A 2D
  0
SPLINE
  5
96
330
1F
100
AcDbEntity
  8
A 2D
100
AcDbSpline
210
0.0
220
0.0
230
1.0
 70
    24
 71
     2
 72
     6
 73
     3
 74
     0
 42
0.0000000001
 43
0.0000000001
 40
0.0
 40
0.0
 40
0.0
 40
2.450043654332194
 40
2.450043654332194
 40
2.450043654332194
 10
50.56378139924575
 20
25.25062485837897
 30
0.0
 10
49.40423511884094
 20
24.8554283984726
 30
0.0
 10
48.24468883843615
 20
24.46023193856624
 30
0.0
  0
SPLINE
  5
97
330
1F
100
AcDbEntity
  8
A 2D
100
AcDbSpline
210
0.0
220
0.0
230
1.0
 70
    24
 71
     2
 72
     6
 73
     3
 74
     0
 42
0.0000000001
 43
0.0000000001
 40
0.0
 40
0.0
 40
0.0
 40
0.7522455994824915
 40
0.7522455994824915
 40
0.7522455994824915
 10
75.7483080623782
 20
24.46023193856624
 30
0.0
 10
76.11761839080818
 20
24.5314937221542
 30
0.0
 10
76.48692871923815
 20
24.60275550574216
 30
0.0
  0
SPLINE
  5
98
330
1F
100
AcDbEntity
  8
A 2D
100
AcDbSpline
210
0.0
220
0.0
230
1.0
 70
    12
 71
     2
 72
     6
 73
     3
 74
     0
 42
0.0000000001
 43
0.0000000001
 40
0.0
 40
0.0
 40
0.0
 40
0.23743127559879
 40
0.23743127559879
 40
0.23743127559879
 10
76.48692871923815
 20
24.60275550574216
 30
0.0
 41
1.0
 10
76.61875723946099
 20
24.64968949810895
 30
0.0
 41
0.7873276640512697
 10
76.60480080618231
 20
24.78892590266527
 30
0.0
 41
1.0
  0
SPLINE
  5
99
330
1F
100
AcDbEntity
  8
A 2D
100
AcDbSpline
210
0.0
220
0.0
230
1.0
 70
    24
 71
     2
 72
     6
 73
     3
 74
     0
 42
0.0000000001
 43
0.0000000001
 40
0.0
 40
0.0
 40
0.0
 40
3.024074093290999
 40
3.024074093290999
 40
3.024074093290999
 10
76.60480080618231
 20
24.78892590266527
 30
0.0
 10
76.60480080618231
 20
26.30096294931077
 30
0.0
 10
76.60480080618231
 20
27.81299999595627
 30
0.0
  0
POLYLINE
  5
9A
330
1F
100
AcDbEntity
  8
A 2D
100
AcDb2dPolyline
 66
     1
 10
0.0
 20
0.0
 30
0.0
  0
VERTEX
  5
9B
330
9A
100
AcDbEntity
  8
A 2D
100
AcDbVertex
100
AcDb2dVertex
 10
76.60480080618231
 20
27.81299999595627
 30
0.0
  0
VERTEX
  5
9C
330
9A
100
AcDbEntity
  8
A 2D
100
AcDbVertex
100
AcDb2dVertex
 10
73.42403591868812
 20
27.81299999595627
 30
0.0
  0
VERTEX
  5
9D
330
9A
100
AcDbEntity
  8
A 2D
100
AcDbVertex
100
AcDb2dVertex
 10
73.4292155015686
 20
25.25062485837897
 30
0.0
  0
SEQEND
  5
9E
330
9A
100
AcDbEntity
  8
A 2D
  0
SPLINE
  5
9F
330
1F
100
AcDbEntity
  8
A 2D
100
AcDbSpline
210
0.0
220
0.0
230
1.0
 70
    24
 71
     2
 72
     6
 73
     3
 74
     0
 42
0.0000000001
 43
0.0000000001
 40
0.0
 40
0.0
 40
0.0
 40
2.450043654332194
 40
2.450043654332194
 40
2.450043654332194
 10
73.4292155015686
 20
25.25062485837897
 30
0.0
 10
74.5887617819734
 20
24.8554283984726
 30
0.0
 10
75.7483080623782
 20
24.46023193856624
 30
0.0
  0
POLYLINE
  5
A0
330
1F
100
AcDbEntity
  8
A 2D
100
AcDb2dPolyline
 66
     1
 10
0.0
 20
0.0
 30
0.0
  0
VERTEX
  5
A1
330
A0
100
AcDbEntity
  8
A 2D
100
AcDbVertex
100
AcDb2dVertex
 10
45.00192707426919
 20
27.81299999595628
 30
0.0
  0
VERTEX
  5
A2
330
A0
100
AcDbEntity
  8
A 2D
100
AcDbVertex
100
AcDb2dVertex
 10
47.33989965211728
 20
27.81299999595628
 30
0.0
  0
SEQEND
  5
A3
330
A0
100
AcDbEntity
  8
A 2D
  0
SPLINE
  5
A4
330
1F
100
AcDbEntity
  8
A 2D
100
AcDbSpline
210
0.0
220
0.0
230
1.0
 70
    24
 71
     2
 72
     6
 73
     3
 74
     0
 42
0.0000000001
 43
0.0000000001
 40
-3.031131383519992
 40
-3.031131383519992
 40
-3.031131383519992
 40
0.0
 40
0.0
 40
0.0
 10
47.33989965211728
 20
27.81299999595628
 30
0.0
 10
47.34379369770466
 20
26.29740050193514
 30
0.0
 10
47.34768774329204
 20
24.78180100791401
 30
0.0
  0
SPLINE
  5
A5
330
1F
100
AcDbEntity
  8
A 2D
100
AcDbSpline
210
0.0
220
0.0
230
1.0
 70
    12
 71
     2
 72
     6
 73
     3
 74
     0
 42
0.0000000001
 43
0.0000000001
 40
-0.3433114792523052
 40
-0.3433114792523052
 40
-0.3433114792523052
 40
0.0
 40
0.0
 40
0.0
 10
47.34768774329203
 20
24.78180100791401
 30
0.0
 41
0.9997583392229558
 10
47.34832187157787
 20
24.57323233966721
 30
0.0
 41
0.7548305167534196
 10
47.49877315766635
 20
24.54421598638542
 30
0.0
 41
1.0
  0
SPLINE
  5
A6
330
1F
100
AcDbEntity
  8
A 2D
100
AcDbSpline
210
0.0
220
0.0
230
1.0
 70
    24
 71
     2
 72
     6
 73
     3
 74
     0
 42
0.0000000001
 43
0.0000000001
 40
-0.7517321041836429
 40
-0.7517321041836429
 40
-0.7517321041836429
 40
0.0
 40
0.0
 40
0.0
 10
47.49877315766635
 20
24.54421598638542
 30
0.0
 10
47.86783804499299
 20
24.47303735154557
 30
0.0
 10
48.23690293231964
 20
24.40185871670573
 30
0.0
  0
SPLINE
  5
A7
330
1F
100
AcDbEntity
  8
A 2D
100
AcDbSpline
210
0.0
220
0.0
230
1.0
 70
    24
 71
     2
 72
     6
 73
     3
 74
     0
 42
0.0000000001
 43
0.0000000001
 40
-24.22511143972562
 40
-24.22511143972562
 40
-24.22511143972562
 40
0.0
 40
0.0
 40
0.0
 10
48.23690293231964
 20
24.40185871670573
 30
0.0
 10
46.95404384039854
 20
12.35742935633101
 30
0.0
 10
45.67118474847744
 20
0.3129999959562819
 30
0.0
  0
LINE
  5
A8
330
1F
100
AcDbEntity
  8
A 2D
100
AcDbLine
 10
45.67118474847744
 20
0.3129999959562819
 30
0.0
 11
42.61443800768035
 21
0.3131192180544369
 31
0.0
  0
SPLINE
  5
A9
330
1F
100
AcDbEntity
  8
A 2D
100
AcDbSpline
210
0.0
220
0.0
230
1.0
 70
    24
 71
     2
 72
     6
 73
     3
 74
     0
 42
0.0000000001
 43
0.0000000001
 40
0.0
 40
0.0
 40
0.0
 40
27.60320614836507
 40
27.60320614836507
 40
27.60320614836507
 10
42.61443800768035
 20
0.3131192180544369
 30
0.0
 10
43.80818254097477
 20
14.06305960700536
 30
0.0
 10
45.00192707426919
 20
27.81299999595628
 30
0.0
  0
SPLINE
  5
AA
330
1F
100
AcDbEntity
  8
A 2D
100
AcDbSpline
210
0.0
220
0.0
230
1.0
 70
    24
 71
     2
 72
     6
 73
     3
 74
     0
 42
0.0000000001
 43
0.0000000001
 40
0.0
 40
0.0
 40
0.0
 40
27.603445489506
 40
27.603445489506
 40
27.603445489506
 10
46.26583481935101
 20
27.81299999595628
 30
0.0
 10
45.07207993536838
 20
14.06299999595628
 30
0.0
 10
43.87832505138574
 20
0.3129999959562739
 30
0.0
  0
SPLINE
  5
AB
330
1F
100
AcDbEntity
  8
A 2D
100
AcDbSpline
210
0.0
220
0.0
230
1.0
 70
    24
 71
     2
 72
     6
 73
     3
 74
     0
 42
0.0000000001
 43
0.0000000001
 40
0.0
 40
0.0
 40
0.0
 40
0.3129999999995263
 40
0.3129999999995263
 40
0.3129999999995263
 10
-21.00000000000007
 20
29.00099999595627
 30
0.0
 10
-20.9987540201229
 20
28.84391898599795
 30
0.0
 10
-20.99750804024572
 20
28.68683797603962
 30
0.0
  0
SPLINE
  5
AC
330
1F
100
AcDbEntity
  8
A 2D
100
AcDbSpline
210
0.0
220
0.0
230
1.0
 70
    24
 71
     2
 72
     6
 73
     3
 74
     0
 42
0.0000000001
 43
0.0000000001
 40
0.0
 40
0.0
 40
0.0
 40
1.620081340890583
 40
1.620081340890583
 40
1.620081340890583
 10
-20.99750804024572
 20
28.68683797603962
 30
0.0
 10
-20.2621158929277
 20
28.34391898599826
 30
0.0
 10
-19.52672374560969
 20
28.00099999595691
 30
0.0
  0
SPLINE
  5
AD
330
1F
100
AcDbEntity
  8
A 2D
100
AcDbSpline
210
0.0
220
0.0
230
1.0
 70
    24
 71
     2
 72
     6
 73
     3
 74
     0
 42
0.0000000001
 43
0.0000000001
 40
0.0
 40
0.0
 40
0.0
 40
0.0267237456096865
 40
0.0267237456096865
 40
0.0267237456096865
 10
-19.52672374560969
 20
28.00099999595691
 30
0.0
 10
-19.51336187280484
 20
28.00099999595691
 30
0.0
 10
-19.5
 20
28.00099999595691
 30
0.0
  0
SPLINE
  5
AE
330
1F
100
AcDbEntity
  8
A 2D
100
AcDbSpline
210
0.0
220
0.0
230
1.0
 70
    24
 71
     2
 72
     6
 73
     3
 74
     0
 42
0.0000000001
 43
0.0000000001
 40
0.0
 40
0.0
 40
0.0
 40
39.0
 40
39.0
 40
39.0
 10
-19.5
 20
28.00099999595691
 30
0.0
 10
0.0
 20
28.00099999595691
 30
0.0
 10
19.5
 20
28.00099999595691
 30
0.0
  0
SPLINE
  5
AF
330
1F
100
AcDbEntity
  8
A 2D
100
AcDbSpline
210
0.0
220
0.0
230
1.0
 70
    24
 71
     2
 72
     6
 73
     3
 74
     0
 42
0.0000000001
 43
0.0000000001
 40
0.0
 40
0.0
 40
0.0
 40
0.0267237456029008
 40
0.0267237456029008
 40
0.0267237456029008
 10
19.5
 20
28.00099999595691
 30
0.0
 10
19.51336187280145
 20
28.00099999595573
 30
0.0
 10
19.5267237456029
 20
28.00099999595454
 30
0.0
  0
SPLINE
  5
B0
330
1F
100
AcDbEntity
  8
A 2D
100
AcDbSpline
210
0.0
220
0.0
230
1.0
 70
    24
 71
     2
 72
     6
 73
     3
 74
     0
 42
0.0000000001
 43
0.0000000001
 40
-1.620081340889953
 40
-1.620081340889953
 40
-1.620081340889953
 40
0.0
 40
0.0
 40
0.0
 10
19.5267237456029
 20
28.00099999595454
 30
0.0
 10
20.26211589288633
 20
28.3439189859383
 30
0.0
 10
20.99750804016976
 20
28.68683797592205
 30
0.0
  0
SPLINE
  5
B1
330
1F
100
AcDbEntity
  8
A 2D
100
AcDbSpline
210
0.0
220
0.0
230
1.0
 70
    24
 71
     2
 72
     6
 73
     3
 74
     0
 42
0.0000000001
 43
0.0000000001
 40
-0.3130000001640099
 40
-0.3130000001640099
 40
-0.3130000001640099
 40
0.0
 40
0.0
 40
0.0
 10
20.99750804016976
 20
28.68683797592205
 30
0.0
 10
20.99875402008488
 20
28.84391898593916
 30
0.0
 10
21.0
 20
29.00099999595627
 30
0.0
  0
LINE
  5
B2
330
1F
100
AcDbEntity
  8
A 2D
100
AcDbLine
 10
21.0
 20
29.00099999595627
 30
0.0
 11
-19.5
 21
29.00099999595627
 31
0.0
  0
LINE
  5
B3
330
1F
100
AcDbEntity
  8
A 2D
100
AcDbLine
 10
-19.5
 20
29.00099999595627
 30
0.0
 11
-21.00000000000007
 21
29.00099999595627
 31
0.0
  0
POLYLINE
  5
B4
330
1F
100
AcDbEntity
  8
A 2D
100
AcDb2dPolyline
 66
     1
 10
0.0
 20
0.0
 30
0.0
  0
VERTEX
  5
B5
330
B4
100
AcDbEntity
  8
A 2D
100
AcDbVertex
100
AcDb2dVertex
 10
81.28482959450791
 20
0.3129999959563983
 30
0.0
  0
VERTEX
  5
B6
330
B4
100
AcDbEntity
  8
A 2D
100
AcDbVertex
100
AcDb2dVertex
 10
78.49399796931053
 20
0.3129999959563974
 30
0.0
  0
SEQEND
  5
B7
330
B4
100
AcDbEntity
  8
A 2D
  0
SPLINE
  5
B8
330
1F
100
AcDbEntity
  8
A 2D
100
AcDbSpline
210
0.0
220
0.0
230
1.0
 70
    24
 71
     2
 72
     6
 73
     3
 74
     0
 42
0.0000000001
 43
0.0000000001
 40
0.0
 40
0.0
 40
0.0
 40
0.1879999959563761
 40
0.1879999959563761
 40
0.1879999959563761
 10
78.49399796931053
 20
0.3129999959563974
 30
0.0
 10
78.49399796931056
 20
0.2189999979782093
 30
0.0
 10
78.49399796931057
 20
0.1250000000000213
 30
0.0
  0
SPLINE
  5
B9
330
1F
100
AcDbEntity
  8
A 2D
100
AcDbSpline
210
0.0
220
0.0
230
1.0
 70
    12
 71
     2
 72
     6
 73
     3
 74
     0
 42
0.0000000001
 43
0.0000000001
 40
-0.2086852564238481
 40
-0.2086852564238481
 40
-0.2086852564238481
 40
0.0
 40
0.0
 40
0.0
 10
78.49399796931057
 20
0.1250000000000213
 30
0.0
 41
1.0
 10
78.505557766642
 20
-0.0049944862320145
 30
0.0
 41
0.724703925400524
 10
78.63596961607429
 20
0.0
 30
0.0
 41
1.0
  0
SPLINE
  5
BA
330
1F
100
AcDbEntity
  8
A 2D
100
AcDbSpline
210
0.0
220
0.0
230
1.0
 70
    24
 71
     2
 72
     6
 73
     3
 74
     0
 42
0.0000000001
 43
0.0000000001
 40
0.0
 40
0.0
 40
0.0
 40
2.52289713806227
 40
2.52289713806227
 40
2.52289713806227
 10
78.63596961607429
 20
0.0
 30
0.0
 10
79.89773787069022
 20
0.0000000000012587
 30
0.0
 10
81.15950612530615
 20
0.0000000000025173
 30
0.0
  0
SPLINE
  5
BB
330
1F
100
AcDbEntity
  8
A 2D
100
AcDbSpline
210
0.0
220
0.0
230
1.0
 70
    12
 71
     2
 72
     6
 73
     3
 74
     0
 42
0.0000000001
 43
0.0000000001
 40
0.0
 40
0.0
 40
0.0
 40
0.1962284577300907
 40
0.1962284577300907
 40
0.1962284577300907
 10
81.15950612530615
 20
0.0000000000025173
 30
0.0
 41
1.0
 10
81.28476600726043
 20
0.0003790246453092
 30
0.0
 41
0.7094608718397355
 10
81.28502401695408
 20
0.125
 30
0.0
 41
0.9999976805327707
  0
SPLINE
  5
BC
330
1F
100
AcDbEntity
  8
A 2D
100
AcDbSpline
210
0.0
220
0.0
230
1.0
 70
    24
 71
     2
 72
     6
 73
     3
 74
     0
 42
0.0000000001
 43
0.0000000001
 40
0.0
 40
0.0
 40
0.0
 40
0.1879999959563983
 40
0.1879999959563983
 40
0.1879999959563983
 10
81.28502401695408
 20
0.125
 30
0.0
 10
81.284926805731
 20
0.2189999979781991
 30
0.0
 10
81.28482959450791
 20
0.3129999959563983
 30
0.0
  0
POLYLINE
  5
BD
330
1F
100
AcDbEntity
  8
A 2D
100
AcDb2dPolyline
 66
     1
 10
0.0
 20
0.0
 30
0.0
  0
VERTEX
  5
BE
330
BD
100
AcDbEntity
  8
A 2D
100
AcDbVertex
100
AcDb2dVertex
 10
78.99106982654516
 20
27.81299999595628
 30
0.0
  0
VERTEX
  5
BF
330
BD
100
AcDbEntity
  8
A 2D
100
AcDbVertex
100
AcDb2dVertex
 10
76.65309724869707
 20
27.81299999595628
 30
0.0
  0
SEQEND
  5
C0
330
BD
100
AcDbEntity
  8
A 2D
  0
SPLINE
  5
C1
330
1F
100
AcDbEntity
  8
A 2D
100
AcDbSpline
210
0.0
220
0.0
230
1.0
 70
    24
 71
     2
 72
     6
 73
     3
 74
     0
 42
0.0000000001
 43
0.0000000001
 40
-3.031131383519992
 40
-3.031131383519992
 40
-3.031131383519992
 40
0.0
 40
0.0
 40
0.0
 10
76.65309724869707
 20
27.81299999595628
 30
0.0
 10
76.64920320310969
 20
26.29740050193514
 30
0.0
 10
76.6453091575223
 20
24.78180100791401
 30
0.0
  0
SPLINE
  5
C2
330
1F
100
AcDbEntity
  8
A 2D
100
AcDbSpline
210
0.0
220
0.0
230
1.0
 70
    12
 71
     2
 72
     6
 73
     3
 74
     0
 42
0.0000000001
 43
0.0000000001
 40
-0.3433114792523052
 40
-0.3433114792523052
 40
-0.3433114792523052
 40
0.0
 40
0.0
 40
0.0
 10
76.64530915752229
 20
24.78180100791401
 30
0.0
 41
0.9997583392229558
 10
76.64467502923647
 20
24.57323233966721
 30
0.0
 41
0.7548305167534196
 10
76.494223743148
 20
24.54421598638542
 30
0.0
 41
1.0
  0
SPLINE
  5
C3
330
1F
100
AcDbEntity
  8
A 2D
100
AcDbSpline
210
0.0
220
0.0
230
1.0
 70
    24
 71
     2
 72
     6
 73
     3
 74
     0
 42
0.0000000001
 43
0.0000000001
 40
-0.7517321041836429
 40
-0.7517321041836429
 40
-0.7517321041836429
 40
0.0
 40
0.0
 40
0.0
 10
76.494223743148
 20
24.54421598638542
 30
0.0
 10
76.12515885582135
 20
24.47303735154557
 30
0.0
 10
75.75609396849471
 20
24.40185871670573
 30
0.0
  0
SPLINE
  5
C4
330
1F
100
AcDbEntity
  8
A 2D
100
AcDbSpline
210
0.0
220
0.0
230
1.0
 70
    24
 71
     2
 72
     6
 73
     3
 74
     0
 42
0.0000000001
 43
0.0000000001
 40
-24.22511143972562
 40
-24.22511143972562
 40
-24.22511143972562
 40
0.0
 40
0.0
 40
0.0
 10
75.75609396849471
 20
24.40185871670573
 30
0.0
 10
77.0389530604158
 20
12.35742935633101
 30
0.0
 10
78.3218121523369
 20
0.3129999959562819
 30
0.0
  0
LINE
  5
C5
330
1F
100
AcDbEntity
  8
A 2D
100
AcDbLine
 10
78.3218121523369
 20
0.3129999959562819
 30
0.0
 11
81.378558893134
 21
0.3131192180544369
 31
0.0
  0
SPLINE
  5
C6
330
1F
100
AcDbEntity
  8
A 2D
100
AcDbSpline
210
0.0
220
0.0
230
1.0
 70
    24
 71
     2
 72
     6
 73
     3
 74
     0
 42
0.0000000001
 43
0.0000000001
 40
0.0
 40
0.0
 40
0.0
 40
27.60320614836507
 40
27.60320614836507
 40
27.60320614836507
 10
81.378558893134
 20
0.3131192180544369
 30
0.0
 10
80.18481435983958
 20
14.06305960700536
 30
0.0
 10
78.99106982654516
 20
27.81299999595628
 30
0.0
  0
POLYLINE
  5
C7
330
1F
100
AcDbEntity
  8
A 2D
100
AcDb2dPolyline
 66
     1
 10
0.0
 20
0.0
 30
0.0
  0
VERTEX
  5
C8
330
C7
100
AcDbEntity
  8
A 2D
100
AcDbVertex
100
AcDb2dVertex
 10
80.81063444908052
 20
28.00099999595628
 30
0.0
  0
VERTEX
  5
C9
330
C7
100
AcDbEntity
  8
A 2D
100
AcDbVertex
100
AcDb2dVertex
 10
73.4240359186881
 20
28.00099999595627
 30
0.0
  0
SEQEND
  5
CA
330
C7
100
AcDbEntity
  8
A 2D
  0
SPLINE
  5
CB
330
1F
100
AcDbEntity
  8
A 2D
100
AcDbSpline
210
0.0
220
0.0
230
1.0
 70
    24
 71
     2
 72
     6
 73
     3
 74
     0
 42
0.0000000001
 43
0.0000000001
 40
0.0
 40
0.0
 40
0.0
 40
0.1880000000000024
 40
0.1880000000000024
 40
0.1880000000000024
 10
73.4240359186881
 20
28.00099999595627
 30
0.0
 10
73.4240359186881
 20
27.90699999595622
 30
0.0
 10
73.42403591868812
 20
27.81299999595617
 30
0.0
  0
LINE
  5
CC
330
1F
100
AcDbEntity
  8
A 2D
100
AcDbLine
 10
73.42403591868812
 20
27.81299999595617
 30
0.0
 11
80.70078953976896
 21
27.81299999595627
 31
0.0
  0
SPLINE
  5
CD
330
1F
100
AcDbEntity
  8
A 2D
100
AcDbSpline
210
0.0
220
0.0
230
1.0
 70
    28
 71
     2
 72
     6
 73
     3
 74
     0
 42
0.0000000001
 43
0.0000000001
 40
-3.141592653589794
 40
-3.141592653589794
 40
-3.141592653589794
 40
-2.25586805153241
 40
-2.25586805153241
 40
-2.25586805153241
 10
80.70078953976896
 20
27.81299999595627
 30
0.0
 41
1.0
 10
80.82181684684387
 20
27.81299999595628
 30
0.0
 41
0.9068261637799945
 10
80.80969231430082
 20
27.81299999595627
 30
0.0
 41
0.9936306632662366
  0
SPLINE
  5
CE
330
1F
100
AcDbEntity
  8
A 2D
100
AcDbSpline
210
0.0
220
0.0
230
1.0
 70
    24
 71
     2
 72
     6
 73
     3
 74
     0
 42
0.0000000001
 43
0.0000000001
 40
0.0
 40
0.0
 40
0.0
 40
0.1880000000000024
 40
0.1880000000000024
 40
0.1880000000000024
 10
80.80969231430082
 20
27.81299999595628
 30
0.0
 10
80.81016338169067
 20
27.90699999595628
 30
0.0
 10
80.81063444908052
 20
28.00099999595628
 30
0.0
  0
SPLINE
  5
CF
330
1F
100
AcDbEntity
  8
A 2D
100
AcDbSpline
210
0.0
220
0.0
230
1.0
 70
    24
 71
     2
 72
     6
 73
     3
 74
     0
 42
0.0000000001
 43
0.0000000001
 40
0.0
 40
0.0
 40
0.0
 40
27.603445489506
 40
27.603445489506
 40
27.603445489506
 10
77.72716208146333
 20
27.81299999595628
 30
0.0
 10
78.92091696544597
 20
14.06299999595628
 30
0.0
 10
80.1146718494286
 20
0.3129999959562739
 30
0.0
  0
POLYLINE
  5
D0
330
1F
100
AcDbEntity
  8
A 2D
100
AcDb2dPolyline
 66
     1
 10
0.0
 20
0.0
 30
0.0
  0
VERTEX
  5
D1
330
D0
100
AcDbEntity
  8
A 2D
100
AcDbVertex
100
AcDb2dVertex
 10
42.70816730630644
 20
0.3129999959563983
 30
0.0
  0
VERTEX
  5
D2
330
D0
100
AcDbEntity
  8
A 2D
100
AcDbVertex
100
AcDb2dVertex
 10
45.49899893150382
 20
0.3129999959563974
 30
0.0
  0
SEQEND
  5
D3
330
D0
100
AcDbEntity
  8
A 2D
  0
SPLINE
  5
D4
330
1F
100
AcDbEntity
  8
A 2D
100
AcDbSpline
210
0.0
220
0.0
230
1.0
 70
    24
 71
     2
 72
     6
 73
     3
 74
     0
 42
0.0000000001
 43
0.0000000001
 40
0.0
 40
0.0
 40
0.0
 40
0.1879999959563761
 40
0.1879999959563761
 40
0.1879999959563761
 10
45.49899893150382
 20
0.3129999959563974
 30
0.0
 10
45.4989989315038
 20
0.2189999979782093
 30
0.0
 10
45.49899893150378
 20
0.1250000000000213
 30
0.0
  0
SPLINE
  5
D5
330
1F
100
AcDbEntity
  8
A 2D
100
AcDbSpline
210
0.0
220
0.0
230
1.0
 70
    12
 71
     2
 72
     6
 73
     3
 74
     0
 42
0.0000000001
 43
0.0000000001
 40
-0.2086852564238481
 40
-0.2086852564238481
 40
-0.2086852564238481
 40
0.0
 40
0.0
 40
0.0
 10
45.49899893150378
 20
0.1250000000000213
 30
0.0
 41
1.0
 10
45.48743913417236
 20
-0.0049944862320145
 30
0.0
 41
0.724703925400524
 10
45.35702728474006
 20
0.0
 30
0.0
 41
1.0
  0
SPLINE
  5
D6
330
1F
100
AcDbEntity
  8
A 2D
100
AcDbSpline
210
0.0
220
0.0
230
1.0
 70
    24
 71
     2
 72
     6
 73
     3
 74
     0
 42
0.0000000001
 43
0.0000000001
 40
0.0
 40
0.0
 40
0.0
 40
2.52289713806227
 40
2.52289713806227
 40
2.52289713806227
 10
45.35702728474006
 20
0.0
 30
0.0
 10
44.09525903012413
 20
0.0000000000012587
 30
0.0
 10
42.8334907755082
 20
0.0000000000025173
 30
0.0
  0
SPLINE
  5
D7
330
1F
100
AcDbEntity
  8
A 2D
100
AcDbSpline
210
0.0
220
0.0
230
1.0
 70
    12
 71
     2
 72
     6
 73
     3
 74
     0
 42
0.0000000001
 43
0.0000000001
 40
0.0
 40
0.0
 40
0.0
 40
0.1962284577300907
 40
0.1962284577300907
 40
0.1962284577300907
 10
42.8334907755082
 20
0.0000000000025173
 30
0.0
 41
1.0
 10
42.70823089355391
 20
0.0003790246453092
 30
0.0
 41
0.7094608718397355
 10
42.70797288386028
 20
0.125
 30
0.0
 41
0.9999976805327707
  0
SPLINE
  5
D8
330
1F
100
AcDbEntity
  8
A 2D
100
AcDbSpline
210
0.0
220
0.0
230
1.0
 70
    24
 71
     2
 72
     6
 73
     3
 74
     0
 42
0.0000000001
 43
0.0000000001
 40
0.0
 40
0.0
 40
0.0
 40
0.1879999959563983
 40
0.1879999959563983
 40
0.1879999959563983
 10
42.70797288386026
 20
0.125
 30
0.0
 10
42.70807009508335
 20
0.2189999979781991
 30
0.0
 10
42.70816730630644
 20
0.3129999959563983
 30
0.0
  0
LINE
  5
D9
330
1F
100
AcDbEntity
  8
A 2D
100
AcDbLine
 10
73.42929631173132
 20
28.00099999595682
 30
0.0
 11
71.53675389218502
 21
28.00099999595691
 31
0.0
  0
LINE
  5
DA
330
1F
100
AcDbEntity
  8
A 2D
100
AcDbLine
 10
71.53675389218502
 20
28.00099999595691
 30
0.0
 11
50.56378139924571
 21
28.0009999959571
 31
0.0
  0
LINE
  5
DB
330
1F
100
AcDbEntity
  8
A 2D
100
AcDbLine
 10
50.56378139924571
 20
28.0009999959571
 30
0.0
 11
50.56378139924575
 21
25.25074972080166
 31
0.0
  0
SPLINE
  5
DC
330
1F
100
AcDbEntity
  8
A 2D
100
AcDbSpline
210
0.0
220
0.0
230
1.0
 70
    24
 71
     2
 72
     6
 73
     3
 74
     0
 42
0.0000000001
 43
0.0000000001
 40
0.0
 40
0.0
 40
0.0
 40
22.86323138039071
 40
22.86323138039071
 40
22.86323138039071
 10
50.56378139924575
 20
25.25074972080166
 30
0.0
 10
61.99594776992414
 20
25.25074972080166
 30
0.0
 10
73.42811414060253
 20
25.25074972080166
 30
0.0
  0
SPLINE
  5
DD
330
1F
100
AcDbEntity
  8
A 2D
100
AcDbSpline
210
0.0
220
0.0
230
1.0
 70
    24
 71
     2
 72
     6
 73
     3
 74
     0
 42
0.0000000001
 43
0.0000000001
 40
-2.5625
 40
-2.5625
 40
-2.5625
 40
0.0
 40
0.0
 40
0.0
 10
73.42811414060253
 20
25.25074972080166
 30
0.0
 10
73.42866482108556
 20
26.53187485837897
 30
0.0
 10
73.4292155015686
 20
27.81299999595627
 30
0.0
  0
LINE
  5
DE
330
1F
100
AcDbEntity
  8
A 2D
100
AcDbLine
 10
73.4292155015686
 20
27.81299999595627
 30
0.0
 11
73.42929631173132
 21
28.00099999595682
 31
0.0
  0
POLYLINE
  5
DF
330
1F
100
AcDbEntity
  8
A 2D
100
AcDb2dPolyline
 66
     1
 10
0.0
 20
0.0
 30
0.0
  0
VERTEX
  5
E0
330
DF
100
AcDbEntity
  8
A 2D
100
AcDbVertex
100
AcDb2dVertex
 10
43.18236245173382
 20
28.00099999595628
 30
0.0
  0
VERTEX
  5
E1
330
DF
100
AcDbEntity
  8
A 2D
100
AcDbVertex
100
AcDb2dVertex
 10
50.56896098212624
 20
28.00099999595627
 30
0.0
  0
SEQEND
  5
E2
330
DF
100
AcDbEntity
  8
A 2D
  0
SPLINE
  5
E3
330
1F
100
AcDbEntity
  8
A 2D
100
AcDbSpline
210
0.0
220
0.0
230
1.0
 70
    24
 71
     2
 72
     6
 73
     3
 74
     0
 42
0.0000000001
 43
0.0000000001
 40
0.0
 40
0.0
 40
0.0
 40
0.1880000000000024
 40
0.1880000000000024
 40
0.1880000000000024
 10
50.56896098212624
 20
28.00099999595627
 30
0.0
 10
50.56896098212624
 20
27.90699999595622
 30
0.0
 10
50.56896098212624
 20
27.81299999595617
 30
0.0
  0
LINE
  5
E4
330
1F
100
AcDbEntity
  8
A 2D
100
AcDbLine
 10
50.56896098212624
 20
27.81299999595617
 30
0.0
 11
43.29220736104539
 21
27.81299999595627
 31
0.0
  0
SPLINE
  5
E5
330
1F
100
AcDbEntity
  8
A 2D
100
AcDbSpline
210
0.0
220
0.0
230
1.0
 70
    28
 71
     2
 72
     6
 73
     3
 74
     0
 42
0.0000000001
 43
0.0000000001
 40
-3.141592653589794
 40
-3.141592653589794
 40
-3.141592653589794
 40
-2.25586805153241
 40
-2.25586805153241
 40
-2.25586805153241
 10
43.29220736104539
 20
27.81299999595627
 30
0.0
 41
1.0
 10
43.17118005397047
 20
27.81299999595628
 30
0.0
 41
0.9068261637799945
 10
43.18330458651353
 20
27.81299999595627
 30
0.0
 41
0.9936306632662366
  0
SPLINE
  5
E6
330
1F
100
AcDbEntity
  8
A 2D
100
AcDbSpline
210
0.0
220
0.0
230
1.0
 70
    24
 71
     2
 72
     6
 73
     3
 74
     0
 42
0.0000000001
 43
0.0000000001
 40
0.0
 40
0.0
 40
0.0
 40
0.1880000000000024
 40
0.1880000000000024
 40
0.1880000000000024
 10
43.18330458651354
 20
27.81299999595628
 30
0.0
 10
43.18283351912368
 20
27.90699999595628
 30
0.0
 10
43.18236245173382
 20
28.00099999595628
 30
0.0
  0
SPLINE
  5
E7
330
1F
100
AcDbEntity
  8
A 2D
100
AcDbSpline
210
0.0
220
0.0
230
1.0
 70
    24
 71
     2
 72
     6
 73
     3
 74
     0
 42
0.0000000001
 43
0.0000000001
 40
0.0
 40
0.0
 40
0.0
 40
0.3129999999995263
 40
0.3129999999995263
 40
0.3129999999995263
 10
40.9964984504071
 20
29.00099999595627
 30
0.0
 10
40.99774443028428
 20
28.84391898599795
 30
0.0
 10
40.99899041016145
 20
28.68683797603962
 30
0.0
  0
SPLINE
  5
E8
330
1F
100
AcDbEntity
  8
A 2D
100
AcDbSpline
210
0.0
220
0.0
230
1.0
 70
    24
 71
     2
 72
     6
 73
     3
 74
     0
 42
0.0000000001
 43
0.0000000001
 40
0.0
 40
0.0
 40
0.0
 40
1.620081340890583
 40
1.620081340890583
 40
1.620081340890583
 10
40.99899041016145
 20
28.68683797603962
 30
0.0
 10
41.73438255747947
 20
28.34391898599826
 30
0.0
 10
42.46977470479749
 20
28.00099999595691
 30
0.0
  0
SPLINE
  5
E9
330
1F
100
AcDbEntity
  8
A 2D
100
AcDbSpline
210
0.0
220
0.0
230
1.0
 70
    24
 71
     2
 72
     6
 73
     3
 74
     0
 42
0.0000000001
 43
0.0000000001
 40
0.0
 40
0.0
 40
0.0
 40
0.0267237456096865
 40
0.0267237456096865
 40
0.0267237456096865
 10
42.46977470479749
 20
28.00099999595691
 30
0.0
 10
42.48313657760233
 20
28.00099999595691
 30
0.0
 10
42.49649845040717
 20
28.00099999595691
 30
0.0
  0
SPLINE
  5
EA
330
1F
100
AcDbEntity
  8
A 2D
100
AcDbSpline
210
0.0
220
0.0
230
1.0
 70
    24
 71
     2
 72
     6
 73
     3
 74
     0
 42
0.0000000001
 43
0.0000000001
 40
0.0
 40
0.0
 40
0.0
 40
39.0
 40
39.0
 40
39.0
 10
42.49649845040717
 20
28.00099999595691
 30
0.0
 10
61.99649845040717
 20
28.00099999595691
 30
0.0
 10
81.49649845040717
 20
28.00099999595691
 30
0.0
  0
SPLINE
  5
EB
330
1F
100
AcDbEntity
  8
A 2D
100
AcDbSpline
210
0.0
220
0.0
230
1.0
 70
    24
 71
     2
 72
     6
 73
     3
 74
     0
 42
0.0000000001
 43
0.0000000001
 40
0.0
 40
0.0
 40
0.0
 40
0.0267237456029008
 40
0.0267237456029008
 40
0.0267237456029008
 10
81.49649845040717
 20
28.00099999595691
 30
0.0
 10
81.50986032320863
 20
28.00099999595573
 30
0.0
 10
81.52322219601008
 20
28.00099999595454
 30
0.0
  0
SPLINE
  5
EC
330
1F
100
AcDbEntity
  8
A 2D
100
AcDbSpline
210
0.0
220
0.0
230
1.0
 70
    24
 71
     2
 72
     6
 73
     3
 74
     0
 42
0.0000000001
 43
0.0000000001
 40
-1.620081340889953
 40
-1.620081340889953
 40
-1.620081340889953
 40
0.0
 40
0.0
 40
0.0
 10
81.52322219601008
 20
28.00099999595454
 30
0.0
 10
82.25861434329352
 20
28.3439189859383
 30
0.0
 10
82.99400649057694
 20
28.68683797592205
 30
0.0
  0
SPLINE
  5
ED
330
1F
100
AcDbEntity
  8
A 2D
100
AcDbSpline
210
0.0
220
0.0
230
1.0
 70
    24
 71
     2
 72
     6
 73
     3
 74
     0
 42
0.0000000001
 43
0.0000000001
 40
-0.3130000001640099
 40
-0.3130000001640099
 40
-0.3130000001640099
 40
0.0
 40
0.0
 40
0.0
 10
82.99400649057694
 20
28.68683797592205
 30
0.0
 10
82.99525247049206
 20
28.84391898593916
 30
0.0
 10
82.99649845040717
 20
29.00099999595627
 30
0.0
  0
LINE
  5
EE
330
1F
100
AcDbEntity
  8
A 2D
100
AcDbLine
 10
82.99649845040717
 20
29.00099999595627
 30
0.0
 11
42.49649845040717
 21
29.00099999595627
 31
0.0
  0
LINE
  5
EF
330
1F
100
AcDbEntity
  8
A 2D
100
AcDbLine
 10
42.49649845040717
 20
29.00099999595627
 30
0.0
 11
40.9964984504071
 21
29.00099999595627
 31
0.0
  0
LINE
  5
F0
330
1F
100
AcDbEntity
  8
A 2D
100
AcDbLine
 10
11.43279786132415
 20
28.00099999595682
 30
0.0
 11
9.540255441777845
 21
28.00099999595691
 31
0.0
  0
LINE
  5
F1
330
1F
100
AcDbEntity
  8
A 2D
100
AcDbLine
 10
9.540255441777845
 20
28.00099999595691
 30
0.0
 11
-11.43271705116146
 21
28.0009999959571
 31
0.0
  0
LINE
  5
F2
330
1F
100
AcDbEntity
  8
A 2D
100
AcDbLine
 10
-11.43271705116146
 20
28.0009999959571
 30
0.0
 11
-11.43271705116143
 21
25.25074972080166
 31
0.0
  0
SPLINE
  5
F3
330
1F
100
AcDbEntity
  8
A 2D
100
AcDbSpline
210
0.0
220
0.0
230
1.0
 70
    24
 71
     2
 72
     6
 73
     3
 74
     0
 42
0.0000000001
 43
0.0000000001
 40
0.0
 40
0.0
 40
0.0
 40
22.86323138039071
 40
22.86323138039071
 40
22.86323138039071
 10
-11.43271705116143
 20
25.25074972080166
 30
0.0
 10
-0.0005506804830357
 20
25.25074972080166
 30
0.0
 10
11.43161569019535
 20
25.25074972080166
 30
0.0
  0
SPLINE
  5
F4
330
1F
100
AcDbEntity
  8
A 2D
100
AcDbSpline
210
0.0
220
0.0
230
1.0
 70
    24
 71
     2
 72
     6
 73
     3
 74
     0
 42
0.0000000001
 43
0.0000000001
 40
-2.5625
 40
-2.5625
 40
-2.5625
 40
0.0
 40
0.0
 40
0.0
 10
11.43161569019535
 20
25.25074972080166
 30
0.0
 10
11.43216637067839
 20
26.53187485837897
 30
0.0
 10
11.43271705116143
 20
27.81299999595627
 30
0.0
  0
LINE
  5
F5
330
1F
100
AcDbEntity
  8
A 2D
100
AcDbLine
 10
11.43271705116143
 20
27.81299999595627
 30
0.0
 11
11.43279786132415
 21
28.00099999595682
 31
0.0
  0
ENDSEC
  0
SECTION
  2
OBJECTS
  0
DICTIONARY
  5
C
330
0
100
AcDbDictionary
281
     1
  3
ACAD_GROUP
350
D
  3
ACAD_LAYOUT
350
1A
  3
ACAD_MLEADERSTYLE
350
F7
  3
ACAD_MLINESTYLE
350
17
  3
ACAD_PLOTSETTINGS
350
19
  3
ACAD_PLOTSTYLENAME
350
E
  3
ACAD_TABLESTYLE
350
F6
  3
ACAD_VISUALSTYLE
350
2A
  0
DICTIONARY
  5
D
102
{ACAD_REACTORS
330
C
102
}
330
C
100
AcDbDictionary
281
     1
  0
DICTIONARY
  5
1A
102
{ACAD_REACTORS
330
C
102
}
330
C
100
AcDbDictionary
281
     1
  3
Layout1
350
1E
  3
Layout2
350
26
  3
Model
350
22
  0
DICTIONARY
  5
F7
102
{ACAD_REACTORS
330
C
102
}
330
C
100
AcDbDictionary
281
     1
  0
DICTIONARY
  5
17
102
{ACAD_REACTORS
330
C
102
}
330
C
100
AcDbDictionary
281
     1
  3
Standard
350
18
  0
DICTIONARY
  5
19
102
{ACAD_REACTORS
330
C
102
}
330
C
100
AcDbDictionary
281
     1
  0
ACDBDICTIONARYWDFLT
  5
E
102
{ACAD_REACTORS
330
C
102
}
330
C
100
AcDbDictionary
281
     1
  3
Normal
350
F
100
AcDbDictionaryWithDefault
340
F
  0
DICTIONARY
  5
F6
102
{ACAD_REACTORS
330
C
102
}
330
C
100
AcDbDictionary
281
     1
  0
DICTIONARY
  5
2A
102
{ACAD_REACTORS
330
C
102
}
330
C
100
AcDbDictionary
281
     1
  3
2dWireframe
350
2F
  3
3D Hidden
350
31
  3
3dWireframe
350
30
  3
Basic
350
32
  3
Brighten
350
36
  3
ColorChange
350
3A
  3
Conceptual
350
34
  3
Dim
350
35
  3
Facepattern
350
39
  3
Flat
350
2B
  3
FlatWithEdges
350
2C
  3
Gouraud
350
2D
  3
GouraudWithEdges
350
2E
  3
Linepattern
350
38
  3
Realistic
350
33
  3
Thicken
350
37
  0
LAYOUT
  5
1E
102
{ACAD_REACTORS
330
1A
102
}
330
1A
100
AcDbPlotSettings
  1

  2
none_device
  4

  6

 40
0.0
 41
0.0
 42
0.0
 43
0.0
 44
0.0
 45
0.0
 46
0.0
 47
0.0
 48
0.0
 49
0.0
140
0.0
141
0.0
142
1.0
143
1.0
 70
   688
 72
     0
 73
     0
 74
     5
  7

 75
    16
 76
     0
 77
     2
 78
   300
147
1.0
148
0.0
149
0.0
100
AcDbLayout
  1
Layout1
 70
     1
 71
     1
 10
0.0
 20
0.0
 11
12.0
 21
9.0
 12
0.0
 22
0.0
 32
0.0
 14
1.000000000000000E+20
 24
1.000000000000000E+20
 34
1.000000000000000E+20
 15
-1.000000000000000E+20
 25
-1.000000000000000E+20
 35
-1.000000000000000E+20
146
0.0
 13
0.0
 23
0.0
 33
0.0
 16
1.0
 26
0.0
 36
0.0
 17
0.0
 27
1.0
 37
0.0
 76
     0
330
1B
  0
LAYOUT
  5
26
102
{ACAD_REACTORS
330
1A
102
}
330
1A
100
AcDbPlotSettings
  1

  2
none_device
  4

  6

 40
0.0
 41
0.0
 42
0.0
 43
0.0
 44
0.0
 45
0.0
 46
0.0
 47
0.0
 48
0.0
 49
0.0
140
0.0
141
0.0
142
1.0
143
1.0
 70
   688
 72
     0
 73
     0
 74
     5
  7

 75
    16
 76
     0
 77
     2
 78
   300
147
1.0
148
0.0
149
0.0
100
AcDbLayout
  1
Layout2
 70
     1
 71
     2
 10
0.0
 20
0.0
 11
0.0
 21
0.0
 12
0.0
 22
0.0
 32
0.0
 14
0.0
 24
0.0
 34
0.0
 15
0.0
 25
0.0
 35
0.0
146
0.0
 13
0.0
 23
0.0
 33
0.0
 16
1.0
 26
0.0
 36
0.0
 17
0.0
 27
1.0
 37
0.0
 76
     0
330
23
  0
LAYOUT
  5
22
102
{ACAD_REACTORS
330
1A
102
}
330
1A
100
AcDbPlotSettings
  1

  2
none_device
  4

  6

 40
0.0
 41
0.0
 42
0.0
 43
0.0
 44
0.0
 45
0.0
 46
0.0
 47
0.0
 48
0.0
 49
0.0
140
0.0
141
0.0
142
1.0
143
1.0
 70
  1712
 72
     0
 73
     0
 74
     0
  7

 75
     0
 76
     0
 77
     2
 78
   300
147
1.0
148
0.0
149
0.0
100
AcDbLayout
  1
Model
 70
     1
 71
     0
 10
0.0
 20
0.0
 11
12.0
 21
9.0
 12
0.0
 22
0.0
 32
0.0
 14
-21.00000000000007
 24
-0.0000000000034689
 34
0.0
 15
82.99649845040717
 25
91.00099999595628
 35
0.0
146
0.0
 13
0.0
 23
0.0
 33
0.0
 16
1.0
 26
0.0
 36
0.0
 17
0.0
 27
1.0
 37
0.0
 76
     0
330
1F
331
29
  0
MLINESTYLE
  5
18
102
{ACAD_REACTORS
330
17
102
}
330
17
100
AcDbMlineStyle
  2
Standard
 70
     0
  3

 62
   256
 51
90.0
 52
90.0
 71
     2
 49
0.5
 62
   256
  6
BYLAYER
 49
-0.5
 62
   256
  6
BYLAYER
  0
ACDBPLACEHOLDER
  5
F
102
{ACAD_REACTORS
330
E
102
}
330
E
  0
VISUALSTYLE
  5
2F
102
{ACAD_REACTORS
330
2A
102
}
330
2A
100
AcDbVisualStyle
  2
2dWireframe
 70
     4
 71
     0
 72
     2
 73
     0
 90
        0
 40
-0.6
 41
-30.0
 62
     5
 63
     7
421
 16777215
 74
     1
 91
        4
 64
     7
 65
   257
 75
     1
175
     1
 42
1.0
 92
        0
 66
   257
 43
1.0
 76
     1
 77
     6
 78
     2
 67
     7
 79
     5
170
     0
171
     0
290
     0
174
     0
 93
        1
 44
0.0
173
     0
291
     0
 45
0.0
1001
ACAD
1000
AcDbSavedByObjectVersion
1070
     0
  0
VISUALSTYLE
  5
31
102
{ACAD_REACTORS
330
2A
102
}
330
2A
100
AcDbVisualStyle
  2
3D Hidden
 70
     6
 71
     1
 72
     2
 73
     2
 90
        0
 40
-0.6
 41
-30.0
 62
     5
 63
     7
421
 16777215
 74
     2
 91
        2
 64
     7
 65
   257
 75
     2
175
     1
 42
40.0
 92
        0
 66
   257
 43
1.0
 76
     1
 77
     6
 78
     2
 67
     7
 79
     3
170
     0
171
     0
290
     0
174
     0
 93
        1
 44
0.0
173
     0
291
     0
 45
0.0
1001
ACAD
1000
AcDbSavedByObjectVersion
1070
     0
  0
VISUALSTYLE
  5
30
102
{ACAD_REACTORS
330
2A
102
}
330
2A
100
AcDbVisualStyle
  2
3dWireframe
 70
     5
 71
     0
 72
     2
 73
     0
 90
        0
 40
-0.6
 41
-30.0
 62
     5
 63
     7
421
 16777215
 74
     1
 91
        4
 64
     7
 65
   257
 75
     1
175
     1
 42
1.0
 92
        0
 66
   257
 43
1.0
 76
     1
 77
     6
 78
     2
 67
     7
 79
     5
170
     0
171
     0
290
     0
174
     0
 93
        1
 44
0.0
173
     0
291
     0
 45
0.0
1001
ACAD
1000
AcDbSavedByObjectVersion
1070
     0
  0
VISUALSTYLE
  5
32
102
{ACAD_REACTORS
330
2A
102
}
330
2A
100
AcDbVisualStyle
  2
Basic
 70
     7
 71
     1
 72
     0
 73
     1
 90
        0
 40
-0.6
 41
-30.0
 62
     5
 63
     7
421
 16777215
 74
     0
 91
        4
 64
     7
 65
   257
 75
     1
175
     1
 42
1.0
 92
        8
 66
     7
 43
1.0
 76
     1
 77
     6
 78
     2
 67
     7
 79
     5
170
     0
171
     0
290
     0
174
     0
 93
        1
 44
0.0
173
     0
291
     1
 45
0.0
1001
ACAD
1000
AcDbSavedByObjectVersion
1070
     0
  0
VISUALSTYLE
  5
36
102
{ACAD_REACTORS
330
2A
102
}
330
2A
100
AcDbVisualStyle
  2
Brighten
 70
    12
 71
     2
 72
     2
 73
     0
 90
        0
 40
-0.6
 41
-30.0
 62
     5
 63
     7
421
 16777215
 74
     1
 91
        4
 64
     7
 65
   257
 75
     1
175
     1
 42
1.0
 92
        8
 66
     7
 43
1.0
 76
     1
 77
     6
 78
     2
 67
     7
 79
     5
170
     0
171
     0
290
     0
174
     0
 93
        1
 44
50.0
173
     0
291
     1
 45
0.0
1001
ACAD
1000
AcDbSavedByObjectVersion
1070
     0
  0
VISUALSTYLE
  5
3A
102
{ACAD_REACTORS
330
2A
102
}
330
2A
100
AcDbVisualStyle
  2
ColorChange
 70
    16
 71
     2
 72
     2
 73
     3
 90
        0
 40
-0.6
 41
-30.0
 62
     5
 63
     8
421
  8421504
 74
     1
 91
        4
 64
     7
 65
   257
 75
     1
175
     1
 42
1.0
 92
        8
 66
     8
424
  8421504
 43
1.0
 76
     1
 77
     6
 78
     2
 67
     7
 79
     5
170
     0
171
     0
290
     0
174
     0
 93
        1
 44
0.0
173
     0
291
     1
 45
0.0
1001
ACAD
1000
AcDbSavedByObjectVersion
1070
     0
  0
VISUALSTYLE
  5
34
102
{ACAD_REACTORS
330
2A
102
}
330
2A
100
AcDbVisualStyle
  2
Conceptual
 70
     9
 71
     3
 72
     2
 73
     0
 90
        0
 40
-0.6
 41
-30.0
 62
     5
 63
     7
421
 16777215
 74
     2
 91
        2
 64
     7
 65
   257
 75
     1
175
     1
 42
40.0
 92
        8
 66
     7
 43
1.0
 76
     1
 77
     6
 78
     2
 67
     7
 79
     3
170
     0
171
     0
290
     0
174
     0
 93
        1
 44
0.0
173
     0
291
     0
 45
0.0
1001
ACAD
1000
AcDbSavedByObjectVersion
1070
     0
  0
VISUALSTYLE
  5
35
102
{ACAD_REACTORS
330
2A
102
}
330
2A
100
AcDbVisualStyle
  2
Dim
 70
    11
 71
     2
 72
     2
 73
     0
 90
        0
 40
-0.6
 41
-30.0
 62
     5
 63
     7
421
 16777215
 74
     1
 91
        4
 64
     7
 65
   257
 75
     1
175
     1
 42
1.0
 92
        8
 66
     7
 43
1.0
 76
     1
 77
     6
 78
     2
 67
     7
 79
     5
170
     0
171
     0
290
     0
174
     0
 93
        1
 44
-50.0
173
     0
291
     1
 45
0.0
1001
ACAD
1000
AcDbSavedByObjectVersion
1070
     0
  0
VISUALSTYLE
  5
39
102
{ACAD_REACTORS
330
2A
102
}
330
2A
100
AcDbVisualStyle
  2
Facepattern
 70
    15
 71
     2
 72
     2
 73
     0
 90
        0
 40
-0.6
 41
-30.0
 62
     5
 63
     7
421
 16777215
 74
     1
 91
        4
 64
     7
 65
   257
 75
     1
175
     1
 42
1.0
 92
        8
 66
     7
 43
1.0
 76
     1
 77
     6
 78
     2
 67
     7
 79
     5
170
     0
171
     0
290
     0
174
     0
 93
        1
 44
0.0
173
     0
291
     1
 45
0.0
1001
ACAD
1000
AcDbSavedByObjectVersion
1070
     0
  0
VISUALSTYLE
  5
2B
102
{ACAD_REACTORS
330
2A
102
}
330
2A
100
AcDbVisualStyle
  2
Flat
 70
     0
 71
     2
 72
     1
 73
     1
 90
        2
 40
-0.6
 41
30.0
 62
     5
 63
     7
421
 16777215
 74
     0
 91
        4
 64
     7
 65
   257
 75
     1
175
     1
 42
1.0
 92
        8
 66
     7
 43
1.0
 76
     1
 77
     6
 78
     2
 67
     7
 79
     5
170
     0
171
     0
290
     0
174
     0
 93
       13
 44
0.0
173
     0
291
     1
 45
0.0
1001
ACAD
1000
AcDbSavedByObjectVersion
1070
     0
  0
VISUALSTYLE
  5
2C
102
{ACAD_REACTORS
330
2A
102
}
330
2A
100
AcDbVisualStyle
  2
FlatWithEdges
 70
     1
 71
     2
 72
     1
 73
     1
 90
        2
 40
-0.6
 41
30.0
 62
     5
 63
     7
421
 16777215
 74
     1
 91
        4
 64
     7
 65
   257
 75
     1
175
     1
 42
1.0
 92
        0
 66
   257
 43
1.0
 76
     1
 77
     6
 78
     2
 67
     7
 79
     5
170
     0
171
     0
290
     0
174
     0
 93
       13
 44
0.0
173
     0
291
     1
 45
0.0
1001
ACAD
1000
AcDbSavedByObjectVersion
1070
     0
  0
VISUALSTYLE
  5
2D
102
{ACAD_REACTORS
330
2A
102
}
330
2A
100
AcDbVisualStyle
  2
Gouraud
 70
     2
 71
     2
 72
     2
 73
     1
 90
        2
 40
-0.6
 41
30.0
 62
     5
 63
     7
421
 16777215
 74
     0
 91
        4
 64
     7
 65
   257
 75
     1
175
     1
 42
1.0
 92
        0
 66
     7
 43
1.0
 76
     1
 77
     6
 78
     2
 67
     7
 79
     5
170
     0
171
     0
290
     0
174
     0
 93
       13
 44
0.0
173
     0
291
     1
 45
0.0
1001
ACAD
1000
AcDbSavedByObjectVersion
1070
     0
  0
VISUALSTYLE
  5
2E
102
{ACAD_REACTORS
330
2A
102
}
330
2A
100
AcDbVisualStyle
  2
GouraudWithEdges
 70
     3
 71
     2
 72
     2
 73
     1
 90
        2
 40
-0.6
 41
30.0
 62
     5
 63
     7
421
 16777215
 74
     1
 91
        4
 64
     7
 65
   257
 75
     1
175
     1
 42
1.0
 92
        0
 66
   257
 43
1.0
 76
     1
 77
     6
 78
     2
 67
     7
 79
     5
170
     0
171
     0
290
     0
174
     0
 93
       13
 44
0.0
173
     0
291
     1
 45
0.0
1001
ACAD
1000
AcDbSavedByObjectVersion
1070
     0
  0
VISUALSTYLE
  5
38
102
{ACAD_REACTORS
330
2A
102
}
330
2A
100
AcDbVisualStyle
  2
Linepattern
 70
    14
 71
     2
 72
     2
 73
     0
 90
        0
 40
-0.6
 41
-30.0
 62
     5
 63
     7
421
 16777215
 74
     1
 91
        4
 64
     7
 65
   257
 75
     7
175
     7
 42
1.0
 92
        8
 66
     7
 43
1.0
 76
     1
 77
     6
 78
     2
 67
     7
 79
     5
170
     0
171
     0
290
     0
174
     0
 93
        1
 44
0.0
173
     0
291
     1
 45
0.0
1001
ACAD
1000
AcDbSavedByObjectVersion
1070
     0
  0
VISUALSTYLE
  5
33
102
{ACAD_REACTORS
330
2A
102
}
330
2A
100
AcDbVisualStyle
  2
Realistic
 70
     8
 71
     2
 72
     2
 73
     0
 90
        0
 40
-0.6
 41
-30.0
 62
     5
 63
     7
421
 16777215
 74
     1
 91
        0
 64
     7
 65
   257
 75
     1
175
     1
 42
1.0
 92
        8
 66
     8
424
  7895160
 43
1.0
 76
     1
 77
     6
 78
     2
 67
     7
 79
     5
170
     0
171
     0
290
     0
174
     0
 93
       13
 44
0.0
173
     0
291
     0
 45
0.0
1001
ACAD
1000
AcDbSavedByObjectVersion
1070
     0
  0
VISUALSTYLE
  5
37
102
{ACAD_REACTORS
330
2A
102
}
330
2A
100
AcDbVisualStyle
  2
Thicken
 70
    13
 71
     2
 72
     2
 73
     0
 90
        0
 40
-0.6
 41
-30.0
 62
     5
 63
     7
421
 16777215
 74
     1
 91
        4
 64
     7
 65
   257
 75
     1
175
     1
 42
1.0
 92
       12
 66
     7
 43
1.0
 76
     1
 77
     6
 78
     2
 67
     7
 79
     5
170
     0
171
     0
290
     0
174
     0
 93
        1
 44
0.0
173
     0
291
     1
 45
0.0
1001
ACAD
1000
AcDbSavedByObjectVersion
1070
     0
  0
ENDSEC
  0
EOF
