  0
SECTION
  2
HEADER
  9
$ACADVER
  1
AC1018
  9
$ACADMAINTVER
 70
     0
  9
$DWGCODEPAGE
  3
ANSI_1252
  9
$INSBASE
 10
0.0
 20
0.0
 30
0.0
  9
$EXTMIN
 10
-24.00082161839005
 20
-0.0000000000034689
 30
0.0
  9
$EXTMAX
 10
92.00246485516999
 20
97.00099999595625
 30
0.0
  9
$LIMMIN
 10
0.0
 20
0.0
  9
$LIMMAX
 10
12.0
 20
9.0
  9
$ORTHOMODE
 70
     0
  9
$REGENMODE
 70
     1
  9
$FILLMODE
 70
     1
  9
$QTEXTMODE
 70
     0
  9
$MIRRTEXT
 70
     1
  9
$LTSCALE
 40
0.0393700787401575
  9
$ATTMODE
 70
     1
  9
$TEXTSIZE
 40
0.2
  9
$TRACEWID
 40
0.05
  9
$TEXTSTYLE
  7
Standard
  9
$CLAYER
  8
0
  9
$CELTYPE
  6
ByLayer
  9
$CECOLOR
 62
   256
  9
$CELTSCALE
 40
1.0
  9
$DISPSILH
 70
     0
  9
$DIMSCALE
 40
1.0
  9
$DIMASZ
 40
0.18
  9
$DIMEXO
 40
0.0625
  9
$DIMDLI
 40
0.38
  9
$DIMRND
 40
0.0
  9
$DIMDLE
 40
0.0
  9
$DIMEXE
 40
0.18
  9
$DIMTP
 40
0.0
  9
$DIMTM
 40
0.0
  9
$DIMTXT
 40
0.18
  9
$DIMCEN
 40
0.09
  9
$DIMTSZ
 40
0.0
  9
$DIMTOL
 70
     0
  9
$DIMLIM
 70
     0
  9
$DIMTIH
 70
     1
  9
$DIMTOH
 70
     1
  9
$DIMSE1
 70
     0
  9
$DIMSE2
 70
     0
  9
$DIMTAD
 70
     0
  9
$DIMZIN
 70
     0
  9
$DIMBLK
  1

  9
$DIMASO
 70
     1
  9
$DIMSHO
 70
     1
  9
$DIMPOST
  1

  9
$DIMAPOST
  1

  9
$DIMALT
 70
     0
  9
$DIMALTD
 70
     2
  9
$DIMALTF
 40
25.4
  9
$DIMLFAC
 40
1.0
  9
$DIMTOFL
 70
     0
  9
$DIMTVP
 40
0.0
  9
$DIMTIX
 70
     0
  9
$DIMSOXD
 70
     0
  9
$DIMSAH
 70
     0
  9
$DIMBLK1
  1

  9
$DIMBLK2
  1

  9
$DIMSTYLE
  2
Standard
  9
$DIMCLRD
 70
     0
  9
$DIMCLRE
 70
     0
  9
$DIMCLRT
 70
     0
  9
$DIMTFAC
 40
1.0
  9
$DIMGAP
 40
0.09
  9
$DIMJUST
 70
     0
  9
$DIMSD1
 70
     0
  9
$DIMSD2
 70
     0
  9
$DIMTOLJ
 70
     1
  9
$DIMTZIN
 70
     0
  9
$DIMALTZ
 70
     0
  9
$DIMALTTZ
 70
     0
  9
$DIMUPT
 70
     0
  9
$DIMDEC
 70
     4
  9
$DIMTDEC
 70
     4
  9
$DIMALTU
 70
     2
  9
$DIMALTTD
 70
     2
  9
$DIMTXSTY
  7
Standard
  9
$DIMAUNIT
 70
     0
  9
$DIMADEC
 70
     0
  9
$DIMALTRND
 40
0.0
  9
$DIMAZIN
 70
     0
  9
$DIMDSEP
 70
    46
  9
$DIMATFIT
 70
     3
  9
$DIMFRAC
 70
     0
  9
$DIMLDRBLK
  1

  9
$DIMLUNIT
 70
     2
  9
$DIMLWD
 70
    -2
  9
$DIMLWE
 70
    -2
  9
$DIMTMOVE
 70
     2
  9
$LUNITS
 70
     2
  9
$LUPREC
 70
     3
  9
$SKETCHINC
 40
0.1
  9
$FILLETRAD
 40
0.5
  9
$AUNITS
 70
     0
  9
$AUPREC
 70
     0
  9
$MENU
  1
.
  9
$ELEVATION
 40
0.0
  9
$PELEVATION
 40
0.0
  9
$THICKNESS
 40
0.0
  9
$LIMCHECK
 70
     0
  9
$CHAMFERA
 40
0.5
  9
$CHAMFERB
 40
0.5
  9
$CHAMFERC
 40
1.0
  9
$CHAMFERD
 40
0.0
  9
$SKPOLY
 70
     0
  9
$TDCREATE
 40
2458178.588862338
  9
$TDUCREATE
 40
2458178.797195671
  9
$TDUPDATE
 40
2458178.58886235
  9
$TDUUPDATE
 40
2458178.797195683
  9
$TDINDWG
 40
0.0000000116
  9
$TDUSRTIMER
 40
0.0000000116
  9
$USRTIMER
 70
     1
  9
$ANGBASE
 50
0.0
  9
$ANGDIR
 70
     0
  9
$PDMODE
 70
     0
  9
$PDSIZE
 40
0.0
  9
$PLINEWID
 40
0.0
  9
$SPLFRAME
 70
     0
  9
$SPLINETYPE
 70
     6
  9
$SPLINESEGS
 70
     8
  9
$HANDSEED
  5
D7
  9
$SURFTAB1
 70
     6
  9
$SURFTAB2
 70
     6
  9
$SURFTYPE
 70
     6
  9
$SURFU
 70
     6
  9
$SURFV
 70
     6
  9
$UCSBASE
  2

  9
$UCSNAME
  2

  9
$UCSORG
 10
0.0
 20
0.0
 30
0.0
  9
$UCSXDIR
 10
1.0
 20
0.0
 30
0.0
  9
$UCSYDIR
 10
0.0
 20
1.0
 30
0.0
  9
$UCSORTHOREF
  2

  9
$UCSORTHOVIEW
 70
     0
  9
$UCSORGTOP
 10
0.0
 20
0.0
 30
0.0
  9
$UCSORGBOTTOM
 10
0.0
 20
0.0
 30
0.0
  9
$UCSORGLEFT
 10
0.0
 20
0.0
 30
0.0
  9
$UCSORGRIGHT
 10
0.0
 20
0.0
 30
0.0
  9
$UCSORGFRONT
 10
0.0
 20
0.0
 30
0.0
  9
$UCSORGBACK
 10
0.0
 20
0.0
 30
0.0
  9
$PUCSBASE
  2

  9
$PUCSNAME
  2

  9
$PUCSORG
 10
0.0
 20
0.0
 30
0.0
  9
$PUCSXDIR
 10
1.0
 20
0.0
 30
0.0
  9
$PUCSYDIR
 10
0.0
 20
1.0
 30
0.0
  9
$PUCSORTHOREF
  2

  9
$PUCSORTHOVIEW
 70
     0
  9
$PUCSORGTOP
 10
0.0
 20
0.0
 30
0.0
  9
$PUCSORGBOTTOM
 10
0.0
 20
0.0
 30
0.0
  9
$PUCSORGLEFT
 10
0.0
 20
0.0
 30
0.0
  9
$PUCSORGRIGHT
 10
0.0
 20
0.0
 30
0.0
  9
$PUCSORGFRONT
 10
0.0
 20
0.0
 30
0.0
  9
$PUCSORGBACK
 10
0.0
 20
0.0
 30
0.0
  9
$USERI1
 70
     0
  9
$USERI2
 70
     0
  9
$USERI3
 70
     0
  9
$USERI4
 70
     0
  9
$USERI5
 70
     0
  9
$USERR1
 40
0.0
  9
$USERR2
 40
0.0
  9
$USERR3
 40
0.0
  9
$USERR4
 40
0.0
  9
$USERR5
 40
0.0
  9
$WORLDVIEW
 70
     1
  9
$SHADEDGE
 70
     3
  9
$SHADEDIF
 70
    70
  9
$TILEMODE
 70
     1
  9
$MAXACTVP
 70
    64
  9
$PINSBASE
 10
0.0
 20
0.0
 30
0.0
  9
$PLIMCHECK
 70
     0
  9
$PEXTMIN
 10
1.000000000000000E+20
 20
1.000000000000000E+20
 30
1.000000000000000E+20
  9
$PEXTMAX
 10
-1.000000000000000E+20
 20
-1.000000000000000E+20
 30
-1.000000000000000E+20
  9
$PLIMMIN
 10
0.0
 20
0.0
  9
$PLIMMAX
 10
12.0
 20
9.0
  9
$UNITMODE
 70
     0
  9
$VISRETAIN
 70
     1
  9
$PLINEGEN
 70
     0
  9
$PSLTSCALE
 70
     1
  9
$TREEDEPTH
 70
  3020
  9
$CMLSTYLE
  2
Standard
  9
$CMLJUST
 70
     0
  9
$CMLSCALE
 40
1.0
  9
$PROXYGRAPHICS
 70
     1
  9
$MEASUREMENT
 70
     0
  9
$CELWEIGHT
370
    -1
  9
$ENDCAPS
280
     0
  9
$JOINSTYLE
280
     0
  9
$LWDISPLAY
290
     0
  9
$INSUNITS
 70
     1
  9
$HYPERLINKBASE
  1

  9
$STYLESHEET
  1

  9
$XEDIT
290
     1
  9
$CEPSNTYPE
380
     0
  9
$PSTYLEMODE
290
     1
  9
$FINGERPRINTGUID
  2
{5327413E-624B-4957-8578-EADA1A7D2CFF}
  9
$VERSIONGUID
  2
{FAEB1C32-E019-11D5-929B-00C0DF256EC4}
  9
$EXTNAMES
290
     1
  9
$PSVPSCALE
 40
0.0
  9
$OLESTARTUP
290
     0
  9
$SORTENTS
280
   127
  9
$INDEXCTL
280
     0
  9
$HIDETEXT
280
     1
  9
$XCLIPFRAME
290
     0
  9
$HALOGAP
280
     0
  9
$OBSCOLOR
 70
   257
  9
$OBSLTYPE
280
     0
  9
$INTERSECTIONDISPLAY
280
     0
  9
$INTERSECTIONCOLOR
 70
   257
  9
$DIMASSOC
280
     2
  9
$PROJECTNAME
  1

  0
ENDSEC
  0
SECTION
  2
CLASSES
  0
CLASS
  1
ACDBDICTIONARYWDFLT
  2
AcDbDictionaryWithDefault
  3
ObjectDBX Classes
 90
        0
 91
        4
280
     0
281
     0
  0
CLASS
  1
VISUALSTYLE
  2
AcDbVisualStyle
  3
ObjectDBX Classes
 90
     4095
 91
        4
280
     0
281
     0
  0
ENDSEC
  0
SECTION
  2
TABLES
  0
TABLE
  2
VPORT
  5
8
330
0
100
AcDbSymbolTable
 70
     1
  0
VPORT
  5
29
330
8
100
AcDbSymbolTableRecord
100
AcDbViewportTableRecord
  2
*Active
 70
     0
 10
0.0
 20
0.0
 11
1.0
 21
1.0
 12
34.00082161838997
 22
48.50049999797639
 13
0.0
 23
0.0
 14
0.5
 24
0.5
 15
0.5
 25
0.5
 16
0.0
 26
0.0
 36
1.0
 17
0.0
 27
0.0
 37
0.0
 40
98.94101999587892
 41
1.195897841036606
 42
50.0
 43
0.0
 44
0.0
 50
0.0
 51
0.0
 71
     0
 72
   100
 73
     1
 74
     3
 75
     0
 76
     0
 77
     0
 78
     0
281
     0
 65
     1
110
0.0
120
0.0
130
0.0
111
1.0
121
0.0
131
0.0
112
0.0
122
1.0
132
0.0
 79
     0
146
0.0
  0
ENDTAB
  0
TABLE
  2
LTYPE
  5
5
330
0
100
AcDbSymbolTable
 70
     1
  0
LTYPE
  5
14
330
5
100
AcDbSymbolTableRecord
100
AcDbLinetypeTableRecord
  2
ByBlock
 70
     0
  3

 72
    65
 73
     0
 40
0.0
  0
LTYPE
  5
15
330
5
100
AcDbSymbolTableRecord
100
AcDbLinetypeTableRecord
  2
ByLayer
 70
     0
  3

 72
    65
 73
     0
 40
0.0
  0
LTYPE
  5
16
330
5
100
AcDbSymbolTableRecord
100
AcDbLinetypeTableRecord
  2
Continuous
 70
     0
  3
Solid line
 72
    65
 73
     0
 40
0.0
  0
ENDTAB
  0
TABLE
  2
LAYER
  5
2
330
0
100
AcDbSymbolTable
 70
     2
  0
LAYER
  5
10
330
2
100
AcDbSymbolTableRecord
100
AcDbLayerTableRecord
  2
0
 70
     0
 62
     7
  6
Continuous
370
    -3
390
F
  0
LAYER
  5
3B
330
2
100
AcDbSymbolTableRecord
100
AcDbLayerTableRecord
  2
C 2D
 70
     0
 62
     7
  6
Continuous
370
    -3
390
F
  0
ENDTAB
  0
TABLE
  2
STYLE
  5
3
330
0
100
AcDbSymbolTable
 70
     1
  0
STYLE
  5
11
330
3
100
AcDbSymbolTableRecord
100
AcDbTextStyleTableRecord
  2
Standard
 70
     0
 40
0.0
 41
1.0
 50
0.0
 71
     0
 42
0.2
  3
txt
  4

  0
ENDTAB
  0
TABLE
  2
VIEW
  5
6
330
0
100
AcDbSymbolTable
 70
     0
  0
ENDTAB
  0
TABLE
  2
UCS
  5
7
330
0
100
AcDbSymbolTable
 70
     0
  0
ENDTAB
  0
TABLE
  2
APPID
  5
9
330
0
100
AcDbSymbolTable
 70
     1
  0
APPID
  5
12
330
9
100
AcDbSymbolTableRecord
100
AcDbRegAppTableRecord
  2
ACAD
 70
     0
  0
ENDTAB
  0
TABLE
  2
DIMSTYLE
  5
A
330
0
100
AcDbSymbolTable
 70
     1
100
AcDbDimStyleTable
  0
DIMSTYLE
105
27
330
A
100
AcDbSymbolTableRecord
100
AcDbDimStyleTableRecord
  2
Standard
 70
     0
340
11
  0
ENDTAB
  0
TABLE
  2
BLOCK_RECORD
  5
1
330
0
100
AcDbSymbolTable
 70
     1
  0
BLOCK_RECORD
  5
1F
330
1
100
AcDbSymbolTableRecord
100
AcDbBlockTableRecord
  2
*Model_Space
340
22
  0
BLOCK_RECORD
  5
1B
330
1
100
AcDbSymbolTableRecord
100
AcDbBlockTableRecord
  2
*Paper_Space
340
1E
  0
BLOCK_RECORD
  5
23
330
1
100
AcDbSymbolTableRecord
100
AcDbBlockTableRecord
  2
*Paper_Space0
340
26
  0
ENDTAB
  0
ENDSEC
  0
SECTION
  2
BLOCKS
  0
BLOCK
  5
20
330
1F
100
AcDbEntity
  8
0
100
AcDbBlockBegin
  2
*Model_Space
 70
     0
 10
0.0
 20
0.0
 30
0.0
  3
*Model_Space
  1

  0
ENDBLK
  5
21
330
1F
100
AcDbEntity
  8
0
100
AcDbBlockEnd
  0
BLOCK
  5
1C
330
1B
100
AcDbEntity
 67
     1
  8
0
100
AcDbBlockBegin
  2
*Paper_Space
 70
     0
 10
0.0
 20
0.0
 30
0.0
  3
*Paper_Space
  1

  0
ENDBLK
  5
1D
330
1B
100
AcDbEntity
 67
     1
  8
0
100
AcDbBlockEnd
  0
BLOCK
  5
24
330
23
100
AcDbEntity
  8
0
100
AcDbBlockBegin
  2
*Paper_Space0
 70
     0
 10
0.0
 20
0.0
 30
0.0
  3
*Paper_Space0
  1

  0
ENDBLK
  5
25
330
23
100
AcDbEntity
  8
0
100
AcDbBlockEnd
  0
ENDSEC
  0
SECTION
  2
ENTITIES
  0
SPLINE
  5
3C
330
1F
100
AcDbEntity
  8
C 2D
100
AcDbSpline
210
0.0
220
0.0
230
1.0
 70
    11
 71
     2
 72
    22
 73
    19
 74
     0
 42
0.0000000001
 43
0.0000000001
 40
-4284.609917693162
 40
-4284.609917693162
 40
-4284.609917693162
 40
-4284.296917693163
 40
-4284.296917693163
 40
-4282.676836352272
 40
-4282.676836352272
 40
-4282.650112606662
 40
-4282.650112606662
 40
-4243.650112606662
 40
-4243.650112606662
 40
-4243.62338886106
 40
-4243.62338886106
 40
-4242.003307520169
 40
-4242.003307520169
 40
-4241.690307520005
 40
-4241.690307520005
 40
-4201.190307520005
 40
-4201.190307520005
 40
-4199.690307520005
 40
-4199.690307520005
 40
-4199.690307520005
 10
92.00246485516999
 20
29.00099999595627
 30
0.0
 10
92.0012188752928
 20
28.84391898599795
 30
0.0
 10
91.99997289541562
 20
28.68683797603962
 30
0.0
 10
91.26458074809761
 20
28.34391898599826
 30
0.0
 10
90.5291886007796
 20
28.00099999595691
 30
0.0
 10
90.51582672797475
 20
28.00099999595691
 30
0.0
 10
90.5024648551699
 20
28.00099999595691
 30
0.0
 10
68.00164323677994
 20
28.00099999595691
 30
0.0
 10
45.50082161838997
 20
28.00099999595691
 30
0.0
 10
45.48745974558852
 20
28.00099999595573
 30
0.0
 10
45.47409787278707
 20
28.00099999595454
 30
0.0
 10
44.73870572550364
 20
28.3439189859383
 30
0.0
 10
44.00331357822021
 20
28.68683797592205
 30
0.0
 10
44.00206759830509
 20
28.84391898593916
 30
0.0
 10
44.00082161838997
 20
29.00099999595627
 30
0.0
 10
67.25164323677994
 20
29.00099999595627
 30
0.0
 10
90.5024648551699
 20
29.00099999595627
 30
0.0
 10
91.25246485516995
 20
29.00099999595627
 30
0.0
 10
92.00246485516999
 20
29.00099999595627
 30
0.0
  0
SPLINE
  5
3D
330
1F
100
AcDbEntity
  8
C 2D
100
AcDbSpline
210
0.0
220
0.0
230
1.0
 70
    11
 71
     2
 72
    16
 73
    13
 74
     0
 42
0.0000000001
 43
0.0000000001
 40
-2354.065762023832
 40
-2354.065762023832
 40
-2354.065762023832
 40
-2352.173219604286
 40
-2352.173219604286
 40
-2331.200247111346
 40
-2331.200247111346
 40
-2328.449728788283
 40
-2328.449728788283
 40
-2305.586497407893
 40
-2305.586497407893
 40
-2303.023997407893
 40
-2303.023997407893
 40
-2302.835997390524
 40
-2302.835997390524
 40
-2302.835997390524
 10
59.56966699384576
 20
28.00099999595682
 30
0.0
 10
60.51593820361892
 20
28.00099999595687
 30
0.0
 10
61.46220941339207
 20
28.00099999595691
 30
0.0
 10
68.94787404147175
 20
28.00099999595701
 30
0.0
 10
76.43353866955142
 20
28.0009999959571
 30
0.0
 10
76.43353866955141
 20
26.62587485837938
 30
0.0
 10
76.4335386695514
 20
25.25074972080166
 30
0.0
 10
68.00219391726299
 20
25.25074972080166
 30
0.0
 10
59.57084916497456
 20
25.25074972080166
 30
0.0
 10
59.57029848449152
 20
26.53187485837897
 30
0.0
 10
59.56974780400849
 20
27.81299999595627
 30
0.0
 10
59.56970739892712
 20
27.90699999595655
 30
0.0
 10
59.56966699384576
 20
28.00099999595682
 30
0.0
  0
POLYLINE
  5
3E
330
1F
100
AcDbEntity
  8
C 2D
100
AcDb2dPolyline
 66
     1
 10
0.0
 20
0.0
 30
0.0
  0
VERTEX
  5
3F
330
3E
100
AcDbEntity
  8
C 2D
100
AcDbVertex
100
AcDb2dVertex
 10
51.71413371106917
 20
0.3129999959563983
 30
0.0
  0
VERTEX
  5
40
330
3E
100
AcDbEntity
  8
C 2D
100
AcDbVertex
100
AcDb2dVertex
 10
54.50496533626656
 20
0.3129999959563974
 30
0.0
  0
SEQEND
  5
41
330
3E
100
AcDbEntity
  8
C 2D
  0
SPLINE
  5
42
330
1F
100
AcDbEntity
  8
C 2D
100
AcDbSpline
210
0.0
220
0.0
230
1.0
 70
    24
 71
     2
 72
     6
 73
     3
 74
     0
 42
0.0000000001
 43
0.0000000001
 40
0.0
 40
0.0
 40
0.0
 40
0.1879999959563761
 40
0.1879999959563761
 40
0.1879999959563761
 10
54.50496533626656
 20
0.3129999959563974
 30
0.0
 10
54.50496533626654
 20
0.2189999979782093
 30
0.0
 10
54.50496533626652
 20
0.1250000000000213
 30
0.0
  0
SPLINE
  5
43
330
1F
100
AcDbEntity
  8
C 2D
100
AcDbSpline
210
0.0
220
0.0
230
1.0
 70
    12
 71
     2
 72
     6
 73
     3
 74
     0
 42
0.0000000001
 43
0.0000000001
 40
-0.2086852564238481
 40
-0.2086852564238481
 40
-0.2086852564238481
 40
0.0
 40
0.0
 40
0.0
 10
54.50496533626652
 20
0.1250000000000213
 30
0.0
 41
1.0
 10
54.49340553893509
 20
-0.0049944862320145
 30
0.0
 41
0.724703925400524
 10
54.36299368950279
 20
0.0
 30
0.0
 41
1.0
  0
SPLINE
  5
44
330
1F
100
AcDbEntity
  8
C 2D
100
AcDbSpline
210
0.0
220
0.0
230
1.0
 70
    24
 71
     2
 72
     6
 73
     3
 74
     0
 42
0.0000000001
 43
0.0000000001
 40
0.0
 40
0.0
 40
0.0
 40
2.52289713806227
 40
2.52289713806227
 40
2.52289713806227
 10
54.36299368950279
 20
0.0
 30
0.0
 10
53.10122543488686
 20
0.0000000000012587
 30
0.0
 10
51.83945718027093
 20
0.0000000000025173
 30
0.0
  0
SPLINE
  5
45
330
1F
100
AcDbEntity
  8
C 2D
100
AcDbSpline
210
0.0
220
0.0
230
1.0
 70
    12
 71
     2
 72
     6
 73
     3
 74
     0
 42
0.0000000001
 43
0.0000000001
 40
0.0
 40
0.0
 40
0.0
 40
0.1962284577300907
 40
0.1962284577300907
 40
0.1962284577300907
 10
51.83945718027093
 20
0.0000000000025173
 30
0.0
 41
1.0
 10
51.71419729831665
 20
0.0003790246453092
 30
0.0
 41
0.7094608718397355
 10
51.713939288623
 20
0.125
 30
0.0
 41
0.9999976805327707
  0
SPLINE
  5
46
330
1F
100
AcDbEntity
  8
C 2D
100
AcDbSpline
210
0.0
220
0.0
230
1.0
 70
    24
 71
     2
 72
     6
 73
     3
 74
     0
 42
0.0000000001
 43
0.0000000001
 40
0.0
 40
0.0
 40
0.0
 40
0.1879999959563983
 40
0.1879999959563983
 40
0.1879999959563983
 10
51.713939288623
 20
0.125
 30
0.0
 10
51.71403649984609
 20
0.2189999979781991
 30
0.0
 10
51.71413371106917
 20
0.3129999959563983
 30
0.0
  0
POLYLINE
  5
47
330
1F
100
AcDbEntity
  8
C 2D
100
AcDb2dPolyline
 66
     1
 10
0.0
 20
0.0
 30
0.0
  0
VERTEX
  5
48
330
47
100
AcDbEntity
  8
C 2D
100
AcDbVertex
100
AcDb2dVertex
 10
54.00789347903193
 20
27.81299999595628
 30
0.0
  0
VERTEX
  5
49
330
47
100
AcDbEntity
  8
C 2D
100
AcDbVertex
100
AcDb2dVertex
 10
56.34586605688002
 20
27.81299999595628
 30
0.0
  0
SEQEND
  5
4A
330
47
100
AcDbEntity
  8
C 2D
  0
SPLINE
  5
4B
330
1F
100
AcDbEntity
  8
C 2D
100
AcDbSpline
210
0.0
220
0.0
230
1.0
 70
    24
 71
     2
 72
     6
 73
     3
 74
     0
 42
0.0000000001
 43
0.0000000001
 40
-3.031131383519992
 40
-3.031131383519992
 40
-3.031131383519992
 40
0.0
 40
0.0
 40
0.0
 10
56.34586605688002
 20
27.81299999595628
 30
0.0
 10
56.3497601024674
 20
26.29740050193514
 30
0.0
 10
56.35365414805477
 20
24.78180100791401
 30
0.0
  0
SPLINE
  5
4C
330
1F
100
AcDbEntity
  8
C 2D
100
AcDbSpline
210
0.0
220
0.0
230
1.0
 70
    12
 71
     2
 72
     6
 73
     3
 74
     0
 42
0.0000000001
 43
0.0000000001
 40
-0.3433114792523052
 40
-0.3433114792523052
 40
-0.3433114792523052
 40
0.0
 40
0.0
 40
0.0
 10
56.35365414805477
 20
24.78180100791401
 30
0.0
 41
0.9997583392229558
 10
56.35428827634062
 20
24.57323233966721
 30
0.0
 41
0.7548305167534196
 10
56.50473956242909
 20
24.54421598638542
 30
0.0
 41
1.0
  0
SPLINE
  5
4D
330
1F
100
AcDbEntity
  8
C 2D
100
AcDbSpline
210
0.0
220
0.0
230
1.0
 70
    24
 71
     2
 72
     6
 73
     3
 74
     0
 42
0.0000000001
 43
0.0000000001
 40
-0.7517321041836429
 40
-0.7517321041836429
 40
-0.7517321041836429
 40
0.0
 40
0.0
 40
0.0
 10
56.50473956242909
 20
24.54421598638542
 30
0.0
 10
56.87380444975573
 20
24.47303735154557
 30
0.0
 10
57.24286933708238
 20
24.40185871670573
 30
0.0
  0
SPLINE
  5
4E
330
1F
100
AcDbEntity
  8
C 2D
100
AcDbSpline
210
0.0
220
0.0
230
1.0
 70
    24
 71
     2
 72
     6
 73
     3
 74
     0
 42
0.0000000001
 43
0.0000000001
 40
-24.22511143972562
 40
-24.22511143972562
 40
-24.22511143972562
 40
0.0
 40
0.0
 40
0.0
 10
57.24286933708238
 20
24.40185871670573
 30
0.0
 10
55.96001024516128
 20
12.35742935633101
 30
0.0
 10
54.67715115324018
 20
0.3129999959562819
 30
0.0
  0
LINE
  5
4F
330
1F
100
AcDbEntity
  8
C 2D
100
AcDbLine
 10
54.67715115324018
 20
0.3129999959562819
 30
0.0
 11
51.62040441244309
 21
0.3131192180544369
 31
0.0
  0
SPLINE
  5
50
330
1F
100
AcDbEntity
  8
C 2D
100
AcDbSpline
210
0.0
220
0.0
230
1.0
 70
    24
 71
     2
 72
     6
 73
     3
 74
     0
 42
0.0000000001
 43
0.0000000001
 40
0.0
 40
0.0
 40
0.0
 40
27.60320614836507
 40
27.60320614836507
 40
27.60320614836507
 10
51.62040441244309
 20
0.3131192180544369
 30
0.0
 10
52.81414894573751
 20
14.06305960700536
 30
0.0
 10
54.00789347903193
 20
27.81299999595628
 30
0.0
  0
SPLINE
  5
51
330
1F
100
AcDbEntity
  8
C 2D
100
AcDbSpline
210
0.0
220
0.0
230
1.0
 70
    24
 71
     2
 72
     6
 73
     3
 74
     0
 42
0.0000000001
 43
0.0000000001
 40
0.0
 40
0.0
 40
0.0
 40
0.7522455994824915
 40
0.7522455994824915
 40
0.7522455994824915
 10
57.25065524319889
 20
24.46023193856624
 30
0.0
 10
56.88134491476891
 20
24.5314937221542
 30
0.0
 10
56.51203458633893
 20
24.60275550574216
 30
0.0
  0
SPLINE
  5
52
330
1F
100
AcDbEntity
  8
C 2D
100
AcDbSpline
210
0.0
220
0.0
230
1.0
 70
    12
 71
     2
 72
     6
 73
     3
 74
     0
 42
0.0000000001
 43
0.0000000001
 40
0.0
 40
0.0
 40
0.0
 40
0.23743127559879
 40
0.23743127559879
 40
0.23743127559879
 10
56.51203458633893
 20
24.60275550574216
 30
0.0
 41
1.0
 10
56.38020606611609
 20
24.64968949810895
 30
0.0
 41
0.7873276640512697
 10
56.39416249939477
 20
24.78892590266527
 30
0.0
 41
1.0
  0
SPLINE
  5
53
330
1F
100
AcDbEntity
  8
C 2D
100
AcDbSpline
210
0.0
220
0.0
230
1.0
 70
    24
 71
     2
 72
     6
 73
     3
 74
     0
 42
0.0000000001
 43
0.0000000001
 40
0.0
 40
0.0
 40
0.0
 40
3.024074093290999
 40
3.024074093290999
 40
3.024074093290999
 10
56.39416249939477
 20
24.78892590266527
 30
0.0
 10
56.39416249939477
 20
26.30096294931077
 30
0.0
 10
56.39416249939477
 20
27.81299999595627
 30
0.0
  0
POLYLINE
  5
54
330
1F
100
AcDbEntity
  8
C 2D
100
AcDb2dPolyline
 66
     1
 10
0.0
 20
0.0
 30
0.0
  0
VERTEX
  5
55
330
54
100
AcDbEntity
  8
C 2D
100
AcDbVertex
100
AcDb2dVertex
 10
56.39416249939477
 20
27.81299999595627
 30
0.0
  0
VERTEX
  5
56
330
54
100
AcDbEntity
  8
C 2D
100
AcDbVertex
100
AcDb2dVertex
 10
59.57492738688897
 20
27.81299999595627
 30
0.0
  0
VERTEX
  5
57
330
54
100
AcDbEntity
  8
C 2D
100
AcDbVertex
100
AcDb2dVertex
 10
59.56974780400849
 20
25.25062485837897
 30
0.0
  0
SEQEND
  5
58
330
54
100
AcDbEntity
  8
C 2D
  0
SPLINE
  5
59
330
1F
100
AcDbEntity
  8
C 2D
100
AcDbSpline
210
0.0
220
0.0
230
1.0
 70
    24
 71
     2
 72
     6
 73
     3
 74
     0
 42
0.0000000001
 43
0.0000000001
 40
0.0
 40
0.0
 40
0.0
 40
2.450043654332194
 40
2.450043654332194
 40
2.450043654332194
 10
59.56974780400849
 20
25.25062485837897
 30
0.0
 10
58.41020152360369
 20
24.8554283984726
 30
0.0
 10
57.25065524319889
 20
24.46023193856624
 30
0.0
  0
POLYLINE
  5
5A
330
1F
100
AcDbEntity
  8
C 2D
100
AcDb2dPolyline
 66
     1
 10
0.0
 20
0.0
 30
0.0
  0
VERTEX
  5
5B
330
5A
100
AcDbEntity
  8
C 2D
100
AcDbVertex
100
AcDb2dVertex
 10
52.18832885649656
 20
28.00099999595628
 30
0.0
  0
VERTEX
  5
5C
330
5A
100
AcDbEntity
  8
C 2D
100
AcDbVertex
100
AcDb2dVertex
 10
59.57492738688898
 20
28.00099999595627
 30
0.0
  0
SEQEND
  5
5D
330
5A
100
AcDbEntity
  8
C 2D
  0
SPLINE
  5
5E
330
1F
100
AcDbEntity
  8
C 2D
100
AcDbSpline
210
0.0
220
0.0
230
1.0
 70
    24
 71
     2
 72
     6
 73
     3
 74
     0
 42
0.0000000001
 43
0.0000000001
 40
0.0
 40
0.0
 40
0.0
 40
0.1880000000000024
 40
0.1880000000000024
 40
0.1880000000000024
 10
59.57492738688898
 20
28.00099999595627
 30
0.0
 10
59.57492738688897
 20
27.90699999595622
 30
0.0
 10
59.57492738688897
 20
27.81299999595617
 30
0.0
  0
LINE
  5
5F
330
1F
100
AcDbEntity
  8
C 2D
100
AcDbLine
 10
59.57492738688897
 20
27.81299999595617
 30
0.0
 11
52.29817376580812
 21
27.81299999595627
 31
0.0
  0
SPLINE
  5
60
330
1F
100
AcDbEntity
  8
C 2D
100
AcDbSpline
210
0.0
220
0.0
230
1.0
 70
    28
 71
     2
 72
     6
 73
     3
 74
     0
 42
0.0000000001
 43
0.0000000001
 40
-3.141592653589794
 40
-3.141592653589794
 40
-3.141592653589794
 40
-2.25586805153241
 40
-2.25586805153241
 40
-2.25586805153241
 10
52.29817376580812
 20
27.81299999595627
 30
0.0
 41
1.0
 10
52.1771464587332
 20
27.81299999595628
 30
0.0
 41
0.9068261637799945
 10
52.18927099127627
 20
27.81299999595627
 30
0.0
 41
0.9936306632662366
  0
SPLINE
  5
61
330
1F
100
AcDbEntity
  8
C 2D
100
AcDbSpline
210
0.0
220
0.0
230
1.0
 70
    24
 71
     2
 72
     6
 73
     3
 74
     0
 42
0.0000000001
 43
0.0000000001
 40
0.0
 40
0.0
 40
0.0
 40
0.1880000000000024
 40
0.1880000000000024
 40
0.1880000000000024
 10
52.18927099127627
 20
27.81299999595628
 30
0.0
 10
52.18879992388642
 20
27.90699999595628
 30
0.0
 10
52.18832885649656
 20
28.00099999595628
 30
0.0
  0
SPLINE
  5
62
330
1F
100
AcDbEntity
  8
C 2D
100
AcDbSpline
210
0.0
220
0.0
230
1.0
 70
    24
 71
     2
 72
     6
 73
     3
 74
     0
 42
0.0000000001
 43
0.0000000001
 40
0.0
 40
0.0
 40
0.0
 40
27.603445489506
 40
27.603445489506
 40
27.603445489506
 10
55.27180122411375
 20
27.81299999595628
 30
0.0
 10
54.07804634013112
 20
14.06299999595628
 30
0.0
 10
52.88429145614848
 20
0.3129999959562739
 30
0.0
  0
POLYLINE
  5
63
330
1F
100
AcDbEntity
  8
C 2D
100
AcDb2dPolyline
 66
     1
 10
0.0
 20
0.0
 30
0.0
  0
VERTEX
  5
64
330
63
100
AcDbEntity
  8
C 2D
100
AcDbVertex
100
AcDb2dVertex
 10
84.28915276249072
 20
0.3129999959563983
 30
0.0
  0
VERTEX
  5
65
330
63
100
AcDbEntity
  8
C 2D
100
AcDbVertex
100
AcDb2dVertex
 10
81.49832113729332
 20
0.3129999959563974
 30
0.0
  0
SEQEND
  5
66
330
63
100
AcDbEntity
  8
C 2D
  0
SPLINE
  5
67
330
1F
100
AcDbEntity
  8
C 2D
100
AcDbSpline
210
0.0
220
0.0
230
1.0
 70
    24
 71
     2
 72
     6
 73
     3
 74
     0
 42
0.0000000001
 43
0.0000000001
 40
0.0
 40
0.0
 40
0.0
 40
0.1879999959563761
 40
0.1879999959563761
 40
0.1879999959563761
 10
81.49832113729332
 20
0.3129999959563974
 30
0.0
 10
81.49832113729335
 20
0.2189999979782093
 30
0.0
 10
81.49832113729337
 20
0.1250000000000213
 30
0.0
  0
SPLINE
  5
68
330
1F
100
AcDbEntity
  8
C 2D
100
AcDbSpline
210
0.0
220
0.0
230
1.0
 70
    12
 71
     2
 72
     6
 73
     3
 74
     0
 42
0.0000000001
 43
0.0000000001
 40
-0.2086852564238481
 40
-0.2086852564238481
 40
-0.2086852564238481
 40
0.0
 40
0.0
 40
0.0
 10
81.49832113729337
 20
0.1250000000000213
 30
0.0
 41
1.0
 10
81.5098809346248
 20
-0.0049944862320145
 30
0.0
 41
0.724703925400524
 10
81.6402927840571
 20
0.0
 30
0.0
 41
1.0
  0
SPLINE
  5
69
330
1F
100
AcDbEntity
  8
C 2D
100
AcDbSpline
210
0.0
220
0.0
230
1.0
 70
    24
 71
     2
 72
     6
 73
     3
 74
     0
 42
0.0000000001
 43
0.0000000001
 40
0.0
 40
0.0
 40
0.0
 40
2.52289713806227
 40
2.52289713806227
 40
2.52289713806227
 10
81.6402927840571
 20
0.0
 30
0.0
 10
82.90206103867303
 20
0.0000000000012587
 30
0.0
 10
84.16382929328896
 20
0.0000000000025173
 30
0.0
  0
SPLINE
  5
6A
330
1F
100
AcDbEntity
  8
C 2D
100
AcDbSpline
210
0.0
220
0.0
230
1.0
 70
    12
 71
     2
 72
     6
 73
     3
 74
     0
 42
0.0000000001
 43
0.0000000001
 40
0.0
 40
0.0
 40
0.0
 40
0.1962284577300907
 40
0.1962284577300907
 40
0.1962284577300907
 10
84.16382929328896
 20
0.0000000000025173
 30
0.0
 41
1.0
 10
84.28908917524322
 20
0.0003790246453092
 30
0.0
 41
0.7094608718397355
 10
84.28934718493687
 20
0.125
 30
0.0
 41
0.9999976805327707
  0
SPLINE
  5
6B
330
1F
100
AcDbEntity
  8
C 2D
100
AcDbSpline
210
0.0
220
0.0
230
1.0
 70
    24
 71
     2
 72
     6
 73
     3
 74
     0
 42
0.0000000001
 43
0.0000000001
 40
0.0
 40
0.0
 40
0.0
 40
0.1879999959563983
 40
0.1879999959563983
 40
0.1879999959563983
 10
84.28934718493687
 20
0.125
 30
0.0
 10
84.2892499737138
 20
0.2189999979781991
 30
0.0
 10
84.28915276249072
 20
0.3129999959563983
 30
0.0
  0
POLYLINE
  5
6C
330
1F
100
AcDbEntity
  8
C 2D
100
AcDb2dPolyline
 66
     1
 10
0.0
 20
0.0
 30
0.0
  0
VERTEX
  5
6D
330
6C
100
AcDbEntity
  8
C 2D
100
AcDbVertex
100
AcDb2dVertex
 10
81.99539299452795
 20
27.81299999595628
 30
0.0
  0
VERTEX
  5
6E
330
6C
100
AcDbEntity
  8
C 2D
100
AcDbVertex
100
AcDb2dVertex
 10
79.65742041667986
 20
27.81299999595628
 30
0.0
  0
SEQEND
  5
6F
330
6C
100
AcDbEntity
  8
C 2D
  0
SPLINE
  5
70
330
1F
100
AcDbEntity
  8
C 2D
100
AcDbSpline
210
0.0
220
0.0
230
1.0
 70
    24
 71
     2
 72
     6
 73
     3
 74
     0
 42
0.0000000001
 43
0.0000000001
 40
-3.031131383519992
 40
-3.031131383519992
 40
-3.031131383519992
 40
0.0
 40
0.0
 40
0.0
 10
79.65742041667986
 20
27.81299999595628
 30
0.0
 10
79.65352637109248
 20
26.29740050193514
 30
0.0
 10
79.64963232550511
 20
24.78180100791401
 30
0.0
  0
SPLINE
  5
71
330
1F
100
AcDbEntity
  8
C 2D
100
AcDbSpline
210
0.0
220
0.0
230
1.0
 70
    12
 71
     2
 72
     6
 73
     3
 74
     0
 42
0.0000000001
 43
0.0000000001
 40
-0.3433114792523052
 40
-0.3433114792523052
 40
-0.3433114792523052
 40
0.0
 40
0.0
 40
0.0
 10
79.64963232550511
 20
24.78180100791401
 30
0.0
 41
0.9997583392229558
 10
79.64899819721926
 20
24.57323233966721
 30
0.0
 41
0.7548305167534196
 10
79.4985469111308
 20
24.54421598638542
 30
0.0
 41
1.0
  0
SPLINE
  5
72
330
1F
100
AcDbEntity
  8
C 2D
100
AcDbSpline
210
0.0
220
0.0
230
1.0
 70
    24
 71
     2
 72
     6
 73
     3
 74
     0
 42
0.0000000001
 43
0.0000000001
 40
-0.7517321041836429
 40
-0.7517321041836429
 40
-0.7517321041836429
 40
0.0
 40
0.0
 40
0.0
 10
79.4985469111308
 20
24.54421598638542
 30
0.0
 10
79.12948202380416
 20
24.47303735154557
 30
0.0
 10
78.76041713647751
 20
24.40185871670573
 30
0.0
  0
SPLINE
  5
73
330
1F
100
AcDbEntity
  8
C 2D
100
AcDbSpline
210
0.0
220
0.0
230
1.0
 70
    24
 71
     2
 72
     6
 73
     3
 74
     0
 42
0.0000000001
 43
0.0000000001
 40
-24.22511143972562
 40
-24.22511143972562
 40
-24.22511143972562
 40
0.0
 40
0.0
 40
0.0
 10
78.76041713647751
 20
24.40185871670573
 30
0.0
 10
80.04327622839861
 20
12.35742935633101
 30
0.0
 10
81.32613532031971
 20
0.3129999959562819
 30
0.0
  0
LINE
  5
74
330
1F
100
AcDbEntity
  8
C 2D
100
AcDbLine
 10
81.32613532031971
 20
0.3129999959562819
 30
0.0
 11
84.38288206111679
 21
0.3131192180544369
 31
0.0
  0
SPLINE
  5
75
330
1F
100
AcDbEntity
  8
C 2D
100
AcDbSpline
210
0.0
220
0.0
230
1.0
 70
    24
 71
     2
 72
     6
 73
     3
 74
     0
 42
0.0000000001
 43
0.0000000001
 40
0.0
 40
0.0
 40
0.0
 40
27.60320614836507
 40
27.60320614836507
 40
27.60320614836507
 10
84.38288206111679
 20
0.3131192180544369
 30
0.0
 10
83.18913752782237
 20
14.06305960700536
 30
0.0
 10
81.99539299452795
 20
27.81299999595628
 30
0.0
  0
SPLINE
  5
76
330
1F
100
AcDbEntity
  8
C 2D
100
AcDbSpline
210
0.0
220
0.0
230
1.0
 70
    24
 71
     2
 72
     6
 73
     3
 74
     0
 42
0.0000000001
 43
0.0000000001
 40
0.0
 40
0.0
 40
0.0
 40
0.7522455994824915
 40
0.7522455994824915
 40
0.7522455994824915
 10
78.752631230361
 20
24.46023193856624
 30
0.0
 10
79.12194155879098
 20
24.5314937221542
 30
0.0
 10
79.49125188722095
 20
24.60275550574216
 30
0.0
  0
SPLINE
  5
77
330
1F
100
AcDbEntity
  8
C 2D
100
AcDbSpline
210
0.0
220
0.0
230
1.0
 70
    12
 71
     2
 72
     6
 73
     3
 74
     0
 42
0.0000000001
 43
0.0000000001
 40
0.0
 40
0.0
 40
0.0
 40
0.23743127559879
 40
0.23743127559879
 40
0.23743127559879
 10
79.49125188722095
 20
24.60275550574216
 30
0.0
 41
1.0
 10
79.6230804074438
 20
24.64968949810895
 30
0.0
 41
0.7873276640512697
 10
79.6091239741651
 20
24.78892590266527
 30
0.0
 41
1.0
  0
SPLINE
  5
78
330
1F
100
AcDbEntity
  8
C 2D
100
AcDbSpline
210
0.0
220
0.0
230
1.0
 70
    24
 71
     2
 72
     6
 73
     3
 74
     0
 42
0.0000000001
 43
0.0000000001
 40
0.0
 40
0.0
 40
0.0
 40
3.024074093290999
 40
3.024074093290999
 40
3.024074093290999
 10
79.6091239741651
 20
24.78892590266527
 30
0.0
 10
79.6091239741651
 20
26.30096294931077
 30
0.0
 10
79.6091239741651
 20
27.81299999595627
 30
0.0
  0
POLYLINE
  5
79
330
1F
100
AcDbEntity
  8
C 2D
100
AcDb2dPolyline
 66
     1
 10
0.0
 20
0.0
 30
0.0
  0
VERTEX
  5
7A
330
79
100
AcDbEntity
  8
C 2D
100
AcDbVertex
100
AcDb2dVertex
 10
79.6091239741651
 20
27.81299999595627
 30
0.0
  0
VERTEX
  5
7B
330
79
100
AcDbEntity
  8
C 2D
100
AcDbVertex
100
AcDb2dVertex
 10
76.42835908667091
 20
27.81299999595627
 30
0.0
  0
VERTEX
  5
7C
330
79
100
AcDbEntity
  8
C 2D
100
AcDbVertex
100
AcDb2dVertex
 10
76.4335386695514
 20
25.25062485837897
 30
0.0
  0
SEQEND
  5
7D
330
79
100
AcDbEntity
  8
C 2D
  0
SPLINE
  5
7E
330
1F
100
AcDbEntity
  8
C 2D
100
AcDbSpline
210
0.0
220
0.0
230
1.0
 70
    24
 71
     2
 72
     6
 73
     3
 74
     0
 42
0.0000000001
 43
0.0000000001
 40
0.0
 40
0.0
 40
0.0
 40
2.450043654332194
 40
2.450043654332194
 40
2.450043654332194
 10
76.4335386695514
 20
25.25062485837897
 30
0.0
 10
77.5930849499562
 20
24.8554283984726
 30
0.0
 10
78.752631230361
 20
24.46023193856624
 30
0.0
  0
POLYLINE
  5
7F
330
1F
100
AcDbEntity
  8
C 2D
100
AcDb2dPolyline
 66
     1
 10
0.0
 20
0.0
 30
0.0
  0
VERTEX
  5
80
330
7F
100
AcDbEntity
  8
C 2D
100
AcDbVertex
100
AcDb2dVertex
 10
83.81495761706333
 20
28.00099999595628
 30
0.0
  0
VERTEX
  5
81
330
7F
100
AcDbEntity
  8
C 2D
100
AcDbVertex
100
AcDb2dVertex
 10
76.4283590866709
 20
28.00099999595627
 30
0.0
  0
SEQEND
  5
82
330
7F
100
AcDbEntity
  8
C 2D
  0
SPLINE
  5
83
330
1F
100
AcDbEntity
  8
C 2D
100
AcDbSpline
210
0.0
220
0.0
230
1.0
 70
    24
 71
     2
 72
     6
 73
     3
 74
     0
 42
0.0000000001
 43
0.0000000001
 40
0.0
 40
0.0
 40
0.0
 40
0.1880000000000024
 40
0.1880000000000024
 40
0.1880000000000024
 10
76.4283590866709
 20
28.00099999595627
 30
0.0
 10
76.4283590866709
 20
27.90699999595622
 30
0.0
 10
76.42835908667091
 20
27.81299999595617
 30
0.0
  0
LINE
  5
84
330
1F
100
AcDbEntity
  8
C 2D
100
AcDbLine
 10
76.42835908667091
 20
27.81299999595617
 30
0.0
 11
83.70511270775177
 21
27.81299999595627
 31
0.0
  0
SPLINE
  5
85
330
1F
100
AcDbEntity
  8
C 2D
100
AcDbSpline
210
0.0
220
0.0
230
1.0
 70
    28
 71
     2
 72
     6
 73
     3
 74
     0
 42
0.0000000001
 43
0.0000000001
 40
-3.141592653589794
 40
-3.141592653589794
 40
-3.141592653589794
 40
-2.25586805153241
 40
-2.25586805153241
 40
-2.25586805153241
 10
83.70511270775177
 20
27.81299999595627
 30
0.0
 41
1.0
 10
83.82614001482668
 20
27.81299999595628
 30
0.0
 41
0.9068261637799945
 10
83.81401548228362
 20
27.81299999595627
 30
0.0
 41
0.9936306632662366
  0
SPLINE
  5
86
330
1F
100
AcDbEntity
  8
C 2D
100
AcDbSpline
210
0.0
220
0.0
230
1.0
 70
    24
 71
     2
 72
     6
 73
     3
 74
     0
 42
0.0000000001
 43
0.0000000001
 40
0.0
 40
0.0
 40
0.0
 40
0.1880000000000024
 40
0.1880000000000024
 40
0.1880000000000024
 10
83.81401548228361
 20
27.81299999595628
 30
0.0
 10
83.81448654967346
 20
27.90699999595628
 30
0.0
 10
83.81495761706333
 20
28.00099999595628
 30
0.0
  0
SPLINE
  5
87
330
1F
100
AcDbEntity
  8
C 2D
100
AcDbSpline
210
0.0
220
0.0
230
1.0
 70
    24
 71
     2
 72
     6
 73
     3
 74
     0
 42
0.0000000001
 43
0.0000000001
 40
0.0
 40
0.0
 40
0.0
 40
27.603445489506
 40
27.603445489506
 40
27.603445489506
 10
80.73148524944614
 20
27.81299999595628
 30
0.0
 10
81.92524013342877
 20
14.06299999595628
 30
0.0
 10
83.11899501741141
 20
0.3129999959562739
 30
0.0
  0
CIRCLE
  5
88
330
1F
100
AcDbEntity
  8
C 2D
100
AcDbCircle
 10
-0.0000000000000057
 20
73.00099999595626
 30
0.0
 40
23.99999999999998
  0
SPLINE
  5
89
330
1F
100
AcDbEntity
  8
C 2D
100
AcDbSpline
210
0.0
220
0.0
230
1.0
 70
    11
 71
     2
 72
    22
 73
    19
 74
     0
 42
0.0000000001
 43
0.0000000001
 40
-4284.609917693162
 40
-4284.609917693162
 40
-4284.609917693162
 40
-4284.296917693163
 40
-4284.296917693163
 40
-4282.676836352272
 40
-4282.676836352272
 40
-4282.650112606662
 40
-4282.650112606662
 40
-4243.650112606662
 40
-4243.650112606662
 40
-4243.62338886106
 40
-4243.62338886106
 40
-4242.003307520169
 40
-4242.003307520169
 40
-4241.690307520005
 40
-4241.690307520005
 40
-4201.190307520005
 40
-4201.190307520005
 40
-4199.690307520005
 40
-4199.690307520005
 40
-4199.690307520005
 10
-24.00082161839005
 20
29.00099999595627
 30
0.0
 10
-23.99957563851287
 20
28.84391898599795
 30
0.0
 10
-23.99832965863569
 20
28.68683797603962
 30
0.0
 10
-23.26293751131767
 20
28.34391898599826
 30
0.0
 10
-22.52754536399966
 20
28.00099999595691
 30
0.0
 10
-22.51418349119481
 20
28.00099999595691
 30
0.0
 10
-22.50082161838997
 20
28.00099999595691
 30
0.0
 10
0.0
 20
28.00099999595691
 30
0.0
 10
22.50082161838997
 20
28.00099999595691
 30
0.0
 10
22.51418349119142
 20
28.00099999595573
 30
0.0
 10
22.52754536399287
 20
28.00099999595454
 30
0.0
 10
23.2629375112763
 20
28.3439189859383
 30
0.0
 10
23.99832965855973
 20
28.68683797592205
 30
0.0
 10
23.99957563847485
 20
28.84391898593916
 30
0.0
 10
24.00082161838997
 20
29.00099999595627
 30
0.0
 10
0.75
 20
29.00099999595627
 30
0.0
 10
-22.50082161838997
 20
29.00099999595627
 30
0.0
 10
-23.25082161839001
 20
29.00099999595627
 30
0.0
 10
-24.00082161839005
 20
29.00099999595627
 30
0.0
  0
SPLINE
  5
8A
330
1F
100
AcDbEntity
  8
C 2D
100
AcDbSpline
210
0.0
220
0.0
230
1.0
 70
    11
 71
     2
 72
    16
 73
    13
 74
     0
 42
0.0000000001
 43
0.0000000001
 40
-2354.065762023832
 40
-2354.065762023832
 40
-2354.065762023832
 40
-2352.173219604286
 40
-2352.173219604286
 40
-2331.200247111346
 40
-2331.200247111346
 40
-2328.449728788283
 40
-2328.449728788283
 40
-2305.586497407893
 40
-2305.586497407893
 40
-2303.023997407893
 40
-2303.023997407893
 40
-2302.835997390524
 40
-2302.835997390524
 40
-2302.835997390524
 10
8.431976242934175
 20
28.00099999595682
 30
0.0
 10
7.485705033161024
 20
28.00099999595687
 30
0.0
 10
6.539433823387874
 20
28.00099999595691
 30
0.0
 10
-0.9462308046918064
 20
28.00099999595701
 30
0.0
 10
-8.431895432771487
 20
28.0009999959571
 30
0.0
 10
-8.431895432771471
 20
26.62587485837938
 30
0.0
 10
-8.431895432771455
 20
25.25074972080166
 30
0.0
 10
-0.0005506804830357
 20
25.25074972080166
 30
0.0
 10
8.430794071805384
 20
25.25074972080166
 30
0.0
 10
8.43134475228842
 20
26.53187485837897
 30
0.0
 10
8.431895432771455
 20
27.81299999595627
 30
0.0
 10
8.431935837852816
 20
27.90699999595655
 30
0.0
 10
8.431976242934175
 20
28.00099999595682
 30
0.0
  0
POLYLINE
  5
8B
330
1F
100
AcDbEntity
  8
C 2D
100
AcDb2dPolyline
 66
     1
 10
0.0
 20
0.0
 30
0.0
  0
VERTEX
  5
8C
330
8B
100
AcDbEntity
  8
C 2D
100
AcDbVertex
100
AcDb2dVertex
 10
16.28750952571077
 20
0.3129999959563983
 30
0.0
  0
VERTEX
  5
8D
330
8B
100
AcDbEntity
  8
C 2D
100
AcDbVertex
100
AcDb2dVertex
 10
13.49667790051338
 20
0.3129999959563974
 30
0.0
  0
SEQEND
  5
8E
330
8B
100
AcDbEntity
  8
C 2D
  0
SPLINE
  5
8F
330
1F
100
AcDbEntity
  8
C 2D
100
AcDbSpline
210
0.0
220
0.0
230
1.0
 70
    24
 71
     2
 72
     6
 73
     3
 74
     0
 42
0.0000000001
 43
0.0000000001
 40
0.0
 40
0.0
 40
0.0
 40
0.1879999959563761
 40
0.1879999959563761
 40
0.1879999959563761
 10
13.49667790051338
 20
0.3129999959563974
 30
0.0
 10
13.4966779005134
 20
0.2189999979782093
 30
0.0
 10
13.49667790051343
 20
0.1250000000000213
 30
0.0
  0
SPLINE
  5
90
330
1F
100
AcDbEntity
  8
C 2D
100
AcDbSpline
210
0.0
220
0.0
230
1.0
 70
    12
 71
     2
 72
     6
 73
     3
 74
     0
 42
0.0000000001
 43
0.0000000001
 40
-0.2086852564238481
 40
-0.2086852564238481
 40
-0.2086852564238481
 40
0.0
 40
0.0
 40
0.0
 10
13.49667790051343
 20
0.1250000000000213
 30
0.0
 41
1.0
 10
13.50823769784485
 20
-0.0049944862320145
 30
0.0
 41
0.724703925400524
 10
13.63864954727715
 20
0.0
 30
0.0
 41
1.0
  0
SPLINE
  5
91
330
1F
100
AcDbEntity
  8
C 2D
100
AcDbSpline
210
0.0
220
0.0
230
1.0
 70
    24
 71
     2
 72
     6
 73
     3
 74
     0
 42
0.0000000001
 43
0.0000000001
 40
0.0
 40
0.0
 40
0.0
 40
2.52289713806227
 40
2.52289713806227
 40
2.52289713806227
 10
13.63864954727715
 20
0.0
 30
0.0
 10
14.90041780189308
 20
0.0000000000012587
 30
0.0
 10
16.16218605650901
 20
0.0000000000025173
 30
0.0
  0
SPLINE
  5
92
330
1F
100
AcDbEntity
  8
C 2D
100
AcDbSpline
210
0.0
220
0.0
230
1.0
 70
    12
 71
     2
 72
     6
 73
     3
 74
     0
 42
0.0000000001
 43
0.0000000001
 40
0.0
 40
0.0
 40
0.0
 40
0.1962284577300907
 40
0.1962284577300907
 40
0.1962284577300907
 10
16.16218605650901
 20
0.0000000000025173
 30
0.0
 41
1.0
 10
16.28744593846329
 20
0.0003790246453092
 30
0.0
 41
0.7094608718397355
 10
16.28770394815694
 20
0.125
 30
0.0
 41
0.9999976805327707
  0
SPLINE
  5
93
330
1F
100
AcDbEntity
  8
C 2D
100
AcDbSpline
210
0.0
220
0.0
230
1.0
 70
    24
 71
     2
 72
     6
 73
     3
 74
     0
 42
0.0000000001
 43
0.0000000001
 40
0.0
 40
0.0
 40
0.0
 40
0.1879999959563983
 40
0.1879999959563983
 40
0.1879999959563983
 10
16.28770394815694
 20
0.125
 30
0.0
 10
16.28760673693385
 20
0.2189999979781991
 30
0.0
 10
16.28750952571077
 20
0.3129999959563983
 30
0.0
  0
POLYLINE
  5
94
330
1F
100
AcDbEntity
  8
C 2D
100
AcDb2dPolyline
 66
     1
 10
0.0
 20
0.0
 30
0.0
  0
VERTEX
  5
95
330
94
100
AcDbEntity
  8
C 2D
100
AcDbVertex
100
AcDb2dVertex
 10
13.99374975774801
 20
27.81299999595628
 30
0.0
  0
VERTEX
  5
96
330
94
100
AcDbEntity
  8
C 2D
100
AcDbVertex
100
AcDb2dVertex
 10
11.65577717989992
 20
27.81299999595628
 30
0.0
  0
SEQEND
  5
97
330
94
100
AcDbEntity
  8
C 2D
  0
SPLINE
  5
98
330
1F
100
AcDbEntity
  8
C 2D
100
AcDbSpline
210
0.0
220
0.0
230
1.0
 70
    24
 71
     2
 72
     6
 73
     3
 74
     0
 42
0.0000000001
 43
0.0000000001
 40
-3.031131383519992
 40
-3.031131383519992
 40
-3.031131383519992
 40
0.0
 40
0.0
 40
0.0
 10
11.65577717989992
 20
27.81299999595628
 30
0.0
 10
11.65188313431254
 20
26.29740050193514
 30
0.0
 10
11.64798908872516
 20
24.78180100791401
 30
0.0
  0
SPLINE
  5
99
330
1F
100
AcDbEntity
  8
C 2D
100
AcDbSpline
210
0.0
220
0.0
230
1.0
 70
    12
 71
     2
 72
     6
 73
     3
 74
     0
 42
0.0000000001
 43
0.0000000001
 40
-0.3433114792523052
 40
-0.3433114792523052
 40
-0.3433114792523052
 40
0.0
 40
0.0
 40
0.0
 10
11.64798908872516
 20
24.78180100791401
 30
0.0
 41
0.9997583392229558
 10
11.64735496043932
 20
24.57323233966721
 30
0.0
 41
0.7548305167534196
 10
11.49690367435085
 20
24.54421598638542
 30
0.0
 41
1.0
  0
SPLINE
  5
9A
330
1F
100
AcDbEntity
  8
C 2D
100
AcDbSpline
210
0.0
220
0.0
230
1.0
 70
    24
 71
     2
 72
     6
 73
     3
 74
     0
 42
0.0000000001
 43
0.0000000001
 40
-0.7517321041836429
 40
-0.7517321041836429
 40
-0.7517321041836429
 40
0.0
 40
0.0
 40
0.0
 10
11.49690367435085
 20
24.54421598638542
 30
0.0
 10
11.12783878702421
 20
24.47303735154557
 30
0.0
 10
10.75877389969757
 20
24.40185871670573
 30
0.0
  0
SPLINE
  5
9B
330
1F
100
AcDbEntity
  8
C 2D
100
AcDbSpline
210
0.0
220
0.0
230
1.0
 70
    24
 71
     2
 72
     6
 73
     3
 74
     0
 42
0.0000000001
 43
0.0000000001
 40
-24.22511143972562
 40
-24.22511143972562
 40
-24.22511143972562
 40
0.0
 40
0.0
 40
0.0
 10
10.75877389969757
 20
24.40185871670573
 30
0.0
 10
12.04163299161866
 20
12.35742935633101
 30
0.0
 10
13.32449208353976
 20
0.3129999959562819
 30
0.0
  0
LINE
  5
9C
330
1F
100
AcDbEntity
  8
C 2D
100
AcDbLine
 10
13.32449208353976
 20
0.3129999959562819
 30
0.0
 11
16.38123882433685
 21
0.3131192180544369
 31
0.0
  0
SPLINE
  5
9D
330
1F
100
AcDbEntity
  8
C 2D
100
AcDbSpline
210
0.0
220
0.0
230
1.0
 70
    24
 71
     2
 72
     6
 73
     3
 74
     0
 42
0.0000000001
 43
0.0000000001
 40
0.0
 40
0.0
 40
0.0
 40
27.60320614836507
 40
27.60320614836507
 40
27.60320614836507
 10
16.38123882433685
 20
0.3131192180544369
 30
0.0
 10
15.18749429104243
 20
14.06305960700536
 30
0.0
 10
13.99374975774801
 20
27.81299999595628
 30
0.0
  0
SPLINE
  5
9E
330
1F
100
AcDbEntity
  8
C 2D
100
AcDbSpline
210
0.0
220
0.0
230
1.0
 70
    24
 71
     2
 72
     6
 73
     3
 74
     0
 42
0.0000000001
 43
0.0000000001
 40
0.0
 40
0.0
 40
0.0
 40
0.7522455994824915
 40
0.7522455994824915
 40
0.7522455994824915
 10
10.75098799358106
 20
24.46023193856624
 30
0.0
 10
11.12029832201103
 20
24.5314937221542
 30
0.0
 10
11.48960865044101
 20
24.60275550574216
 30
0.0
  0
SPLINE
  5
9F
330
1F
100
AcDbEntity
  8
C 2D
100
AcDbSpline
210
0.0
220
0.0
230
1.0
 70
    12
 71
     2
 72
     6
 73
     3
 74
     0
 42
0.0000000001
 43
0.0000000001
 40
0.0
 40
0.0
 40
0.0
 40
0.23743127559879
 40
0.23743127559879
 40
0.23743127559879
 10
11.48960865044101
 20
24.60275550574216
 30
0.0
 41
1.0
 10
11.62143717066386
 20
24.64968949810895
 30
0.0
 41
0.7873276640512697
 10
11.60748073738517
 20
24.78892590266527
 30
0.0
 41
1.0
  0
SPLINE
  5
A0
330
1F
100
AcDbEntity
  8
C 2D
100
AcDbSpline
210
0.0
220
0.0
230
1.0
 70
    24
 71
     2
 72
     6
 73
     3
 74
     0
 42
0.0000000001
 43
0.0000000001
 40
0.0
 40
0.0
 40
0.0
 40
3.024074093290999
 40
3.024074093290999
 40
3.024074093290999
 10
11.60748073738517
 20
24.78892590266527
 30
0.0
 10
11.60748073738517
 20
26.30096294931077
 30
0.0
 10
11.60748073738517
 20
27.81299999595627
 30
0.0
  0
POLYLINE
  5
A1
330
1F
100
AcDbEntity
  8
C 2D
100
AcDb2dPolyline
 66
     1
 10
0.0
 20
0.0
 30
0.0
  0
VERTEX
  5
A2
330
A1
100
AcDbEntity
  8
C 2D
100
AcDbVertex
100
AcDb2dVertex
 10
11.60748073738517
 20
27.81299999595627
 30
0.0
  0
VERTEX
  5
A3
330
A1
100
AcDbEntity
  8
C 2D
100
AcDbVertex
100
AcDb2dVertex
 10
8.426715849890968
 20
27.81299999595627
 30
0.0
  0
VERTEX
  5
A4
330
A1
100
AcDbEntity
  8
C 2D
100
AcDbVertex
100
AcDb2dVertex
 10
8.431895432771455
 20
25.25062485837897
 30
0.0
  0
SEQEND
  5
A5
330
A1
100
AcDbEntity
  8
C 2D
  0
SPLINE
  5
A6
330
1F
100
AcDbEntity
  8
C 2D
100
AcDbSpline
210
0.0
220
0.0
230
1.0
 70
    24
 71
     2
 72
     6
 73
     3
 74
     0
 42
0.0000000001
 43
0.0000000001
 40
0.0
 40
0.0
 40
0.0
 40
2.450043654332194
 40
2.450043654332194
 40
2.450043654332194
 10
8.431895432771455
 20
25.25062485837897
 30
0.0
 10
9.591441713176255
 20
24.8554283984726
 30
0.0
 10
10.75098799358106
 20
24.46023193856624
 30
0.0
  0
POLYLINE
  5
A7
330
1F
100
AcDbEntity
  8
C 2D
100
AcDb2dPolyline
 66
     1
 10
0.0
 20
0.0
 30
0.0
  0
VERTEX
  5
A8
330
A7
100
AcDbEntity
  8
C 2D
100
AcDbVertex
100
AcDb2dVertex
 10
15.81331438028338
 20
28.00099999595628
 30
0.0
  0
VERTEX
  5
A9
330
A7
100
AcDbEntity
  8
C 2D
100
AcDbVertex
100
AcDb2dVertex
 10
8.426715849890961
 20
28.00099999595627
 30
0.0
  0
SEQEND
  5
AA
330
A7
100
AcDbEntity
  8
C 2D
  0
SPLINE
  5
AB
330
1F
100
AcDbEntity
  8
C 2D
100
AcDbSpline
210
0.0
220
0.0
230
1.0
 70
    24
 71
     2
 72
     6
 73
     3
 74
     0
 42
0.0000000001
 43
0.0000000001
 40
0.0
 40
0.0
 40
0.0
 40
0.1880000000000024
 40
0.1880000000000024
 40
0.1880000000000024
 10
8.426715849890961
 20
28.00099999595627
 30
0.0
 10
8.426715849890964
 20
27.90699999595622
 30
0.0
 10
8.426715849890968
 20
27.81299999595617
 30
0.0
  0
LINE
  5
AC
330
1F
100
AcDbEntity
  8
C 2D
100
AcDbLine
 10
8.426715849890968
 20
27.81299999595617
 30
0.0
 11
15.70346947097182
 21
27.81299999595627
 31
0.0
  0
SPLINE
  5
AD
330
1F
100
AcDbEntity
  8
C 2D
100
AcDbSpline
210
0.0
220
0.0
230
1.0
 70
    28
 71
     2
 72
     6
 73
     3
 74
     0
 42
0.0000000001
 43
0.0000000001
 40
-3.141592653589794
 40
-3.141592653589794
 40
-3.141592653589794
 40
-2.25586805153241
 40
-2.25586805153241
 40
-2.25586805153241
 10
15.70346947097182
 20
27.81299999595627
 30
0.0
 41
1.0
 10
15.82449677804674
 20
27.81299999595628
 30
0.0
 41
0.9068261637799945
 10
15.81237224550367
 20
27.81299999595627
 30
0.0
 41
0.9936306632662366
  0
SPLINE
  5
AE
330
1F
100
AcDbEntity
  8
C 2D
100
AcDbSpline
210
0.0
220
0.0
230
1.0
 70
    24
 71
     2
 72
     6
 73
     3
 74
     0
 42
0.0000000001
 43
0.0000000001
 40
0.0
 40
0.0
 40
0.0
 40
0.1880000000000024
 40
0.1880000000000024
 40
0.1880000000000024
 10
15.81237224550367
 20
27.81299999595628
 30
0.0
 10
15.81284331289352
 20
27.90699999595628
 30
0.0
 10
15.81331438028338
 20
28.00099999595628
 30
0.0
  0
SPLINE
  5
AF
330
1F
100
AcDbEntity
  8
C 2D
100
AcDbSpline
210
0.0
220
0.0
230
1.0
 70
    24
 71
     2
 72
     6
 73
     3
 74
     0
 42
0.0000000001
 43
0.0000000001
 40
0.0
 40
0.0
 40
0.0
 40
27.603445489506
 40
27.603445489506
 40
27.603445489506
 10
12.72984201266619
 20
27.81299999595628
 30
0.0
 10
13.92359689664882
 20
14.06299999595628
 30
0.0
 10
15.11735178063146
 20
0.3129999959562739
 30
0.0
  0
POLYLINE
  5
B0
330
1F
100
AcDbEntity
  8
C 2D
100
AcDb2dPolyline
 66
     1
 10
0.0
 20
0.0
 30
0.0
  0
VERTEX
  5
B1
330
B0
100
AcDbEntity
  8
C 2D
100
AcDbVertex
100
AcDb2dVertex
 10
-16.28750952571077
 20
0.3129999959563983
 30
0.0
  0
VERTEX
  5
B2
330
B0
100
AcDbEntity
  8
C 2D
100
AcDbVertex
100
AcDb2dVertex
 10
-13.49667790051338
 20
0.3129999959563974
 30
0.0
  0
SEQEND
  5
B3
330
B0
100
AcDbEntity
  8
C 2D
  0
SPLINE
  5
B4
330
1F
100
AcDbEntity
  8
C 2D
100
AcDbSpline
210
0.0
220
0.0
230
1.0
 70
    24
 71
     2
 72
     6
 73
     3
 74
     0
 42
0.0000000001
 43
0.0000000001
 40
0.0
 40
0.0
 40
0.0
 40
0.1879999959563761
 40
0.1879999959563761
 40
0.1879999959563761
 10
-13.49667790051338
 20
0.3129999959563974
 30
0.0
 10
-13.4966779005134
 20
0.2189999979782093
 30
0.0
 10
-13.49667790051343
 20
0.1250000000000213
 30
0.0
  0
SPLINE
  5
B5
330
1F
100
AcDbEntity
  8
C 2D
100
AcDbSpline
210
0.0
220
0.0
230
1.0
 70
    12
 71
     2
 72
     6
 73
     3
 74
     0
 42
0.0000000001
 43
0.0000000001
 40
-0.2086852564238481
 40
-0.2086852564238481
 40
-0.2086852564238481
 40
0.0
 40
0.0
 40
0.0
 10
-13.49667790051343
 20
0.1250000000000213
 30
0.0
 41
1.0
 10
-13.50823769784485
 20
-0.0049944862320145
 30
0.0
 41
0.724703925400524
 10
-13.63864954727715
 20
0.0
 30
0.0
 41
1.0
  0
SPLINE
  5
B6
330
1F
100
AcDbEntity
  8
C 2D
100
AcDbSpline
210
0.0
220
0.0
230
1.0
 70
    24
 71
     2
 72
     6
 73
     3
 74
     0
 42
0.0000000001
 43
0.0000000001
 40
0.0
 40
0.0
 40
0.0
 40
2.52289713806227
 40
2.52289713806227
 40
2.52289713806227
 10
-13.63864954727715
 20
0.0
 30
0.0
 10
-14.90041780189308
 20
0.0000000000012587
 30
0.0
 10
-16.16218605650901
 20
0.0000000000025173
 30
0.0
  0
SPLINE
  5
B7
330
1F
100
AcDbEntity
  8
C 2D
100
AcDbSpline
210
0.0
220
0.0
230
1.0
 70
    12
 71
     2
 72
     6
 73
     3
 74
     0
 42
0.0000000001
 43
0.0000000001
 40
0.0
 40
0.0
 40
0.0
 40
0.1962284577300907
 40
0.1962284577300907
 40
0.1962284577300907
 10
-16.16218605650901
 20
0.0000000000025173
 30
0.0
 41
1.0
 10
-16.28744593846329
 20
0.0003790246453092
 30
0.0
 41
0.7094608718397355
 10
-16.28770394815694
 20
0.125
 30
0.0
 41
0.9999976805327707
  0
SPLINE
  5
B8
330
1F
100
AcDbEntity
  8
C 2D
100
AcDbSpline
210
0.0
220
0.0
230
1.0
 70
    24
 71
     2
 72
     6
 73
     3
 74
     0
 42
0.0000000001
 43
0.0000000001
 40
0.0
 40
0.0
 40
0.0
 40
0.1879999959563983
 40
0.1879999959563983
 40
0.1879999959563983
 10
-16.28770394815694
 20
0.125
 30
0.0
 10
-16.28760673693385
 20
0.2189999979781991
 30
0.0
 10
-16.28750952571077
 20
0.3129999959563983
 30
0.0
  0
POLYLINE
  5
B9
330
1F
100
AcDbEntity
  8
C 2D
100
AcDb2dPolyline
 66
     1
 10
0.0
 20
0.0
 30
0.0
  0
VERTEX
  5
BA
330
B9
100
AcDbEntity
  8
C 2D
100
AcDbVertex
100
AcDb2dVertex
 10
-13.99374975774801
 20
27.81299999595628
 30
0.0
  0
VERTEX
  5
BB
330
B9
100
AcDbEntity
  8
C 2D
100
AcDbVertex
100
AcDb2dVertex
 10
-11.65577717989992
 20
27.81299999595628
 30
0.0
  0
SEQEND
  5
BC
330
B9
100
AcDbEntity
  8
C 2D
  0
SPLINE
  5
BD
330
1F
100
AcDbEntity
  8
C 2D
100
AcDbSpline
210
0.0
220
0.0
230
1.0
 70
    24
 71
     2
 72
     6
 73
     3
 74
     0
 42
0.0000000001
 43
0.0000000001
 40
-3.031131383519992
 40
-3.031131383519992
 40
-3.031131383519992
 40
0.0
 40
0.0
 40
0.0
 10
-11.65577717989992
 20
27.81299999595628
 30
0.0
 10
-11.65188313431254
 20
26.29740050193514
 30
0.0
 10
-11.64798908872516
 20
24.78180100791401
 30
0.0
  0
SPLINE
  5
BE
330
1F
100
AcDbEntity
  8
C 2D
100
AcDbSpline
210
0.0
220
0.0
230
1.0
 70
    12
 71
     2
 72
     6
 73
     3
 74
     0
 42
0.0000000001
 43
0.0000000001
 40
-0.3433114792523052
 40
-0.3433114792523052
 40
-0.3433114792523052
 40
0.0
 40
0.0
 40
0.0
 10
-11.64798908872516
 20
24.78180100791401
 30
0.0
 41
0.9997583392229558
 10
-11.64735496043932
 20
24.57323233966721
 30
0.0
 41
0.7548305167534196
 10
-11.49690367435085
 20
24.54421598638542
 30
0.0
 41
1.0
  0
SPLINE
  5
BF
330
1F
100
AcDbEntity
  8
C 2D
100
AcDbSpline
210
0.0
220
0.0
230
1.0
 70
    24
 71
     2
 72
     6
 73
     3
 74
     0
 42
0.0000000001
 43
0.0000000001
 40
-0.7517321041836429
 40
-0.7517321041836429
 40
-0.7517321041836429
 40
0.0
 40
0.0
 40
0.0
 10
-11.49690367435085
 20
24.54421598638542
 30
0.0
 10
-11.12783878702421
 20
24.47303735154557
 30
0.0
 10
-10.75877389969757
 20
24.40185871670573
 30
0.0
  0
SPLINE
  5
C0
330
1F
100
AcDbEntity
  8
C 2D
100
AcDbSpline
210
0.0
220
0.0
230
1.0
 70
    24
 71
     2
 72
     6
 73
     3
 74
     0
 42
0.0000000001
 43
0.0000000001
 40
-24.22511143972562
 40
-24.22511143972562
 40
-24.22511143972562
 40
0.0
 40
0.0
 40
0.0
 10
-10.75877389969757
 20
24.40185871670573
 30
0.0
 10
-12.04163299161866
 20
12.35742935633101
 30
0.0
 10
-13.32449208353976
 20
0.3129999959562819
 30
0.0
  0
LINE
  5
C1
330
1F
100
AcDbEntity
  8
C 2D
100
AcDbLine
 10
-13.32449208353976
 20
0.3129999959562819
 30
0.0
 11
-16.38123882433685
 21
0.3131192180544369
 31
0.0
  0
SPLINE
  5
C2
330
1F
100
AcDbEntity
  8
C 2D
100
AcDbSpline
210
0.0
220
0.0
230
1.0
 70
    24
 71
     2
 72
     6
 73
     3
 74
     0
 42
0.0000000001
 43
0.0000000001
 40
0.0
 40
0.0
 40
0.0
 40
27.60320614836507
 40
27.60320614836507
 40
27.60320614836507
 10
-16.38123882433685
 20
0.3131192180544369
 30
0.0
 10
-15.18749429104243
 20
14.06305960700536
 30
0.0
 10
-13.99374975774801
 20
27.81299999595628
 30
0.0
  0
SPLINE
  5
C3
330
1F
100
AcDbEntity
  8
C 2D
100
AcDbSpline
210
0.0
220
0.0
230
1.0
 70
    24
 71
     2
 72
     6
 73
     3
 74
     0
 42
0.0000000001
 43
0.0000000001
 40
0.0
 40
0.0
 40
0.0
 40
0.7522455994824915
 40
0.7522455994824915
 40
0.7522455994824915
 10
-10.75098799358106
 20
24.46023193856624
 30
0.0
 10
-11.12029832201103
 20
24.5314937221542
 30
0.0
 10
-11.48960865044101
 20
24.60275550574216
 30
0.0
  0
SPLINE
  5
C4
330
1F
100
AcDbEntity
  8
C 2D
100
AcDbSpline
210
0.0
220
0.0
230
1.0
 70
    12
 71
     2
 72
     6
 73
     3
 74
     0
 42
0.0000000001
 43
0.0000000001
 40
0.0
 40
0.0
 40
0.0
 40
0.23743127559879
 40
0.23743127559879
 40
0.23743127559879
 10
-11.48960865044101
 20
24.60275550574216
 30
0.0
 41
1.0
 10
-11.62143717066386
 20
24.64968949810895
 30
0.0
 41
0.7873276640512697
 10
-11.60748073738517
 20
24.78892590266527
 30
0.0
 41
1.0
  0
SPLINE
  5
C5
330
1F
100
AcDbEntity
  8
C 2D
100
AcDbSpline
210
0.0
220
0.0
230
1.0
 70
    24
 71
     2
 72
     6
 73
     3
 74
     0
 42
0.0000000001
 43
0.0000000001
 40
0.0
 40
0.0
 40
0.0
 40
3.024074093290999
 40
3.024074093290999
 40
3.024074093290999
 10
-11.60748073738517
 20
24.78892590266527
 30
0.0
 10
-11.60748073738517
 20
26.30096294931077
 30
0.0
 10
-11.60748073738517
 20
27.81299999595627
 30
0.0
  0
POLYLINE
  5
C6
330
1F
100
AcDbEntity
  8
C 2D
100
AcDb2dPolyline
 66
     1
 10
0.0
 20
0.0
 30
0.0
  0
VERTEX
  5
C7
330
C6
100
AcDbEntity
  8
C 2D
100
AcDbVertex
100
AcDb2dVertex
 10
-11.60748073738517
 20
27.81299999595627
 30
0.0
  0
VERTEX
  5
C8
330
C6
100
AcDbEntity
  8
C 2D
100
AcDbVertex
100
AcDb2dVertex
 10
-8.426715849890968
 20
27.81299999595627
 30
0.0
  0
VERTEX
  5
C9
330
C6
100
AcDbEntity
  8
C 2D
100
AcDbVertex
100
AcDb2dVertex
 10
-8.431895432771455
 20
25.25062485837897
 30
0.0
  0
SEQEND
  5
CA
330
C6
100
AcDbEntity
  8
C 2D
  0
SPLINE
  5
CB
330
1F
100
AcDbEntity
  8
C 2D
100
AcDbSpline
210
0.0
220
0.0
230
1.0
 70
    24
 71
     2
 72
     6
 73
     3
 74
     0
 42
0.0000000001
 43
0.0000000001
 40
0.0
 40
0.0
 40
0.0
 40
2.450043654332194
 40
2.450043654332194
 40
2.450043654332194
 10
-8.431895432771455
 20
25.25062485837897
 30
0.0
 10
-9.591441713176255
 20
24.8554283984726
 30
0.0
 10
-10.75098799358106
 20
24.46023193856624
 30
0.0
  0
POLYLINE
  5
CC
330
1F
100
AcDbEntity
  8
C 2D
100
AcDb2dPolyline
 66
     1
 10
0.0
 20
0.0
 30
0.0
  0
VERTEX
  5
CD
330
CC
100
AcDbEntity
  8
C 2D
100
AcDbVertex
100
AcDb2dVertex
 10
-15.81331438028338
 20
28.00099999595628
 30
0.0
  0
VERTEX
  5
CE
330
CC
100
AcDbEntity
  8
C 2D
100
AcDbVertex
100
AcDb2dVertex
 10
-8.426715849890961
 20
28.00099999595627
 30
0.0
  0
SEQEND
  5
CF
330
CC
100
AcDbEntity
  8
C 2D
  0
SPLINE
  5
D0
330
1F
100
AcDbEntity
  8
C 2D
100
AcDbSpline
210
0.0
220
0.0
230
1.0
 70
    24
 71
     2
 72
     6
 73
     3
 74
     0
 42
0.0000000001
 43
0.0000000001
 40
0.0
 40
0.0
 40
0.0
 40
0.1880000000000024
 40
0.1880000000000024
 40
0.1880000000000024
 10
-8.426715849890961
 20
28.00099999595627
 30
0.0
 10
-8.426715849890964
 20
27.90699999595622
 30
0.0
 10
-8.426715849890968
 20
27.81299999595617
 30
0.0
  0
LINE
  5
D1
330
1F
100
AcDbEntity
  8
C 2D
100
AcDbLine
 10
-8.426715849890968
 20
27.81299999595617
 30
0.0
 11
-15.70346947097182
 21
27.81299999595627
 31
0.0
  0
SPLINE
  5
D2
330
1F
100
AcDbEntity
  8
C 2D
100
AcDbSpline
210
0.0
220
0.0
230
1.0
 70
    28
 71
     2
 72
     6
 73
     3
 74
     0
 42
0.0000000001
 43
0.0000000001
 40
-3.141592653589794
 40
-3.141592653589794
 40
-3.141592653589794
 40
-2.25586805153241
 40
-2.25586805153241
 40
-2.25586805153241
 10
-15.70346947097182
 20
27.81299999595627
 30
0.0
 41
1.0
 10
-15.82449677804674
 20
27.81299999595628
 30
0.0
 41
0.9068261637799945
 10
-15.81237224550367
 20
27.81299999595627
 30
0.0
 41
0.9936306632662366
  0
SPLINE
  5
D3
330
1F
100
AcDbEntity
  8
C 2D
100
AcDbSpline
210
0.0
220
0.0
230
1.0
 70
    24
 71
     2
 72
     6
 73
     3
 74
     0
 42
0.0000000001
 43
0.0000000001
 40
0.0
 40
0.0
 40
0.0
 40
0.1880000000000024
 40
0.1880000000000024
 40
0.1880000000000024
 10
-15.81237224550367
 20
27.81299999595628
 30
0.0
 10
-15.81284331289352
 20
27.90699999595628
 30
0.0
 10
-15.81331438028338
 20
28.00099999595628
 30
0.0
  0
SPLINE
  5
D4
330
1F
100
AcDbEntity
  8
C 2D
100
AcDbSpline
210
0.0
220
0.0
230
1.0
 70
    24
 71
     2
 72
     6
 73
     3
 74
     0
 42
0.0000000001
 43
0.0000000001
 40
0.0
 40
0.0
 40
0.0
 40
27.603445489506
 40
27.603445489506
 40
27.603445489506
 10
-12.72984201266619
 20
27.81299999595628
 30
0.0
 10
-13.92359689664882
 20
14.06299999595628
 30
0.0
 10
-15.11735178063146
 20
0.3129999959562739
 30
0.0
  0
ENDSEC
  0
SECTION
  2
OBJECTS
  0
DICTIONARY
  5
C
330
0
100
AcDbDictionary
281
     1
  3
ACAD_GROUP
350
D
  3
ACAD_LAYOUT
350
1A
  3
ACAD_MLEADERSTYLE
350
D6
  3
ACAD_MLINESTYLE
350
17
  3
ACAD_PLOTSETTINGS
350
19
  3
ACAD_PLOTSTYLENAME
350
E
  3
ACAD_TABLESTYLE
350
D5
  3
ACAD_VISUALSTYLE
350
2A
  0
DICTIONARY
  5
D
102
{ACAD_REACTORS
330
C
102
}
330
C
100
AcDbDictionary
281
     1
  0
DICTIONARY
  5
1A
102
{ACAD_REACTORS
330
C
102
}
330
C
100
AcDbDictionary
281
     1
  3
Layout1
350
1E
  3
Layout2
350
26
  3
Model
350
22
  0
DICTIONARY
  5
D6
102
{ACAD_REACTORS
330
C
102
}
330
C
100
AcDbDictionary
281
     1
  0
DICTIONARY
  5
17
102
{ACAD_REACTORS
330
C
102
}
330
C
100
AcDbDictionary
281
     1
  3
Standard
350
18
  0
DICTIONARY
  5
19
102
{ACAD_REACTORS
330
C
102
}
330
C
100
AcDbDictionary
281
     1
  0
ACDBDICTIONARYWDFLT
  5
E
102
{ACAD_REACTORS
330
C
102
}
330
C
100
AcDbDictionary
281
     1
  3
Normal
350
F
100
AcDbDictionaryWithDefault
340
F
  0
DICTIONARY
  5
D5
102
{ACAD_REACTORS
330
C
102
}
330
C
100
AcDbDictionary
281
     1
  0
DICTIONARY
  5
2A
102
{ACAD_REACTORS
330
C
102
}
330
C
100
AcDbDictionary
281
     1
  3
2dWireframe
350
2F
  3
3D Hidden
350
31
  3
3dWireframe
350
30
  3
Basic
350
32
  3
Brighten
350
36
  3
ColorChange
350
3A
  3
Conceptual
350
34
  3
Dim
350
35
  3
Facepattern
350
39
  3
Flat
350
2B
  3
FlatWithEdges
350
2C
  3
Gouraud
350
2D
  3
GouraudWithEdges
350
2E
  3
Linepattern
350
38
  3
Realistic
350
33
  3
Thicken
350
37
  0
LAYOUT
  5
1E
102
{ACAD_REACTORS
330
1A
102
}
330
1A
100
AcDbPlotSettings
  1

  2
none_device
  4

  6

 40
0.0
 41
0.0
 42
0.0
 43
0.0
 44
0.0
 45
0.0
 46
0.0
 47
0.0
 48
0.0
 49
0.0
140
0.0
141
0.0
142
1.0
143
1.0
 70
   688
 72
     0
 73
     0
 74
     5
  7

 75
    16
 76
     0
 77
     2
 78
   300
147
1.0
148
0.0
149
0.0
100
AcDbLayout
  1
Layout1
 70
     1
 71
     1
 10
0.0
 20
0.0
 11
12.0
 21
9.0
 12
0.0
 22
0.0
 32
0.0
 14
1.000000000000000E+20
 24
1.000000000000000E+20
 34
1.000000000000000E+20
 15
-1.000000000000000E+20
 25
-1.000000000000000E+20
 35
-1.000000000000000E+20
146
0.0
 13
0.0
 23
0.0
 33
0.0
 16
1.0
 26
0.0
 36
0.0
 17
0.0
 27
1.0
 37
0.0
 76
     0
330
1B
  0
LAYOUT
  5
26
102
{ACAD_REACTORS
330
1A
102
}
330
1A
100
AcDbPlotSettings
  1

  2
none_device
  4

  6

 40
0.0
 41
0.0
 42
0.0
 43
0.0
 44
0.0
 45
0.0
 46
0.0
 47
0.0
 48
0.0
 49
0.0
140
0.0
141
0.0
142
1.0
143
1.0
 70
   688
 72
     0
 73
     0
 74
     5
  7

 75
    16
 76
     0
 77
     2
 78
   300
147
1.0
148
0.0
149
0.0
100
AcDbLayout
  1
Layout2
 70
     1
 71
     2
 10
0.0
 20
0.0
 11
0.0
 21
0.0
 12
0.0
 22
0.0
 32
0.0
 14
0.0
 24
0.0
 34
0.0
 15
0.0
 25
0.0
 35
0.0
146
0.0
 13
0.0
 23
0.0
 33
0.0
 16
1.0
 26
0.0
 36
0.0
 17
0.0
 27
1.0
 37
0.0
 76
     0
330
23
  0
LAYOUT
  5
22
102
{ACAD_REACTORS
330
1A
102
}
330
1A
100
AcDbPlotSettings
  1

  2
none_device
  4

  6

 40
0.0
 41
0.0
 42
0.0
 43
0.0
 44
0.0
 45
0.0
 46
0.0
 47
0.0
 48
0.0
 49
0.0
140
0.0
141
0.0
142
1.0
143
1.0
 70
  1712
 72
     0
 73
     0
 74
     0
  7

 75
     0
 76
     0
 77
     2
 78
   300
147
1.0
148
0.0
149
0.0
100
AcDbLayout
  1
Model
 70
     1
 71
     0
 10
0.0
 20
0.0
 11
12.0
 21
9.0
 12
0.0
 22
0.0
 32
0.0
 14
-24.00082161839005
 24
-0.0000000000034689
 34
0.0
 15
92.00246485516999
 25
97.00099999595625
 35
0.0
146
0.0
 13
0.0
 23
0.0
 33
0.0
 16
1.0
 26
0.0
 36
0.0
 17
0.0
 27
1.0
 37
0.0
 76
     0
330
1F
331
29
  0
MLINESTYLE
  5
18
102
{ACAD_REACTORS
330
17
102
}
330
17
100
AcDbMlineStyle
  2
Standard
 70
     0
  3

 62
   256
 51
90.0
 52
90.0
 71
     2
 49
0.5
 62
   256
  6
BYLAYER
 49
-0.5
 62
   256
  6
BYLAYER
  0
ACDBPLACEHOLDER
  5
F
102
{ACAD_REACTORS
330
E
102
}
330
E
  0
VISUALSTYLE
  5
2F
102
{ACAD_REACTORS
330
2A
102
}
330
2A
100
AcDbVisualStyle
  2
2dWireframe
 70
     4
 71
     0
 72
     2
 73
     0
 90
        0
 40
-0.6
 41
-30.0
 62
     5
 63
     7
421
 16777215
 74
     1
 91
        4
 64
     7
 65
   257
 75
     1
175
     1
 42
1.0
 92
        0
 66
   257
 43
1.0
 76
     1
 77
     6
 78
     2
 67
     7
 79
     5
170
     0
171
     0
290
     0
174
     0
 93
        1
 44
0.0
173
     0
291
     0
 45
0.0
1001
ACAD
1000
AcDbSavedByObjectVersion
1070
     0
  0
VISUALSTYLE
  5
31
102
{ACAD_REACTORS
330
2A
102
}
330
2A
100
AcDbVisualStyle
  2
3D Hidden
 70
     6
 71
     1
 72
     2
 73
     2
 90
        0
 40
-0.6
 41
-30.0
 62
     5
 63
     7
421
 16777215
 74
     2
 91
        2
 64
     7
 65
   257
 75
     2
175
     1
 42
40.0
 92
        0
 66
   257
 43
1.0
 76
     1
 77
     6
 78
     2
 67
     7
 79
     3
170
     0
171
     0
290
     0
174
     0
 93
        1
 44
0.0
173
     0
291
     0
 45
0.0
1001
ACAD
1000
AcDbSavedByObjectVersion
1070
     0
  0
VISUALSTYLE
  5
30
102
{ACAD_REACTORS
330
2A
102
}
330
2A
100
AcDbVisualStyle
  2
3dWireframe
 70
     5
 71
     0
 72
     2
 73
     0
 90
        0
 40
-0.6
 41
-30.0
 62
     5
 63
     7
421
 16777215
 74
     1
 91
        4
 64
     7
 65
   257
 75
     1
175
     1
 42
1.0
 92
        0
 66
   257
 43
1.0
 76
     1
 77
     6
 78
     2
 67
     7
 79
     5
170
     0
171
     0
290
     0
174
     0
 93
        1
 44
0.0
173
     0
291
     0
 45
0.0
1001
ACAD
1000
AcDbSavedByObjectVersion
1070
     0
  0
VISUALSTYLE
  5
32
102
{ACAD_REACTORS
330
2A
102
}
330
2A
100
AcDbVisualStyle
  2
Basic
 70
     7
 71
     1
 72
     0
 73
     1
 90
        0
 40
-0.6
 41
-30.0
 62
     5
 63
     7
421
 16777215
 74
     0
 91
        4
 64
     7
 65
   257
 75
     1
175
     1
 42
1.0
 92
        8
 66
     7
 43
1.0
 76
     1
 77
     6
 78
     2
 67
     7
 79
     5
170
     0
171
     0
290
     0
174
     0
 93
        1
 44
0.0
173
     0
291
     1
 45
0.0
1001
ACAD
1000
AcDbSavedByObjectVersion
1070
     0
  0
VISUALSTYLE
  5
36
102
{ACAD_REACTORS
330
2A
102
}
330
2A
100
AcDbVisualStyle
  2
Brighten
 70
    12
 71
     2
 72
     2
 73
     0
 90
        0
 40
-0.6
 41
-30.0
 62
     5
 63
     7
421
 16777215
 74
     1
 91
        4
 64
     7
 65
   257
 75
     1
175
     1
 42
1.0
 92
        8
 66
     7
 43
1.0
 76
     1
 77
     6
 78
     2
 67
     7
 79
     5
170
     0
171
     0
290
     0
174
     0
 93
        1
 44
50.0
173
     0
291
     1
 45
0.0
1001
ACAD
1000
AcDbSavedByObjectVersion
1070
     0
  0
VISUALSTYLE
  5
3A
102
{ACAD_REACTORS
330
2A
102
}
330
2A
100
AcDbVisualStyle
  2
ColorChange
 70
    16
 71
     2
 72
     2
 73
     3
 90
        0
 40
-0.6
 41
-30.0
 62
     5
 63
     8
421
  8421504
 74
     1
 91
        4
 64
     7
 65
   257
 75
     1
175
     1
 42
1.0
 92
        8
 66
     8
424
  8421504
 43
1.0
 76
     1
 77
     6
 78
     2
 67
     7
 79
     5
170
     0
171
     0
290
     0
174
     0
 93
        1
 44
0.0
173
     0
291
     1
 45
0.0
1001
ACAD
1000
AcDbSavedByObjectVersion
1070
     0
  0
VISUALSTYLE
  5
34
102
{ACAD_REACTORS
330
2A
102
}
330
2A
100
AcDbVisualStyle
  2
Conceptual
 70
     9
 71
     3
 72
     2
 73
     0
 90
        0
 40
-0.6
 41
-30.0
 62
     5
 63
     7
421
 16777215
 74
     2
 91
        2
 64
     7
 65
   257
 75
     1
175
     1
 42
40.0
 92
        8
 66
     7
 43
1.0
 76
     1
 77
     6
 78
     2
 67
     7
 79
     3
170
     0
171
     0
290
     0
174
     0
 93
        1
 44
0.0
173
     0
291
     0
 45
0.0
1001
ACAD
1000
AcDbSavedByObjectVersion
1070
     0
  0
VISUALSTYLE
  5
35
102
{ACAD_REACTORS
330
2A
102
}
330
2A
100
AcDbVisualStyle
  2
Dim
 70
    11
 71
     2
 72
     2
 73
     0
 90
        0
 40
-0.6
 41
-30.0
 62
     5
 63
     7
421
 16777215
 74
     1
 91
        4
 64
     7
 65
   257
 75
     1
175
     1
 42
1.0
 92
        8
 66
     7
 43
1.0
 76
     1
 77
     6
 78
     2
 67
     7
 79
     5
170
     0
171
     0
290
     0
174
     0
 93
        1
 44
-50.0
173
     0
291
     1
 45
0.0
1001
ACAD
1000
AcDbSavedByObjectVersion
1070
     0
  0
VISUALSTYLE
  5
39
102
{ACAD_REACTORS
330
2A
102
}
330
2A
100
AcDbVisualStyle
  2
Facepattern
 70
    15
 71
     2
 72
     2
 73
     0
 90
        0
 40
-0.6
 41
-30.0
 62
     5
 63
     7
421
 16777215
 74
     1
 91
        4
 64
     7
 65
   257
 75
     1
175
     1
 42
1.0
 92
        8
 66
     7
 43
1.0
 76
     1
 77
     6
 78
     2
 67
     7
 79
     5
170
     0
171
     0
290
     0
174
     0
 93
        1
 44
0.0
173
     0
291
     1
 45
0.0
1001
ACAD
1000
AcDbSavedByObjectVersion
1070
     0
  0
VISUALSTYLE
  5
2B
102
{ACAD_REACTORS
330
2A
102
}
330
2A
100
AcDbVisualStyle
  2
Flat
 70
     0
 71
     2
 72
     1
 73
     1
 90
        2
 40
-0.6
 41
30.0
 62
     5
 63
     7
421
 16777215
 74
     0
 91
        4
 64
     7
 65
   257
 75
     1
175
     1
 42
1.0
 92
        8
 66
     7
 43
1.0
 76
     1
 77
     6
 78
     2
 67
     7
 79
     5
170
     0
171
     0
290
     0
174
     0
 93
       13
 44
0.0
173
     0
291
     1
 45
0.0
1001
ACAD
1000
AcDbSavedByObjectVersion
1070
     0
  0
VISUALSTYLE
  5
2C
102
{ACAD_REACTORS
330
2A
102
}
330
2A
100
AcDbVisualStyle
  2
FlatWithEdges
 70
     1
 71
     2
 72
     1
 73
     1
 90
        2
 40
-0.6
 41
30.0
 62
     5
 63
     7
421
 16777215
 74
     1
 91
        4
 64
     7
 65
   257
 75
     1
175
     1
 42
1.0
 92
        0
 66
   257
 43
1.0
 76
     1
 77
     6
 78
     2
 67
     7
 79
     5
170
     0
171
     0
290
     0
174
     0
 93
       13
 44
0.0
173
     0
291
     1
 45
0.0
1001
ACAD
1000
AcDbSavedByObjectVersion
1070
     0
  0
VISUALSTYLE
  5
2D
102
{ACAD_REACTORS
330
2A
102
}
330
2A
100
AcDbVisualStyle
  2
Gouraud
 70
     2
 71
     2
 72
     2
 73
     1
 90
        2
 40
-0.6
 41
30.0
 62
     5
 63
     7
421
 16777215
 74
     0
 91
        4
 64
     7
 65
   257
 75
     1
175
     1
 42
1.0
 92
        0
 66
     7
 43
1.0
 76
     1
 77
     6
 78
     2
 67
     7
 79
     5
170
     0
171
     0
290
     0
174
     0
 93
       13
 44
0.0
173
     0
291
     1
 45
0.0
1001
ACAD
1000
AcDbSavedByObjectVersion
1070
     0
  0
VISUALSTYLE
  5
2E
102
{ACAD_REACTORS
330
2A
102
}
330
2A
100
AcDbVisualStyle
  2
GouraudWithEdges
 70
     3
 71
     2
 72
     2
 73
     1
 90
        2
 40
-0.6
 41
30.0
 62
     5
 63
     7
421
 16777215
 74
     1
 91
        4
 64
     7
 65
   257
 75
     1
175
     1
 42
1.0
 92
        0
 66
   257
 43
1.0
 76
     1
 77
     6
 78
     2
 67
     7
 79
     5
170
     0
171
     0
290
     0
174
     0
 93
       13
 44
0.0
173
     0
291
     1
 45
0.0
1001
ACAD
1000
AcDbSavedByObjectVersion
1070
     0
  0
VISUALSTYLE
  5
38
102
{ACAD_REACTORS
330
2A
102
}
330
2A
100
AcDbVisualStyle
  2
Linepattern
 70
    14
 71
     2
 72
     2
 73
     0
 90
        0
 40
-0.6
 41
-30.0
 62
     5
 63
     7
421
 16777215
 74
     1
 91
        4
 64
     7
 65
   257
 75
     7
175
     7
 42
1.0
 92
        8
 66
     7
 43
1.0
 76
     1
 77
     6
 78
     2
 67
     7
 79
     5
170
     0
171
     0
290
     0
174
     0
 93
        1
 44
0.0
173
     0
291
     1
 45
0.0
1001
ACAD
1000
AcDbSavedByObjectVersion
1070
     0
  0
VISUALSTYLE
  5
33
102
{ACAD_REACTORS
330
2A
102
}
330
2A
100
AcDbVisualStyle
  2
Realistic
 70
     8
 71
     2
 72
     2
 73
     0
 90
        0
 40
-0.6
 41
-30.0
 62
     5
 63
     7
421
 16777215
 74
     1
 91
        0
 64
     7
 65
   257
 75
     1
175
     1
 42
1.0
 92
        8
 66
     8
424
  7895160
 43
1.0
 76
     1
 77
     6
 78
     2
 67
     7
 79
     5
170
     0
171
     0
290
     0
174
     0
 93
       13
 44
0.0
173
     0
291
     0
 45
0.0
1001
ACAD
1000
AcDbSavedByObjectVersion
1070
     0
  0
VISUALSTYLE
  5
37
102
{ACAD_REACTORS
330
2A
102
}
330
2A
100
AcDbVisualStyle
  2
Thicken
 70
    13
 71
     2
 72
     2
 73
     0
 90
        0
 40
-0.6
 41
-30.0
 62
     5
 63
     7
421
 16777215
 74
     1
 91
        4
 64
     7
 65
   257
 75
     1
175
     1
 42
1.0
 92
       12
 66
     7
 43
1.0
 76
     1
 77
     6
 78
     2
 67
     7
 79
     5
170
     0
171
     0
290
     0
174
     0
 93
        1
 44
0.0
173
     0
291
     1
 45
0.0
1001
ACAD
1000
AcDbSavedByObjectVersion
1070
     0
  0
ENDSEC
  0
EOF
