  0
SECTION
  2
HEADER
  9
$ACADVER
  1
AC1015
  9
$ACADMAINTVER
 70
     6
  9
$DWGCODEPAGE
  3
ANSI_1252
  9
$INSBASE
 10
0.0
 20
0.0
 30
0.0
  9
$EXTMIN
 10
-18.7000000000073
 20
-0.0000000000000006
 30
0.0
  9
$EXTMAX
 10
60.20000000000421
 20
68.55742114956338
 30
0.0
  9
$LIMMIN
 10
0.0
 20
0.0
  9
$LIMMAX
 10
12.0
 20
9.0
  9
$ORTHOMODE
 70
     0
  9
$REGENMODE
 70
     1
  9
$FILLMODE
 70
     1
  9
$QTEXTMODE
 70
     0
  9
$MIRRTEXT
 70
     1
  9
$LTSCALE
 40
0.0393700787401575
  9
$ATTMODE
 70
     1
  9
$TEXTSIZE
 40
0.2
  9
$TRACEWID
 40
0.05
  9
$TEXTSTYLE
  7
Standard
  9
$CLAYER
  8
DEFAULT
  9
$CELTYPE
  6
ByLayer
  9
$CECOLOR
 62
   256
  9
$CELTSCALE
 40
1.0
  9
$DISPSILH
 70
     0
  9
$DIMSCALE
 40
1.0
  9
$DIMASZ
 40
0.18
  9
$DIMEXO
 40
0.0625
  9
$DIMDLI
 40
0.38
  9
$DIMRND
 40
0.0
  9
$DIMDLE
 40
0.0
  9
$DIMEXE
 40
0.18
  9
$DIMTP
 40
0.0
  9
$DIMTM
 40
0.0
  9
$DIMTXT
 40
0.18
  9
$DIMCEN
 40
0.09
  9
$DIMTSZ
 40
0.0
  9
$DIMTOL
 70
     0
  9
$DIMLIM
 70
     0
  9
$DIMTIH
 70
     1
  9
$DIMTOH
 70
     1
  9
$DIMSE1
 70
     0
  9
$DIMSE2
 70
     0
  9
$DIMTAD
 70
     0
  9
$DIMZIN
 70
     0
  9
$DIMBLK
  1

  9
$DIMASO
 70
     1
  9
$DIMSHO
 70
     1
  9
$DIMPOST
  1

  9
$DIMAPOST
  1

  9
$DIMALT
 70
     0
  9
$DIMALTD
 70
     2
  9
$DIMALTF
 40
25.4
  9
$DIMLFAC
 40
1.0
  9
$DIMTOFL
 70
     0
  9
$DIMTVP
 40
0.0
  9
$DIMTIX
 70
     0
  9
$DIMSOXD
 70
     0
  9
$DIMSAH
 70
     0
  9
$DIMBLK1
  1

  9
$DIMBLK2
  1

  9
$DIMSTYLE
  2
Standard
  9
$DIMCLRD
 70
     0
  9
$DIMCLRE
 70
     0
  9
$DIMCLRT
 70
     0
  9
$DIMTFAC
 40
1.0
  9
$DIMGAP
 40
0.09
  9
$DIMJUST
 70
     0
  9
$DIMSD1
 70
     0
  9
$DIMSD2
 70
     0
  9
$DIMTOLJ
 70
     1
  9
$DIMTZIN
 70
     0
  9
$DIMALTZ
 70
     0
  9
$DIMALTTZ
 70
     0
  9
$DIMUPT
 70
     0
  9
$DIMDEC
 70
     4
  9
$DIMTDEC
 70
     4
  9
$DIMALTU
 70
     2
  9
$DIMALTTD
 70
     2
  9
$DIMTXSTY
  7
Standard
  9
$DIMAUNIT
 70
     0
  9
$DIMADEC
 70
     0
  9
$DIMALTRND
 40
0.0
  9
$DIMAZIN
 70
     0
  9
$DIMDSEP
 70
    46
  9
$DIMATFIT
 70
     3
  9
$DIMFRAC
 70
     0
  9
$DIMLDRBLK
  1

  9
$DIMLUNIT
 70
     2
  9
$DIMLWD
 70
    -2
  9
$DIMLWE
 70
    -2
  9
$DIMTMOVE
 70
     2
  9
$LUNITS
 70
     2
  9
$LUPREC
 70
     3
  9
$SKETCHINC
 40
0.1
  9
$FILLETRAD
 40
0.5
  9
$AUNITS
 70
     0
  9
$AUPREC
 70
     0
  9
$MENU
  1
.
  9
$ELEVATION
 40
0.0
  9
$PELEVATION
 40
0.0
  9
$THICKNESS
 40
0.0
  9
$LIMCHECK
 70
     0
  9
$CHAMFERA
 40
0.5
  9
$CHAMFERB
 40
0.5
  9
$CHAMFERC
 40
1.0
  9
$CHAMFERD
 40
0.0
  9
$SKPOLY
 70
     0
  9
$TDCREATE
 40
2455719.638632407
  9
$TDUCREATE
 40
2455719.805299074
  9
$TDUPDATE
 40
2455719.638632419
  9
$TDUUPDATE
 40
2455719.805299086
  9
$TDINDWG
 40
0.0000000116
  9
$TDUSRTIMER
 40
0.0000000116
  9
$USRTIMER
 70
     1
  9
$ANGBASE
 50
0.0
  9
$ANGDIR
 70
     0
  9
$PDMODE
 70
     0
  9
$PDSIZE
 40
0.0
  9
$PLINEWID
 40
0.0
  9
$SPLFRAME
 70
     0
  9
$SPLINETYPE
 70
     6
  9
$SPLINESEGS
 70
     8
  9
$HANDSEED
  5
9A
  9
$SURFTAB1
 70
     6
  9
$SURFTAB2
 70
     6
  9
$SURFTYPE
 70
     6
  9
$SURFU
 70
     6
  9
$SURFV
 70
     6
  9
$UCSBASE
  2

  9
$UCSNAME
  2

  9
$UCSORG
 10
0.0
 20
0.0
 30
0.0
  9
$UCSXDIR
 10
1.0
 20
0.0
 30
0.0
  9
$UCSYDIR
 10
0.0
 20
1.0
 30
0.0
  9
$UCSORTHOREF
  2

  9
$UCSORTHOVIEW
 70
     0
  9
$UCSORGTOP
 10
0.0
 20
0.0
 30
0.0
  9
$UCSORGBOTTOM
 10
0.0
 20
0.0
 30
0.0
  9
$UCSORGLEFT
 10
0.0
 20
0.0
 30
0.0
  9
$UCSORGRIGHT
 10
0.0
 20
0.0
 30
0.0
  9
$UCSORGFRONT
 10
0.0
 20
0.0
 30
0.0
  9
$UCSORGBACK
 10
0.0
 20
0.0
 30
0.0
  9
$PUCSBASE
  2

  9
$PUCSNAME
  2

  9
$PUCSORG
 10
0.0
 20
0.0
 30
0.0
  9
$PUCSXDIR
 10
1.0
 20
0.0
 30
0.0
  9
$PUCSYDIR
 10
0.0
 20
1.0
 30
0.0
  9
$PUCSORTHOREF
  2

  9
$PUCSORTHOVIEW
 70
     0
  9
$PUCSORGTOP
 10
0.0
 20
0.0
 30
0.0
  9
$PUCSORGBOTTOM
 10
0.0
 20
0.0
 30
0.0
  9
$PUCSORGLEFT
 10
0.0
 20
0.0
 30
0.0
  9
$PUCSORGRIGHT
 10
0.0
 20
0.0
 30
0.0
  9
$PUCSORGFRONT
 10
0.0
 20
0.0
 30
0.0
  9
$PUCSORGBACK
 10
0.0
 20
0.0
 30
0.0
  9
$USERI1
 70
     0
  9
$USERI2
 70
     0
  9
$USERI3
 70
     0
  9
$USERI4
 70
     0
  9
$USERI5
 70
     0
  9
$USERR1
 40
0.0
  9
$USERR2
 40
0.0
  9
$USERR3
 40
0.0
  9
$USERR4
 40
0.0
  9
$USERR5
 40
0.0
  9
$WORLDVIEW
 70
     1
  9
$SHADEDGE
 70
     3
  9
$SHADEDIF
 70
    70
  9
$TILEMODE
 70
     1
  9
$MAXACTVP
 70
    64
  9
$PINSBASE
 10
0.0
 20
0.0
 30
0.0
  9
$PLIMCHECK
 70
     0
  9
$PEXTMIN
 10
1.000000000000000E+20
 20
1.000000000000000E+20
 30
1.000000000000000E+20
  9
$PEXTMAX
 10
-1.000000000000000E+20
 20
-1.000000000000000E+20
 30
-1.000000000000000E+20
  9
$PLIMMIN
 10
0.0
 20
0.0
  9
$PLIMMAX
 10
12.0
 20
9.0
  9
$UNITMODE
 70
     0
  9
$VISRETAIN
 70
     1
  9
$PLINEGEN
 70
     0
  9
$PSLTSCALE
 70
     1
  9
$TREEDEPTH
 70
  3020
  9
$CMLSTYLE
  2
Standard
  9
$CMLJUST
 70
     0
  9
$CMLSCALE
 40
1.0
  9
$PROXYGRAPHICS
 70
     1
  9
$MEASUREMENT
 70
     0
  9
$CELWEIGHT
370
    -1
  9
$ENDCAPS
280
     0
  9
$JOINSTYLE
280
     0
  9
$LWDISPLAY
290
     0
  9
$INSUNITS
 70
     1
  9
$HYPERLINKBASE
  1

  9
$STYLESHEET
  1

  9
$XEDIT
290
     1
  9
$CEPSNTYPE
380
     0
  9
$PSTYLEMODE
290
     1
  9
$FINGERPRINTGUID
  2
{987117E2-28AE-44D5-ADA6-7DAC85C7E1D9}
  9
$VERSIONGUID
  2
{FAEB1C32-E019-11D5-929B-00C0DF256EC4}
  9
$EXTNAMES
290
     1
  9
$PSVPSCALE
 40
0.0
  9
$OLESTARTUP
290
     0
  0
ENDSEC
  0
SECTION
  2
CLASSES
  0
CLASS
  1
ACDBDICTIONARYWDFLT
  2
AcDbDictionaryWithDefault
  3
ObjectDBX Classes
 90
        0
280
     0
281
     0
  0
CLASS
  1
VISUALSTYLE
  2
AcDbVisualStyle
  3
ObjectDBX Classes
 90
     4095
280
     0
281
     0
  0
CLASS
  1
ACDBPLACEHOLDER
  2
AcDbPlaceHolder
  3
ObjectDBX Classes
 90
        0
280
     0
281
     0
  0
CLASS
  1
LAYOUT
  2
AcDbLayout
  3
ObjectDBX Classes
 90
        0
280
     0
281
     0
  0
ENDSEC
  0
SECTION
  2
TABLES
  0
TABLE
  2
VPORT
  5
8
330
0
100
AcDbSymbolTable
 70
     1
  0
VPORT
  5
29
330
8
100
AcDbSymbolTableRecord
100
AcDbViewportTableRecord
  2
*Active
 70
     0
 10
0.0
 20
0.0
 11
1.0
 21
1.0
 12
20.74999999999845
 22
34.27871057478169
 13
0.0
 23
0.0
 14
0.5
 24
0.5
 15
0.5
 25
0.5
 16
0.0
 26
0.0
 36
1.0
 17
0.0
 27
0.0
 37
0.0
 40
69.92856957255465
 41
1.150860091832874
 42
50.0
 43
0.0
 44
0.0
 50
0.0
 51
0.0
 71
     0
 72
   100
 73
     1
 74
     3
 75
     0
 76
     0
 77
     0
 78
     0
281
     0
 65
     1
110
0.0
120
0.0
130
0.0
111
1.0
121
0.0
131
0.0
112
0.0
122
1.0
132
0.0
 79
     0
146
0.0
  0
ENDTAB
  0
TABLE
  2
LTYPE
  5
5
330
0
100
AcDbSymbolTable
 70
     1
  0
LTYPE
  5
14
330
5
100
AcDbSymbolTableRecord
100
AcDbLinetypeTableRecord
  2
ByBlock
 70
     0
  3

 72
    65
 73
     0
 40
0.0
  0
LTYPE
  5
15
330
5
100
AcDbSymbolTableRecord
100
AcDbLinetypeTableRecord
  2
ByLayer
 70
     0
  3

 72
    65
 73
     0
 40
0.0
  0
LTYPE
  5
16
330
5
100
AcDbSymbolTableRecord
100
AcDbLinetypeTableRecord
  2
Continuous
 70
     0
  3
Solid line
 72
    65
 73
     0
 40
0.0
  0
ENDTAB
  0
TABLE
  2
LAYER
  5
2
330
0
100
AcDbSymbolTable
 70
     2
  0
LAYER
  5
10
330
2
100
AcDbSymbolTableRecord
100
AcDbLayerTableRecord
  2
0
 70
     0
 62
     7
  6
Continuous
370
    -3
390
F
  0
LAYER
  5
3B
330
2
100
AcDbSymbolTableRecord
100
AcDbLayerTableRecord
  2
DEFAULT
 70
     0
 62
     7
  6
Continuous
370
    -3
390
F
  0
ENDTAB
  0
TABLE
  2
STYLE
  5
3
330
0
100
AcDbSymbolTable
 70
     1
  0
STYLE
  5
11
330
3
100
AcDbSymbolTableRecord
100
AcDbTextStyleTableRecord
  2
Standard
 70
     0
 40
0.0
 41
1.0
 50
0.0
 71
     0
 42
0.2
  3
txt
  4

  0
ENDTAB
  0
TABLE
  2
VIEW
  5
6
330
0
100
AcDbSymbolTable
 70
     0
  0
ENDTAB
  0
TABLE
  2
UCS
  5
7
330
0
100
AcDbSymbolTable
 70
     0
  0
ENDTAB
  0
TABLE
  2
APPID
  5
9
330
0
100
AcDbSymbolTable
 70
     1
  0
APPID
  5
12
330
9
100
AcDbSymbolTableRecord
100
AcDbRegAppTableRecord
  2
ACAD
 70
     0
  0
ENDTAB
  0
TABLE
  2
DIMSTYLE
  5
A
330
0
100
AcDbSymbolTable
 70
     1
100
AcDbDimStyleTable
  0
DIMSTYLE
105
27
330
A
100
AcDbSymbolTableRecord
100
AcDbDimStyleTableRecord
  2
Standard
 70
     0
340
11
  0
ENDTAB
  0
TABLE
  2
BLOCK_RECORD
  5
1
330
0
100
AcDbSymbolTable
 70
     1
  0
BLOCK_RECORD
  5
1F
330
1
100
AcDbSymbolTableRecord
100
AcDbBlockTableRecord
  2
*Model_Space
340
22
  0
BLOCK_RECORD
  5
1B
330
1
100
AcDbSymbolTableRecord
100
AcDbBlockTableRecord
  2
*Paper_Space
340
1E
  0
BLOCK_RECORD
  5
23
330
1
100
AcDbSymbolTableRecord
100
AcDbBlockTableRecord
  2
*Paper_Space0
340
26
  0
ENDTAB
  0
ENDSEC
  0
SECTION
  2
BLOCKS
  0
BLOCK
  5
20
330
1F
100
AcDbEntity
  8
0
100
AcDbBlockBegin
  2
*Model_Space
 70
     0
 10
0.0
 20
0.0
 30
0.0
  3
*Model_Space
  1

  0
ENDBLK
  5
21
330
1F
100
AcDbEntity
  8
0
100
AcDbBlockEnd
  0
BLOCK
  5
1C
330
1B
100
AcDbEntity
 67
     1
  8
0
100
AcDbBlockBegin
  2
*Paper_Space
 70
     0
 10
0.0
 20
0.0
 30
0.0
  3
*Paper_Space
  1

  0
ENDBLK
  5
1D
330
1B
100
AcDbEntity
 67
     1
  8
0
100
AcDbBlockEnd
  0
BLOCK
  5
24
330
23
100
AcDbEntity
  8
0
100
AcDbBlockBegin
  2
*Paper_Space0
 70
     0
 10
0.0
 20
0.0
 30
0.0
  3
*Paper_Space0
  1

  0
ENDBLK
  5
25
330
23
100
AcDbEntity
  8
0
100
AcDbBlockEnd
  0
ENDSEC
  0
SECTION
  2
ENTITIES
  0
LINE
  5
3C
330
1F
100
AcDbEntity
  8
DEFAULT
100
AcDbLine
 10
-15.18749999930806
 20
27.05742114955904
 30
0.0
 11
15.18749999930806
 21
27.05742114955904
 31
0.0
  0
SPLINE
  5
3D
330
1F
100
AcDbEntity
  8
DEFAULT
100
AcDbSpline
210
0.0
220
0.0
230
1.0
 70
    15
 71
     2
 72
    20
 73
    17
 74
     0
 42
0.0000000001
 43
0.0000000001
 40
-24.11869449089161
 40
-24.11869449089161
 40
-24.11869449089161
 40
-14.49369449089131
 40
-14.49369449089131
 40
-13.70829632749416
 40
-13.70829632749416
 40
-10.69579632679491
 40
-10.69579632679491
 40
-9.91039816339745
 40
-9.91039816339745
 40
-0.2853981633974559
 40
-0.2853981633974559
 40
0.4999999999999915
 40
0.4999999999999915
 40
3.512500000699161
 40
3.512500000699161
 40
4.297898164096599
 40
4.297898164096599
 40
4.297898164096599
 10
-18.70000000000709
 20
16.93242114955903
 30
0.0
 41
1.0
 10
-18.70000000000719
 20
21.74492114955918
 30
0.0
 41
1.0
 10
-18.7000000000073
 20
26.55742114955933
 30
0.0
 41
1.0
 10
-18.70000000000701
 20
27.05742114955904
 30
0.0
 41
0.7071067811867535
 10
-18.2000000000073
 20
27.05742114955904
 30
0.0
 41
1.0
 10
-16.69374999965768
 20
27.05742114955904
 30
0.0
 41
1.0
 10
-15.18749999930806
 20
27.05742114955904
 30
0.0
 41
1.0
 10
-14.68749999930805
 20
27.05742114955904
 30
0.0
 41
0.7071067811865426
 10
-14.68749999930806
 20
26.55742114955903
 30
0.0
 41
1.0
 10
-14.68749999930799
 20
21.74492114955904
 30
0.0
 41
1.0
 10
-14.68749999930792
 20
16.93242114955904
 30
0.0
 41
1.0
 10
-14.68749999930792
 20
16.43242114955904
 30
0.0
 41
0.7071067811865476
 10
-15.18749999930792
 20
16.43242114955904
 30
0.0
 41
1.0
 10
-16.69374999965751
 20
16.43242114955904
 30
0.0
 41
1.0
 10
-18.20000000000709
 20
16.43242114955904
 30
0.0
 41
1.0
 10
-18.70000000000708
 20
16.43242114955904
 30
0.0
 41
0.7071067811865551
 10
-18.70000000000709
 20
16.93242114955903
 30
0.0
 41
1.0
  0
SPLINE
  5
3E
330
1F
100
AcDbEntity
  8
DEFAULT
100
AcDbSpline
210
0.0
220
0.0
230
1.0
 70
    15
 71
     2
 72
    20
 73
    17
 74
     0
 42
0.0000000001
 43
0.0000000001
 40
-24.11869449089161
 40
-24.11869449089161
 40
-24.11869449089161
 40
-14.49369449089131
 40
-14.49369449089131
 40
-13.70829632749416
 40
-13.70829632749416
 40
-10.69579632679491
 40
-10.69579632679491
 40
-9.91039816339745
 40
-9.91039816339745
 40
-0.2853981633974559
 40
-0.2853981633974559
 40
0.4999999999999915
 40
0.4999999999999915
 40
3.512500000699161
 40
3.512500000699161
 40
4.297898164096599
 40
4.297898164096599
 40
4.297898164096599
 10
18.70000000000709
 20
16.93242114955903
 30
0.0
 41
1.0
 10
18.70000000000719
 20
21.74492114955918
 30
0.0
 41
1.0
 10
18.7000000000073
 20
26.55742114955933
 30
0.0
 41
1.0
 10
18.70000000000701
 20
27.05742114955904
 30
0.0
 41
0.7071067811867535
 10
18.2000000000073
 20
27.05742114955904
 30
0.0
 41
1.0
 10
16.69374999965768
 20
27.05742114955904
 30
0.0
 41
1.0
 10
15.18749999930806
 20
27.05742114955904
 30
0.0
 41
1.0
 10
14.68749999930805
 20
27.05742114955904
 30
0.0
 41
0.7071067811865426
 10
14.68749999930806
 20
26.55742114955903
 30
0.0
 41
1.0
 10
14.68749999930799
 20
21.74492114955904
 30
0.0
 41
1.0
 10
14.68749999930792
 20
16.93242114955904
 30
0.0
 41
1.0
 10
14.68749999930792
 20
16.43242114955904
 30
0.0
 41
0.7071067811865476
 10
15.18749999930792
 20
16.43242114955904
 30
0.0
 41
1.0
 10
16.69374999965751
 20
16.43242114955904
 30
0.0
 41
1.0
 10
18.20000000000709
 20
16.43242114955904
 30
0.0
 41
1.0
 10
18.70000000000708
 20
16.43242114955904
 30
0.0
 41
0.7071067811865551
 10
18.70000000000709
 20
16.93242114955903
 30
0.0
 41
1.0
  0
LINE
  5
3F
330
1F
100
AcDbEntity
  8
DEFAULT
100
AcDbLine
 10
18.69999999999999
 20
40.0574211495547
 30
0.0
 11
18.68750000000328
 21
43.54987714956483
 31
0.0
  0
LINE
  5
40
330
1F
100
AcDbEntity
  8
DEFAULT
100
AcDbLine
 10
-18.70000000000685
 20
40.05742114955615
 30
0.0
 11
-18.68749999999664
 21
43.54987714956482
 31
0.0
  0
LINE
  5
41
330
1F
100
AcDbEntity
  8
DEFAULT
100
AcDbLine
 10
13.29961989777337
 20
58.06737303130902
 30
0.0
 11
14.68749999931196
 21
43.54987714886798
 31
0.0
  0
LINE
  5
42
330
1F
100
AcDbEntity
  8
DEFAULT
100
AcDbLine
 10
-13.29961989776663
 20
58.06737303130902
 30
0.0
 11
-14.68749999930793
 21
43.54987714887978
 31
0.0
  0
SPLINE
  5
43
330
1F
100
AcDbEntity
  8
DEFAULT
100
AcDbSpline
210
0.0
220
0.0
230
1.0
 70
    12
 71
     2
 72
     6
 73
     3
 74
     0
 42
0.0000000001
 43
0.0000000001
 40
42.93547749463348
 40
42.93547749463348
 40
42.93547749463348
 40
50.38582814970746
 40
50.38582814970746
 40
50.38582814970746
 10
-10.29924372776071
 20
60.88045313412525
 30
0.0
 41
0.9976522635633923
 10
-13.0466879529666
 20
60.80421206610265
 30
0.0
 41
0.7473228391221263
 10
-13.29961989776663
 20
58.06737303130902
 30
0.0
 41
1.0
  0
SPLINE
  5
44
330
1F
100
AcDbEntity
  8
DEFAULT
100
AcDbSpline
210
0.0
220
0.0
230
1.0
 70
    24
 71
     2
 72
     6
 73
     3
 74
     0
 42
0.0000000001
 43
0.0000000001
 40
22.27750194957384
 40
22.27750194957384
 40
22.27750194957384
 40
42.87599040270816
 40
42.87599040270816
 40
42.87599040270816
 10
10.2992437277674
 20
60.88045313412526
 30
0.0
 10
0.0000000000033467
 20
60.88045313412526
 30
0.0
 10
-10.29924372776071
 20
60.88045313412525
 30
0.0
  0
SPLINE
  5
45
330
1F
100
AcDbEntity
  8
DEFAULT
100
AcDbSpline
210
0.0
220
0.0
230
1.0
 70
    12
 71
     2
 72
     6
 73
     3
 74
     0
 42
0.0000000001
 43
0.0000000001
 40
14.76766420257449
 40
14.76766420257449
 40
14.76766420257449
 40
22.21801485764854
 40
22.21801485764854
 40
22.21801485764854
 10
13.29961989777337
 20
58.06737303130902
 30
0.0
 41
1.0
 10
13.04668795297332
 20
60.80421206610268
 30
0.0
 41
0.7473228391221242
 10
10.29924372776741
 20
60.88045313412526
 30
0.0
 41
0.9976522635633965
  0
SPLINE
  5
46
330
1F
100
AcDbEntity
  8
DEFAULT
100
AcDbSpline
210
0.0
220
0.0
230
1.0
 70
    15
 71
     2
 72
    36
 73
    33
 74
     0
 42
0.0000000001
 43
0.0000000001
 40
-4518.108511046123
 40
-4518.108511046123
 40
-4518.108511046123
 40
-4516.983511045864
 40
-4516.983511045864
 40
-4516.198112882465
 40
-4516.198112882465
 40
-4515.717714926473
 40
-4515.717714926473
 40
-4514.932316763071
 40
-4514.932316763071
 40
-4514.445694689492
 40
-4514.445694689492
 40
-4513.660296526094
 40
-4513.660296526094
 40
-4513.179898570101
 40
-4513.179898570101
 40
-4512.394500406704
 40
-4512.394500406704
 40
-4512.019500406617
 40
-4512.019500406617
 40
-4511.234102243915
 40
-4511.234102243915
 40
-4510.234102244031
 40
-4510.234102244031
 40
-4508.666723057932
 40
-4508.666723057932
 40
-4507.666723057932
 40
-4507.666723057932
 40
-4506.099343871832
 40
-4506.099343871832
 40
-4505.09934387195
 40
-4505.09934387195
 40
-4504.313945709241
 40
-4504.313945709241
 40
-4504.313945709241
 10
-15.18749999930784
 20
43.04987714956848
 30
0.0
 41
1.0
 10
-16.68749999965224
 20
43.04987714956594
 30
0.0
 41
1.0
 10
-18.18749999999663
 20
43.04987714956341
 30
0.0
 41
1.0
 10
-18.68749999999805
 20
43.0498771495634
 30
0.0
 41
0.7071067811855402
 10
-18.68749999999664
 20
43.54987714956482
 30
0.0
 41
1.0
 10
-18.68749999999663
 20
55.8036491495634
 30
0.0
 41
1.0
 10
-18.68749999999663
 20
68.05742114956197
 30
0.0
 41
1.0
 10
-18.68749999999664
 20
68.55742114956652
 30
0.0
 41
0.707106781183332
 10
-18.18749999999208
 20
68.55742114956197
 30
0.0
 41
1.0
 10
0.000000000003368
 20
68.55742114956269
 30
0.0
 41
1.0
 10
18.18749999999882
 20
68.55742114956338
 30
0.0
 41
1.0
 10
18.68750000000025
 20
68.5574211495634
 30
0.0
 41
0.7071067811855377
 10
18.68749999999884
 20
68.05742114956197
 30
0.0
 41
1.0
 10
18.68750000000106
 20
55.8036491495634
 30
0.0
 41
1.0
 10
18.68750000000328
 20
43.54987714956483
 30
0.0
 41
1.0
 10
18.68750000000337
 20
43.04987714956482
 30
0.0
 41
0.707106781186545
 10
18.18750000000337
 20
43.04987714956474
 30
0.0
 41
1.0
 10
16.68749999965776
 20
43.04987714956418
 30
0.0
 41
1.0
 10
15.18749999931215
 20
43.04987714956362
 30
0.0
 41
1.0
 10
14.68750000000761
 20
43.04987714956343
 30
0.0
 41
0.7071067816783068
 10
14.68749999931196
 20
43.54987714886798
 30
0.0
 41
1.0
 10
14.68749998713015
 20
52.39487714852699
 30
0.0
 41
1.0
 10
14.68749997494834
 20
61.23987714818599
 30
0.0
 41
1.0
 10
14.68749997494834
 20
64.35922960460657
 30
0.0
 41
0.7083138901805197
 10
11.57158286604015
 20
64.36988301166046
 30
0.0
 41
1.0
 10
0.000000000003368
 20
64.36988301166046
 30
0.0
 41
1.0
 10
-11.57158286603341
 20
64.36988301166046
 30
0.0
 41
1.0
 10
-14.68749997494161
 20
64.35922960460657
 30
0.0
 41
0.7083138901805197
 10
-14.68749997494161
 20
61.23987714818599
 30
0.0
 41
1.0
 10
-14.68749998712477
 20
52.39487714853288
 30
0.0
 41
1.0
 10
-14.68749999930793
 20
43.54987714887978
 30
0.0
 41
1.0
 10
-14.68749999999663
 20
43.04987714956857
 30
0.0
 41
0.7071067816735952
 10
-15.18749999930784
 20
43.04987714956848
 30
0.0
 41
1.0
  0
ARC
  5
47
330
1F
100
AcDbEntity
  8
DEFAULT
100
AcDbCircle
 10
-17.70000000000685
 20
40.05742114956349
 30
0.0
 40
1.0
100
AcDbArc
 50
180.0000000004206
 51
269.999999999999
  0
LINE
  5
48
330
1F
100
AcDbEntity
  8
DEFAULT
100
AcDbLine
 10
17.70000000000687
 20
39.05742114955468
 30
0.0
 11
-17.70000000000686
 21
39.05742114956349
 31
0.0
  0
ARC
  5
49
330
1F
100
AcDbEntity
  8
DEFAULT
100
AcDbCircle
 10
17.69999999999999
 20
40.05742114955468
 30
0.0
 40
1.0
100
AcDbArc
 50
270.0000000003941
 51
0.0000000000008142
  0
LINE
  5
4A
330
1F
100
AcDbEntity
  8
DEFAULT
100
AcDbLine
 10
55.70000000000422
 20
16.43242114955904
 30
0.0
 11
59.20000000000421
 21
16.43242114955905
 31
0.0
  0
SPLINE
  5
4B
330
1F
100
AcDbEntity
  8
DEFAULT
100
AcDbSpline
210
0.0
220
0.0
230
1.0
 70
    15
 71
     2
 72
    20
 73
    17
 74
     0
 42
0.0000000001
 43
0.0000000001
 40
-3115.71863692923
 40
-3115.71863692923
 40
-3115.71863692923
 40
-3106.09363692923
 40
-3106.09363692923
 40
-3105.308238765833
 40
-3105.308238765833
 40
-3080.808238765833
 40
-3080.808238765833
 40
-3080.022840602436
 40
-3080.022840602436
 40
-3070.397840602436
 40
-3070.397840602436
 40
-3069.612442439038
 40
-3069.612442439038
 40
-3045.112442439038
 40
-3045.112442439038
 40
-3044.327044275641
 40
-3044.327044275641
 40
-3044.327044275641
 10
56.20000000000422
 20
16.93242114955904
 30
0.0
 41
1.0
 10
56.2000000000042
 20
21.744921149559
 30
0.0
 41
1.0
 10
56.20000000000417
 20
26.55742114955896
 30
0.0
 41
1.0
 10
56.20000000000427
 20
27.05742114955904
 30
0.0
 41
0.7071067811864873
 10
55.70000000000417
 20
27.05742114955904
 30
0.0
 41
1.0
 10
43.45000000000427
 20
27.05742114955904
 30
0.0
 41
1.0
 10
31.20000000000436
 20
27.05742114955904
 30
0.0
 41
1.0
 10
30.70000000000429
 20
27.05742114955904
 30
0.0
 41
0.7071067811864998
 10
30.70000000000436
 20
26.55742114955897
 30
0.0
 41
1.0
 10
30.70000000000431
 20
21.744921149559
 30
0.0
 41
1.0
 10
30.70000000000426
 20
16.93242114955904
 30
0.0
 41
1.0
 10
30.70000000000426
 20
16.43242114955904
 30
0.0
 41
0.7071067811865476
 10
31.20000000000426
 20
16.43242114955904
 30
0.0
 41
1.0
 10
43.45000000000424
 20
16.43242114955904
 30
0.0
 41
1.0
 10
55.70000000000422
 20
16.43242114955904
 30
0.0
 41
1.0
 10
56.20000000000421
 20
16.43242114955904
 30
0.0
 41
0.70710678118655
 10
56.20000000000422
 20
16.93242114955904
 30
0.0
 41
1.0
  0
LINE
  5
4C
330
1F
100
AcDbEntity
  8
DEFAULT
100
AcDbLine
 10
-18.20000000000708
 20
16.43242114955904
 30
0.0
 11
18.20000000000718
 21
16.43242114955904
 31
0.0
  0
SPLINE
  5
4D
330
1F
100
AcDbEntity
  8
DEFAULT
100
AcDbSpline
210
0.0
220
0.0
230
1.0
 70
    24
 71
     2
 72
     6
 73
     3
 74
     0
 42
0.0000000001
 43
0.0000000001
 40
0.0
 40
0.0
 40
0.0
 40
1.0
 40
1.0
 40
1.0
 10
-15.9375
 20
0.1499991495590383
 30
0.0
 10
-15.9375
 20
4.48149914955904
 30
0.0
 10
-15.9375
 20
8.812999149559042
 30
0.0
  0
SPLINE
  5
4E
330
1F
100
AcDbEntity
  8
DEFAULT
100
AcDbSpline
210
0.0
220
0.0
230
1.0
 70
    24
 71
     2
 72
     6
 73
     3
 74
     0
 42
0.0000000001
 43
0.0000000001
 40
0.0
 40
0.0
 40
0.0
 40
1.0
 40
1.0
 40
1.0
 10
-15.95
 20
0.0827521495590364
 30
0.0
 10
-15.95
 20
0.1163756495590373
 30
0.0
 10
-15.95
 20
0.1499991495590383
 30
0.0
  0
ARC
  5
4F
330
1F
100
AcDbEntity
  8
DEFAULT
100
AcDbCircle
 10
16.77
 20
0.0827521495590364
 30
0.0
 40
0.0299997569396974
100
AcDbArc
 50
285.2147491615061
 51
359.9999999999999
  0
ARC
  5
50
330
1F
100
AcDbEntity
  8
DEFAULT
100
AcDbCircle
 10
-16.375
 20
1.535208149559042
 30
0.0
 40
1.535208149559042
100
AcDbArc
 50
254.7861901482698
 51
285.2138458649217
  0
ARC
  5
51
330
1F
100
AcDbEntity
  8
DEFAULT
100
AcDbCircle
 10
15.98
 20
0.0827521495590364
 30
0.0
 40
0.0299996257286653
100
AcDbArc
 50
180.0
 51
254.7870938012431
  0
SPLINE
  5
52
330
1F
100
AcDbEntity
  8
DEFAULT
100
AcDbSpline
210
0.0
220
0.0
230
1.0
 70
    24
 71
     2
 72
     6
 73
     3
 74
     0
 42
0.0000000001
 43
0.0000000001
 40
0.0
 40
0.0
 40
0.0
 40
1.0
 40
1.0
 40
1.0
 10
33.43750000000421
 20
0.1499991495590383
 30
0.0
 10
33.43750000000421
 20
0.1163756495590373
 30
0.0
 10
33.43750000000421
 20
0.0827521495590364
 30
0.0
  0
SPLINE
  5
53
330
1F
100
AcDbEntity
  8
DEFAULT
100
AcDbSpline
210
0.0
220
0.0
230
1.0
 70
    24
 71
     2
 72
     6
 73
     3
 74
     0
 42
0.0000000001
 43
0.0000000001
 40
0.0
 40
0.0
 40
0.0
 40
1.0
 40
1.0
 40
1.0
 10
-16.3745
 20
9.000999149559037
 30
0.0
 10
-16.3745
 20
8.90699914955904
 30
0.0
 10
-16.3745
 20
8.812999149559042
 30
0.0
  0
ARC
  5
54
330
1F
100
AcDbEntity
  8
DEFAULT
100
AcDbCircle
 10
16.375
 20
1.535208149559042
 30
0.0
 40
1.535208149559042
100
AcDbArc
 50
254.7861901482698
 51
285.2138458649218
  0
SPLINE
  5
55
330
1F
100
AcDbEntity
  8
DEFAULT
100
AcDbSpline
210
0.0
220
0.0
230
1.0
 70
    24
 71
     2
 72
     6
 73
     3
 74
     0
 42
0.0000000001
 43
0.0000000001
 40
0.0
 40
0.0
 40
0.0
 40
1.0
 40
1.0
 40
1.0
 10
16.3745
 20
9.000999149559037
 30
0.0
 10
16.3745
 20
8.90699914955904
 30
0.0
 10
16.3745
 20
8.812999149559042
 30
0.0
  0
SPLINE
  5
56
330
1F
100
AcDbEntity
  8
DEFAULT
100
AcDbSpline
210
0.0
220
0.0
230
1.0
 70
    24
 71
     2
 72
     6
 73
     3
 74
     0
 42
0.0000000001
 43
0.0000000001
 40
0.0
 40
0.0
 40
0.0
 40
1.0
 40
1.0
 40
1.0
 10
-15.9375
 20
0.1499991495590383
 30
0.0
 10
-15.9375
 20
4.48149914955904
 30
0.0
 10
-15.9375
 20
8.812999149559042
 30
0.0
  0
SPLINE
  5
57
330
1F
100
AcDbEntity
  8
DEFAULT
100
AcDbSpline
210
0.0
220
0.0
230
1.0
 70
    24
 71
     2
 72
     6
 73
     3
 74
     0
 42
0.0000000001
 43
0.0000000001
 40
0.0
 40
0.0
 40
0.0
 40
1.0
 40
1.0
 40
1.0
 10
15.95
 20
0.0827521495590364
 30
0.0
 10
15.95
 20
0.1163756495590373
 30
0.0
 10
15.95
 20
0.1499991495590383
 30
0.0
  0
SPLINE
  5
58
330
1F
100
AcDbEntity
  8
DEFAULT
100
AcDbSpline
210
0.0
220
0.0
230
1.0
 70
    24
 71
     2
 72
     6
 73
     3
 74
     0
 42
0.0000000001
 43
0.0000000001
 40
0.0
 40
0.0
 40
0.0
 40
1.0
 40
1.0
 40
1.0
 10
-16.8125
 20
0.1499991495590383
 30
0.0
 10
-16.8125
 20
4.575499149559038
 30
0.0
 10
-16.8125
 20
9.000999149559037
 30
0.0
  0
SPLINE
  5
59
330
1F
100
AcDbEntity
  8
DEFAULT
100
AcDbSpline
210
0.0
220
0.0
230
1.0
 70
    24
 71
     2
 72
     6
 73
     3
 74
     0
 42
0.0000000001
 43
0.0000000001
 40
0.0
 40
0.0
 40
0.0
 40
1.0
 40
1.0
 40
1.0
 10
57.45000000000421
 20
4.649999149559038
 30
0.0
 10
51.57500000000421
 20
4.649999149559038
 30
0.0
 10
45.70000000000421
 20
4.649999149559038
 30
0.0
  0
LINE
  5
5A
330
1F
100
AcDbEntity
  8
DEFAULT
100
AcDbLine
 10
30.70000000000426
 20
15.93242114955905
 30
0.0
 11
30.70000000000421
 21
9.500999149559044
 31
0.0
  0
SPLINE
  5
5B
330
1F
100
AcDbEntity
  8
DEFAULT
100
AcDbSpline
210
0.0
220
0.0
230
1.0
 70
    24
 71
     2
 72
     6
 73
     3
 74
     0
 42
0.0000000001
 43
0.0000000001
 40
0.0
 40
0.0
 40
0.0
 40
1.0
 40
1.0
 40
1.0
 10
57.88700000000422
 20
9.000999149559037
 30
0.0
 10
57.88700000000422
 20
8.90699914955904
 30
0.0
 10
57.88700000000422
 20
8.812999149559042
 30
0.0
  0
SPLINE
  5
5C
330
1F
100
AcDbEntity
  8
DEFAULT
100
AcDbSpline
210
0.0
220
0.0
230
1.0
 70
    24
 71
     2
 72
     6
 73
     3
 74
     0
 42
0.0000000001
 43
0.0000000001
 40
0.0
 40
0.0
 40
0.0
 40
1.0
 40
1.0
 40
1.0
 10
57.45000000000421
 20
5.149999149559038
 30
0.0
 10
51.57500000000421
 20
5.149999149559038
 30
0.0
 10
45.70000000000421
 20
5.149999149559038
 30
0.0
  0
SPLINE
  5
5D
330
1F
100
AcDbEntity
  8
DEFAULT
100
AcDbSpline
210
0.0
220
0.0
230
1.0
 70
    24
 71
     2
 72
     6
 73
     3
 74
     0
 42
0.0000000001
 43
0.0000000001
 40
0.0
 40
0.0
 40
0.0
 40
1.0
 40
1.0
 40
1.0
 10
58.32500000000421
 20
9.000999149559037
 30
0.0
 10
58.32500000000421
 20
8.90699914955904
 30
0.0
 10
58.32500000000421
 20
8.812999149559042
 30
0.0
  0
ARC
  5
5E
330
1F
100
AcDbEntity
  8
DEFAULT
100
AcDbCircle
 10
45.70000000000421
 20
4.899999149559038
 30
0.0
 40
0.25
100
AcDbArc
 50
90.0
 51
270.0
  0
ARC
  5
5F
330
1F
100
AcDbEntity
  8
DEFAULT
100
AcDbCircle
 10
57.88750000000421
 20
1.535208149559042
 30
0.0
 40
1.535208149559041
100
AcDbArc
 50
254.7861901482701
 51
285.2138458649218
  0
SPLINE
  5
60
330
1F
100
AcDbEntity
  8
DEFAULT
100
AcDbSpline
210
0.0
220
0.0
230
1.0
 70
    24
 71
     2
 72
     6
 73
     3
 74
     0
 42
0.0000000001
 43
0.0000000001
 40
0.0
 40
0.0
 40
0.0
 40
1.0
 40
1.0
 40
1.0
 10
33.01300000000421
 20
9.000999149559037
 30
0.0
 10
33.01300000000421
 20
8.90699914955904
 30
0.0
 10
33.01300000000421
 20
8.812999149559042
 30
0.0
  0
SPLINE
  5
61
330
1F
100
AcDbEntity
  8
DEFAULT
100
AcDbSpline
210
0.0
220
0.0
230
1.0
 70
    24
 71
     2
 72
     6
 73
     3
 74
     0
 42
0.0000000001
 43
0.0000000001
 40
0.0
 40
0.0
 40
0.0
 40
1.0
 40
1.0
 40
1.0
 10
16.8125
 20
9.000999149559037
 30
0.0
 10
16.8125
 20
8.90699914955904
 30
0.0
 10
16.8125
 20
8.812999149559042
 30
0.0
  0
SPLINE
  5
62
330
1F
100
AcDbEntity
  8
DEFAULT
100
AcDbSpline
210
0.0
220
0.0
230
1.0
 70
    24
 71
     2
 72
     6
 73
     3
 74
     0
 42
0.0000000001
 43
0.0000000001
 40
0.0
 40
0.0
 40
0.0
 40
1.0
 40
1.0
 40
1.0
 10
-16.8125
 20
0.1499991495590383
 30
0.0
 10
-16.8125
 20
4.575499149559038
 30
0.0
 10
-16.8125
 20
9.000999149559037
 30
0.0
  0
SPLINE
  5
63
330
1F
100
AcDbEntity
  8
DEFAULT
100
AcDbSpline
210
0.0
220
0.0
230
1.0
 70
    24
 71
     2
 72
     6
 73
     3
 74
     0
 42
0.0000000001
 43
0.0000000001
 40
0.0
 40
0.0
 40
0.0
 40
1.0
 40
1.0
 40
1.0
 10
-16.8
 20
0.1499991495590383
 30
0.0
 10
-16.8
 20
0.1163756495590373
 30
0.0
 10
-16.8
 20
0.0827521495590364
 30
0.0
  0
SPLINE
  5
64
330
1F
100
AcDbEntity
  8
DEFAULT
100
AcDbSpline
210
0.0
220
0.0
230
1.0
 70
    24
 71
     2
 72
     6
 73
     3
 74
     0
 42
0.0000000001
 43
0.0000000001
 40
0.0
 40
0.0
 40
0.0
 40
1.0
 40
1.0
 40
1.0
 10
-16.8
 20
0.0827521495590364
 30
0.0
 10
-16.8
 20
0.1163756495590373
 30
0.0
 10
-16.8
 20
0.1499991495590383
 30
0.0
  0
SPLINE
  5
65
330
1F
100
AcDbEntity
  8
DEFAULT
100
AcDbSpline
210
0.0
220
0.0
230
1.0
 70
    24
 71
     2
 72
     6
 73
     3
 74
     0
 42
0.0000000001
 43
0.0000000001
 40
0.0
 40
0.0
 40
0.0
 40
1.0
 40
1.0
 40
1.0
 10
-15.95
 20
0.1499991495590383
 30
0.0
 10
-15.95
 20
0.1163756495590373
 30
0.0
 10
-15.95
 20
0.0827521495590364
 30
0.0
  0
SPLINE
  5
66
330
1F
100
AcDbEntity
  8
DEFAULT
100
AcDbSpline
210
0.0
220
0.0
230
1.0
 70
    24
 71
     2
 72
     6
 73
     3
 74
     0
 42
0.0000000001
 43
0.0000000001
 40
0.0
 40
0.0
 40
0.0
 40
1.0
 40
1.0
 40
1.0
 10
15.9375
 20
0.1499991495590383
 30
0.0
 10
15.9375
 20
4.48149914955904
 30
0.0
 10
15.9375
 20
8.812999149559042
 30
0.0
  0
LINE
  5
67
330
1F
100
AcDbEntity
  8
DEFAULT
100
AcDbLine
 10
-18.20000000000003
 20
9.000999149559036
 30
0.0
 11
18.20000000000003
 21
9.00099914955904
 31
0.0
  0
LINE
  5
68
330
1F
100
AcDbEntity
  8
DEFAULT
100
AcDbLine
 10
-18.70000000000708
 20
15.93242114955883
 30
0.0
 11
-18.7
 21
9.500999149559036
 31
0.0
  0
LINE
  5
69
330
1F
100
AcDbEntity
  8
DEFAULT
100
AcDbLine
 10
18.70000000000005
 20
9.500999149559025
 30
0.0
 11
18.70000000000718
 21
15.93242114955884
 31
0.0
  0
ARC
  5
6A
330
1F
100
AcDbEntity
  8
DEFAULT
100
AcDbCircle
 10
18.20000000000005
 20
9.500999149559037
 30
0.0
 40
0.4999999999999982
100
AcDbArc
 50
269.9999999999988
 51
359.9999999999986
  0
ARC
  5
6B
330
1F
100
AcDbEntity
  8
DEFAULT
100
AcDbCircle
 10
-18.2
 20
9.500999149559036
 30
0.0
 40
0.5
100
AcDbArc
 50
180.0
 51
269.9999999999964
  0
ARC
  5
6C
330
1F
100
AcDbEntity
  8
DEFAULT
100
AcDbCircle
 10
-18.20000000000708
 20
15.93242114955904
 30
0.0
 40
0.5
100
AcDbArc
 50
90.0
 51
180.0000000000242
  0
ARC
  5
6D
330
1F
100
AcDbEntity
  8
DEFAULT
100
AcDbCircle
 10
18.20000000000718
 20
15.93242114955904
 30
0.0
 40
0.5
100
AcDbArc
 50
359.999999999977
 51
90.0
  0
SPLINE
  5
6E
330
1F
100
AcDbEntity
  8
DEFAULT
100
AcDbSpline
210
0.0
220
0.0
230
1.0
 70
    24
 71
     2
 72
     6
 73
     3
 74
     0
 42
0.0000000001
 43
0.0000000001
 40
0.0
 40
0.0
 40
0.0
 40
1.0
 40
1.0
 40
1.0
 10
16.8
 20
0.1499991495590383
 30
0.0
 10
16.8
 20
0.1163756495590373
 30
0.0
 10
16.8
 20
0.0827521495590364
 30
0.0
  0
SPLINE
  5
6F
330
1F
100
AcDbEntity
  8
DEFAULT
100
AcDbSpline
210
0.0
220
0.0
230
1.0
 70
    24
 71
     2
 72
     6
 73
     3
 74
     0
 42
0.0000000001
 43
0.0000000001
 40
0.0
 40
0.0
 40
0.0
 40
1.0
 40
1.0
 40
1.0
 10
16.8
 20
0.0827521495590364
 30
0.0
 10
16.8
 20
0.1163756495590373
 30
0.0
 10
16.8
 20
0.1499991495590383
 30
0.0
  0
SPLINE
  5
70
330
1F
100
AcDbEntity
  8
DEFAULT
100
AcDbSpline
210
0.0
220
0.0
230
1.0
 70
     8
 71
     2
 72
    28
 73
    25
 74
     0
 42
0.0000000001
 43
0.0000000001
 40
0.0
 40
0.0
 40
0.0
 40
1.0
 40
1.0
 40
2.0
 40
2.0
 40
3.0
 40
3.0
 40
4.0
 40
4.0
 40
5.0
 40
5.0
 40
6.0
 40
6.0
 40
7.0
 40
7.0
 40
8.0
 40
8.0
 40
9.0
 40
9.0
 40
10.0
 40
10.0
 40
11.0
 40
11.0
 40
12.0
 40
12.0
 40
12.0
 10
-4.480392999999999
 20
4.649999149559038
 30
0.0
 10
-4.468855999999999
 20
4.651068649559038
 30
0.0
 10
-4.457318999999998
 20
4.652138149559038
 30
0.0
 10
-4.445979499999998
 20
4.655328149559038
 30
0.0
 10
-4.434639999999998
 20
4.658518149559038
 30
0.0
 10
-4.423691499999999
 20
4.663774149559037
 30
0.0
 10
-4.412742999999999
 20
4.669030149559037
 30
0.0
 10
-4.402373999999999
 20
4.67626164955904
 30
0.0
 10
-4.392004999999999
 20
4.683493149559043
 30
0.0
 10
-4.382391499999999
 20
4.692577149559041
 30
0.0
 10
-4.372777999999998
 20
4.701661149559039
 30
0.0
 10
-4.364085499999999
 20
4.71244214955904
 30
0.0
 10
-4.355392999999999
 20
4.723223149559042
 30
0.0
 10
-4.347769999999999
 20
4.735516149559041
 30
0.0
 10
-4.340146999999998
 20
4.747809149559041
 30
0.0
 10
-4.333723499999999
 20
4.76140414955904
 30
0.0
 10
-4.327299999999999
 20
4.774999149559038
 30
0.0
 10
-4.322186499999999
 20
4.789664149559039
 30
0.0
 10
-4.317072999999999
 20
4.80432914955904
 30
0.0
 10
-4.313356499999998
 20
4.81981214955904
 30
0.0
 10
-4.309639999999998
 20
4.835295149559039
 30
0.0
 10
-4.307384499999999
 20
4.851331649559038
 30
0.0
 10
-4.305128999999999
 20
4.867368149559036
 30
0.0
 10
-4.304372499999999
 20
4.883683649559037
 30
0.0
 10
-4.303615999999998
 20
4.899999149559038
 30
0.0
  0
SPLINE
  5
71
330
1F
100
AcDbEntity
  8
DEFAULT
100
AcDbSpline
210
0.0
220
0.0
230
1.0
 70
    24
 71
     2
 72
     6
 73
     3
 74
     0
 42
0.0000000001
 43
0.0000000001
 40
0.0
 40
0.0
 40
0.0
 40
1.0
 40
1.0
 40
1.0
 10
15.9375
 20
5.149999149559038
 30
0.0
 10
0.0000000000000009
 20
5.149999149559038
 30
0.0
 10
-15.9375
 20
5.149999149559038
 30
0.0
  0
SPLINE
  5
72
330
1F
100
AcDbEntity
  8
DEFAULT
100
AcDbSpline
210
0.0
220
0.0
230
1.0
 70
    24
 71
     2
 72
     6
 73
     3
 74
     0
 42
0.0000000001
 43
0.0000000001
 40
0.0
 40
0.0
 40
0.0
 40
1.0
 40
1.0
 40
1.0
 10
-16.375
 20
8.812999149559042
 30
0.0
 10
0.0
 20
8.812999149559042
 30
0.0
 10
16.375
 20
8.812999149559042
 30
0.0
  0
SPLINE
  5
73
330
1F
100
AcDbEntity
  8
DEFAULT
100
AcDbSpline
210
0.0
220
0.0
230
1.0
 70
    24
 71
     2
 72
     6
 73
     3
 74
     0
 42
0.0000000001
 43
0.0000000001
 40
0.0
 40
0.0
 40
0.0
 40
1.0
 40
1.0
 40
1.0
 10
15.9375
 20
0.1499991495590383
 30
0.0
 10
15.9375
 20
4.48149914955904
 30
0.0
 10
15.9375
 20
8.812999149559042
 30
0.0
  0
SPLINE
  5
74
330
1F
100
AcDbEntity
  8
DEFAULT
100
AcDbSpline
210
0.0
220
0.0
230
1.0
 70
    24
 71
     2
 72
     6
 73
     3
 74
     0
 42
0.0000000001
 43
0.0000000001
 40
0.0
 40
0.0
 40
0.0
 40
1.0
 40
1.0
 40
1.0
 10
15.95
 20
0.1499991495590383
 30
0.0
 10
15.95
 20
0.1163756495590373
 30
0.0
 10
15.95
 20
0.0827521495590364
 30
0.0
  0
ARC
  5
75
330
1F
100
AcDbEntity
  8
DEFAULT
100
AcDbCircle
 10
-16.77
 20
0.0827521495590364
 30
0.0
 40
0.0299996257286639
100
AcDbArc
 50
180.0
 51
254.7870938012563
  0
ARC
  5
76
330
1F
100
AcDbEntity
  8
DEFAULT
100
AcDbCircle
 10
33.01250000000421
 20
1.535208149559042
 30
0.0
 40
1.535208149559042
100
AcDbArc
 50
254.7861901482698
 51
285.2138458649218
  0
SPLINE
  5
77
330
1F
100
AcDbEntity
  8
DEFAULT
100
AcDbSpline
210
0.0
220
0.0
230
1.0
 70
    24
 71
     2
 72
     6
 73
     3
 74
     0
 42
0.0000000001
 43
0.0000000001
 40
0.0
 40
0.0
 40
0.0
 40
1.0
 40
1.0
 40
1.0
 10
45.20000000000421
 20
4.649999149559038
 30
0.0
 10
39.32500000000421
 20
4.649999149559038
 30
0.0
 10
33.45000000000421
 20
4.649999149559038
 30
0.0
  0
ARC
  5
78
330
1F
100
AcDbEntity
  8
DEFAULT
100
AcDbCircle
 10
58.28250000000422
 20
0.0827521495590364
 30
0.0
 40
0.0299997569396974
100
AcDbArc
 50
285.2147491614996
 51
0.0
  0
SPLINE
  5
79
330
1F
100
AcDbEntity
  8
DEFAULT
100
AcDbSpline
210
0.0
220
0.0
230
1.0
 70
     8
 71
     2
 72
    28
 73
    25
 74
     0
 42
0.0000000001
 43
0.0000000001
 40
0.0
 40
0.0
 40
0.0
 40
1.0
 40
1.0
 40
2.0
 40
2.0
 40
3.0
 40
3.0
 40
4.0
 40
4.0
 40
5.0
 40
5.0
 40
6.0
 40
6.0
 40
7.0
 40
7.0
 40
8.0
 40
8.0
 40
9.0
 40
9.0
 40
10.0
 40
10.0
 40
11.0
 40
11.0
 40
12.0
 40
12.0
 40
12.0
 10
4.303615999999998
 20
4.899999149559038
 30
0.0
 10
4.304372499999999
 20
4.916315149559038
 30
0.0
 10
4.305128999999999
 20
4.932631149559038
 30
0.0
 10
4.307384499999999
 20
4.94866764955904
 30
0.0
 10
4.309639999999998
 20
4.964704149559042
 30
0.0
 10
4.313356499999998
 20
4.980187149559042
 30
0.0
 10
4.317072999999999
 20
4.995670149559041
 30
0.0
 10
4.322186499999999
 20
5.01033464955904
 30
0.0
 10
4.327299999999999
 20
5.024999149559038
 30
0.0
 10
4.333723499999999
 20
5.038594649559039
 30
0.0
 10
4.340146999999998
 20
5.05219014955904
 30
0.0
 10
4.347769999999999
 20
5.06448314955904
 30
0.0
 10
4.355392999999999
 20
5.07677614955904
 30
0.0
 10
4.364085499999999
 20
5.087557149559041
 30
0.0
 10
4.372777999999998
 20
5.098338149559043
 30
0.0
 10
4.382391499999999
 20
5.10742214955904
 30
0.0
 10
4.392004999999999
 20
5.116506149559038
 30
0.0
 10
4.402373999999999
 20
5.123737649559038
 30
0.0
 10
4.412742999999999
 20
5.130969149559037
 30
0.0
 10
4.423691499999999
 20
5.136225149559037
 30
0.0
 10
4.434639999999998
 20
5.141481149559036
 30
0.0
 10
4.445979499999998
 20
5.144671149559036
 30
0.0
 10
4.457318999999998
 20
5.147861149559036
 30
0.0
 10
4.468855999999999
 20
5.148930149559037
 30
0.0
 10
4.480392999999999
 20
5.149999149559038
 30
0.0
  0
SPLINE
  5
7A
330
1F
100
AcDbEntity
  8
DEFAULT
100
AcDbSpline
210
0.0
220
0.0
230
1.0
 70
     8
 71
     2
 72
    28
 73
    25
 74
     0
 42
0.0000000001
 43
0.0000000001
 40
0.0
 40
0.0
 40
0.0
 40
1.0
 40
1.0
 40
2.0
 40
2.0
 40
3.0
 40
3.0
 40
4.0
 40
4.0
 40
5.0
 40
5.0
 40
6.0
 40
6.0
 40
7.0
 40
7.0
 40
8.0
 40
8.0
 40
9.0
 40
9.0
 40
10.0
 40
10.0
 40
11.0
 40
11.0
 40
12.0
 40
12.0
 40
12.0
 10
4.480392999999999
 20
4.649999149559038
 30
0.0
 10
4.468855999999999
 20
4.651068649559038
 30
0.0
 10
4.457318999999998
 20
4.652138149559038
 30
0.0
 10
4.445979499999998
 20
4.655328149559038
 30
0.0
 10
4.434639999999998
 20
4.658518149559038
 30
0.0
 10
4.423691499999999
 20
4.663774149559037
 30
0.0
 10
4.412742999999999
 20
4.669030149559037
 30
0.0
 10
4.402373999999999
 20
4.67626164955904
 30
0.0
 10
4.392004999999999
 20
4.683493149559043
 30
0.0
 10
4.382391499999999
 20
4.692577149559041
 30
0.0
 10
4.372777999999998
 20
4.701661149559039
 30
0.0
 10
4.364085499999999
 20
4.71244214955904
 30
0.0
 10
4.355392999999999
 20
4.723223149559042
 30
0.0
 10
4.347769999999999
 20
4.735516149559041
 30
0.0
 10
4.340146999999998
 20
4.747809149559041
 30
0.0
 10
4.333723499999999
 20
4.76140414955904
 30
0.0
 10
4.327299999999999
 20
4.774999149559038
 30
0.0
 10
4.322186499999999
 20
4.789664149559039
 30
0.0
 10
4.317072999999999
 20
4.80432914955904
 30
0.0
 10
4.313356499999998
 20
4.81981214955904
 30
0.0
 10
4.309639999999998
 20
4.835295149559039
 30
0.0
 10
4.307384499999999
 20
4.851331649559038
 30
0.0
 10
4.305128999999999
 20
4.867368149559036
 30
0.0
 10
4.304372499999999
 20
4.883683649559037
 30
0.0
 10
4.303615999999998
 20
4.899999149559038
 30
0.0
  0
ARC
  5
7B
330
1F
100
AcDbEntity
  8
DEFAULT
100
AcDbCircle
 10
-15.98
 20
0.0827521495590364
 30
0.0
 40
0.0299997569396973
100
AcDbArc
 50
285.2147491615099
 51
359.9999999999999
  0
SPLINE
  5
7C
330
1F
100
AcDbEntity
  8
DEFAULT
100
AcDbSpline
210
0.0
220
0.0
230
1.0
 70
    24
 71
     2
 72
     6
 73
     3
 74
     0
 42
0.0000000001
 43
0.0000000001
 40
0.0
 40
0.0
 40
0.0
 40
1.0
 40
1.0
 40
1.0
 10
16.8125
 20
0.1499991495590383
 30
0.0
 10
16.8125
 20
4.575499149559038
 30
0.0
 10
16.8125
 20
9.000999149559037
 30
0.0
  0
SPLINE
  5
7D
330
1F
100
AcDbEntity
  8
DEFAULT
100
AcDbSpline
210
0.0
220
0.0
230
1.0
 70
    24
 71
     2
 72
     6
 73
     3
 74
     0
 42
0.0000000001
 43
0.0000000001
 40
0.0
 40
0.0
 40
0.0
 40
1.0
 40
1.0
 40
1.0
 10
-16.8125
 20
0.1499991495590383
 30
0.0
 10
-16.375
 20
0.1499991495590383
 30
0.0
 10
-15.9375
 20
0.1499991495590383
 30
0.0
  0
SPLINE
  5
7E
330
1F
100
AcDbEntity
  8
DEFAULT
100
AcDbSpline
210
0.0
220
0.0
230
1.0
 70
    24
 71
     2
 72
     6
 73
     3
 74
     0
 42
0.0000000001
 43
0.0000000001
 40
0.0
 40
0.0
 40
0.0
 40
1.0
 40
1.0
 40
1.0
 10
15.9375
 20
0.1499991495590383
 30
0.0
 10
16.375
 20
0.1499991495590383
 30
0.0
 10
16.8125
 20
0.1499991495590383
 30
0.0
  0
SPLINE
  5
7F
330
1F
100
AcDbEntity
  8
DEFAULT
100
AcDbSpline
210
0.0
220
0.0
230
1.0
 70
    24
 71
     2
 72
     6
 73
     3
 74
     0
 42
0.0000000001
 43
0.0000000001
 40
0.0
 40
0.0
 40
0.0
 40
1.0
 40
1.0
 40
1.0
 10
32.58750000000421
 20
0.1499991495590383
 30
0.0
 10
32.58750000000421
 20
0.1163756495590373
 30
0.0
 10
32.58750000000421
 20
0.0827521495590364
 30
0.0
  0
SPLINE
  5
80
330
1F
100
AcDbEntity
  8
DEFAULT
100
AcDbSpline
210
0.0
220
0.0
230
1.0
 70
    24
 71
     2
 72
     6
 73
     3
 74
     0
 42
0.0000000001
 43
0.0000000001
 40
0.0
 40
0.0
 40
0.0
 40
1.0
 40
1.0
 40
1.0
 10
58.32500000000421
 20
0.1499991495590383
 30
0.0
 10
58.32500000000421
 20
4.48149914955904
 30
0.0
 10
58.32500000000421
 20
8.812999149559042
 30
0.0
  0
SPLINE
  5
81
330
1F
100
AcDbEntity
  8
DEFAULT
100
AcDbSpline
210
0.0
220
0.0
230
1.0
 70
    24
 71
     2
 72
     6
 73
     3
 74
     0
 42
0.0000000001
 43
0.0000000001
 40
0.0
 40
0.0
 40
0.0
 40
1.0
 40
1.0
 40
1.0
 10
57.88750000000421
 20
8.812999149559042
 30
0.0
 10
45.45000000000421
 20
8.812999149559042
 30
0.0
 10
33.01250000000421
 20
8.812999149559042
 30
0.0
  0
LINE
  5
82
330
1F
100
AcDbEntity
  8
DEFAULT
100
AcDbLine
 10
60.20000000000421
 20
10.00099914955902
 30
0.0
 11
60.20000000000421
 21
15.43242114955906
 31
0.0
  0
ARC
  5
83
330
1F
100
AcDbEntity
  8
DEFAULT
100
AcDbCircle
 10
31.20000000000426
 20
15.93242114955904
 30
0.0
 40
0.5
100
AcDbArc
 50
90.0
 51
179.9999999999994
  0
ARC
  5
84
330
1F
100
AcDbEntity
  8
DEFAULT
100
AcDbCircle
 10
32.61750000000421
 20
0.0827521495590364
 30
0.0
 40
0.0299996257286653
100
AcDbArc
 50
180.0
 51
254.7870938012366
  0
SPLINE
  5
85
330
1F
100
AcDbEntity
  8
DEFAULT
100
AcDbSpline
210
0.0
220
0.0
230
1.0
 70
    24
 71
     2
 72
     6
 73
     3
 74
     0
 42
0.0000000001
 43
0.0000000001
 40
0.0
 40
0.0
 40
0.0
 40
1.0
 40
1.0
 40
1.0
 10
57.46250000000421
 20
0.1499991495590383
 30
0.0
 10
57.46250000000421
 20
0.1163756495590373
 30
0.0
 10
57.46250000000421
 20
0.0827521495590364
 30
0.0
  0
SPLINE
  5
86
330
1F
100
AcDbEntity
  8
DEFAULT
100
AcDbSpline
210
0.0
220
0.0
230
1.0
 70
    24
 71
     2
 72
     6
 73
     3
 74
     0
 42
0.0000000001
 43
0.0000000001
 40
0.0
 40
0.0
 40
0.0
 40
1.0
 40
1.0
 40
1.0
 10
32.57500000000421
 20
9.000999149559037
 30
0.0
 10
32.57500000000421
 20
8.90699914955904
 30
0.0
 10
32.57500000000421
 20
8.812999149559042
 30
0.0
  0
SPLINE
  5
87
330
1F
100
AcDbEntity
  8
DEFAULT
100
AcDbSpline
210
0.0
220
0.0
230
1.0
 70
    24
 71
     2
 72
     6
 73
     3
 74
     0
 42
0.0000000001
 43
0.0000000001
 40
0.0
 40
0.0
 40
0.0
 40
1.0
 40
1.0
 40
1.0
 10
58.32485000000422
 20
0.1499991495590383
 30
0.0
 10
57.88750050000422
 20
0.1499991495590383
 30
0.0
 10
57.45015100000421
 20
0.1499991495590383
 30
0.0
  0
ARC
  5
88
330
1F
100
AcDbEntity
  8
DEFAULT
100
AcDbCircle
 10
59.20000000000421
 20
10.00099914955904
 30
0.0
 40
1.0
100
AcDbArc
 50
270.0
 51
359.9999999999992
  0
SPLINE
  5
89
330
1F
100
AcDbEntity
  8
DEFAULT
100
AcDbSpline
210
0.0
220
0.0
230
1.0
 70
    24
 71
     2
 72
     6
 73
     3
 74
     0
 42
0.0000000001
 43
0.0000000001
 40
0.0
 40
0.0
 40
0.0
 40
1.0
 40
1.0
 40
1.0
 10
32.57500000000421
 20
0.1499991495590383
 30
0.0
 10
32.57500000000421
 20
4.575499149559038
 30
0.0
 10
32.57500000000421
 20
9.000999149559037
 30
0.0
  0
ARC
  5
8A
330
1F
100
AcDbEntity
  8
DEFAULT
100
AcDbCircle
 10
59.20000000000421
 20
15.43242114955906
 30
0.0
 40
1.0
100
AcDbArc
 50
0.0
 51
90.0
  0
SPLINE
  5
8B
330
1F
100
AcDbEntity
  8
DEFAULT
100
AcDbSpline
210
0.0
220
0.0
230
1.0
 70
    24
 71
     2
 72
     6
 73
     3
 74
     0
 42
0.0000000001
 43
0.0000000001
 40
0.0
 40
0.0
 40
0.0
 40
1.0
 40
1.0
 40
1.0
 10
58.31250000000422
 20
0.1499991495590383
 30
0.0
 10
58.31250000000422
 20
0.1163756495590373
 30
0.0
 10
58.31250000000422
 20
0.0827521495590364
 30
0.0
  0
SPLINE
  5
8C
330
1F
100
AcDbEntity
  8
DEFAULT
100
AcDbSpline
210
0.0
220
0.0
230
1.0
 70
    24
 71
     2
 72
     6
 73
     3
 74
     0
 42
0.0000000001
 43
0.0000000001
 40
0.0
 40
0.0
 40
0.0
 40
1.0
 40
1.0
 40
1.0
 10
45.20000000000421
 20
5.149999149559038
 30
0.0
 10
39.32500000000421
 20
5.149999149559038
 30
0.0
 10
33.45000000000421
 20
5.149999149559038
 30
0.0
  0
SPLINE
  5
8D
330
1F
100
AcDbEntity
  8
DEFAULT
100
AcDbSpline
210
0.0
220
0.0
230
1.0
 70
    24
 71
     2
 72
     6
 73
     3
 74
     0
 42
0.0000000001
 43
0.0000000001
 40
0.0
 40
0.0
 40
0.0
 40
1.0
 40
1.0
 40
1.0
 10
57.45000000000421
 20
0.1499991495590383
 30
0.0
 10
57.45000000000421
 20
4.48149914955904
 30
0.0
 10
57.45000000000421
 20
8.812999149559042
 30
0.0
  0
SPLINE
  5
8E
330
1F
100
AcDbEntity
  8
DEFAULT
100
AcDbSpline
210
0.0
220
0.0
230
1.0
 70
    24
 71
     2
 72
     6
 73
     3
 74
     0
 42
0.0000000001
 43
0.0000000001
 40
0.0
 40
0.0
 40
0.0
 40
1.0
 40
1.0
 40
1.0
 10
33.45000000000421
 20
0.1499991495590383
 30
0.0
 10
33.45000000000421
 20
4.48149914955904
 30
0.0
 10
33.45000000000421
 20
8.812999149559042
 30
0.0
  0
ARC
  5
8F
330
1F
100
AcDbEntity
  8
DEFAULT
100
AcDbCircle
 10
57.49250000000421
 20
0.0827521495590364
 30
0.0
 40
0.0299996257286643
100
AcDbArc
 50
180.0
 51
254.7870938012501
  0
LINE
  5
90
330
1F
100
AcDbEntity
  8
DEFAULT
100
AcDbLine
 10
31.20000000000421
 20
9.000999149559046
 30
0.0
 11
59.20000000000421
 21
9.000999149559037
 31
0.0
  0
SPLINE
  5
91
330
1F
100
AcDbEntity
  8
DEFAULT
100
AcDbSpline
210
0.0
220
0.0
230
1.0
 70
    24
 71
     2
 72
     6
 73
     3
 74
     0
 42
0.0000000001
 43
0.0000000001
 40
0.0
 40
0.0
 40
0.0
 40
1.0
 40
1.0
 40
1.0
 10
33.44985000000422
 20
0.1499991495590383
 30
0.0
 10
33.01250050000422
 20
0.1499991495590383
 30
0.0
 10
32.57515100000421
 20
0.1499991495590383
 30
0.0
  0
ARC
  5
92
330
1F
100
AcDbEntity
  8
DEFAULT
100
AcDbCircle
 10
45.20000000000421
 20
4.899999149559038
 30
0.0
 40
0.25
100
AcDbArc
 50
270.0
 51
90.0
  0
ARC
  5
93
330
1F
100
AcDbEntity
  8
DEFAULT
100
AcDbCircle
 10
31.20000000000421
 20
9.500999149559046
 30
0.0
 40
0.5
100
AcDbArc
 50
180.0000000000002
 51
269.9999999999996
  0
ARC
  5
94
330
1F
100
AcDbEntity
  8
DEFAULT
100
AcDbCircle
 10
33.40750000000421
 20
0.0827521495590364
 30
0.0
 40
0.0299997569396983
100
AcDbArc
 50
285.2147491615132
 51
0.0
  0
SPLINE
  5
95
330
1F
100
AcDbEntity
  8
DEFAULT
100
AcDbSpline
210
0.0
220
0.0
230
1.0
 70
    24
 71
     2
 72
     6
 73
     3
 74
     0
 42
0.0000000001
 43
0.0000000001
 40
0.0
 40
0.0
 40
0.0
 40
1.0
 40
1.0
 40
1.0
 10
15.9375
 20
4.649999149559038
 30
0.0
 10
0.0000000000000009
 20
4.649999149559038
 30
0.0
 10
-15.9375
 20
4.649999149559038
 30
0.0
  0
SPLINE
  5
96
330
1F
100
AcDbEntity
  8
DEFAULT
100
AcDbSpline
210
0.0
220
0.0
230
1.0
 70
     8
 71
     2
 72
    28
 73
    25
 74
     0
 42
0.0000000001
 43
0.0000000001
 40
0.0
 40
0.0
 40
0.0
 40
1.0
 40
1.0
 40
2.0
 40
2.0
 40
3.0
 40
3.0
 40
4.0
 40
4.0
 40
5.0
 40
5.0
 40
6.0
 40
6.0
 40
7.0
 40
7.0
 40
8.0
 40
8.0
 40
9.0
 40
9.0
 40
10.0
 40
10.0
 40
11.0
 40
11.0
 40
12.0
 40
12.0
 40
12.0
 10
-4.303615999999998
 20
4.899999149559038
 30
0.0
 10
-4.304372499999999
 20
4.916315149559038
 30
0.0
 10
-4.305128999999999
 20
4.932631149559038
 30
0.0
 10
-4.307384499999999
 20
4.94866764955904
 30
0.0
 10
-4.309639999999998
 20
4.964704149559042
 30
0.0
 10
-4.313356499999998
 20
4.980187149559042
 30
0.0
 10
-4.317072999999999
 20
4.995670149559041
 30
0.0
 10
-4.322186499999999
 20
5.01033464955904
 30
0.0
 10
-4.327299999999999
 20
5.024999149559038
 30
0.0
 10
-4.333723499999999
 20
5.038594649559039
 30
0.0
 10
-4.340146999999998
 20
5.05219014955904
 30
0.0
 10
-4.347769999999999
 20
5.06448314955904
 30
0.0
 10
-4.355392999999999
 20
5.07677614955904
 30
0.0
 10
-4.364085499999999
 20
5.087557149559041
 30
0.0
 10
-4.372777999999998
 20
5.098338149559043
 30
0.0
 10
-4.382391499999999
 20
5.10742214955904
 30
0.0
 10
-4.392004999999999
 20
5.116506149559038
 30
0.0
 10
-4.402373999999999
 20
5.123737649559038
 30
0.0
 10
-4.412742999999999
 20
5.130969149559037
 30
0.0
 10
-4.423691499999999
 20
5.136225149559037
 30
0.0
 10
-4.434639999999998
 20
5.141481149559036
 30
0.0
 10
-4.445979499999998
 20
5.144671149559036
 30
0.0
 10
-4.457318999999998
 20
5.147861149559036
 30
0.0
 10
-4.468855999999999
 20
5.148930149559037
 30
0.0
 10
-4.480392999999999
 20
5.149999149559038
 30
0.0
  0
ENDSEC
  0
SECTION
  2
OBJECTS
  0
DICTIONARY
  5
C
330
0
100
AcDbDictionary
281
     1
  3
ACAD_GROUP
350
D
  3
ACAD_LAYOUT
350
1A
  3
ACAD_MLEADERSTYLE
350
99
  3
ACAD_MLINESTYLE
350
17
  3
ACAD_PLOTSETTINGS
350
19
  3
ACAD_PLOTSTYLENAME
350
E
  3
ACAD_VISUALSTYLE
350
2A
  3
AcDbVariableDictionary
350
97
  0
DICTIONARY
  5
D
102
{ACAD_REACTORS
330
C
102
}
330
C
100
AcDbDictionary
281
     1
  0
DICTIONARY
  5
1A
102
{ACAD_REACTORS
330
C
102
}
330
C
100
AcDbDictionary
281
     1
  3
Layout1
350
1E
  3
Layout2
350
26
  3
Model
350
22
  0
DICTIONARY
  5
99
102
{ACAD_REACTORS
330
C
102
}
330
C
100
AcDbDictionary
281
     1
  0
DICTIONARY
  5
17
102
{ACAD_REACTORS
330
C
102
}
330
C
100
AcDbDictionary
281
     1
  3
Standard
350
18
  0
DICTIONARY
  5
19
102
{ACAD_REACTORS
330
C
102
}
330
C
100
AcDbDictionary
281
     1
  0
ACDBDICTIONARYWDFLT
  5
E
102
{ACAD_REACTORS
330
C
102
}
330
C
100
AcDbDictionary
281
     1
  3
Normal
350
F
100
AcDbDictionaryWithDefault
340
F
  0
DICTIONARY
  5
2A
102
{ACAD_REACTORS
330
C
102
}
330
C
100
AcDbDictionary
281
     1
  3
2dWireframe
350
2F
  3
3D Hidden
350
31
  3
3dWireframe
350
30
  3
Basic
350
32
  3
Brighten
350
36
  3
ColorChange
350
3A
  3
Conceptual
350
34
  3
Dim
350
35
  3
Facepattern
350
39
  3
Flat
350
2B
  3
FlatWithEdges
350
2C
  3
Gouraud
350
2D
  3
GouraudWithEdges
350
2E
  3
Linepattern
350
38
  3
Realistic
350
33
  3
Thicken
350
37
  0
DICTIONARY
  5
97
102
{ACAD_REACTORS
330
C
102
}
330
C
100
AcDbDictionary
281
     1
  0
LAYOUT
  5
1E
102
{ACAD_REACTORS
330
1A
102
}
330
1A
100
AcDbPlotSettings
  1

  2
none_device
  4

  6

 40
0.0
 41
0.0
 42
0.0
 43
0.0
 44
0.0
 45
0.0
 46
0.0
 47
0.0
 48
0.0
 49
0.0
140
0.0
141
0.0
142
1.0
143
1.0
 70
   688
 72
     0
 73
     0
 74
     5
  7

 75
    16
147
1.0
148
0.0
149
0.0
100
AcDbLayout
  1
Layout1
 70
     1
 71
     1
 10
0.0
 20
0.0
 11
12.0
 21
9.0
 12
0.0
 22
0.0
 32
0.0
 14
1.000000000000000E+20
 24
1.000000000000000E+20
 34
1.000000000000000E+20
 15
-1.000000000000000E+20
 25
-1.000000000000000E+20
 35
-1.000000000000000E+20
146
0.0
 13
0.0
 23
0.0
 33
0.0
 16
1.0
 26
0.0
 36
0.0
 17
0.0
 27
1.0
 37
0.0
 76
     0
330
1B
  0
LAYOUT
  5
26
102
{ACAD_REACTORS
330
1A
102
}
330
1A
100
AcDbPlotSettings
  1

  2
none_device
  4

  6

 40
0.0
 41
0.0
 42
0.0
 43
0.0
 44
0.0
 45
0.0
 46
0.0
 47
0.0
 48
0.0
 49
0.0
140
0.0
141
0.0
142
1.0
143
1.0
 70
   688
 72
     0
 73
     0
 74
     5
  7

 75
    16
147
1.0
148
0.0
149
0.0
100
AcDbLayout
  1
Layout2
 70
     1
 71
     2
 10
0.0
 20
0.0
 11
0.0
 21
0.0
 12
0.0
 22
0.0
 32
0.0
 14
0.0
 24
0.0
 34
0.0
 15
0.0
 25
0.0
 35
0.0
146
0.0
 13
0.0
 23
0.0
 33
0.0
 16
1.0
 26
0.0
 36
0.0
 17
0.0
 27
1.0
 37
0.0
 76
     0
330
23
  0
LAYOUT
  5
22
102
{ACAD_REACTORS
330
1A
102
}
330
1A
100
AcDbPlotSettings
  1

  2
none_device
  4

  6

 40
0.0
 41
0.0
 42
0.0
 43
0.0
 44
0.0
 45
0.0
 46
0.0
 47
0.0
 48
0.0
 49
0.0
140
0.0
141
0.0
142
1.0
143
1.0
 70
  1712
 72
     0
 73
     0
 74
     0
  7

 75
     0
147
1.0
148
0.0
149
0.0
100
AcDbLayout
  1
Model
 70
     1
 71
     0
 10
0.0
 20
0.0
 11
12.0
 21
9.0
 12
0.0
 22
0.0
 32
0.0
 14
-18.7000000000073
 24
-0.0000000000000006
 34
0.0
 15
60.20000000000421
 25
68.55742114956338
 35
0.0
146
0.0
 13
0.0
 23
0.0
 33
0.0
 16
1.0
 26
0.0
 36
0.0
 17
0.0
 27
1.0
 37
0.0
 76
     0
330
1F
331
29
  0
MLINESTYLE
  5
18
102
{ACAD_REACTORS
330
17
102
}
330
17
100
AcDbMlineStyle
  2
Standard
 70
     0
  3

 62
   256
 51
90.0
 52
90.0
 71
     2
 49
0.5
 62
   256
  6
BYLAYER
 49
-0.5
 62
   256
  6
BYLAYER
  0
ACDBPLACEHOLDER
  5
F
102
{ACAD_REACTORS
330
E
102
}
330
E
  0
VISUALSTYLE
  5
2F
102
{ACAD_REACTORS
330
2A
102
}
330
2A
100
AcDbVisualStyle
  2
2dWireframe
 70
     4
 71
     0
 72
     2
 73
     0
 90
        0
 40
-0.6
 41
-30.0
 62
     5
 63
     7
 74
     1
 91
        4
 64
     7
 65
   257
 75
     1
175
     1
 42
1.0
 92
        0
 66
   257
 43
1.0
 76
     1
 77
     6
 78
     2
 67
     7
 79
     5
170
     0
171
     0
290
     0
174
     0
 93
        1
 44
0.0
173
     0
291
     0
 45
0.0
1001
ACAD
1000
AcDbSavedByObjectVersion
1070
     0
  0
VISUALSTYLE
  5
31
102
{ACAD_REACTORS
330
2A
102
}
330
2A
100
AcDbVisualStyle
  2
3D Hidden
 70
     6
 71
     1
 72
     2
 73
     2
 90
        0
 40
-0.6
 41
-30.0
 62
     5
 63
     7
 74
     2
 91
        2
 64
     7
 65
   257
 75
     2
175
     1
 42
40.0
 92
        0
 66
   257
 43
1.0
 76
     1
 77
     6
 78
     2
 67
     7
 79
     3
170
     0
171
     0
290
     0
174
     0
 93
        1
 44
0.0
173
     0
291
     0
 45
0.0
1001
ACAD
1000
AcDbSavedByObjectVersion
1070
     0
  0
VISUALSTYLE
  5
30
102
{ACAD_REACTORS
330
2A
102
}
330
2A
100
AcDbVisualStyle
  2
3dWireframe
 70
     5
 71
     0
 72
     2
 73
     0
 90
        0
 40
-0.6
 41
-30.0
 62
     5
 63
     7
 74
     1
 91
        4
 64
     7
 65
   257
 75
     1
175
     1
 42
1.0
 92
        0
 66
   257
 43
1.0
 76
     1
 77
     6
 78
     2
 67
     7
 79
     5
170
     0
171
     0
290
     0
174
     0
 93
        1
 44
0.0
173
     0
291
     0
 45
0.0
1001
ACAD
1000
AcDbSavedByObjectVersion
1070
     0
  0
VISUALSTYLE
  5
32
102
{ACAD_REACTORS
330
2A
102
}
330
2A
100
AcDbVisualStyle
  2
Basic
 70
     7
 71
     1
 72
     0
 73
     1
 90
        0
 40
-0.6
 41
-30.0
 62
     5
 63
     7
 74
     0
 91
        4
 64
     7
 65
   257
 75
     1
175
     1
 42
1.0
 92
        8
 66
     7
 43
1.0
 76
     1
 77
     6
 78
     2
 67
     7
 79
     5
170
     0
171
     0
290
     0
174
     0
 93
        1
 44
0.0
173
     0
291
     1
 45
0.0
1001
ACAD
1000
AcDbSavedByObjectVersion
1070
     0
  0
VISUALSTYLE
  5
36
102
{ACAD_REACTORS
330
2A
102
}
330
2A
100
AcDbVisualStyle
  2
Brighten
 70
    12
 71
     2
 72
     2
 73
     0
 90
        0
 40
-0.6
 41
-30.0
 62
     5
 63
     7
 74
     1
 91
        4
 64
     7
 65
   257
 75
     1
175
     1
 42
1.0
 92
        8
 66
     7
 43
1.0
 76
     1
 77
     6
 78
     2
 67
     7
 79
     5
170
     0
171
     0
290
     0
174
     0
 93
        1
 44
50.0
173
     0
291
     1
 45
0.0
1001
ACAD
1000
AcDbSavedByObjectVersion
1070
     0
  0
VISUALSTYLE
  5
3A
102
{ACAD_REACTORS
330
2A
102
}
330
2A
100
AcDbVisualStyle
  2
ColorChange
 70
    16
 71
     2
 72
     2
 73
     3
 90
        0
 40
-0.6
 41
-30.0
 62
     5
 63
     8
 74
     1
 91
        4
 64
     7
 65
   257
 75
     1
175
     1
 42
1.0
 92
        8
 66
     8
 43
1.0
 76
     1
 77
     6
 78
     2
 67
     7
 79
     5
170
     0
171
     0
290
     0
174
     0
 93
        1
 44
0.0
173
     0
291
     1
 45
0.0
1001
ACAD
1000
AcDbSavedByObjectVersion
1070
     0
  0
VISUALSTYLE
  5
34
102
{ACAD_REACTORS
330
2A
102
}
330
2A
100
AcDbVisualStyle
  2
Conceptual
 70
     9
 71
     3
 72
     2
 73
     0
 90
        0
 40
-0.6
 41
-30.0
 62
     5
 63
     7
 74
     2
 91
        2
 64
     7
 65
   257
 75
     1
175
     1
 42
40.0
 92
        8
 66
     7
 43
1.0
 76
     1
 77
     6
 78
     2
 67
     7
 79
     3
170
     0
171
     0
290
     0
174
     0
 93
        1
 44
0.0
173
     0
291
     0
 45
0.0
1001
ACAD
1000
AcDbSavedByObjectVersion
1070
     0
  0
VISUALSTYLE
  5
35
102
{ACAD_REACTORS
330
2A
102
}
330
2A
100
AcDbVisualStyle
  2
Dim
 70
    11
 71
     2
 72
     2
 73
     0
 90
        0
 40
-0.6
 41
-30.0
 62
     5
 63
     7
 74
     1
 91
        4
 64
     7
 65
   257
 75
     1
175
     1
 42
1.0
 92
        8
 66
     7
 43
1.0
 76
     1
 77
     6
 78
     2
 67
     7
 79
     5
170
     0
171
     0
290
     0
174
     0
 93
        1
 44
-50.0
173
     0
291
     1
 45
0.0
1001
ACAD
1000
AcDbSavedByObjectVersion
1070
     0
  0
VISUALSTYLE
  5
39
102
{ACAD_REACTORS
330
2A
102
}
330
2A
100
AcDbVisualStyle
  2
Facepattern
 70
    15
 71
     2
 72
     2
 73
     0
 90
        0
 40
-0.6
 41
-30.0
 62
     5
 63
     7
 74
     1
 91
        4
 64
     7
 65
   257
 75
     1
175
     1
 42
1.0
 92
        8
 66
     7
 43
1.0
 76
     1
 77
     6
 78
     2
 67
     7
 79
     5
170
     0
171
     0
290
     0
174
     0
 93
        1
 44
0.0
173
     0
291
     1
 45
0.0
1001
ACAD
1000
AcDbSavedByObjectVersion
1070
     0
  0
VISUALSTYLE
  5
2B
102
{ACAD_REACTORS
330
2A
102
}
330
2A
100
AcDbVisualStyle
  2
Flat
 70
     0
 71
     2
 72
     1
 73
     1
 90
        2
 40
-0.6
 41
30.0
 62
     5
 63
     7
 74
     0
 91
        4
 64
     7
 65
   257
 75
     1
175
     1
 42
1.0
 92
        8
 66
     7
 43
1.0
 76
     1
 77
     6
 78
     2
 67
     7
 79
     5
170
     0
171
     0
290
     0
174
     0
 93
       13
 44
0.0
173
     0
291
     1
 45
0.0
1001
ACAD
1000
AcDbSavedByObjectVersion
1070
     0
  0
VISUALSTYLE
  5
2C
102
{ACAD_REACTORS
330
2A
102
}
330
2A
100
AcDbVisualStyle
  2
FlatWithEdges
 70
     1
 71
     2
 72
     1
 73
     1
 90
        2
 40
-0.6
 41
30.0
 62
     5
 63
     7
 74
     1
 91
        4
 64
     7
 65
   257
 75
     1
175
     1
 42
1.0
 92
        0
 66
   257
 43
1.0
 76
     1
 77
     6
 78
     2
 67
     7
 79
     5
170
     0
171
     0
290
     0
174
     0
 93
       13
 44
0.0
173
     0
291
     1
 45
0.0
1001
ACAD
1000
AcDbSavedByObjectVersion
1070
     0
  0
VISUALSTYLE
  5
2D
102
{ACAD_REACTORS
330
2A
102
}
330
2A
100
AcDbVisualStyle
  2
Gouraud
 70
     2
 71
     2
 72
     2
 73
     1
 90
        2
 40
-0.6
 41
30.0
 62
     5
 63
     7
 74
     0
 91
        4
 64
     7
 65
   257
 75
     1
175
     1
 42
1.0
 92
        0
 66
     7
 43
1.0
 76
     1
 77
     6
 78
     2
 67
     7
 79
     5
170
     0
171
     0
290
     0
174
     0
 93
       13
 44
0.0
173
     0
291
     1
 45
0.0
1001
ACAD
1000
AcDbSavedByObjectVersion
1070
     0
  0
VISUALSTYLE
  5
2E
102
{ACAD_REACTORS
330
2A
102
}
330
2A
100
AcDbVisualStyle
  2
GouraudWithEdges
 70
     3
 71
     2
 72
     2
 73
     1
 90
        2
 40
-0.6
 41
30.0
 62
     5
 63
     7
 74
     1
 91
        4
 64
     7
 65
   257
 75
     1
175
     1
 42
1.0
 92
        0
 66
   257
 43
1.0
 76
     1
 77
     6
 78
     2
 67
     7
 79
     5
170
     0
171
     0
290
     0
174
     0
 93
       13
 44
0.0
173
     0
291
     1
 45
0.0
1001
ACAD
1000
AcDbSavedByObjectVersion
1070
     0
  0
VISUALSTYLE
  5
38
102
{ACAD_REACTORS
330
2A
102
}
330
2A
100
AcDbVisualStyle
  2
Linepattern
 70
    14
 71
     2
 72
     2
 73
     0
 90
        0
 40
-0.6
 41
-30.0
 62
     5
 63
     7
 74
     1
 91
        4
 64
     7
 65
   257
 75
     7
175
     7
 42
1.0
 92
        8
 66
     7
 43
1.0
 76
     1
 77
     6
 78
     2
 67
     7
 79
     5
170
     0
171
     0
290
     0
174
     0
 93
        1
 44
0.0
173
     0
291
     1
 45
0.0
1001
ACAD
1000
AcDbSavedByObjectVersion
1070
     0
  0
VISUALSTYLE
  5
33
102
{ACAD_REACTORS
330
2A
102
}
330
2A
100
AcDbVisualStyle
  2
Realistic
 70
     8
 71
     2
 72
     2
 73
     0
 90
        0
 40
-0.6
 41
-30.0
 62
     5
 63
     7
 74
     1
 91
        0
 64
     7
 65
   257
 75
     1
175
     1
 42
1.0
 92
        8
 66
     8
 43
1.0
 76
     1
 77
     6
 78
     2
 67
     7
 79
     5
170
     0
171
     0
290
     0
174
     0
 93
       13
 44
0.0
173
     0
291
     0
 45
0.0
1001
ACAD
1000
AcDbSavedByObjectVersion
1070
     0
  0
VISUALSTYLE
  5
37
102
{ACAD_REACTORS
330
2A
102
}
330
2A
100
AcDbVisualStyle
  2
Thicken
 70
    13
 71
     2
 72
     2
 73
     0
 90
        0
 40
-0.6
 41
-30.0
 62
     5
 63
     7
 74
     1
 91
        4
 64
     7
 65
   257
 75
     1
175
     1
 42
1.0
 92
       12
 66
     7
 43
1.0
 76
     1
 77
     6
 78
     2
 67
     7
 79
     5
170
     0
171
     0
290
     0
174
     0
 93
        1
 44
0.0
173
     0
291
     1
 45
0.0
1001
ACAD
1000
AcDbSavedByObjectVersion
1070
     0
  0
ENDSEC
  0
EOF
