  0
SECTION
  2
HEADER
  9
$ACADVER
  1
AC1015
  9
$ACADMAINTVER
 70
     6
  9
$DWGCODEPAGE
  3
ANSI_1252
  9
$INSBASE
 10
0.0
 20
0.0
 30
0.0
  9
$EXTMIN
 10
-46.37503741224906
 20
-0.0000001076427324
 30
0.0
  9
$EXTMAX
 10
89.12500000000006
 20
69.70004149998555
 30
0.0
  9
$LIMMIN
 10
0.0
 20
0.0
  9
$LIMMAX
 10
12.0
 20
9.0
  9
$ORTHOMODE
 70
     0
  9
$REGENMODE
 70
     1
  9
$FILLMODE
 70
     1
  9
$QTEXTMODE
 70
     0
  9
$MIRRTEXT
 70
     1
  9
$LTSCALE
 40
0.0393700787401575
  9
$ATTMODE
 70
     1
  9
$TEXTSIZE
 40
0.2
  9
$TRACEWID
 40
0.05
  9
$TEXTSTYLE
  7
Standard
  9
$CLAYER
  8
DEFAULT
  9
$CELTYPE
  6
ByLayer
  9
$CECOLOR
 62
   256
  9
$CELTSCALE
 40
1.0
  9
$DISPSILH
 70
     0
  9
$DIMSCALE
 40
1.0
  9
$DIMASZ
 40
0.18
  9
$DIMEXO
 40
0.0625
  9
$DIMDLI
 40
0.38
  9
$DIMRND
 40
0.0
  9
$DIMDLE
 40
0.0
  9
$DIMEXE
 40
0.18
  9
$DIMTP
 40
0.0
  9
$DIMTM
 40
0.0
  9
$DIMTXT
 40
0.18
  9
$DIMCEN
 40
0.09
  9
$DIMTSZ
 40
0.0
  9
$DIMTOL
 70
     0
  9
$DIMLIM
 70
     0
  9
$DIMTIH
 70
     1
  9
$DIMTOH
 70
     1
  9
$DIMSE1
 70
     0
  9
$DIMSE2
 70
     0
  9
$DIMTAD
 70
     0
  9
$DIMZIN
 70
     0
  9
$DIMBLK
  1

  9
$DIMASO
 70
     1
  9
$DIMSHO
 70
     1
  9
$DIMPOST
  1

  9
$DIMAPOST
  1

  9
$DIMALT
 70
     0
  9
$DIMALTD
 70
     2
  9
$DIMALTF
 40
25.4
  9
$DIMLFAC
 40
1.0
  9
$DIMTOFL
 70
     0
  9
$DIMTVP
 40
0.0
  9
$DIMTIX
 70
     0
  9
$DIMSOXD
 70
     0
  9
$DIMSAH
 70
     0
  9
$DIMBLK1
  1

  9
$DIMBLK2
  1

  9
$DIMSTYLE
  2
Standard
  9
$DIMCLRD
 70
     0
  9
$DIMCLRE
 70
     0
  9
$DIMCLRT
 70
     0
  9
$DIMTFAC
 40
1.0
  9
$DIMGAP
 40
0.09
  9
$DIMJUST
 70
     0
  9
$DIMSD1
 70
     0
  9
$DIMSD2
 70
     0
  9
$DIMTOLJ
 70
     1
  9
$DIMTZIN
 70
     0
  9
$DIMALTZ
 70
     0
  9
$DIMALTTZ
 70
     0
  9
$DIMUPT
 70
     0
  9
$DIMDEC
 70
     4
  9
$DIMTDEC
 70
     4
  9
$DIMALTU
 70
     2
  9
$DIMALTTD
 70
     2
  9
$DIMTXSTY
  7
Standard
  9
$DIMAUNIT
 70
     0
  9
$DIMADEC
 70
     0
  9
$DIMALTRND
 40
0.0
  9
$DIMAZIN
 70
     0
  9
$DIMDSEP
 70
    46
  9
$DIMATFIT
 70
     3
  9
$DIMFRAC
 70
     0
  9
$DIMLDRBLK
  1

  9
$DIMLUNIT
 70
     2
  9
$DIMLWD
 70
    -2
  9
$DIMLWE
 70
    -2
  9
$DIMTMOVE
 70
     2
  9
$LUNITS
 70
     2
  9
$LUPREC
 70
     3
  9
$SKETCHINC
 40
0.1
  9
$FILLETRAD
 40
0.5
  9
$AUNITS
 70
     0
  9
$AUPREC
 70
     0
  9
$MENU
  1
.
  9
$ELEVATION
 40
0.0
  9
$PELEVATION
 40
0.0
  9
$THICKNESS
 40
0.0
  9
$LIMCHECK
 70
     0
  9
$CHAMFERA
 40
0.5
  9
$CHAMFERB
 40
0.5
  9
$CHAMFERC
 40
1.0
  9
$CHAMFERD
 40
0.0
  9
$SKPOLY
 70
     0
  9
$TDCREATE
 40
2455719.656073715
  9
$TDUCREATE
 40
2455719.822740382
  9
$TDUPDATE
 40
2455719.656073727
  9
$TDUUPDATE
 40
2455719.822740394
  9
$TDINDWG
 40
0.0000000116
  9
$TDUSRTIMER
 40
0.0000000116
  9
$USRTIMER
 70
     1
  9
$ANGBASE
 50
0.0
  9
$ANGDIR
 70
     0
  9
$PDMODE
 70
     0
  9
$PDSIZE
 40
0.0
  9
$PLINEWID
 40
0.0
  9
$SPLFRAME
 70
     0
  9
$SPLINETYPE
 70
     6
  9
$SPLINESEGS
 70
     8
  9
$HANDSEED
  5
7A
  9
$SURFTAB1
 70
     6
  9
$SURFTAB2
 70
     6
  9
$SURFTYPE
 70
     6
  9
$SURFU
 70
     6
  9
$SURFV
 70
     6
  9
$UCSBASE
  2

  9
$UCSNAME
  2

  9
$UCSORG
 10
0.0
 20
0.0
 30
0.0
  9
$UCSXDIR
 10
1.0
 20
0.0
 30
0.0
  9
$UCSYDIR
 10
0.0
 20
1.0
 30
0.0
  9
$UCSORTHOREF
  2

  9
$UCSORTHOVIEW
 70
     0
  9
$UCSORGTOP
 10
0.0
 20
0.0
 30
0.0
  9
$UCSORGBOTTOM
 10
0.0
 20
0.0
 30
0.0
  9
$UCSORGLEFT
 10
0.0
 20
0.0
 30
0.0
  9
$UCSORGRIGHT
 10
0.0
 20
0.0
 30
0.0
  9
$UCSORGFRONT
 10
0.0
 20
0.0
 30
0.0
  9
$UCSORGBACK
 10
0.0
 20
0.0
 30
0.0
  9
$PUCSBASE
  2

  9
$PUCSNAME
  2

  9
$PUCSORG
 10
0.0
 20
0.0
 30
0.0
  9
$PUCSXDIR
 10
1.0
 20
0.0
 30
0.0
  9
$PUCSYDIR
 10
0.0
 20
1.0
 30
0.0
  9
$PUCSORTHOREF
  2

  9
$PUCSORTHOVIEW
 70
     0
  9
$PUCSORGTOP
 10
0.0
 20
0.0
 30
0.0
  9
$PUCSORGBOTTOM
 10
0.0
 20
0.0
 30
0.0
  9
$PUCSORGLEFT
 10
0.0
 20
0.0
 30
0.0
  9
$PUCSORGRIGHT
 10
0.0
 20
0.0
 30
0.0
  9
$PUCSORGFRONT
 10
0.0
 20
0.0
 30
0.0
  9
$PUCSORGBACK
 10
0.0
 20
0.0
 30
0.0
  9
$USERI1
 70
     0
  9
$USERI2
 70
     0
  9
$USERI3
 70
     0
  9
$USERI4
 70
     0
  9
$USERI5
 70
     0
  9
$USERR1
 40
0.0
  9
$USERR2
 40
0.0
  9
$USERR3
 40
0.0
  9
$USERR4
 40
0.0
  9
$USERR5
 40
0.0
  9
$WORLDVIEW
 70
     1
  9
$SHADEDGE
 70
     3
  9
$SHADEDIF
 70
    70
  9
$TILEMODE
 70
     1
  9
$MAXACTVP
 70
    64
  9
$PINSBASE
 10
0.0
 20
0.0
 30
0.0
  9
$PLIMCHECK
 70
     0
  9
$PEXTMIN
 10
1.000000000000000E+20
 20
1.000000000000000E+20
 30
1.000000000000000E+20
  9
$PEXTMAX
 10
-1.000000000000000E+20
 20
-1.000000000000000E+20
 30
-1.000000000000000E+20
  9
$PLIMMIN
 10
0.0
 20
0.0
  9
$PLIMMAX
 10
12.0
 20
9.0
  9
$UNITMODE
 70
     0
  9
$VISRETAIN
 70
     1
  9
$PLINEGEN
 70
     0
  9
$PSLTSCALE
 70
     1
  9
$TREEDEPTH
 70
  3020
  9
$CMLSTYLE
  2
Standard
  9
$CMLJUST
 70
     0
  9
$CMLSCALE
 40
1.0
  9
$PROXYGRAPHICS
 70
     1
  9
$MEASUREMENT
 70
     0
  9
$CELWEIGHT
370
    -1
  9
$ENDCAPS
280
     0
  9
$JOINSTYLE
280
     0
  9
$LWDISPLAY
290
     0
  9
$INSUNITS
 70
     1
  9
$HYPERLINKBASE
  1

  9
$STYLESHEET
  1

  9
$XEDIT
290
     1
  9
$CEPSNTYPE
380
     0
  9
$PSTYLEMODE
290
     1
  9
$FINGERPRINTGUID
  2
{366E62A5-8941-4DB0-8631-DEC86B190677}
  9
$VERSIONGUID
  2
{FAEB1C32-E019-11D5-929B-00C0DF256EC4}
  9
$EXTNAMES
290
     1
  9
$PSVPSCALE
 40
0.0
  9
$OLESTARTUP
290
     0
  0
ENDSEC
  0
SECTION
  2
CLASSES
  0
CLASS
  1
ACDBDICTIONARYWDFLT
  2
AcDbDictionaryWithDefault
  3
ObjectDBX Classes
 90
        0
280
     0
281
     0
  0
CLASS
  1
VISUALSTYLE
  2
AcDbVisualStyle
  3
ObjectDBX Classes
 90
     4095
280
     0
281
     0
  0
CLASS
  1
ACDBPLACEHOLDER
  2
AcDbPlaceHolder
  3
ObjectDBX Classes
 90
        0
280
     0
281
     0
  0
CLASS
  1
LAYOUT
  2
AcDbLayout
  3
ObjectDBX Classes
 90
        0
280
     0
281
     0
  0
ENDSEC
  0
SECTION
  2
TABLES
  0
TABLE
  2
VPORT
  5
8
330
0
100
AcDbSymbolTable
 70
     1
  0
VPORT
  5
29
330
8
100
AcDbSymbolTableRecord
100
AcDbViewportTableRecord
  2
*Active
 70
     0
 10
0.0
 20
0.0
 11
1.0
 21
1.0
 12
21.3749812938755
 22
34.85002069617141
 13
0.0
 23
0.0
 14
0.5
 24
0.5
 15
0.5
 25
0.5
 16
0.0
 26
0.0
 36
1.0
 17
0.0
 27
0.0
 37
0.0
 40
71.09404243978085
 41
1.944045287304669
 42
50.0
 43
0.0
 44
0.0
 50
0.0
 51
0.0
 71
     0
 72
   100
 73
     1
 74
     3
 75
     0
 76
     0
 77
     0
 78
     0
281
     0
 65
     1
110
0.0
120
0.0
130
0.0
111
1.0
121
0.0
131
0.0
112
0.0
122
1.0
132
0.0
 79
     0
146
0.0
  0
ENDTAB
  0
TABLE
  2
LTYPE
  5
5
330
0
100
AcDbSymbolTable
 70
     1
  0
LTYPE
  5
14
330
5
100
AcDbSymbolTableRecord
100
AcDbLinetypeTableRecord
  2
ByBlock
 70
     0
  3

 72
    65
 73
     0
 40
0.0
  0
LTYPE
  5
15
330
5
100
AcDbSymbolTableRecord
100
AcDbLinetypeTableRecord
  2
ByLayer
 70
     0
  3

 72
    65
 73
     0
 40
0.0
  0
LTYPE
  5
16
330
5
100
AcDbSymbolTableRecord
100
AcDbLinetypeTableRecord
  2
Continuous
 70
     0
  3
Solid line
 72
    65
 73
     0
 40
0.0
  0
ENDTAB
  0
TABLE
  2
LAYER
  5
2
330
0
100
AcDbSymbolTable
 70
     2
  0
LAYER
  5
10
330
2
100
AcDbSymbolTableRecord
100
AcDbLayerTableRecord
  2
0
 70
     0
 62
     7
  6
Continuous
370
    -3
390
F
  0
LAYER
  5
3B
330
2
100
AcDbSymbolTableRecord
100
AcDbLayerTableRecord
  2
DEFAULT
 70
     0
 62
     7
  6
Continuous
370
    -3
390
F
  0
ENDTAB
  0
TABLE
  2
STYLE
  5
3
330
0
100
AcDbSymbolTable
 70
     1
  0
STYLE
  5
11
330
3
100
AcDbSymbolTableRecord
100
AcDbTextStyleTableRecord
  2
Standard
 70
     0
 40
0.0
 41
1.0
 50
0.0
 71
     0
 42
0.2
  3
txt
  4

  0
ENDTAB
  0
TABLE
  2
VIEW
  5
6
330
0
100
AcDbSymbolTable
 70
     0
  0
ENDTAB
  0
TABLE
  2
UCS
  5
7
330
0
100
AcDbSymbolTable
 70
     0
  0
ENDTAB
  0
TABLE
  2
APPID
  5
9
330
0
100
AcDbSymbolTable
 70
     1
  0
APPID
  5
12
330
9
100
AcDbSymbolTableRecord
100
AcDbRegAppTableRecord
  2
ACAD
 70
     0
  0
ENDTAB
  0
TABLE
  2
DIMSTYLE
  5
A
330
0
100
AcDbSymbolTable
 70
     1
100
AcDbDimStyleTable
  0
DIMSTYLE
105
27
330
A
100
AcDbSymbolTableRecord
100
AcDbDimStyleTableRecord
  2
Standard
 70
     0
340
11
  0
ENDTAB
  0
TABLE
  2
BLOCK_RECORD
  5
1
330
0
100
AcDbSymbolTable
 70
     1
  0
BLOCK_RECORD
  5
1F
330
1
100
AcDbSymbolTableRecord
100
AcDbBlockTableRecord
  2
*Model_Space
340
22
  0
BLOCK_RECORD
  5
1B
330
1
100
AcDbSymbolTableRecord
100
AcDbBlockTableRecord
  2
*Paper_Space
340
1E
  0
BLOCK_RECORD
  5
23
330
1
100
AcDbSymbolTableRecord
100
AcDbBlockTableRecord
  2
*Paper_Space0
340
26
  0
ENDTAB
  0
ENDSEC
  0
SECTION
  2
BLOCKS
  0
BLOCK
  5
20
330
1F
100
AcDbEntity
  8
0
100
AcDbBlockBegin
  2
*Model_Space
 70
     0
 10
0.0
 20
0.0
 30
0.0
  3
*Model_Space
  1

  0
ENDBLK
  5
21
330
1F
100
AcDbEntity
  8
0
100
AcDbBlockEnd
  0
BLOCK
  5
1C
330
1B
100
AcDbEntity
 67
     1
  8
0
100
AcDbBlockBegin
  2
*Paper_Space
 70
     0
 10
0.0
 20
0.0
 30
0.0
  3
*Paper_Space
  1

  0
ENDBLK
  5
1D
330
1B
100
AcDbEntity
 67
     1
  8
0
100
AcDbBlockEnd
  0
BLOCK
  5
24
330
23
100
AcDbEntity
  8
0
100
AcDbBlockBegin
  2
*Paper_Space0
 70
     0
 10
0.0
 20
0.0
 30
0.0
  3
*Paper_Space0
  1

  0
ENDBLK
  5
25
330
23
100
AcDbEntity
  8
0
100
AcDbBlockEnd
  0
ENDSEC
  0
SECTION
  2
ENTITIES
  0
SPLINE
  5
3C
330
1F
100
AcDbEntity
  8
DEFAULT
100
AcDbSpline
210
0.0
220
0.0
230
1.0
 70
    24
 71
     2
 72
     6
 73
     3
 74
     0
 42
0.0000000001
 43
0.0000000001
 40
-1.046666666666667
 40
-1.046666666666667
 40
-1.046666666666667
 40
0.0466666666666667
 40
0.0466666666666667
 40
0.0466666666666667
 10
-45.87500033291881
 20
38.94700100000001
 30
0.0
 10
-0.0000003329187628
 20
38.94700100000001
 30
0.0
 10
45.87499966708128
 20
38.94700100000001
 30
0.0
  0
SPLINE
  5
3D
330
1F
100
AcDbEntity
  8
DEFAULT
100
AcDbSpline
210
0.0
220
0.0
230
1.0
 70
    24
 71
     2
 72
     6
 73
     3
 74
     0
 42
0.0000000001
 43
0.0000000001
 40
0.0
 40
0.0
 40
0.0
 40
1.0
 40
1.0
 40
1.0
 10
-33.21163200000009
 20
7.475000000000001
 30
0.0
 10
0.0000004999999526
 20
7.475000000000001
 30
0.0
 10
33.211633
 20
7.475000000000001
 30
0.0
  0
SPLINE
  5
3E
330
1F
100
AcDbEntity
  8
DEFAULT
100
AcDbSpline
210
0.0
220
0.0
230
1.0
 70
    24
 71
     2
 72
     6
 73
     3
 74
     0
 42
0.0000000001
 43
0.0000000001
 40
0.0000000000002191
 40
0.0000000000002191
 40
0.0000000000002191
 40
0.9999999999997808
 40
0.9999999999997808
 40
0.9999999999997808
 10
-45.87499999998212
 20
16.32200100000001
 30
0.0
 10
-0.0000000000000462
 20
16.32200100000001
 30
0.0
 10
45.87499999998203
 20
16.32200100000001
 30
0.0
  0
SPLINE
  5
3F
330
1F
100
AcDbEntity
  8
DEFAULT
100
AcDbSpline
210
0.0
220
0.0
230
1.0
 70
    15
 71
     2
 72
    22
 73
    19
 74
     0
 42
0.0000000001
 43
0.0000000001
 40
8477.918027718308
 40
8477.918027718308
 40
8477.918027718308
 40
8478.075210992205
 40
8478.075210992205
 40
8478.703425881724
 40
8478.703425881724
 40
8479.33395375413
 40
8479.33395375413
 40
8480.119351917529
 40
8480.119351917529
 40
8480.168131949087
 40
8480.168131949087
 40
8480.953530112485
 40
8480.953530112485
 40
8490.578530112485
 40
8490.578530112485
 40
8491.363928275883
 40
8491.363928275883
 40
8495.363890863693
 40
8495.363890863693
 40
8495.363890863693
 10
45.87500099998203
 20
16.32200100000001
 30
0.0
 41
1.0
 10
45.95424634157774
 20
16.32200100000001
 30
0.0
 41
0.987672122235259
 10
46.02960806250543
 20
16.34650477896243
 30
0.0
 41
1.0
 10
46.37500099999993
 20
16.45880890486979
 30
0.0
 41
0.8090779087983315
 10
46.37500099999995
 20
16.82200100000254
 30
0.0
 41
1.0
 10
46.37500099999997
 20
21.38450100000127
 30
0.0
 41
1.0
 10
46.375001
 20
26.44700100000001
 30
0.0
 41
1.0
 10
46.37500099999999
 20
26.94700100000001
 30
0.0
 41
0.707106781186545
 10
45.875001
 20
26.94700100000001
 30
0.0
 41
1.0
 10
43.87501970609594
 20
26.94700100000001
 30
0.0
 41
1.0
 10
41.87503841219188
 20
26.94700100000001
 30
0.0
 41
1.0
 10
41.37503841219188
 20
26.94700100000001
 30
0.0
 41
0.7071067811865476
 10
41.37503841219188
 20
26.44700100000001
 30
0.0
 41
1.0
 10
41.37503841218229
 20
21.63450100000046
 30
0.0
 41
1.0
 10
41.3750384121727
 20
16.82200100000092
 30
0.0
 41
1.0
 10
41.3750384121717
 20
16.32200099999987
 30
0.0
 41
0.7071067811858065
 10
41.87503841217274
 20
16.32200099999992
 30
0.0
 41
1.0
 10
43.87501970607738
 20
16.32200099999996
 30
0.0
 41
1.0
 10
45.87500099998203
 20
16.32200100000001
 30
0.0
 41
1.0
  0
SPLINE
  5
40
330
1F
100
AcDbEntity
  8
DEFAULT
100
AcDbSpline
210
0.0
220
0.0
230
1.0
 70
    12
 71
     2
 72
     6
 73
     3
 74
     0
 42
0.0000000001
 43
0.0000000001
 40
0.0
 40
0.0
 40
0.0
 40
0.7853981633983365
 40
0.7853981633983365
 40
0.7853981633983365
 10
45.87499966708128
 20
38.94700100000001
 30
0.0
 41
1.0
 10
46.37499966708218
 20
38.94700100000001
 30
0.0
 41
0.7071067811859195
 10
46.37499966708128
 20
39.4470010000009
 30
0.0
 41
1.0
  0
SPLINE
  5
41
330
1F
100
AcDbEntity
  8
DEFAULT
100
AcDbSpline
210
0.0
220
0.0
230
1.0
 70
    24
 71
     2
 72
     6
 73
     3
 74
     0
 42
0.0000000001
 43
0.0000000001
 40
0.0
 40
0.0
 40
0.0
 40
4.003040501574657
 40
4.003040501574657
 40
4.003040501574657
 10
46.3749625878356
 20
43.45004150140382
 30
0.0
 10
46.37498112745844
 20
41.44852125070236
 30
0.0
 10
46.37499966708128
 20
39.4470010000009
 30
0.0
  0
SPLINE
  5
42
330
1F
100
AcDbEntity
  8
DEFAULT
100
AcDbSpline
210
0.0
220
0.0
230
1.0
 70
    24
 71
     2
 72
     6
 73
     3
 74
     0
 42
0.0000000001
 43
0.0000000001
 40
0.0
 40
0.0
 40
0.0
 40
1.0
 40
1.0
 40
1.0
 10
34.36875
 20
0.125
 30
0.0
 10
33.775
 20
0.125
 30
0.0
 10
33.18125
 20
0.125
 30
0.0
  0
SPLINE
  5
43
330
1F
100
AcDbEntity
  8
DEFAULT
100
AcDbSpline
210
0.0
220
0.0
230
1.0
 70
    24
 71
     2
 72
     6
 73
     3
 74
     0
 42
0.0000000001
 43
0.0000000001
 40
0.0
 40
0.0
 40
0.0
 40
1.0
 40
1.0
 40
1.0
 10
34.22499999999999
 20
0.0
 30
0.0
 10
33.775
 20
0.0
 30
0.0
 10
33.325
 20
0.0
 30
0.0
  0
SPLINE
  5
44
330
1F
100
AcDbEntity
  8
DEFAULT
100
AcDbSpline
210
0.0
220
0.0
230
1.0
 70
    24
 71
     2
 72
     6
 73
     3
 74
     0
 42
0.0000000001
 43
0.0000000001
 40
0.0
 40
0.0
 40
0.0
 40
74.00007582438377
 40
74.00007582438377
 40
74.00007582438377
 10
-41.87503741219198
 20
26.94700100000001
 30
0.0
 10
0.0000004999999526
 20
26.94700100000001
 30
0.0
 10
41.87503841219188
 20
26.94700100000001
 30
0.0
  0
SPLINE
  5
45
330
1F
100
AcDbEntity
  8
DEFAULT
100
AcDbSpline
210
0.0
220
0.0
230
1.0
 70
    15
 71
     2
 72
    38
 73
    35
 74
     0
 42
0.0000000001
 43
0.0000000001
 40
-8780.00617477664
 40
-8780.00617477664
 40
-8780.00617477664
 40
-8778.64617477664
 40
-8778.64617477664
 40
-8777.860776613243
 40
-8777.860776613243
 40
-8761.83073349945
 40
-8761.83073349945
 40
-8749.637407266093
 40
-8749.637407266093
 40
-8748.638774484567
 40
-8748.638774484567
 40
-8736.44544825121
 40
-8736.44544825121
 40
-8720.415405137417
 40
-8720.415405137417
 40
-8719.630006974026
 40
-8719.630006974026
 40
-8719.230006974025
 40
-8719.230006974025
 40
-8718.444608810585
 40
-8718.444608810585
 40
-8717.963339673697
 40
-8717.963339673697
 40
-8717.177978589702
 40
-8717.177978589702
 40
-8716.683966052196
 40
-8716.683966052196
 40
-8716.29124843089
 40
-8716.29124843089
 40
-8715.898530809585
 40
-8715.898530809585
 40
-8715.417223065557
 40
-8715.417223065557
 40
-8714.6318249022
 40
-8714.6318249022
 40
-8714.6318249022
 10
-45.87503741216901
 20
42.950041501402
 30
0.0
 41
1.0
 10
-43.87503741217055
 20
42.95004150138111
 30
0.0
 41
1.0
 10
-41.87503741217208
 20
42.95004150136021
 30
0.0
 41
1.0
 10
-41.3750374121718
 20
42.95004150135993
 30
0.0
 41
0.7071067811863466
 10
-41.3750374121718
 20
43.45004150136021
 30
0.0
 41
1.0
 10
-41.3750374121718
 20
51.4650630582568
 30
0.0
 41
1.0
 10
-41.3750374121718
 20
59.4800846151534
 30
0.0
 41
1.0
 10
-41.37503741217179
 20
64.44623075070992
 30
0.0
 41
0.7182459144504637
 10
-36.41186065281158
 20
64.61793950136021
 30
0.0
 41
0.9972728262214026
 10
-0.0000379121717202
 20
64.61793950136021
 30
0.0
 41
0.9972728262214026
 10
36.41178582846806
 20
64.61793950136021
 30
0.0
 41
0.9972728262214026
 10
41.3749625878283
 20
64.44623075070997
 30
0.0
 41
0.7182459144504578
 10
41.37496258782829
 20
59.48008461515341
 30
0.0
 41
0.9999999999999952
 10
41.37496258782829
 20
51.4650630582568
 30
0.0
 41
0.9999999999999952
 10
41.37496258782829
 20
43.45004150136022
 30
0.0
 41
0.9999999999999952
 10
41.37496258782861
 20
42.95004150136773
 30
0.0
 41
0.707106781191865
 10
41.87496258782109
 20
42.95004150136054
 30
0.0
 41
0.9999999999999952
 10
43.87496258782863
 20
42.9500415013604
 30
0.0
 41
0.9999999999999952
 10
45.87496258783619
 20
42.95004150136025
 30
0.0
 41
0.9999999999999952
 10
46.37496258787917
 20
42.95004150136083
 30
0.0
 41
0.7071067811561422
 10
46.3749625878356
 20
43.45004150140383
 30
0.0
 41
0.9999999999999952
 10
46.37496258783202
 20
56.32200100137559
 30
0.0
 41
0.9999999999999952
 10
46.37496258782844
 20
69.19396050134735
 30
0.0
 41
0.9999999999999952
 10
46.37496258787101
 20
69.69392342332122
 30
0.0
 41
0.7071329997962864
 10
45.87499966727193
 20
69.69396050001505
 30
0.0
 41
0.9999999999999952
 10
-0.0000008329187082
 20
69.6970010000003
 30
0.0
 41
0.9999999999999952
 10
-45.87500033310944
 20
69.70004149998555
 30
0.0
 41
0.9999999999999952
 10
-46.08211797405987
 20
69.70005685947342
 30
0.0
 41
0.9238724375522901
 10
-46.22857769316962
 20
69.5536080011403
 30
0.0
 41
0.9999999999999952
 10
-46.37503741227936
 20
69.40715914280716
 30
0.0
 41
0.9238724375522901
 10
-46.37503741224906
 20
69.20004150128723
 30
0.0
 41
0.9999999999999952
 10
-46.37503741221117
 20
56.32504150132166
 30
0.0
 41
0.9999999999999952
 10
-46.37503741217328
 20
43.45004150135608
 30
0.0
 41
0.9999999999999952
 10
-46.37503741212735
 20
42.95004150139773
 30
0.0
 41
0.7071067812160017
 10
-45.87503741216901
 20
42.950041501402
 30
0.0
 41
1.0
  0
SPLINE
  5
46
330
1F
100
AcDbEntity
  8
DEFAULT
100
AcDbSpline
210
0.0
220
0.0
230
1.0
 70
    12
 71
     2
 72
     6
 73
     3
 74
     0
 42
0.0000000001
 43
0.0000000001
 40
0.0
 40
0.0
 40
0.0
 40
0.7853981633847829
 40
0.7853981633847829
 40
0.7853981633847829
 10
45.87499999998203
 20
16.32200100000001
 30
0.0
 41
1.0
 10
46.37499999996936
 20
16.322001
 30
0.0
 41
0.7071067811955034
 10
46.37499999998203
 20
16.82200099998734
 30
0.0
 41
1.0
  0
SPLINE
  5
47
330
1F
100
AcDbEntity
  8
DEFAULT
100
AcDbSpline
210
0.0
220
0.0
230
1.0
 70
    12
 71
     2
 72
    14
 73
    11
 74
     0
 42
0.0000000001
 43
0.0000000001
 40
-8485.88465719444
 40
-8485.88465719444
 40
-8485.88465719444
 40
-8485.446086121925
 40
-8485.446086121925
 40
-8484.660687958529
 40
-8484.660687958529
 40
-8483.660687958529
 40
-8483.660687958529
 40
-8482.87528979513
 40
-8482.87528979513
 40
-8482.501320868307
 40
-8482.501320868307
 40
-8482.501320868307
 10
-46.37500000000004
 20
15.82200100000282
 30
0.0
 41
1.0
 10
-46.37500000000002
 20
12.64850050000152
 30
0.0
 41
1.0
 10
-46.375
 20
9.475000000000227
 30
0.0
 41
1.0
 10
-46.37500000000022
 20
8.975000000000094
 30
0.0
 41
0.7071067811864533
 10
-45.87500000000009
 20
8.975000000000001
 30
0.0
 41
1.0
 10
-0.0000004999999987
 20
8.974999999992637
 30
0.0
 41
1.0
 10
45.875
 20
8.974999999985274
 30
0.0
 41
1.0
 10
46.37500000000001
 20
8.974999999985274
 30
0.0
 41
0.7071067811865476
 10
46.375
 20
9.474999999985274
 30
0.0
 41
1.0
 10
46.375
 20
12.64850049999897
 30
0.0
 41
1.0
 10
46.375
 20
15.82200100001267
 30
0.0
 41
1.0
  0
SPLINE
  5
48
330
1F
100
AcDbEntity
  8
DEFAULT
100
AcDbSpline
210
0.0
220
0.0
230
1.0
 70
    12
 71
     2
 72
    14
 73
    11
 74
     0
 42
0.0000000001
 43
0.0000000001
 40
-0.9782951745521957
 40
-0.9782951745521957
 40
-0.9782951745521957
 40
0.0000000000000004
 40
0.0000000000000004
 40
11.2282208370457
 40
11.2282208370457
 40
71.7046779010936
 40
71.7046779010936
 40
82.9328987381393
 40
82.9328987381393
 40
83.9111939126915
 40
83.9111939126915
 40
83.9111939126915
 10
-41.3750374121718
 20
43.45004150136027
 30
0.0
 41
1.0
 10
-40.6731106244306
 20
50.06820835720586
 30
0.0
 41
1.0
 10
-39.9711838366894
 20
56.68637521305146
 30
0.0
 41
1.0
 10
-39.50761386608065
 20
61.05717779307663
 30
0.0
 41
0.750308305154395
 10
-35.11322886494276
 20
61.14769173111418
 30
0.0
 41
1.0
 10
-0.0000008329187153
 20
61.14769173111418
 30
0.0
 41
1.0
 10
35.11322819910524
 20
61.14769173111418
 30
0.0
 41
1.0
 10
39.50761320024311
 20
61.05717779307663
 30
0.0
 41
0.750308305154395
 10
39.97118317085187
 20
56.68637521305146
 30
0.0
 41
1.0
 10
40.67310995859307
 20
50.06820835720586
 30
0.0
 41
1.0
 10
41.37503674633427
 20
43.45004150136027
 30
0.0
 41
1.0
  0
SPLINE
  5
49
330
1F
100
AcDbEntity
  8
DEFAULT
100
AcDbSpline
210
0.0
220
0.0
230
1.0
 70
    24
 71
     2
 72
     6
 73
     3
 74
     0
 42
0.0000000001
 43
0.0000000001
 40
0.0
 40
0.0
 40
0.0
 40
1.0
 40
1.0
 40
1.0
 10
33.211633
 20
7.475000000000001
 30
0.0
 10
33.211633
 20
8.225000000000001
 30
0.0
 10
33.211633
 20
8.975000000000001
 30
0.0
  0
SPLINE
  5
4A
330
1F
100
AcDbEntity
  8
DEFAULT
100
AcDbSpline
210
0.0
220
0.0
230
1.0
 70
    12
 71
     2
 72
     6
 73
     3
 74
     0
 42
0.0000000001
 43
0.0000000001
 40
4.71238898038469
 40
4.71238898038469
 40
4.71238898038469
 40
6.143877865319695
 40
6.143877865319695
 40
6.143877865319695
 10
34.22499999999999
 20
-0.0000001076427324
 30
0.0
 41
1.0
 10
34.35122291968933
 20
-0.0000001076427324
 30
0.0
 41
0.754604962574926
 10
34.36874989340006
 20
0.125000014946979
 30
0.0
 41
1.0
  0
SPLINE
  5
4B
330
1F
100
AcDbEntity
  8
DEFAULT
100
AcDbSpline
210
0.0
220
0.0
230
1.0
 70
    12
 71
     2
 72
     6
 73
     3
 74
     0
 42
0.0000000001
 43
0.0000000001
 40
3.280900095449684
 40
3.280900095449684
 40
3.280900095449684
 40
4.71238898038469
 40
4.71238898038469
 40
4.71238898038469
 10
33.18125010659993
 20
0.1250000149469791
 30
0.0
 41
1.0
 10
33.19877708031066
 20
-0.0000001076427324
 30
0.0
 41
0.7546049625749259
 10
33.325
 20
-0.0000001076427324
 30
0.0
 41
1.0
  0
SPLINE
  5
4C
330
1F
100
AcDbEntity
  8
DEFAULT
100
AcDbSpline
210
0.0
220
0.0
230
1.0
 70
    12
 71
     2
 72
     6
 73
     3
 74
     0
 42
0.0000000001
 43
0.0000000001
 40
0.0
 40
0.0
 40
0.0
 40
0.7853981633847829
 40
0.7853981633847829
 40
0.7853981633847829
 10
45.87499999998203
 20
16.32200100000001
 30
0.0
 41
1.0
 10
46.37499999996936
 20
16.32200100000001
 30
0.0
 41
0.7071067811955034
 10
46.37499999998203
 20
15.82200100001267
 30
0.0
 41
1.0
  0
SPLINE
  5
4D
330
1F
100
AcDbEntity
  8
DEFAULT
100
AcDbSpline
210
0.0
220
0.0
230
1.0
 70
    24
 71
     2
 72
     6
 73
     3
 74
     0
 42
0.0000000001
 43
0.0000000001
 40
0.0
 40
0.0
 40
0.0
 40
1.0
 40
1.0
 40
1.0
 10
34.36875
 20
0.125
 30
0.0
 10
34.36875
 20
4.550000000000001
 30
0.0
 10
34.36875
 20
8.975000000000001
 30
0.0
  0
SPLINE
  5
4E
330
1F
100
AcDbEntity
  8
DEFAULT
100
AcDbSpline
210
0.0
220
0.0
230
1.0
 70
    24
 71
     2
 72
     6
 73
     3
 74
     0
 42
0.0000000001
 43
0.0000000001
 40
0.0
 40
0.0
 40
0.0
 40
1.0
 40
1.0
 40
1.0
 10
33.18125
 20
0.125
 30
0.0
 10
33.18125
 20
3.800000000000001
 30
0.0
 10
33.18125
 20
7.475000000000001
 30
0.0
  0
SPLINE
  5
4F
330
1F
100
AcDbEntity
  8
DEFAULT
100
AcDbSpline
210
0.0
220
0.0
230
1.0
 70
    24
 71
     2
 72
     6
 73
     3
 74
     0
 42
0.0000000001
 43
0.0000000001
 40
0.0
 40
0.0
 40
0.0
 40
1.0
 40
1.0
 40
1.0
 10
33.18125
 20
0.125
 30
0.0
 10
33.18125
 20
3.800000000000001
 30
0.0
 10
33.18125
 20
7.475000000000001
 30
0.0
  0
LINE
  5
50
330
1F
100
AcDbEntity
  8
DEFAULT
100
AcDbLine
 10
58.375
 20
26.44700100000001
 30
0.0
 11
58.375
 21
16.82200100000021
 31
0.0
  0
ARC
  5
51
330
1F
100
AcDbEntity
  8
DEFAULT
100
AcDbCircle
 10
58.875
 20
16.82200100000021
 30
0.0
 40
0.5
100
AcDbArc
 50
180.0
 51
270.0
  0
SPLINE
  5
52
330
1F
100
AcDbEntity
  8
DEFAULT
100
AcDbSpline
210
0.0
220
0.0
230
1.0
 70
    12
 71
     2
 72
    14
 73
    11
 74
     0
 42
0.0000000001
 43
0.0000000001
 40
0.0
 40
0.0
 40
0.0
 40
25.74999999999983
 40
25.74999999999983
 40
26.53539816339745
 40
26.53539816339745
 40
36.16039816339704
 40
36.16039816339704
 40
36.94579632679453
 40
36.94579632679453
 40
51.25135188235013
 40
51.25135188235013
 40
51.25135188235013
 10
58.875
 20
16.32200100000021
 30
0.0
 41
1.0
 10
71.74999999999991
 20
16.32200100000021
 30
0.0
 41
1.0
 10
84.62499999999983
 20
16.32200100000021
 30
0.0
 41
1.0
 10
85.125
 20
16.32200100000021
 30
0.0
 41
0.707106781186427
 10
85.12499999999983
 20
16.82200100000038
 30
0.0
 41
1.0
 10
85.12499999999994
 20
21.63450100000017
 30
0.0
 41
1.0
 10
85.12500000000004
 20
26.44700099999996
 30
0.0
 41
1.0
 10
85.12500000000009
 20
26.947001
 30
0.0
 41
0.7071067811865174
 10
84.62500000000004
 20
26.94700100000001
 30
0.0
 41
1.0
 10
71.75000000000003
 20
26.94700100000001
 30
0.0
 41
1.0
 10
58.875
 20
26.94700100000001
 30
0.0
 41
1.0
  0
LINE
  5
53
330
1F
100
AcDbEntity
  8
DEFAULT
100
AcDbLine
 10
84.62499999999983
 20
16.32200100000021
 30
0.0
 11
88.12500000000006
 21
16.32200100000001
 31
0.0
  0
SPLINE
  5
54
330
1F
100
AcDbEntity
  8
DEFAULT
100
AcDbSpline
210
0.0
220
0.0
230
1.0
 70
    24
 71
     2
 72
     6
 73
     3
 74
     0
 42
0.0000000001
 43
0.0000000001
 40
0.0
 40
0.0
 40
0.0
 40
1.0
 40
1.0
 40
1.0
 10
84.831249
 20
0.125
 30
0.0
 10
84.2375
 20
0.125
 30
0.0
 10
83.643751
 20
0.125
 30
0.0
  0
SPLINE
  5
55
330
1F
100
AcDbEntity
  8
DEFAULT
100
AcDbSpline
210
0.0
220
0.0
230
1.0
 70
    24
 71
     2
 72
     6
 73
     3
 74
     0
 42
0.0000000001
 43
0.0000000001
 40
0.0
 40
0.0
 40
0.0
 40
1.0
 40
1.0
 40
1.0
 10
62.78749999999999
 20
0.0
 30
0.0
 10
63.2375
 20
0.0
 30
0.0
 10
63.6875
 20
0.0
 30
0.0
  0
ARC
  5
56
330
1F
100
AcDbEntity
  8
DEFAULT
100
AcDbCircle
 10
62.78749999999999
 20
0.1451560000000001
 30
0.0
 40
0.1451561076427307
100
AcDbArc
 50
187.9817284733362
 51
270.0
  0
LINE
  5
57
330
1F
100
AcDbEntity
  8
DEFAULT
100
AcDbLine
 10
89.12500000000003
 20
9.975000000000584
 30
0.0
 11
89.12500000000006
 21
15.32200099999989
 31
0.0
  0
LINE
  5
58
330
1F
100
AcDbEntity
  8
DEFAULT
100
AcDbLine
 10
58.375
 20
15.82200099999963
 30
0.0
 11
58.375
 21
9.474999999999774
 31
0.0
  0
ARC
  5
59
330
1F
100
AcDbEntity
  8
DEFAULT
100
AcDbCircle
 10
88.12500000000006
 20
15.32200100000001
 30
0.0
 40
1.0
100
AcDbArc
 50
359.9999999999935
 51
90.0
  0
ARC
  5
5A
330
1F
100
AcDbEntity
  8
DEFAULT
100
AcDbCircle
 10
58.875
 20
15.82200100000001
 30
0.0
 40
0.5
100
AcDbArc
 50
90.0
 51
180.0000000000434
  0
SPLINE
  5
5B
330
1F
100
AcDbEntity
  8
DEFAULT
100
AcDbSpline
210
0.0
220
0.0
230
1.0
 70
    24
 71
     2
 72
     6
 73
     3
 74
     0
 42
0.0000000001
 43
0.0000000001
 40
0.0
 40
0.0
 40
0.0
 40
1.0
 40
1.0
 40
1.0
 10
83.674132
 20
7.475000000000001
 30
0.0
 10
83.674132
 20
8.225000000000001
 30
0.0
 10
83.674132
 20
8.975000000000001
 30
0.0
  0
ARC
  5
5C
330
1F
100
AcDbEntity
  8
DEFAULT
100
AcDbCircle
 10
84.6875
 20
0.1451560000000001
 30
0.0
 40
0.1451561076427307
100
AcDbArc
 50
270.0
 51
352.0182715266642
  0
SPLINE
  5
5D
330
1F
100
AcDbEntity
  8
DEFAULT
100
AcDbSpline
210
0.0
220
0.0
230
1.0
 70
    24
 71
     2
 72
     6
 73
     3
 74
     0
 42
0.0000000001
 43
0.0000000001
 40
0.0
 40
0.0
 40
0.0
 40
1.0
 40
1.0
 40
1.0
 10
63.831249
 20
0.125
 30
0.0
 10
63.2375
 20
0.125
 30
0.0
 10
62.64375099999999
 20
0.125
 30
0.0
  0
SPLINE
  5
5E
330
1F
100
AcDbEntity
  8
DEFAULT
100
AcDbSpline
210
0.0
220
0.0
230
1.0
 70
    24
 71
     2
 72
     6
 73
     3
 74
     0
 42
0.0000000001
 43
0.0000000001
 40
0.0
 40
0.0
 40
0.0
 40
1.0
 40
1.0
 40
1.0
 10
62.64375
 20
0.125
 30
0.0
 10
62.64375
 20
4.550000000000001
 30
0.0
 10
62.64375
 20
8.975000000000001
 30
0.0
  0
SPLINE
  5
5F
330
1F
100
AcDbEntity
  8
DEFAULT
100
AcDbSpline
210
0.0
220
0.0
230
1.0
 70
    24
 71
     2
 72
     6
 73
     3
 74
     0
 42
0.0000000001
 43
0.0000000001
 40
0.0
 40
0.0
 40
0.0
 40
1.0
 40
1.0
 40
1.0
 10
83.7875
 20
0.0
 30
0.0
 10
84.2375
 20
0.0
 30
0.0
 10
84.6875
 20
0.0
 30
0.0
  0
LINE
  5
60
330
1F
100
AcDbEntity
  8
DEFAULT
100
AcDbLine
 10
58.875
 20
8.974999999999774
 30
0.0
 11
88.12500000000004
 21
8.975000000000005
 31
0.0
  0
SPLINE
  5
61
330
1F
100
AcDbEntity
  8
DEFAULT
100
AcDbSpline
210
0.0
220
0.0
230
1.0
 70
    24
 71
     2
 72
     6
 73
     3
 74
     0
 42
0.0000000001
 43
0.0000000001
 40
0.0
 40
0.0
 40
0.0
 40
1.0
 40
1.0
 40
1.0
 10
84.83125
 20
0.125
 30
0.0
 10
84.83125
 20
4.550000000000001
 30
0.0
 10
84.83125
 20
8.975000000000001
 30
0.0
  0
SPLINE
  5
62
330
1F
100
AcDbEntity
  8
DEFAULT
100
AcDbSpline
210
0.0
220
0.0
230
1.0
 70
    24
 71
     2
 72
     6
 73
     3
 74
     0
 42
0.0000000001
 43
0.0000000001
 40
0.0
 40
0.0
 40
0.0
 40
1.0
 40
1.0
 40
1.0
 10
83.64375
 20
0.125
 30
0.0
 10
83.64375
 20
3.800000000000001
 30
0.0
 10
83.64375
 20
7.475000000000001
 30
0.0
  0
ARC
  5
63
330
1F
100
AcDbEntity
  8
DEFAULT
100
AcDbCircle
 10
63.6875
 20
0.1451560000000001
 30
0.0
 40
0.1451561076427307
100
AcDbArc
 50
270.0
 51
352.0182715266638
  0
ARC
  5
64
330
1F
100
AcDbEntity
  8
DEFAULT
100
AcDbCircle
 10
83.7875
 20
0.1451560000000001
 30
0.0
 40
0.1451561076427307
100
AcDbArc
 50
187.9817284733358
 51
270.0
  0
ARC
  5
65
330
1F
100
AcDbEntity
  8
DEFAULT
100
AcDbCircle
 10
58.875
 20
9.474999999999774
 30
0.0
 40
0.5
100
AcDbArc
 50
180.0
 51
270.0
  0
ARC
  5
66
330
1F
100
AcDbEntity
  8
DEFAULT
100
AcDbCircle
 10
88.12500000000003
 20
9.975000000000005
 30
0.0
 40
1.0
100
AcDbArc
 50
270.0000000000008
 51
0.0000000000331795
  0
SPLINE
  5
67
330
1F
100
AcDbEntity
  8
DEFAULT
100
AcDbSpline
210
0.0
220
0.0
230
1.0
 70
    24
 71
     2
 72
     6
 73
     3
 74
     0
 42
0.0000000001
 43
0.0000000001
 40
0.0
 40
0.0
 40
0.0
 40
1.0
 40
1.0
 40
1.0
 10
63.800867
 20
7.475000000000001
 30
0.0
 10
73.7374995
 20
7.475000000000001
 30
0.0
 10
83.674132
 20
7.475000000000001
 30
0.0
  0
SPLINE
  5
68
330
1F
100
AcDbEntity
  8
DEFAULT
100
AcDbSpline
210
0.0
220
0.0
230
1.0
 70
    24
 71
     2
 72
     6
 73
     3
 74
     0
 42
0.0000000001
 43
0.0000000001
 40
0.0
 40
0.0
 40
0.0
 40
1.0
 40
1.0
 40
1.0
 10
63.800867
 20
7.475000000000001
 30
0.0
 10
63.800867
 20
8.225000000000001
 30
0.0
 10
63.800867
 20
8.975000000000001
 30
0.0
  0
ARC
  5
69
330
1F
100
AcDbEntity
  8
DEFAULT
100
AcDbCircle
 10
58.875
 20
26.44700100000001
 30
0.0
 40
0.5
100
AcDbArc
 50
90.0
 51
180.0
  0
SPLINE
  5
6A
330
1F
100
AcDbEntity
  8
DEFAULT
100
AcDbSpline
210
0.0
220
0.0
230
1.0
 70
    24
 71
     2
 72
     6
 73
     3
 74
     0
 42
0.0000000001
 43
0.0000000001
 40
0.0
 40
0.0
 40
0.0
 40
1.0
 40
1.0
 40
1.0
 10
63.83125
 20
0.125
 30
0.0
 10
63.83125
 20
3.800000000000001
 30
0.0
 10
63.83125
 20
7.475000000000001
 30
0.0
  0
SPLINE
  5
6B
330
1F
100
AcDbEntity
  8
DEFAULT
100
AcDbSpline
210
0.0
220
0.0
230
1.0
 70
    12
 71
     2
 72
     6
 73
     3
 74
     0
 42
0.0000000001
 43
0.0000000001
 40
-0.7853981633982228
 40
-0.7853981633982228
 40
-0.7853981633982228
 40
0.0
 40
0.0
 40
0.0
 10
-46.37500033291881
 20
39.44700100000078
 30
0.0
 41
1.0
 10
-46.37500033291958
 20
38.94700100000001
 30
0.0
 41
0.7071067811859999
 10
-45.87500033291881
 20
38.94700100000001
 30
0.0
 41
1.0
  0
SPLINE
  5
6C
330
1F
100
AcDbEntity
  8
DEFAULT
100
AcDbSpline
210
0.0
220
0.0
230
1.0
 70
    15
 71
     2
 72
    22
 73
    19
 74
     0
 42
0.0000000001
 43
0.0000000001
 40
8477.918027718308
 40
8477.918027718308
 40
8477.918027718308
 40
8478.075210992205
 40
8478.075210992205
 40
8478.703425881724
 40
8478.703425881724
 40
8479.33395375413
 40
8479.33395375413
 40
8480.119351917529
 40
8480.119351917529
 40
8480.168131949087
 40
8480.168131949087
 40
8480.953530112485
 40
8480.953530112485
 40
8490.578530112485
 40
8490.578530112485
 40
8491.363928275883
 40
8491.363928275883
 40
8495.363890863693
 40
8495.363890863693
 40
8495.363890863693
 10
-45.87499999998212
 20
16.32200100000001
 30
0.0
 41
1.0
 10
-45.95424534157784
 20
16.32200100000001
 30
0.0
 41
0.987672122235259
 10
-46.02960706250553
 20
16.34650477896243
 30
0.0
 41
1.0
 10
-46.37500000000003
 20
16.45880890486979
 30
0.0
 41
0.8090779087983315
 10
-46.37500000000004
 20
16.82200100000254
 30
0.0
 41
1.0
 10
-46.37500000000006
 20
21.38450100000127
 30
0.0
 41
1.0
 10
-46.37500000000009
 20
26.44700100000001
 30
0.0
 41
1.0
 10
-46.37500000000009
 20
26.94700100000001
 30
0.0
 41
0.707106781186545
 10
-45.87500000000009
 20
26.94700100000001
 30
0.0
 41
1.0
 10
-43.87501870609604
 20
26.94700100000001
 30
0.0
 41
1.0
 10
-41.87503741219198
 20
26.94700100000001
 30
0.0
 41
1.0
 10
-41.37503741219198
 20
26.94700100000001
 30
0.0
 41
0.7071067811865476
 10
-41.37503741219198
 20
26.44700100000001
 30
0.0
 41
1.0
 10
-41.37503741218239
 20
21.63450100000046
 30
0.0
 41
1.0
 10
-41.37503741217279
 20
16.82200100000092
 30
0.0
 41
1.0
 10
-41.3750374121718
 20
16.32200099999987
 30
0.0
 41
0.7071067811858065
 10
-41.87503741217284
 20
16.32200099999992
 30
0.0
 41
1.0
 10
-43.87501870607748
 20
16.32200099999996
 30
0.0
 41
1.0
 10
-45.87499999998212
 20
16.32200100000001
 30
0.0
 41
1.0
  0
SPLINE
  5
6D
330
1F
100
AcDbEntity
  8
DEFAULT
100
AcDbSpline
210
0.0
220
0.0
230
1.0
 70
    12
 71
     2
 72
     6
 73
     3
 74
     0
 42
0.0000000001
 43
0.0000000001
 40
4.71238898038469
 40
4.71238898038469
 40
4.71238898038469
 40
6.143877865319695
 40
6.143877865319695
 40
6.143877865319695
 10
-33.3250000000001
 20
-0.0000001076427324
 30
0.0
 41
1.0
 10
-33.19877708031076
 20
-0.0000001076427324
 30
0.0
 41
0.754604962574926
 10
-33.18125010660003
 20
0.125000014946979
 30
0.0
 41
1.0
  0
SPLINE
  5
6E
330
1F
100
AcDbEntity
  8
DEFAULT
100
AcDbSpline
210
0.0
220
0.0
230
1.0
 70
    24
 71
     2
 72
     6
 73
     3
 74
     0
 42
0.0000000001
 43
0.0000000001
 40
0.0
 40
0.0
 40
0.0
 40
4.003040501527022
 40
4.003040501527022
 40
4.003040501527022
 10
-46.37503741217328
 20
43.45004150135608
 30
0.0
 10
-46.37501887254604
 20
41.44852125067843
 30
0.0
 10
-46.37500033291881
 20
39.44700100000078
 30
0.0
  0
SPLINE
  5
6F
330
1F
100
AcDbEntity
  8
DEFAULT
100
AcDbSpline
210
0.0
220
0.0
230
1.0
 70
    24
 71
     2
 72
     6
 73
     3
 74
     0
 42
0.0000000001
 43
0.0000000001
 40
0.0
 40
0.0
 40
0.0
 40
1.0
 40
1.0
 40
1.0
 10
-33.18125000000009
 20
0.125
 30
0.0
 10
-33.18125000000009
 20
3.800000000000001
 30
0.0
 10
-33.18125000000009
 20
7.475000000000001
 30
0.0
  0
SPLINE
  5
70
330
1F
100
AcDbEntity
  8
DEFAULT
100
AcDbSpline
210
0.0
220
0.0
230
1.0
 70
    24
 71
     2
 72
     6
 73
     3
 74
     0
 42
0.0000000001
 43
0.0000000001
 40
0.0
 40
0.0
 40
0.0
 40
1.0
 40
1.0
 40
1.0
 10
-34.36875000000009
 20
0.125
 30
0.0
 10
-33.77500000000009
 20
0.125
 30
0.0
 10
-33.18125000000009
 20
0.125
 30
0.0
  0
SPLINE
  5
71
330
1F
100
AcDbEntity
  8
DEFAULT
100
AcDbSpline
210
0.0
220
0.0
230
1.0
 70
    24
 71
     2
 72
     6
 73
     3
 74
     0
 42
0.0000000001
 43
0.0000000001
 40
0.0
 40
0.0
 40
0.0
 40
1.0
 40
1.0
 40
1.0
 10
-33.3250000000001
 20
0.0
 30
0.0
 10
-33.77500000000009
 20
0.0
 30
0.0
 10
-34.22500000000009
 20
0.0
 30
0.0
  0
SPLINE
  5
72
330
1F
100
AcDbEntity
  8
DEFAULT
100
AcDbSpline
210
0.0
220
0.0
230
1.0
 70
    24
 71
     2
 72
     6
 73
     3
 74
     0
 42
0.0000000001
 43
0.0000000001
 40
0.0
 40
0.0
 40
0.0
 40
1.0
 40
1.0
 40
1.0
 10
-33.18125000000009
 20
0.125
 30
0.0
 10
-33.18125000000009
 20
3.800000000000001
 30
0.0
 10
-33.18125000000009
 20
7.475000000000001
 30
0.0
  0
SPLINE
  5
73
330
1F
100
AcDbEntity
  8
DEFAULT
100
AcDbSpline
210
0.0
220
0.0
230
1.0
 70
    12
 71
     2
 72
     6
 73
     3
 74
     0
 42
0.0000000001
 43
0.0000000001
 40
-0.7853981633946399
 40
-0.7853981633946399
 40
-0.7853981633946399
 40
0.0
 40
0.0
 40
0.0
 10
-46.37499999998212
 20
15.82200100000282
 30
0.0
 41
1.0
 10
-46.37499999997932
 20
16.32200100000001
 30
0.0
 41
0.7071067811885334
 10
-45.87499999998212
 20
16.32200100000001
 30
0.0
 41
1.0
  0
SPLINE
  5
74
330
1F
100
AcDbEntity
  8
DEFAULT
100
AcDbSpline
210
0.0
220
0.0
230
1.0
 70
    12
 71
     2
 72
     6
 73
     3
 74
     0
 42
0.0000000001
 43
0.0000000001
 40
3.280900095449684
 40
3.280900095449684
 40
3.280900095449684
 40
4.71238898038469
 40
4.71238898038469
 40
4.71238898038469
 10
-34.36874989340016
 20
0.1250000149469791
 30
0.0
 41
1.0
 10
-34.35122291968943
 20
-0.0000001076427324
 30
0.0
 41
0.7546049625749259
 10
-34.22500000000009
 20
-0.0000001076427324
 30
0.0
 41
1.0
  0
SPLINE
  5
75
330
1F
100
AcDbEntity
  8
DEFAULT
100
AcDbSpline
210
0.0
220
0.0
230
1.0
 70
    24
 71
     2
 72
     6
 73
     3
 74
     0
 42
0.0000000001
 43
0.0000000001
 40
0.0
 40
0.0
 40
0.0
 40
1.0
 40
1.0
 40
1.0
 10
-34.36875000000009
 20
0.125
 30
0.0
 10
-34.36875000000009
 20
4.550000000000001
 30
0.0
 10
-34.36875000000009
 20
8.975000000000001
 30
0.0
  0
SPLINE
  5
76
330
1F
100
AcDbEntity
  8
DEFAULT
100
AcDbSpline
210
0.0
220
0.0
230
1.0
 70
    24
 71
     2
 72
     6
 73
     3
 74
     0
 42
0.0000000001
 43
0.0000000001
 40
0.0
 40
0.0
 40
0.0
 40
1.0
 40
1.0
 40
1.0
 10
-33.21163200000009
 20
7.475000000000001
 30
0.0
 10
-33.21163200000009
 20
8.225000000000001
 30
0.0
 10
-33.21163200000009
 20
8.975000000000001
 30
0.0
  0
ENDSEC
  0
SECTION
  2
OBJECTS
  0
DICTIONARY
  5
C
330
0
100
AcDbDictionary
281
     1
  3
ACAD_GROUP
350
D
  3
ACAD_LAYOUT
350
1A
  3
ACAD_MLEADERSTYLE
350
79
  3
ACAD_MLINESTYLE
350
17
  3
ACAD_PLOTSETTINGS
350
19
  3
ACAD_PLOTSTYLENAME
350
E
  3
ACAD_VISUALSTYLE
350
2A
  3
AcDbVariableDictionary
350
77
  0
DICTIONARY
  5
D
102
{ACAD_REACTORS
330
C
102
}
330
C
100
AcDbDictionary
281
     1
  0
DICTIONARY
  5
1A
102
{ACAD_REACTORS
330
C
102
}
330
C
100
AcDbDictionary
281
     1
  3
Layout1
350
1E
  3
Layout2
350
26
  3
Model
350
22
  0
DICTIONARY
  5
79
102
{ACAD_REACTORS
330
C
102
}
330
C
100
AcDbDictionary
281
     1
  0
DICTIONARY
  5
17
102
{ACAD_REACTORS
330
C
102
}
330
C
100
AcDbDictionary
281
     1
  3
Standard
350
18
  0
DICTIONARY
  5
19
102
{ACAD_REACTORS
330
C
102
}
330
C
100
AcDbDictionary
281
     1
  0
ACDBDICTIONARYWDFLT
  5
E
102
{ACAD_REACTORS
330
C
102
}
330
C
100
AcDbDictionary
281
     1
  3
Normal
350
F
100
AcDbDictionaryWithDefault
340
F
  0
DICTIONARY
  5
2A
102
{ACAD_REACTORS
330
C
102
}
330
C
100
AcDbDictionary
281
     1
  3
2dWireframe
350
2F
  3
3D Hidden
350
31
  3
3dWireframe
350
30
  3
Basic
350
32
  3
Brighten
350
36
  3
ColorChange
350
3A
  3
Conceptual
350
34
  3
Dim
350
35
  3
Facepattern
350
39
  3
Flat
350
2B
  3
FlatWithEdges
350
2C
  3
Gouraud
350
2D
  3
GouraudWithEdges
350
2E
  3
Linepattern
350
38
  3
Realistic
350
33
  3
Thicken
350
37
  0
DICTIONARY
  5
77
102
{ACAD_REACTORS
330
C
102
}
330
C
100
AcDbDictionary
281
     1
  0
LAYOUT
  5
1E
102
{ACAD_REACTORS
330
1A
102
}
330
1A
100
AcDbPlotSettings
  1

  2
none_device
  4

  6

 40
0.0
 41
0.0
 42
0.0
 43
0.0
 44
0.0
 45
0.0
 46
0.0
 47
0.0
 48
0.0
 49
0.0
140
0.0
141
0.0
142
1.0
143
1.0
 70
   688
 72
     0
 73
     0
 74
     5
  7

 75
    16
147
1.0
148
0.0
149
0.0
100
AcDbLayout
  1
Layout1
 70
     1
 71
     1
 10
0.0
 20
0.0
 11
12.0
 21
9.0
 12
0.0
 22
0.0
 32
0.0
 14
1.000000000000000E+20
 24
1.000000000000000E+20
 34
1.000000000000000E+20
 15
-1.000000000000000E+20
 25
-1.000000000000000E+20
 35
-1.000000000000000E+20
146
0.0
 13
0.0
 23
0.0
 33
0.0
 16
1.0
 26
0.0
 36
0.0
 17
0.0
 27
1.0
 37
0.0
 76
     0
330
1B
  0
LAYOUT
  5
26
102
{ACAD_REACTORS
330
1A
102
}
330
1A
100
AcDbPlotSettings
  1

  2
none_device
  4

  6

 40
0.0
 41
0.0
 42
0.0
 43
0.0
 44
0.0
 45
0.0
 46
0.0
 47
0.0
 48
0.0
 49
0.0
140
0.0
141
0.0
142
1.0
143
1.0
 70
   688
 72
     0
 73
     0
 74
     5
  7

 75
    16
147
1.0
148
0.0
149
0.0
100
AcDbLayout
  1
Layout2
 70
     1
 71
     2
 10
0.0
 20
0.0
 11
0.0
 21
0.0
 12
0.0
 22
0.0
 32
0.0
 14
0.0
 24
0.0
 34
0.0
 15
0.0
 25
0.0
 35
0.0
146
0.0
 13
0.0
 23
0.0
 33
0.0
 16
1.0
 26
0.0
 36
0.0
 17
0.0
 27
1.0
 37
0.0
 76
     0
330
23
  0
LAYOUT
  5
22
102
{ACAD_REACTORS
330
1A
102
}
330
1A
100
AcDbPlotSettings
  1

  2
none_device
  4

  6

 40
0.0
 41
0.0
 42
0.0
 43
0.0
 44
0.0
 45
0.0
 46
0.0
 47
0.0
 48
0.0
 49
0.0
140
0.0
141
0.0
142
1.0
143
1.0
 70
  1712
 72
     0
 73
     0
 74
     0
  7

 75
     0
147
1.0
148
0.0
149
0.0
100
AcDbLayout
  1
Model
 70
     1
 71
     0
 10
0.0
 20
0.0
 11
12.0
 21
9.0
 12
0.0
 22
0.0
 32
0.0
 14
-46.37503741224906
 24
-0.0000001076427324
 34
0.0
 15
89.12500000000006
 25
69.70004149998555
 35
0.0
146
0.0
 13
0.0
 23
0.0
 33
0.0
 16
1.0
 26
0.0
 36
0.0
 17
0.0
 27
1.0
 37
0.0
 76
     0
330
1F
331
29
  0
MLINESTYLE
  5
18
102
{ACAD_REACTORS
330
17
102
}
330
17
100
AcDbMlineStyle
  2
Standard
 70
     0
  3

 62
   256
 51
90.0
 52
90.0
 71
     2
 49
0.5
 62
   256
  6
BYLAYER
 49
-0.5
 62
   256
  6
BYLAYER
  0
ACDBPLACEHOLDER
  5
F
102
{ACAD_REACTORS
330
E
102
}
330
E
  0
VISUALSTYLE
  5
2F
102
{ACAD_REACTORS
330
2A
102
}
330
2A
100
AcDbVisualStyle
  2
2dWireframe
 70
     4
 71
     0
 72
     2
 73
     0
 90
        0
 40
-0.6
 41
-30.0
 62
     5
 63
     7
 74
     1
 91
        4
 64
     7
 65
   257
 75
     1
175
     1
 42
1.0
 92
        0
 66
   257
 43
1.0
 76
     1
 77
     6
 78
     2
 67
     7
 79
     5
170
     0
171
     0
290
     0
174
     0
 93
        1
 44
0.0
173
     0
291
     0
 45
0.0
1001
ACAD
1000
AcDbSavedByObjectVersion
1070
     0
  0
VISUALSTYLE
  5
31
102
{ACAD_REACTORS
330
2A
102
}
330
2A
100
AcDbVisualStyle
  2
3D Hidden
 70
     6
 71
     1
 72
     2
 73
     2
 90
        0
 40
-0.6
 41
-30.0
 62
     5
 63
     7
 74
     2
 91
        2
 64
     7
 65
   257
 75
     2
175
     1
 42
40.0
 92
        0
 66
   257
 43
1.0
 76
     1
 77
     6
 78
     2
 67
     7
 79
     3
170
     0
171
     0
290
     0
174
     0
 93
        1
 44
0.0
173
     0
291
     0
 45
0.0
1001
ACAD
1000
AcDbSavedByObjectVersion
1070
     0
  0
VISUALSTYLE
  5
30
102
{ACAD_REACTORS
330
2A
102
}
330
2A
100
AcDbVisualStyle
  2
3dWireframe
 70
     5
 71
     0
 72
     2
 73
     0
 90
        0
 40
-0.6
 41
-30.0
 62
     5
 63
     7
 74
     1
 91
        4
 64
     7
 65
   257
 75
     1
175
     1
 42
1.0
 92
        0
 66
   257
 43
1.0
 76
     1
 77
     6
 78
     2
 67
     7
 79
     5
170
     0
171
     0
290
     0
174
     0
 93
        1
 44
0.0
173
     0
291
     0
 45
0.0
1001
ACAD
1000
AcDbSavedByObjectVersion
1070
     0
  0
VISUALSTYLE
  5
32
102
{ACAD_REACTORS
330
2A
102
}
330
2A
100
AcDbVisualStyle
  2
Basic
 70
     7
 71
     1
 72
     0
 73
     1
 90
        0
 40
-0.6
 41
-30.0
 62
     5
 63
     7
 74
     0
 91
        4
 64
     7
 65
   257
 75
     1
175
     1
 42
1.0
 92
        8
 66
     7
 43
1.0
 76
     1
 77
     6
 78
     2
 67
     7
 79
     5
170
     0
171
     0
290
     0
174
     0
 93
        1
 44
0.0
173
     0
291
     1
 45
0.0
1001
ACAD
1000
AcDbSavedByObjectVersion
1070
     0
  0
VISUALSTYLE
  5
36
102
{ACAD_REACTORS
330
2A
102
}
330
2A
100
AcDbVisualStyle
  2
Brighten
 70
    12
 71
     2
 72
     2
 73
     0
 90
        0
 40
-0.6
 41
-30.0
 62
     5
 63
     7
 74
     1
 91
        4
 64
     7
 65
   257
 75
     1
175
     1
 42
1.0
 92
        8
 66
     7
 43
1.0
 76
     1
 77
     6
 78
     2
 67
     7
 79
     5
170
     0
171
     0
290
     0
174
     0
 93
        1
 44
50.0
173
     0
291
     1
 45
0.0
1001
ACAD
1000
AcDbSavedByObjectVersion
1070
     0
  0
VISUALSTYLE
  5
3A
102
{ACAD_REACTORS
330
2A
102
}
330
2A
100
AcDbVisualStyle
  2
ColorChange
 70
    16
 71
     2
 72
     2
 73
     3
 90
        0
 40
-0.6
 41
-30.0
 62
     5
 63
     8
 74
     1
 91
        4
 64
     7
 65
   257
 75
     1
175
     1
 42
1.0
 92
        8
 66
     8
 43
1.0
 76
     1
 77
     6
 78
     2
 67
     7
 79
     5
170
     0
171
     0
290
     0
174
     0
 93
        1
 44
0.0
173
     0
291
     1
 45
0.0
1001
ACAD
1000
AcDbSavedByObjectVersion
1070
     0
  0
VISUALSTYLE
  5
34
102
{ACAD_REACTORS
330
2A
102
}
330
2A
100
AcDbVisualStyle
  2
Conceptual
 70
     9
 71
     3
 72
     2
 73
     0
 90
        0
 40
-0.6
 41
-30.0
 62
     5
 63
     7
 74
     2
 91
        2
 64
     7
 65
   257
 75
     1
175
     1
 42
40.0
 92
        8
 66
     7
 43
1.0
 76
     1
 77
     6
 78
     2
 67
     7
 79
     3
170
     0
171
     0
290
     0
174
     0
 93
        1
 44
0.0
173
     0
291
     0
 45
0.0
1001
ACAD
1000
AcDbSavedByObjectVersion
1070
     0
  0
VISUALSTYLE
  5
35
102
{ACAD_REACTORS
330
2A
102
}
330
2A
100
AcDbVisualStyle
  2
Dim
 70
    11
 71
     2
 72
     2
 73
     0
 90
        0
 40
-0.6
 41
-30.0
 62
     5
 63
     7
 74
     1
 91
        4
 64
     7
 65
   257
 75
     1
175
     1
 42
1.0
 92
        8
 66
     7
 43
1.0
 76
     1
 77
     6
 78
     2
 67
     7
 79
     5
170
     0
171
     0
290
     0
174
     0
 93
        1
 44
-50.0
173
     0
291
     1
 45
0.0
1001
ACAD
1000
AcDbSavedByObjectVersion
1070
     0
  0
VISUALSTYLE
  5
39
102
{ACAD_REACTORS
330
2A
102
}
330
2A
100
AcDbVisualStyle
  2
Facepattern
 70
    15
 71
     2
 72
     2
 73
     0
 90
        0
 40
-0.6
 41
-30.0
 62
     5
 63
     7
 74
     1
 91
        4
 64
     7
 65
   257
 75
     1
175
     1
 42
1.0
 92
        8
 66
     7
 43
1.0
 76
     1
 77
     6
 78
     2
 67
     7
 79
     5
170
     0
171
     0
290
     0
174
     0
 93
        1
 44
0.0
173
     0
291
     1
 45
0.0
1001
ACAD
1000
AcDbSavedByObjectVersion
1070
     0
  0
VISUALSTYLE
  5
2B
102
{ACAD_REACTORS
330
2A
102
}
330
2A
100
AcDbVisualStyle
  2
Flat
 70
     0
 71
     2
 72
     1
 73
     1
 90
        2
 40
-0.6
 41
30.0
 62
     5
 63
     7
 74
     0
 91
        4
 64
     7
 65
   257
 75
     1
175
     1
 42
1.0
 92
        8
 66
     7
 43
1.0
 76
     1
 77
     6
 78
     2
 67
     7
 79
     5
170
     0
171
     0
290
     0
174
     0
 93
       13
 44
0.0
173
     0
291
     1
 45
0.0
1001
ACAD
1000
AcDbSavedByObjectVersion
1070
     0
  0
VISUALSTYLE
  5
2C
102
{ACAD_REACTORS
330
2A
102
}
330
2A
100
AcDbVisualStyle
  2
FlatWithEdges
 70
     1
 71
     2
 72
     1
 73
     1
 90
        2
 40
-0.6
 41
30.0
 62
     5
 63
     7
 74
     1
 91
        4
 64
     7
 65
   257
 75
     1
175
     1
 42
1.0
 92
        0
 66
   257
 43
1.0
 76
     1
 77
     6
 78
     2
 67
     7
 79
     5
170
     0
171
     0
290
     0
174
     0
 93
       13
 44
0.0
173
     0
291
     1
 45
0.0
1001
ACAD
1000
AcDbSavedByObjectVersion
1070
     0
  0
VISUALSTYLE
  5
2D
102
{ACAD_REACTORS
330
2A
102
}
330
2A
100
AcDbVisualStyle
  2
Gouraud
 70
     2
 71
     2
 72
     2
 73
     1
 90
        2
 40
-0.6
 41
30.0
 62
     5
 63
     7
 74
     0
 91
        4
 64
     7
 65
   257
 75
     1
175
     1
 42
1.0
 92
        0
 66
     7
 43
1.0
 76
     1
 77
     6
 78
     2
 67
     7
 79
     5
170
     0
171
     0
290
     0
174
     0
 93
       13
 44
0.0
173
     0
291
     1
 45
0.0
1001
ACAD
1000
AcDbSavedByObjectVersion
1070
     0
  0
VISUALSTYLE
  5
2E
102
{ACAD_REACTORS
330
2A
102
}
330
2A
100
AcDbVisualStyle
  2
GouraudWithEdges
 70
     3
 71
     2
 72
     2
 73
     1
 90
        2
 40
-0.6
 41
30.0
 62
     5
 63
     7
 74
     1
 91
        4
 64
     7
 65
   257
 75
     1
175
     1
 42
1.0
 92
        0
 66
   257
 43
1.0
 76
     1
 77
     6
 78
     2
 67
     7
 79
     5
170
     0
171
     0
290
     0
174
     0
 93
       13
 44
0.0
173
     0
291
     1
 45
0.0
1001
ACAD
1000
AcDbSavedByObjectVersion
1070
     0
  0
VISUALSTYLE
  5
38
102
{ACAD_REACTORS
330
2A
102
}
330
2A
100
AcDbVisualStyle
  2
Linepattern
 70
    14
 71
     2
 72
     2
 73
     0
 90
        0
 40
-0.6
 41
-30.0
 62
     5
 63
     7
 74
     1
 91
        4
 64
     7
 65
   257
 75
     7
175
     7
 42
1.0
 92
        8
 66
     7
 43
1.0
 76
     1
 77
     6
 78
     2
 67
     7
 79
     5
170
     0
171
     0
290
     0
174
     0
 93
        1
 44
0.0
173
     0
291
     1
 45
0.0
1001
ACAD
1000
AcDbSavedByObjectVersion
1070
     0
  0
VISUALSTYLE
  5
33
102
{ACAD_REACTORS
330
2A
102
}
330
2A
100
AcDbVisualStyle
  2
Realistic
 70
     8
 71
     2
 72
     2
 73
     0
 90
        0
 40
-0.6
 41
-30.0
 62
     5
 63
     7
 74
     1
 91
        0
 64
     7
 65
   257
 75
     1
175
     1
 42
1.0
 92
        8
 66
     8
 43
1.0
 76
     1
 77
     6
 78
     2
 67
     7
 79
     5
170
     0
171
     0
290
     0
174
     0
 93
       13
 44
0.0
173
     0
291
     0
 45
0.0
1001
ACAD
1000
AcDbSavedByObjectVersion
1070
     0
  0
VISUALSTYLE
  5
37
102
{ACAD_REACTORS
330
2A
102
}
330
2A
100
AcDbVisualStyle
  2
Thicken
 70
    13
 71
     2
 72
     2
 73
     0
 90
        0
 40
-0.6
 41
-30.0
 62
     5
 63
     7
 74
     1
 91
        4
 64
     7
 65
   257
 75
     1
175
     1
 42
1.0
 92
       12
 66
     7
 43
1.0
 76
     1
 77
     6
 78
     2
 67
     7
 79
     5
170
     0
171
     0
290
     0
174
     0
 93
        1
 44
0.0
173
     0
291
     1
 45
0.0
1001
ACAD
1000
AcDbSavedByObjectVersion
1070
     0
  0
ENDSEC
  0
EOF
