  0
SECTION
  2
HEADER
  9
$ACADVER
  1
AC1015
  9
$ACADMAINTVER
 70
     6
  9
$DWGCODEPAGE
  3
ANSI_1252
  9
$INSBASE
 10
0.0
 20
0.0
 30
0.0
  9
$EXTMIN
 10
-18.3125
 20
-0.0000000000000121
 30
0.0
  9
$EXTMAX
 10
59.06
 20
54.49150014955896
 30
0.0
  9
$LIMMIN
 10
0.0
 20
0.0
  9
$LIMMAX
 10
12.0
 20
9.0
  9
$ORTHOMODE
 70
     0
  9
$REGENMODE
 70
     1
  9
$FILLMODE
 70
     1
  9
$QTEXTMODE
 70
     0
  9
$MIRRTEXT
 70
     1
  9
$LTSCALE
 40
0.0393700787401575
  9
$ATTMODE
 70
     1
  9
$TEXTSIZE
 40
0.2
  9
$TRACEWID
 40
0.05
  9
$TEXTSTYLE
  7
Standard
  9
$CLAYER
  8
DEFAULT
  9
$CELTYPE
  6
ByLayer
  9
$CECOLOR
 62
   256
  9
$CELTSCALE
 40
1.0
  9
$DISPSILH
 70
     0
  9
$DIMSCALE
 40
1.0
  9
$DIMASZ
 40
0.18
  9
$DIMEXO
 40
0.0625
  9
$DIMDLI
 40
0.38
  9
$DIMRND
 40
0.0
  9
$DIMDLE
 40
0.0
  9
$DIMEXE
 40
0.18
  9
$DIMTP
 40
0.0
  9
$DIMTM
 40
0.0
  9
$DIMTXT
 40
0.18
  9
$DIMCEN
 40
0.09
  9
$DIMTSZ
 40
0.0
  9
$DIMTOL
 70
     0
  9
$DIMLIM
 70
     0
  9
$DIMTIH
 70
     1
  9
$DIMTOH
 70
     1
  9
$DIMSE1
 70
     0
  9
$DIMSE2
 70
     0
  9
$DIMTAD
 70
     0
  9
$DIMZIN
 70
     0
  9
$DIMBLK
  1

  9
$DIMASO
 70
     1
  9
$DIMSHO
 70
     1
  9
$DIMPOST
  1

  9
$DIMAPOST
  1

  9
$DIMALT
 70
     0
  9
$DIMALTD
 70
     2
  9
$DIMALTF
 40
25.4
  9
$DIMLFAC
 40
1.0
  9
$DIMTOFL
 70
     0
  9
$DIMTVP
 40
0.0
  9
$DIMTIX
 70
     0
  9
$DIMSOXD
 70
     0
  9
$DIMSAH
 70
     0
  9
$DIMBLK1
  1

  9
$DIMBLK2
  1

  9
$DIMSTYLE
  2
Standard
  9
$DIMCLRD
 70
     0
  9
$DIMCLRE
 70
     0
  9
$DIMCLRT
 70
     0
  9
$DIMTFAC
 40
1.0
  9
$DIMGAP
 40
0.09
  9
$DIMJUST
 70
     0
  9
$DIMSD1
 70
     0
  9
$DIMSD2
 70
     0
  9
$DIMTOLJ
 70
     1
  9
$DIMTZIN
 70
     0
  9
$DIMALTZ
 70
     0
  9
$DIMALTTZ
 70
     0
  9
$DIMUPT
 70
     0
  9
$DIMDEC
 70
     4
  9
$DIMTDEC
 70
     4
  9
$DIMALTU
 70
     2
  9
$DIMALTTD
 70
     2
  9
$DIMTXSTY
  7
Standard
  9
$DIMAUNIT
 70
     0
  9
$DIMADEC
 70
     0
  9
$DIMALTRND
 40
0.0
  9
$DIMAZIN
 70
     0
  9
$DIMDSEP
 70
    46
  9
$DIMATFIT
 70
     3
  9
$DIMFRAC
 70
     0
  9
$DIMLDRBLK
  1

  9
$DIMLUNIT
 70
     2
  9
$DIMLWD
 70
    -2
  9
$DIMLWE
 70
    -2
  9
$DIMTMOVE
 70
     2
  9
$LUNITS
 70
     2
  9
$LUPREC
 70
     3
  9
$SKETCHINC
 40
0.1
  9
$FILLETRAD
 40
0.5
  9
$AUNITS
 70
     0
  9
$AUPREC
 70
     0
  9
$MENU
  1
.
  9
$ELEVATION
 40
0.0
  9
$PELEVATION
 40
0.0
  9
$THICKNESS
 40
0.0
  9
$LIMCHECK
 70
     0
  9
$CHAMFERA
 40
0.5
  9
$CHAMFERB
 40
0.5
  9
$CHAMFERC
 40
1.0
  9
$CHAMFERD
 40
0.0
  9
$SKPOLY
 70
     0
  9
$TDCREATE
 40
2455719.60890625
  9
$TDUCREATE
 40
2455719.775572916
  9
$TDUPDATE
 40
2455719.608906262
  9
$TDUUPDATE
 40
2455719.775572928
  9
$TDINDWG
 40
0.0000000116
  9
$TDUSRTIMER
 40
0.0000000116
  9
$USRTIMER
 70
     1
  9
$ANGBASE
 50
0.0
  9
$ANGDIR
 70
     0
  9
$PDMODE
 70
     0
  9
$PDSIZE
 40
0.0
  9
$PLINEWID
 40
0.0
  9
$SPLFRAME
 70
     0
  9
$SPLINETYPE
 70
     6
  9
$SPLINESEGS
 70
     8
  9
$HANDSEED
  5
93
  9
$SURFTAB1
 70
     6
  9
$SURFTAB2
 70
     6
  9
$SURFTYPE
 70
     6
  9
$SURFU
 70
     6
  9
$SURFV
 70
     6
  9
$UCSBASE
  2

  9
$UCSNAME
  2

  9
$UCSORG
 10
0.0
 20
0.0
 30
0.0
  9
$UCSXDIR
 10
1.0
 20
0.0
 30
0.0
  9
$UCSYDIR
 10
0.0
 20
1.0
 30
0.0
  9
$UCSORTHOREF
  2

  9
$UCSORTHOVIEW
 70
     0
  9
$UCSORGTOP
 10
0.0
 20
0.0
 30
0.0
  9
$UCSORGBOTTOM
 10
0.0
 20
0.0
 30
0.0
  9
$UCSORGLEFT
 10
0.0
 20
0.0
 30
0.0
  9
$UCSORGRIGHT
 10
0.0
 20
0.0
 30
0.0
  9
$UCSORGFRONT
 10
0.0
 20
0.0
 30
0.0
  9
$UCSORGBACK
 10
0.0
 20
0.0
 30
0.0
  9
$PUCSBASE
  2

  9
$PUCSNAME
  2

  9
$PUCSORG
 10
0.0
 20
0.0
 30
0.0
  9
$PUCSXDIR
 10
1.0
 20
0.0
 30
0.0
  9
$PUCSYDIR
 10
0.0
 20
1.0
 30
0.0
  9
$PUCSORTHOREF
  2

  9
$PUCSORTHOVIEW
 70
     0
  9
$PUCSORGTOP
 10
0.0
 20
0.0
 30
0.0
  9
$PUCSORGBOTTOM
 10
0.0
 20
0.0
 30
0.0
  9
$PUCSORGLEFT
 10
0.0
 20
0.0
 30
0.0
  9
$PUCSORGRIGHT
 10
0.0
 20
0.0
 30
0.0
  9
$PUCSORGFRONT
 10
0.0
 20
0.0
 30
0.0
  9
$PUCSORGBACK
 10
0.0
 20
0.0
 30
0.0
  9
$USERI1
 70
     0
  9
$USERI2
 70
     0
  9
$USERI3
 70
     0
  9
$USERI4
 70
     0
  9
$USERI5
 70
     0
  9
$USERR1
 40
0.0
  9
$USERR2
 40
0.0
  9
$USERR3
 40
0.0
  9
$USERR4
 40
0.0
  9
$USERR5
 40
0.0
  9
$WORLDVIEW
 70
     1
  9
$SHADEDGE
 70
     3
  9
$SHADEDIF
 70
    70
  9
$TILEMODE
 70
     1
  9
$MAXACTVP
 70
    64
  9
$PINSBASE
 10
0.0
 20
0.0
 30
0.0
  9
$PLIMCHECK
 70
     0
  9
$PEXTMIN
 10
1.000000000000000E+20
 20
1.000000000000000E+20
 30
1.000000000000000E+20
  9
$PEXTMAX
 10
-1.000000000000000E+20
 20
-1.000000000000000E+20
 30
-1.000000000000000E+20
  9
$PLIMMIN
 10
0.0
 20
0.0
  9
$PLIMMAX
 10
12.0
 20
9.0
  9
$UNITMODE
 70
     0
  9
$VISRETAIN
 70
     1
  9
$PLINEGEN
 70
     0
  9
$PSLTSCALE
 70
     1
  9
$TREEDEPTH
 70
  3020
  9
$CMLSTYLE
  2
Standard
  9
$CMLJUST
 70
     0
  9
$CMLSCALE
 40
1.0
  9
$PROXYGRAPHICS
 70
     1
  9
$MEASUREMENT
 70
     0
  9
$CELWEIGHT
370
    -1
  9
$ENDCAPS
280
     0
  9
$JOINSTYLE
280
     0
  9
$LWDISPLAY
290
     0
  9
$INSUNITS
 70
     1
  9
$HYPERLINKBASE
  1

  9
$STYLESHEET
  1

  9
$XEDIT
290
     1
  9
$CEPSNTYPE
380
     0
  9
$PSTYLEMODE
290
     1
  9
$FINGERPRINTGUID
  2
{0B34122B-0C3E-460B-9CF9-6CF478674DEE}
  9
$VERSIONGUID
  2
{FAEB1C32-E019-11D5-929B-00C0DF256EC4}
  9
$EXTNAMES
290
     1
  9
$PSVPSCALE
 40
0.0
  9
$OLESTARTUP
290
     0
  0
ENDSEC
  0
SECTION
  2
CLASSES
  0
CLASS
  1
ACDBDICTIONARYWDFLT
  2
AcDbDictionaryWithDefault
  3
ObjectDBX Classes
 90
        0
280
     0
281
     0
  0
CLASS
  1
VISUALSTYLE
  2
AcDbVisualStyle
  3
ObjectDBX Classes
 90
     4095
280
     0
281
     0
  0
CLASS
  1
ACDBPLACEHOLDER
  2
AcDbPlaceHolder
  3
ObjectDBX Classes
 90
        0
280
     0
281
     0
  0
CLASS
  1
LAYOUT
  2
AcDbLayout
  3
ObjectDBX Classes
 90
        0
280
     0
281
     0
  0
ENDSEC
  0
SECTION
  2
TABLES
  0
TABLE
  2
VPORT
  5
8
330
0
100
AcDbSymbolTable
 70
     1
  0
VPORT
  5
29
330
8
100
AcDbSymbolTableRecord
100
AcDbViewportTableRecord
  2
*Active
 70
     0
 10
0.0
 20
0.0
 11
1.0
 21
1.0
 12
20.37375
 22
27.24575007477947
 13
0.0
 23
0.0
 14
0.5
 24
0.5
 15
0.5
 25
0.5
 16
0.0
 26
0.0
 36
1.0
 17
0.0
 27
0.0
 37
0.0
 40
55.58133015255015
 41
1.419900347533857
 42
50.0
 43
0.0
 44
0.0
 50
0.0
 51
0.0
 71
     0
 72
   100
 73
     1
 74
     3
 75
     0
 76
     0
 77
     0
 78
     0
281
     0
 65
     1
110
0.0
120
0.0
130
0.0
111
1.0
121
0.0
131
0.0
112
0.0
122
1.0
132
0.0
 79
     0
146
0.0
  0
ENDTAB
  0
TABLE
  2
LTYPE
  5
5
330
0
100
AcDbSymbolTable
 70
     1
  0
LTYPE
  5
14
330
5
100
AcDbSymbolTableRecord
100
AcDbLinetypeTableRecord
  2
ByBlock
 70
     0
  3

 72
    65
 73
     0
 40
0.0
  0
LTYPE
  5
15
330
5
100
AcDbSymbolTableRecord
100
AcDbLinetypeTableRecord
  2
ByLayer
 70
     0
  3

 72
    65
 73
     0
 40
0.0
  0
LTYPE
  5
16
330
5
100
AcDbSymbolTableRecord
100
AcDbLinetypeTableRecord
  2
Continuous
 70
     0
  3
Solid line
 72
    65
 73
     0
 40
0.0
  0
ENDTAB
  0
TABLE
  2
LAYER
  5
2
330
0
100
AcDbSymbolTable
 70
     2
  0
LAYER
  5
10
330
2
100
AcDbSymbolTableRecord
100
AcDbLayerTableRecord
  2
0
 70
     0
 62
     7
  6
Continuous
370
    -3
390
F
  0
LAYER
  5
3B
330
2
100
AcDbSymbolTableRecord
100
AcDbLayerTableRecord
  2
DEFAULT
 70
     0
 62
     7
  6
Continuous
370
    -3
390
F
  0
ENDTAB
  0
TABLE
  2
STYLE
  5
3
330
0
100
AcDbSymbolTable
 70
     1
  0
STYLE
  5
11
330
3
100
AcDbSymbolTableRecord
100
AcDbTextStyleTableRecord
  2
Standard
 70
     0
 40
0.0
 41
1.0
 50
0.0
 71
     0
 42
0.2
  3
txt
  4

  0
ENDTAB
  0
TABLE
  2
VIEW
  5
6
330
0
100
AcDbSymbolTable
 70
     0
  0
ENDTAB
  0
TABLE
  2
UCS
  5
7
330
0
100
AcDbSymbolTable
 70
     0
  0
ENDTAB
  0
TABLE
  2
APPID
  5
9
330
0
100
AcDbSymbolTable
 70
     1
  0
APPID
  5
12
330
9
100
AcDbSymbolTableRecord
100
AcDbRegAppTableRecord
  2
ACAD
 70
     0
  0
ENDTAB
  0
TABLE
  2
DIMSTYLE
  5
A
330
0
100
AcDbSymbolTable
 70
     1
100
AcDbDimStyleTable
  0
DIMSTYLE
105
27
330
A
100
AcDbSymbolTableRecord
100
AcDbDimStyleTableRecord
  2
Standard
 70
     0
340
11
  0
ENDTAB
  0
TABLE
  2
BLOCK_RECORD
  5
1
330
0
100
AcDbSymbolTable
 70
     1
  0
BLOCK_RECORD
  5
1F
330
1
100
AcDbSymbolTableRecord
100
AcDbBlockTableRecord
  2
*Model_Space
340
22
  0
BLOCK_RECORD
  5
1B
330
1
100
AcDbSymbolTableRecord
100
AcDbBlockTableRecord
  2
*Paper_Space
340
1E
  0
BLOCK_RECORD
  5
23
330
1
100
AcDbSymbolTableRecord
100
AcDbBlockTableRecord
  2
*Paper_Space0
340
26
  0
ENDTAB
  0
ENDSEC
  0
SECTION
  2
BLOCKS
  0
BLOCK
  5
20
330
1F
100
AcDbEntity
  8
0
100
AcDbBlockBegin
  2
*Model_Space
 70
     0
 10
0.0
 20
0.0
 30
0.0
  3
*Model_Space
  1

  0
ENDBLK
  5
21
330
1F
100
AcDbEntity
  8
0
100
AcDbBlockEnd
  0
BLOCK
  5
1C
330
1B
100
AcDbEntity
 67
     1
  8
0
100
AcDbBlockBegin
  2
*Paper_Space
 70
     0
 10
0.0
 20
0.0
 30
0.0
  3
*Paper_Space
  1

  0
ENDBLK
  5
1D
330
1B
100
AcDbEntity
 67
     1
  8
0
100
AcDbBlockEnd
  0
BLOCK
  5
24
330
23
100
AcDbEntity
  8
0
100
AcDbBlockBegin
  2
*Paper_Space0
 70
     0
 10
0.0
 20
0.0
 30
0.0
  3
*Paper_Space0
  1

  0
ENDBLK
  5
25
330
23
100
AcDbEntity
  8
0
100
AcDbBlockEnd
  0
ENDSEC
  0
SECTION
  2
ENTITIES
  0
SPLINE
  5
3C
330
1F
100
AcDbEntity
  8
DEFAULT
100
AcDbSpline
210
0.0
220
0.0
230
1.0
 70
    15
 71
     2
 72
    20
 73
    17
 74
     0
 42
0.0000000001
 43
0.0000000001
 40
4.71238898038469
 40
4.71238898038469
 40
4.71238898038469
 40
6.283185307179586
 40
6.283185307179586
 40
7.283185307179586
 40
7.283185307179586
 40
8.853981633974483
 40
8.853981633974483
 40
9.853981633974483
 40
9.853981633974483
 40
11.42477796076938
 40
11.42477796076938
 40
12.42477796076938
 40
12.42477796076938
 40
13.99557428756428
 40
13.99557428756428
 40
14.99557428756428
 40
14.99557428756428
 40
14.99557428756428
 10
17.8125
 20
25.74150014955896
 30
0.0
 41
1.0
 10
18.3125
 20
25.74150014955897
 30
0.0
 41
0.7071067811865476
 10
18.3125
 20
26.24150014955896
 30
0.0
 41
1.0
 10
18.3125
 20
40.11650014955896
 30
0.0
 41
1.0
 10
18.3125
 20
53.99150014955896
 30
0.0
 41
1.0
 10
18.3125
 20
54.49150014955897
 30
0.0
 41
0.7071067811865476
 10
17.8125
 20
54.49150014955896
 30
0.0
 41
1.0
 10
0.0000000000000018
 20
54.49150014955896
 30
0.0
 41
1.0
 10
-17.8125
 20
54.49150014955896
 30
0.0
 41
1.0
 10
-18.3125
 20
54.49150014955897
 30
0.0
 41
0.7071067811865476
 10
-18.3125
 20
53.99150014955896
 30
0.0
 41
1.0
 10
-18.3125
 20
40.11650014955896
 30
0.0
 41
1.0
 10
-18.3125
 20
26.24150014955896
 30
0.0
 41
1.0
 10
-18.3125
 20
25.74150014955897
 30
0.0
 41
0.7071067811865476
 10
-17.8125
 20
25.74150014955896
 30
0.0
 41
1.0
 10
0.0000000000000018
 20
25.74150014955896
 30
0.0
 41
1.0
 10
17.8125
 20
25.74150014955896
 30
0.0
 41
1.0
  0
SPLINE
  5
3D
330
1F
100
AcDbEntity
  8
DEFAULT
100
AcDbSpline
210
0.0
220
0.0
230
1.0
 70
    24
 71
     2
 72
     6
 73
     3
 74
     0
 42
0.0000000001
 43
0.0000000001
 40
0.0
 40
0.0
 40
0.0
 40
1.0
 40
1.0
 40
1.0
 10
31.8475
 20
0.1500001495589549
 30
0.0
 10
31.8475
 20
6.677500149558959
 30
0.0
 10
31.8475
 20
13.20500014955896
 30
0.0
  0
SPLINE
  5
3E
330
1F
100
AcDbEntity
  8
DEFAULT
100
AcDbSpline
210
0.0
220
0.0
230
1.0
 70
    24
 71
     2
 72
     6
 73
     3
 74
     0
 42
0.0000000001
 43
0.0000000001
 40
0.0
 40
0.0
 40
0.0
 40
1.0
 40
1.0
 40
1.0
 10
44.935
 20
5.150000149559553
 30
0.0
 10
50.79125000000001
 20
5.150000149559254
 30
0.0
 10
56.64750000000001
 20
5.150000149558955
 30
0.0
  0
SPLINE
  5
3F
330
1F
100
AcDbEntity
  8
DEFAULT
100
AcDbSpline
210
0.0
220
0.0
230
1.0
 70
     8
 71
     2
 72
    30
 73
    27
 74
     0
 42
0.0000000001
 43
0.0000000001
 40
0.0
 40
0.0
 40
0.0
 40
1.0
 40
1.0
 40
2.0
 40
2.0
 40
3.0
 40
3.0
 40
4.0
 40
4.0
 40
5.0
 40
5.0
 40
6.0
 40
6.0
 40
7.0
 40
7.0
 40
8.0
 40
8.0
 40
9.0
 40
9.0
 40
10.0
 40
10.0
 40
11.0
 40
11.0
 40
12.0
 40
12.0
 40
13.0
 40
13.0
 40
13.0
 10
32.7225
 20
12.44993314955895
 30
0.0
 10
32.72118749999999
 20
12.44765514955895
 30
0.0
 10
32.71987499999999
 20
12.44537714955896
 30
0.0
 10
32.71782999999999
 20
12.44167164955896
 30
0.0
 10
32.715785
 20
12.43796614955895
 30
0.0
 10
32.71286299999999
 20
12.43257364955895
 30
0.0
 10
32.70994099999999
 20
12.42718114955895
 30
0.0
 10
32.70636299999999
 20
12.42040564955896
 30
0.0
 10
32.70278499999999
 20
12.41363014955896
 30
0.0
 10
32.69871699999999
 20
12.40546514955896
 30
0.0
 10
32.69464899999998
 20
12.39730014955895
 30
0.0
 10
32.69022299999999
 20
12.38775264955895
 30
0.0
 10
32.68579699999999
 20
12.37820514955896
 30
0.0
 10
32.68132849999999
 20
12.36760064955896
 30
0.0
 10
32.67685999999999
 20
12.35699614955896
 30
0.0
 10
32.67249499999999
 20
12.34519664955896
 30
0.0
 10
32.66812999999999
 20
12.33339714955896
 30
0.0
 10
32.66403299999999
 20
12.32054064955896
 30
0.0
 10
32.65993599999999
 20
12.30768414955896
 30
0.0
 10
32.65653499999999
 20
12.29451214955895
 30
0.0
 10
32.65313399999999
 20
12.28134014955895
 30
0.0
 10
32.65066799999999
 20
12.26809914955895
 30
0.0
 10
32.64820199999998
 20
12.25485814955895
 30
0.0
 10
32.64666699999999
 20
12.24130164955895
 30
0.0
 10
32.64513199999999
 20
12.22774514955895
 30
0.0
 10
32.64458349999999
 20
12.21387264955895
 30
0.0
 10
32.64403499999999
 20
12.20000014955895
 30
0.0
  0
SPLINE
  5
40
330
1F
100
AcDbEntity
  8
DEFAULT
100
AcDbSpline
210
0.0
220
0.0
230
1.0
 70
    12
 71
     2
 72
     6
 73
     3
 74
     0
 42
0.0000000001
 43
0.0000000001
 40
4.977904282349828
 40
4.977904282349828
 40
4.977904282349828
 40
6.283185307179586
 40
6.283185307179586
 40
6.283185307179586
 10
32.68787209821124
 20
0.0538037884030488
 30
0.0
 41
1.0
 10
32.70999962572866
 20
0.0598210571821382
 30
0.0
 41
0.7944830229201173
 10
32.70999962572866
 20
0.0827521495589485
 30
0.0
 41
1.0
  0
SPLINE
  5
41
330
1F
100
AcDbEntity
  8
DEFAULT
100
AcDbSpline
210
0.0
220
0.0
230
1.0
 70
    24
 71
     2
 72
     6
 73
     3
 74
     0
 42
0.0000000001
 43
0.0000000001
 40
0.0
 40
0.0
 40
0.0
 40
1.0
 40
1.0
 40
1.0
 10
31.8475
 20
0.1500001495589549
 30
0.0
 10
32.285
 20
0.1500001495589549
 30
0.0
 10
32.7225
 20
0.1500001495589549
 30
0.0
  0
SPLINE
  5
42
330
1F
100
AcDbEntity
  8
DEFAULT
100
AcDbSpline
210
0.0
220
0.0
230
1.0
 70
    24
 71
     2
 72
     6
 73
     3
 74
     0
 42
0.0000000001
 43
0.0000000001
 40
0.0
 40
0.0
 40
0.0
 40
1.0
 40
1.0
 40
1.0
 10
56.64750000000001
 20
0.1500001495589549
 30
0.0
 10
57.08500000000001
 20
0.1500001495589549
 30
0.0
 10
57.52250000000001
 20
0.1500001495589549
 30
0.0
  0
SPLINE
  5
43
330
1F
100
AcDbEntity
  8
DEFAULT
100
AcDbSpline
210
0.0
220
0.0
230
1.0
 70
    24
 71
     2
 72
     6
 73
     3
 74
     0
 42
0.0000000001
 43
0.0000000001
 40
0.0
 40
0.0
 40
0.0
 40
1.0
 40
1.0
 40
1.0
 10
32.53174999999999
 20
13.30350014955895
 30
0.0
 10
32.53174999999999
 20
13.25425014955896
 30
0.0
 10
32.53174999999999
 20
13.20500014955896
 30
0.0
  0
ARC
  5
44
330
1F
100
AcDbEntity
  8
DEFAULT
100
AcDbCircle
 10
44.435
 20
4.900000149559553
 30
0.0
 40
0.25
100
AcDbArc
 50
270.0
 51
90.0
  0
SPLINE
  5
45
330
1F
100
AcDbEntity
  8
DEFAULT
100
AcDbSpline
210
0.0
220
0.0
230
1.0
 70
    24
 71
     2
 72
     6
 73
     3
 74
     0
 42
0.0000000001
 43
0.0000000001
 40
0.0
 40
0.0
 40
0.0
 40
1.0
 40
1.0
 40
1.0
 10
30.31000000000001
 20
13.74150014955896
 30
0.0
 10
30.31000000000001
 20
13.52250014955896
 30
0.0
 10
30.31000000000001
 20
13.30350014955896
 30
0.0
  0
SPLINE
  5
46
330
1F
100
AcDbEntity
  8
DEFAULT
100
AcDbSpline
210
0.0
220
0.0
230
1.0
 70
    12
 71
     2
 72
     6
 73
     3
 74
     0
 42
0.0000000001
 43
0.0000000001
 40
3.141592653589793
 40
3.141592653589793
 40
3.141592653589793
 40
4.446841512651628
 40
4.446841512651628
 40
4.446841512651628
 10
56.6600002430603
 20
0.0827521495589485
 30
0.0
 41
1.0
 10
56.66000024306031
 20
0.0598217212632149
 30
0.0
 41
0.7944927897334694
 10
56.68212693621184
 20
0.0538039150181582
 30
0.0
 41
1.0
  0
SPLINE
  5
47
330
1F
100
AcDbEntity
  8
DEFAULT
100
AcDbSpline
210
0.0
220
0.0
230
1.0
 70
    24
 71
     2
 72
     6
 73
     3
 74
     0
 42
0.0000000001
 43
0.0000000001
 40
0.0
 40
0.0
 40
0.0
 40
1.0
 40
1.0
 40
1.0
 10
32.7225
 20
0.1500001495589549
 30
0.0
 10
32.7225
 20
6.051952649558956
 30
0.0
 10
32.7225
 20
11.95390514955896
 30
0.0
  0
SPLINE
  5
48
330
1F
100
AcDbEntity
  8
DEFAULT
100
AcDbSpline
210
0.0
220
0.0
230
1.0
 70
    24
 71
     2
 72
     6
 73
     3
 74
     0
 42
0.0000000001
 43
0.0000000001
 40
0.0
 40
0.0
 40
0.0
 40
1.0
 40
1.0
 40
1.0
 10
30.31000000000001
 20
13.30350014955896
 30
0.0
 10
44.685
 20
13.30350014955896
 30
0.0
 10
59.06
 20
13.30350014955896
 30
0.0
  0
SPLINE
  5
49
330
1F
100
AcDbEntity
  8
DEFAULT
100
AcDbSpline
210
0.0
220
0.0
230
1.0
 70
    24
 71
     2
 72
     6
 73
     3
 74
     0
 42
0.0000000001
 43
0.0000000001
 40
0.0
 40
0.0
 40
0.0
 40
1.0
 40
1.0
 40
1.0
 10
31.85999999999999
 20
0.1500001495589549
 30
0.0
 10
31.85999999999999
 20
0.1163761495589517
 30
0.0
 10
31.85999999999999
 20
0.0827521495589485
 30
0.0
  0
SPLINE
  5
4A
330
1F
100
AcDbEntity
  8
DEFAULT
100
AcDbSpline
210
0.0
220
0.0
230
1.0
 70
    24
 71
     2
 72
     6
 73
     3
 74
     0
 42
0.0000000001
 43
0.0000000001
 40
0.0
 40
0.0
 40
0.0
 40
1.0
 40
1.0
 40
1.0
 10
32.03824999999999
 20
13.30350014955895
 30
0.0
 10
32.03824999999999
 20
13.25425014955896
 30
0.0
 10
32.03824999999999
 20
13.20500014955896
 30
0.0
  0
SPLINE
  5
4B
330
1F
100
AcDbEntity
  8
DEFAULT
100
AcDbSpline
210
0.0
220
0.0
230
1.0
 70
     8
 71
     2
 72
    32
 73
    29
 74
     0
 42
0.0000000001
 43
0.0000000001
 40
0.0
 40
0.0
 40
0.0
 40
1.0
 40
1.0
 40
2.0
 40
2.0
 40
3.0
 40
3.0
 40
4.0
 40
4.0
 40
5.0
 40
5.0
 40
6.0
 40
6.0
 40
7.0
 40
7.0
 40
8.0
 40
8.0
 40
9.0
 40
9.0
 40
10.0
 40
10.0
 40
11.0
 40
11.0
 40
12.0
 40
12.0
 40
13.0
 40
13.0
 40
14.0
 40
14.0
 40
14.0
 10
56.725965
 20
12.20000014955895
 30
0.0
 10
56.725301
 20
12.21457464955895
 30
0.0
 10
56.724637
 20
12.22914914955896
 30
0.0
 10
56.722981
 20
12.24323614955895
 30
0.0
 10
56.72132500000001
 20
12.25732314955895
 30
0.0
 10
56.7187375
 20
12.27092214955896
 30
0.0
 10
56.71615
 20
12.28452114955896
 30
0.0
 10
56.712625
 20
12.29784064955896
 30
0.0
 10
56.70910000000001
 20
12.31116014955895
 30
0.0
 10
56.704894
 20
12.32399114955896
 30
0.0
 10
56.700688
 20
12.33682214955896
 30
0.0
 10
56.696254
 20
12.34854164955896
 30
0.0
 10
56.69182000000001
 20
12.36026114955896
 30
0.0
 10
56.68732900000001
 20
12.37076214955896
 30
0.0
 10
56.682838
 20
12.38126314955895
 30
0.0
 10
56.6784305
 20
12.39065214955895
 30
0.0
 10
56.67402300000001
 20
12.40004114955895
 30
0.0
 10
56.670014
 20
12.40801414955895
 30
0.0
 10
56.666005
 20
12.41598714955895
 30
0.0
 10
56.6625235
 20
12.42253614955895
 30
0.0
 10
56.659042
 20
12.42908514955895
 30
0.0
 10
56.6562465
 20
12.43421764955895
 30
0.0
 10
56.653451
 20
12.43935014955895
 30
0.0
 10
56.65154800000001
 20
12.44278814955896
 30
0.0
 10
56.64964500000001
 20
12.44622614955896
 30
0.0
 10
56.648686
 20
12.44788214955896
 30
0.0
 10
56.647727
 20
12.44953814955895
 30
0.0
 10
56.64761350000001
 20
12.44973214955895
 30
0.0
 10
56.64750000000001
 20
12.44992614955896
 30
0.0
  0
SPLINE
  5
4C
330
1F
100
AcDbEntity
  8
DEFAULT
100
AcDbSpline
210
0.0
220
0.0
230
1.0
 70
    24
 71
     2
 72
     6
 73
     3
 74
     0
 42
0.0000000001
 43
0.0000000001
 40
0.0
 40
0.0
 40
0.0
 40
1.0
 40
1.0
 40
1.0
 10
32.7225
 20
12.44612814955895
 30
0.0
 10
32.7225
 20
12.82556414955896
 30
0.0
 10
32.7225
 20
13.20500014955896
 30
0.0
  0
SPLINE
  5
4D
330
1F
100
AcDbEntity
  8
DEFAULT
100
AcDbSpline
210
0.0
220
0.0
230
1.0
 70
     8
 71
     2
 72
    32
 73
    29
 74
     0
 42
0.0000000001
 43
0.0000000001
 40
0.0
 40
0.0
 40
0.0
 40
1.0
 40
1.0
 40
2.0
 40
2.0
 40
3.0
 40
3.0
 40
4.0
 40
4.0
 40
5.0
 40
5.0
 40
6.0
 40
6.0
 40
7.0
 40
7.0
 40
8.0
 40
8.0
 40
9.0
 40
9.0
 40
10.0
 40
10.0
 40
11.0
 40
11.0
 40
12.0
 40
12.0
 40
13.0
 40
13.0
 40
14.0
 40
14.0
 40
14.0
 10
32.64403499999999
 20
12.20000014955895
 30
0.0
 10
32.64460299999999
 20
12.18600364955896
 30
0.0
 10
32.64517099999999
 20
12.17200714955896
 30
0.0
 10
32.64672699999999
 20
12.15835514955896
 30
0.0
 10
32.64828299999999
 20
12.14470314955896
 30
0.0
 10
32.65077149999999
 20
12.13139614955896
 30
0.0
 10
32.65325999999999
 20
12.11808914955896
 30
0.0
 10
32.65667249999999
 20
12.10490014955896
 30
0.0
 10
32.660085
 20
12.09171114955895
 30
0.0
 10
32.66419249999999
 20
12.07886714955895
 30
0.0
 10
32.66829999999999
 20
12.06602314955895
 30
0.0
 10
32.67270399999999
 20
12.05420414955896
 30
0.0
 10
32.67710799999999
 20
12.04238514955896
 30
0.0
 10
32.68165549999999
 20
12.03167614955895
 30
0.0
 10
32.68620299999999
 20
12.02096714955895
 30
0.0
 10
32.69070799999999
 20
12.01128414955895
 30
0.0
 10
32.695213
 20
12.00160114955896
 30
0.0
 10
32.69931399999999
 20
11.99337014955896
 30
0.0
 10
32.70341499999999
 20
11.98513914955895
 30
0.0
 10
32.70697649999999
 20
11.97841714955896
 30
0.0
 10
32.71053799999999
 20
11.97169514955896
 30
0.0
 10
32.71340699999999
 20
11.96642514955896
 30
0.0
 10
32.71627599999999
 20
11.96115514955896
 30
0.0
 10
32.71823949999999
 20
11.95759814955895
 30
0.0
 10
32.72020299999998
 20
11.95404114955895
 30
0.0
 10
32.72121299999998
 20
11.95229014955896
 30
0.0
 10
32.72222299999999
 20
11.95053914955896
 30
0.0
 10
32.72236149999999
 20
11.95030614955895
 30
0.0
 10
32.7225
 20
11.95007314955895
 30
0.0
  0
SPLINE
  5
4E
330
1F
100
AcDbEntity
  8
DEFAULT
100
AcDbSpline
210
0.0
220
0.0
230
1.0
 70
    24
 71
     2
 72
     6
 73
     3
 74
     0
 42
0.0000000001
 43
0.0000000001
 40
0.0
 40
0.0
 40
0.0
 40
1.0
 40
1.0
 40
1.0
 10
30.31000000000001
 20
13.74150014955896
 30
0.0
 10
44.685
 20
13.74150014955896
 30
0.0
 10
59.06
 20
13.74150014955896
 30
0.0
  0
SPLINE
  5
4F
330
1F
100
AcDbEntity
  8
DEFAULT
100
AcDbSpline
210
0.0
220
0.0
230
1.0
 70
    24
 71
     2
 72
     6
 73
     3
 74
     0
 42
0.0000000001
 43
0.0000000001
 40
0.0
 40
0.0
 40
0.0
 40
1.0
 40
1.0
 40
1.0
 10
59.06
 20
13.74150014955896
 30
0.0
 10
59.06
 20
13.52250014955896
 30
0.0
 10
59.06
 20
13.30350014955896
 30
0.0
  0
SPLINE
  5
50
330
1F
100
AcDbEntity
  8
DEFAULT
100
AcDbSpline
210
0.0
220
0.0
230
1.0
 70
    24
 71
     2
 72
     6
 73
     3
 74
     0
 42
0.0000000001
 43
0.0000000001
 40
0.0
 40
0.0
 40
0.0
 40
1.0
 40
1.0
 40
1.0
 10
31.8475
 20
13.20500014955896
 30
0.0
 10
32.285
 20
13.20500014955896
 30
0.0
 10
32.7225
 20
13.20500014955896
 30
0.0
  0
SPLINE
  5
51
330
1F
100
AcDbEntity
  8
DEFAULT
100
AcDbSpline
210
0.0
220
0.0
230
1.0
 70
    24
 71
     2
 72
     6
 73
     3
 74
     0
 42
0.0000000001
 43
0.0000000001
 40
0.0
 40
0.0
 40
0.0
 40
1.0
 40
1.0
 40
1.0
 10
32.7225
 20
4.650000149558955
 30
0.0
 10
38.57875
 20
4.650000149559254
 30
0.0
 10
44.435
 20
4.650000149559553
 30
0.0
  0
SPLINE
  5
52
330
1F
100
AcDbEntity
  8
DEFAULT
100
AcDbSpline
210
0.0
220
0.0
230
1.0
 70
    24
 71
     2
 72
     6
 73
     3
 74
     0
 42
0.0000000001
 43
0.0000000001
 40
0.0
 40
0.0
 40
0.0
 40
1.0
 40
1.0
 40
1.0
 10
32.7225
 20
5.150000149558955
 30
0.0
 10
38.57875
 20
5.150000149559254
 30
0.0
 10
44.435
 20
5.150000149559553
 30
0.0
  0
SPLINE
  5
53
330
1F
100
AcDbEntity
  8
DEFAULT
100
AcDbSpline
210
0.0
220
0.0
230
1.0
 70
    24
 71
     2
 72
     6
 73
     3
 74
     0
 42
0.0000000001
 43
0.0000000001
 40
0.0
 40
0.0
 40
0.0
 40
1.0
 40
1.0
 40
1.0
 10
44.935
 20
4.650000149559553
 30
0.0
 10
50.79125000000001
 20
4.650000149559254
 30
0.0
 10
56.64750000000001
 20
4.650000149558955
 30
0.0
  0
SPLINE
  5
54
330
1F
100
AcDbEntity
  8
DEFAULT
100
AcDbSpline
210
0.0
220
0.0
230
1.0
 70
    24
 71
     2
 72
     6
 73
     3
 74
     0
 42
0.0000000001
 43
0.0000000001
 40
0.0
 40
0.0
 40
0.0
 40
1.0
 40
1.0
 40
1.0
 10
32.70999999999999
 20
0.1500001495589549
 30
0.0
 10
32.70999999999999
 20
0.1163761495589517
 30
0.0
 10
32.70999999999999
 20
0.0827521495589485
 30
0.0
  0
SPLINE
  5
55
330
1F
100
AcDbEntity
  8
DEFAULT
100
AcDbSpline
210
0.0
220
0.0
230
1.0
 70
    24
 71
     2
 72
     6
 73
     3
 74
     0
 42
0.0000000001
 43
0.0000000001
 40
0.0
 40
0.0
 40
0.0
 40
1.0
 40
1.0
 40
1.0
 10
56.64750000000001
 20
12.44609414955895
 30
0.0
 10
56.64750000000001
 20
12.82554714955896
 30
0.0
 10
56.64750000000001
 20
13.20500014955896
 30
0.0
  0
SPLINE
  5
56
330
1F
100
AcDbEntity
  8
DEFAULT
100
AcDbSpline
210
0.0
220
0.0
230
1.0
 70
    24
 71
     2
 72
     6
 73
     3
 74
     0
 42
0.0000000001
 43
0.0000000001
 40
0.0
 40
0.0
 40
0.0
 40
1.0
 40
1.0
 40
1.0
 10
56.64750000000001
 20
0.1500001495589549
 30
0.0
 10
56.64750000000001
 20
6.051936149558955
 30
0.0
 10
56.64750000000001
 20
11.95387214955895
 30
0.0
  0
SPLINE
  5
57
330
1F
100
AcDbEntity
  8
DEFAULT
100
AcDbSpline
210
0.0
220
0.0
230
1.0
 70
    24
 71
     2
 72
     6
 73
     3
 74
     0
 42
0.0000000001
 43
0.0000000001
 40
0.0
 40
0.0
 40
0.0
 40
1.0
 40
1.0
 40
1.0
 10
56.64750000000001
 20
13.20500014955896
 30
0.0
 10
57.08500000000001
 20
13.20500014955896
 30
0.0
 10
57.52250000000001
 20
13.20500014955896
 30
0.0
  0
SPLINE
  5
58
330
1F
100
AcDbEntity
  8
DEFAULT
100
AcDbSpline
210
0.0
220
0.0
230
1.0
 70
    24
 71
     2
 72
     6
 73
     3
 74
     0
 42
0.0000000001
 43
0.0000000001
 40
0.0
 40
0.0
 40
0.0
 40
1.0
 40
1.0
 40
1.0
 10
56.83825
 20
13.30350014955895
 30
0.0
 10
56.83825
 20
13.25425014955896
 30
0.0
 10
56.83825
 20
13.20500014955896
 30
0.0
  0
SPLINE
  5
59
330
1F
100
AcDbEntity
  8
DEFAULT
100
AcDbSpline
210
0.0
220
0.0
230
1.0
 70
    24
 71
     2
 72
     6
 73
     3
 74
     0
 42
0.0000000001
 43
0.0000000001
 40
0.0
 40
0.0
 40
0.0
 40
1.0
 40
1.0
 40
1.0
 10
56.64972
 20
12.45000014955895
 30
0.0
 10
44.6850095
 20
12.45000014955895
 30
0.0
 10
32.720299
 20
12.45000014955895
 30
0.0
  0
ARC
  5
5A
330
1F
100
AcDbEntity
  8
DEFAULT
100
AcDbCircle
 10
44.935
 20
4.900000149559553
 30
0.0
 40
0.25
100
AcDbArc
 50
90.0
 51
270.0
  0
SPLINE
  5
5B
330
1F
100
AcDbEntity
  8
DEFAULT
100
AcDbSpline
210
0.0
220
0.0
230
1.0
 70
    24
 71
     2
 72
     6
 73
     3
 74
     0
 42
0.0000000001
 43
0.0000000001
 40
0.0
 40
0.0
 40
0.0
 40
1.0
 40
1.0
 40
1.0
 10
57.51000000000001
 20
0.1500001495589549
 30
0.0
 10
57.51000000000001
 20
0.1163761495589517
 30
0.0
 10
57.51000000000001
 20
0.0827521495589485
 30
0.0
  0
SPLINE
  5
5C
330
1F
100
AcDbEntity
  8
DEFAULT
100
AcDbSpline
210
0.0
220
0.0
230
1.0
 70
    12
 71
     2
 72
     6
 73
     3
 74
     0
 42
0.0000000001
 43
0.0000000001
 40
3.141592653589793
 40
3.141592653589793
 40
3.141592653589793
 40
4.4468415126514
 40
4.4468415126514
 40
4.4468415126514
 10
31.86000024306029
 20
0.0827521495589485
 30
0.0
 41
1.0
 10
31.86000024306029
 20
0.0598217212632196
 30
0.0
 41
0.7944927897335387
 10
31.88212693621184
 20
0.0538039150181591
 30
0.0
 41
1.0
  0
SPLINE
  5
5D
330
1F
100
AcDbEntity
  8
DEFAULT
100
AcDbSpline
210
0.0
220
0.0
230
1.0
 70
    24
 71
     2
 72
     6
 73
     3
 74
     0
 42
0.0000000001
 43
0.0000000001
 40
0.0
 40
0.0
 40
0.0
 40
1.0
 40
1.0
 40
1.0
 10
56.64970000000001
 20
11.95000014955895
 30
0.0
 10
44.68499
 20
11.95000014955895
 30
0.0
 10
32.72027999999999
 20
11.95000014955895
 30
0.0
  0
SPLINE
  5
5E
330
1F
100
AcDbEntity
  8
DEFAULT
100
AcDbSpline
210
0.0
220
0.0
230
1.0
 70
    24
 71
     2
 72
     6
 73
     3
 74
     0
 42
0.0000000001
 43
0.0000000001
 40
0.0
 40
0.0
 40
0.0
 40
1.0
 40
1.0
 40
1.0
 10
57.33175
 20
13.30350014955895
 30
0.0
 10
57.33175
 20
13.25425014955896
 30
0.0
 10
57.33175
 20
13.20500014955896
 30
0.0
  0
SPLINE
  5
5F
330
1F
100
AcDbEntity
  8
DEFAULT
100
AcDbSpline
210
0.0
220
0.0
230
1.0
 70
    24
 71
     2
 72
     6
 73
     3
 74
     0
 42
0.0000000001
 43
0.0000000001
 40
0.0
 40
0.0
 40
0.0
 40
1.0
 40
1.0
 40
1.0
 10
56.66
 20
0.1500001495589549
 30
0.0
 10
56.66
 20
0.1163761495589517
 30
0.0
 10
56.66
 20
0.0827521495589485
 30
0.0
  0
SPLINE
  5
60
330
1F
100
AcDbEntity
  8
DEFAULT
100
AcDbSpline
210
0.0
220
0.0
230
1.0
 70
    24
 71
     2
 72
     6
 73
     3
 74
     0
 42
0.0000000001
 43
0.0000000001
 40
0.0
 40
0.0
 40
0.0
 40
1.0
 40
1.0
 40
1.0
 10
57.52250000000001
 20
0.1500001495589549
 30
0.0
 10
57.52250000000001
 20
6.677500149558959
 30
0.0
 10
57.52250000000001
 20
13.20500014955896
 30
0.0
  0
SPLINE
  5
61
330
1F
100
AcDbEntity
  8
DEFAULT
100
AcDbSpline
210
0.0
220
0.0
230
1.0
 70
    12
 71
     2
 72
     6
 73
     3
 74
     0
 42
0.0000000001
 43
0.0000000001
 40
4.446857278150883
 40
4.446857278150883
 40
4.446857278150883
 40
4.977920054069727
 40
4.977920054069727
 40
4.977920054069727
 10
31.88212703443271
 20
0.0538042761714452
 30
0.0
 41
1.0
 10
32.2849995
 20
-0.0557583001551257
 30
0.0
 41
0.9649531891982166
 10
32.68787203443263
 20
0.0538040229464309
 30
0.0
 41
1.0
  0
SPLINE
  5
62
330
1F
100
AcDbEntity
  8
DEFAULT
100
AcDbSpline
210
0.0
220
0.0
230
1.0
 70
     8
 71
     2
 72
    32
 73
    29
 74
     0
 42
0.0000000001
 43
0.0000000001
 40
0.0
 40
0.0
 40
0.0
 40
1.0
 40
1.0
 40
2.0
 40
2.0
 40
3.0
 40
3.0
 40
4.0
 40
4.0
 40
5.0
 40
5.0
 40
6.0
 40
6.0
 40
7.0
 40
7.0
 40
8.0
 40
8.0
 40
9.0
 40
9.0
 40
10.0
 40
10.0
 40
11.0
 40
11.0
 40
12.0
 40
12.0
 40
13.0
 40
13.0
 40
14.0
 40
14.0
 40
14.0
 10
56.64750000000001
 20
11.95006614955896
 30
0.0
 10
56.64756750000001
 20
11.95017614955896
 30
0.0
 10
56.64763500000001
 20
11.95028614955896
 30
0.0
 10
56.64849
 20
11.95176414955895
 30
0.0
 10
56.649345
 20
11.95324214955895
 30
0.0
 10
56.651162
 20
11.95652814955896
 30
0.0
 10
56.652979
 20
11.95981414955896
 30
0.0
 10
56.65571850000001
 20
11.96481964955895
 30
0.0
 10
56.65845800000001
 20
11.96982514955895
 30
0.0
 10
56.6619195
 20
11.97631514955895
 30
0.0
 10
56.665381
 20
11.98280514955895
 30
0.0
 10
56.66942
 20
11.99083914955895
 30
0.0
 10
56.67345900000001
 20
11.99887314955895
 30
0.0
 10
56.67794250000001
 20
12.00839214955896
 30
0.0
 10
56.68242600000001
 20
12.01791114955896
 30
0.0
 10
56.68699350000001
 20
12.02850714955896
 30
0.0
 10
56.69156100000001
 20
12.03910314955896
 30
0.0
 10
56.69603000000001
 20
12.05082264955896
 30
0.0
 10
56.70049900000001
 20
12.06254214955896
 30
0.0
 10
56.704711
 20
12.07533914955896
 30
0.0
 10
56.708923
 20
12.08813614955896
 30
0.0
 10
56.712457
 20
12.10146164955896
 30
0.0
 10
56.715991
 20
12.11478714955896
 30
0.0
 10
56.7186035
 20
12.12846014955895
 30
0.0
 10
56.721216
 20
12.14213314955895
 30
0.0
 10
56.7228985
 20
12.15633514955896
 30
0.0
 10
56.724581
 20
12.17053714955896
 30
0.0
 10
56.725273
 20
12.18526864955896
 30
0.0
 10
56.725965
 20
12.20000014955895
 30
0.0
  0
SPLINE
  5
63
330
1F
100
AcDbEntity
  8
DEFAULT
100
AcDbSpline
210
0.0
220
0.0
230
1.0
 70
    12
 71
     2
 72
     6
 73
     3
 74
     0
 42
0.0000000001
 43
0.0000000001
 40
4.977904282350056
 40
4.977904282350056
 40
4.977904282350056
 40
6.283185307179586
 40
6.283185307179586
 40
6.283185307179586
 10
57.48787209821126
 20
0.0538037884030497
 30
0.0
 41
1.0
 10
57.50999962572867
 20
0.0598210571821429
 30
0.0
 41
0.7944830229201867
 10
57.50999962572867
 20
0.0827521495589485
 30
0.0
 41
1.0
  0
SPLINE
  5
64
330
1F
100
AcDbEntity
  8
DEFAULT
100
AcDbSpline
210
0.0
220
0.0
230
1.0
 70
    12
 71
     2
 72
     6
 73
     3
 74
     0
 42
0.0000000001
 43
0.0000000001
 40
4.446857278150883
 40
4.446857278150883
 40
4.446857278150883
 40
4.977920054069731
 40
4.977920054069731
 40
4.977920054069731
 10
56.68212703443272
 20
0.0538042761714443
 30
0.0
 41
1.0
 10
57.08499950000002
 20
-0.0557583001551278
 30
0.0
 41
0.9649531891982159
 10
57.48787203443264
 20
0.0538040229464318
 30
0.0
 41
1.0
  0
SPLINE
  5
65
330
1F
100
AcDbEntity
  8
DEFAULT
100
AcDbSpline
210
0.0
220
0.0
230
1.0
 70
    24
 71
     2
 72
     6
 73
     3
 74
     0
 42
0.0000000001
 43
0.0000000001
 40
0.0
 40
0.0
 40
0.0
 40
1.0
 40
1.0
 40
1.0
 10
3.775786000000001
 20
4.650000149558963
 30
0.0
 10
3.775786000000001
 20
4.900000149558963
 30
0.0
 10
3.775786000000001
 20
5.150000149558963
 30
0.0
  0
SPLINE
  5
66
330
1F
100
AcDbEntity
  8
DEFAULT
100
AcDbSpline
210
0.0
220
0.0
230
1.0
 70
    24
 71
     2
 72
     6
 73
     3
 74
     0
 42
0.0000000001
 43
0.0000000001
 40
0.0
 40
0.0
 40
0.0
 40
1.0
 40
1.0
 40
1.0
 10
-3.775785999999999
 20
4.650000149558963
 30
0.0
 10
-3.775785999999999
 20
4.900000149558963
 30
0.0
 10
-3.775785999999999
 20
5.150000149558963
 30
0.0
  0
SPLINE
  5
67
330
1F
100
AcDbEntity
  8
DEFAULT
100
AcDbSpline
210
0.0
220
0.0
230
1.0
 70
    24
 71
     2
 72
     6
 73
     3
 74
     0
 42
0.0000000001
 43
0.0000000001
 40
0.0
 40
0.0
 40
0.0
 40
1.0
 40
1.0
 40
1.0
 10
-15.9025
 20
12.45000014955896
 30
0.0
 10
0.0
 20
12.45000014955896
 30
0.0
 10
15.9025
 20
12.45000014955896
 30
0.0
  0
SPLINE
  5
68
330
1F
100
AcDbEntity
  8
DEFAULT
100
AcDbSpline
210
0.0
220
0.0
230
1.0
 70
    24
 71
     2
 72
     6
 73
     3
 74
     0
 42
0.0000000001
 43
0.0000000001
 40
0.0
 40
0.0
 40
0.0
 40
1.0
 40
1.0
 40
1.0
 10
-15.9025
 20
11.95000014955896
 30
0.0
 10
0.0
 20
11.95000014955896
 30
0.0
 10
15.9025
 20
11.95000014955896
 30
0.0
  0
SPLINE
  5
69
330
1F
100
AcDbEntity
  8
DEFAULT
100
AcDbSpline
210
0.0
220
0.0
230
1.0
 70
    24
 71
     2
 72
     6
 73
     3
 74
     0
 42
0.0000000001
 43
0.0000000001
 40
0.0
 40
0.0
 40
0.0
 40
1.0
 40
1.0
 40
1.0
 10
18.31
 20
13.30350014955896
 30
0.0
 10
0.0000000000000018
 20
13.30350014955896
 30
0.0
 10
-18.31
 20
13.30350014955896
 30
0.0
  0
SPLINE
  5
6A
330
1F
100
AcDbEntity
  8
DEFAULT
100
AcDbSpline
210
0.0
220
0.0
230
1.0
 70
    24
 71
     2
 72
     6
 73
     3
 74
     0
 42
0.0000000001
 43
0.0000000001
 40
0.0
 40
0.0
 40
0.0
 40
1.0
 40
1.0
 40
1.0
 10
15.9025
 20
5.150000149558963
 30
0.0
 10
0.0
 20
5.150000149558965
 30
0.0
 10
-15.9025
 20
5.150000149558966
 30
0.0
  0
SPLINE
  5
6B
330
1F
100
AcDbEntity
  8
DEFAULT
100
AcDbSpline
210
0.0
220
0.0
230
1.0
 70
    24
 71
     2
 72
     6
 73
     3
 74
     0
 42
0.0000000001
 43
0.0000000001
 40
0.0
 40
0.0
 40
0.0
 40
1.0
 40
1.0
 40
1.0
 10
15.9025
 20
13.20500014955897
 30
0.0
 10
16.34
 20
13.20500014955897
 30
0.0
 10
16.7775
 20
13.20500014955897
 30
0.0
  0
SPLINE
  5
6C
330
1F
100
AcDbEntity
  8
DEFAULT
100
AcDbSpline
210
0.0
220
0.0
230
1.0
 70
     8
 71
     2
 72
    34
 73
    31
 74
     0
 42
0.0000000001
 43
0.0000000001
 40
0.0
 40
0.0
 40
0.0
 40
1.0
 40
1.0
 40
2.0
 40
2.0
 40
3.0
 40
3.0
 40
4.0
 40
4.0
 40
5.0
 40
5.0
 40
6.0
 40
6.0
 40
7.0
 40
7.0
 40
8.0
 40
8.0
 40
9.0
 40
9.0
 40
10.0
 40
10.0
 40
11.0
 40
11.0
 40
12.0
 40
12.0
 40
13.0
 40
13.0
 40
14.0
 40
14.0
 40
15.0
 40
15.0
 40
15.0
 10
15.980965
 20
12.20000014955896
 30
0.0
 10
15.980374
 20
12.21338364955896
 30
0.0
 10
15.979783
 20
12.22676714955897
 30
0.0
 10
15.9783925
 20
12.23967914955897
 30
0.0
 10
15.977002
 20
12.25259114955897
 30
0.0
 10
15.974852
 20
12.26503064955897
 30
0.0
 10
15.972702
 20
12.27747014955897
 30
0.0
 10
15.96979
 20
12.28954164955896
 30
0.0
 10
15.966878
 20
12.30161314955896
 30
0.0
 10
15.963369
 20
12.31321264955896
 30
0.0
 10
15.95986
 20
12.32481214955897
 30
0.0
 10
15.9560545
 20
12.33562614955896
 30
0.0
 10
15.952249
 20
12.34644014955896
 30
0.0
 10
15.948266
 20
12.35644814955896
 30
0.0
 10
15.944283
 20
12.36645614955896
 30
0.0
 10
15.9402275
 20
12.37567864955896
 30
0.0
 10
15.936172
 20
12.38490114955896
 30
0.0
 10
15.9322825
 20
12.39309114955896
 30
0.0
 10
15.928393
 20
12.40128114955897
 30
0.0
 10
15.924767
 20
12.40845314955897
 30
0.0
 10
15.921141
 20
12.41562514955896
 30
0.0
 10
15.9179215
 20
12.42176464955897
 30
0.0
 10
15.914702
 20
12.42790414955897
 30
0.0
 10
15.912101
 20
12.43272114955897
 30
0.0
 10
15.9095
 20
12.43753814955896
 30
0.0
 10
15.907594
 20
12.44093714955896
 30
0.0
 10
15.905688
 20
12.44433614955896
 30
0.0
 10
15.9045025
 20
12.44641314955896
 30
0.0
 10
15.903317
 20
12.44849014955896
 30
0.0
 10
15.9029085
 20
12.44924514955896
 30
0.0
 10
15.9025
 20
12.45000014955896
 30
0.0
  0
SPLINE
  5
6D
330
1F
100
AcDbEntity
  8
DEFAULT
100
AcDbSpline
210
0.0
220
0.0
230
1.0
 70
     8
 71
     2
 72
    34
 73
    31
 74
     0
 42
0.0000000001
 43
0.0000000001
 40
0.0
 40
0.0
 40
0.0
 40
1.0
 40
1.0
 40
2.0
 40
2.0
 40
3.0
 40
3.0
 40
4.0
 40
4.0
 40
5.0
 40
5.0
 40
6.0
 40
6.0
 40
7.0
 40
7.0
 40
8.0
 40
8.0
 40
9.0
 40
9.0
 40
10.0
 40
10.0
 40
11.0
 40
11.0
 40
12.0
 40
12.0
 40
13.0
 40
13.0
 40
14.0
 40
14.0
 40
15.0
 40
15.0
 40
15.0
 10
15.9025
 20
11.95000014955896
 30
0.0
 10
15.902879
 20
11.95061614955896
 30
0.0
 10
15.903258
 20
11.95123214955896
 30
0.0
 10
15.9043765
 20
11.95320564955896
 30
0.0
 10
15.905495
 20
11.95517914955896
 30
0.0
 10
15.907326
 20
11.95850964955896
 30
0.0
 10
15.909157
 20
11.96184014955897
 30
0.0
 10
15.911713
 20
11.96659264955896
 30
0.0
 10
15.914269
 20
11.97134514955896
 30
0.0
 10
15.917498
 20
11.97745414955896
 30
0.0
 10
15.920727
 20
11.98356314955896
 30
0.0
 10
15.9244105
 20
11.99083514955896
 30
0.0
 10
15.928094
 20
11.99810714955896
 30
0.0
 10
15.9321105
 20
12.00662364955896
 30
0.0
 10
15.936127
 20
12.01514014955896
 30
0.0
 10
15.940373
 20
12.02481964955896
 30
0.0
 10
15.944619
 20
12.03449914955897
 30
0.0
 10
15.94876
 20
12.04489664955896
 30
0.0
 10
15.952901
 20
12.05529414955896
 30
0.0
 10
15.9567585
 20
12.06641964955896
 30
0.0
 10
15.960616
 20
12.07754514955896
 30
0.0
 10
15.9641015
 20
12.08938914955896
 30
0.0
 10
15.967587
 20
12.10123314955896
 30
0.0
 10
15.970444
 20
12.11332514955896
 30
0.0
 10
15.973301
 20
12.12541714955896
 30
0.0
 10
15.975381
 20
12.13759964955896
 30
0.0
 10
15.977461
 20
12.14978214955896
 30
0.0
 10
15.9787515
 20
12.16221264955896
 30
0.0
 10
15.980042
 20
12.17464314955896
 30
0.0
 10
15.9805035
 20
12.18732164955896
 30
0.0
 10
15.980965
 20
12.20000014955896
 30
0.0
  0
SPLINE
  5
6E
330
1F
100
AcDbEntity
  8
DEFAULT
100
AcDbSpline
210
0.0
220
0.0
230
1.0
 70
    24
 71
     2
 72
     6
 73
     3
 74
     0
 42
0.0000000001
 43
0.0000000001
 40
0.0
 40
0.0
 40
0.0
 40
1.0
 40
1.0
 40
1.0
 10
15.9025
 20
12.45000014955896
 30
0.0
 10
15.9025
 20
12.82750014955896
 30
0.0
 10
15.9025
 20
13.20500014955897
 30
0.0
  0
SPLINE
  5
6F
330
1F
100
AcDbEntity
  8
DEFAULT
100
AcDbSpline
210
0.0
220
0.0
230
1.0
 70
    24
 71
     2
 72
     6
 73
     3
 74
     0
 42
0.0000000001
 43
0.0000000001
 40
0.0
 40
0.0
 40
0.0
 40
1.0
 40
1.0
 40
1.0
 10
15.915
 20
0.1500001495589629
 30
0.0
 10
15.915
 20
0.1163761495589597
 30
0.0
 10
15.915
 20
0.0827521495589565
 30
0.0
  0
SPLINE
  5
70
330
1F
100
AcDbEntity
  8
DEFAULT
100
AcDbSpline
210
0.0
220
0.0
230
1.0
 70
    24
 71
     2
 72
     6
 73
     3
 74
     0
 42
0.0000000001
 43
0.0000000001
 40
0.0
 40
0.0
 40
0.0
 40
1.0
 40
1.0
 40
1.0
 10
15.915
 20
0.0827521495589565
 30
0.0
 10
15.915
 20
0.1163761495589597
 30
0.0
 10
15.915
 20
0.1500001495589629
 30
0.0
  0
SPLINE
  5
71
330
1F
100
AcDbEntity
  8
DEFAULT
100
AcDbSpline
210
0.0
220
0.0
230
1.0
 70
    24
 71
     2
 72
     6
 73
     3
 74
     0
 42
0.0000000001
 43
0.0000000001
 40
0.0
 40
0.0
 40
0.0
 40
1.0
 40
1.0
 40
1.0
 10
15.9025
 20
0.1500001495589629
 30
0.0
 10
15.9025
 20
6.050000149558961
 30
0.0
 10
15.9025
 20
11.95000014955896
 30
0.0
  0
SPLINE
  5
72
330
1F
100
AcDbEntity
  8
DEFAULT
100
AcDbSpline
210
0.0
220
0.0
230
1.0
 70
    12
 71
     2
 72
     6
 73
     3
 74
     0
 42
0.0000000001
 43
0.0000000001
 40
3.141592653589793
 40
3.141592653589793
 40
3.141592653589793
 40
4.446873678419437
 40
4.446873678419437
 40
4.446873678419437
 10
15.91500037427134
 20
0.0827521495589565
 30
0.0
 41
1.0
 10
15.91500037427134
 20
0.0598210571821485
 30
0.0
 41
0.7944830229201522
 10
15.93712790178875
 20
0.0538037884030573
 30
0.0
 41
1.0
  0
SPLINE
  5
73
330
1F
100
AcDbEntity
  8
DEFAULT
100
AcDbSpline
210
0.0
220
0.0
230
1.0
 70
    24
 71
     2
 72
     6
 73
     3
 74
     0
 42
0.0000000001
 43
0.0000000001
 40
0.0
 40
0.0
 40
0.0
 40
1.0
 40
1.0
 40
1.0
 10
15.9025
 20
0.1500001495589629
 30
0.0
 10
16.34
 20
0.1500001495589629
 30
0.0
 10
16.7775
 20
0.1500001495589629
 30
0.0
  0
SPLINE
  5
74
330
1F
100
AcDbEntity
  8
DEFAULT
100
AcDbSpline
210
0.0
220
0.0
230
1.0
 70
    12
 71
     2
 72
     6
 73
     3
 74
     0
 42
0.0000000001
 43
0.0000000001
 40
4.44685790669965
 40
4.44685790669965
 40
4.44685790669965
 40
4.977920682618496
 40
4.977920682618496
 40
4.977920682618496
 10
15.93712796556737
 20
0.0538040229464398
 30
0.0
 41
1.0
 10
16.3400005
 20
-0.0557583001551187
 30
0.0
 41
0.9649531891982163
 10
16.74287296556728
 20
0.0538042761714526
 30
0.0
 41
1.0
  0
SPLINE
  5
75
330
1F
100
AcDbEntity
  8
DEFAULT
100
AcDbSpline
210
0.0
220
0.0
230
1.0
 70
    24
 71
     2
 72
     6
 73
     3
 74
     0
 42
0.0000000001
 43
0.0000000001
 40
0.0
 40
0.0
 40
0.0
 40
1.0
 40
1.0
 40
1.0
 10
16.7775
 20
0.1500001495589629
 30
0.0
 10
16.7775
 20
6.677500149558966
 30
0.0
 10
16.7775
 20
13.20500014955897
 30
0.0
  0
SPLINE
  5
76
330
1F
100
AcDbEntity
  8
DEFAULT
100
AcDbSpline
210
0.0
220
0.0
230
1.0
 70
    24
 71
     2
 72
     6
 73
     3
 74
     0
 42
0.0000000001
 43
0.0000000001
 40
0.0
 40
0.0
 40
0.0
 40
1.0
 40
1.0
 40
1.0
 10
16.765
 20
0.0827521495589565
 30
0.0
 10
16.765
 20
0.1163761495589597
 30
0.0
 10
16.765
 20
0.1500001495589629
 30
0.0
  0
SPLINE
  5
77
330
1F
100
AcDbEntity
  8
DEFAULT
100
AcDbSpline
210
0.0
220
0.0
230
1.0
 70
    24
 71
     2
 72
     6
 73
     3
 74
     0
 42
0.0000000001
 43
0.0000000001
 40
0.0
 40
0.0
 40
0.0
 40
1.0
 40
1.0
 40
1.0
 10
18.31
 20
13.74150014955896
 30
0.0
 10
18.31
 20
13.52250014955896
 30
0.0
 10
18.31
 20
13.30350014955896
 30
0.0
  0
SPLINE
  5
78
330
1F
100
AcDbEntity
  8
DEFAULT
100
AcDbSpline
210
0.0
220
0.0
230
1.0
 70
    24
 71
     2
 72
     6
 73
     3
 74
     0
 42
0.0000000001
 43
0.0000000001
 40
0.0
 40
0.0
 40
0.0
 40
1.0
 40
1.0
 40
1.0
 10
15.9025
 20
4.650000149558963
 30
0.0
 10
0.0
 20
4.650000149558965
 30
0.0
 10
-15.9025
 20
4.650000149558966
 30
0.0
  0
SPLINE
  5
79
330
1F
100
AcDbEntity
  8
DEFAULT
100
AcDbSpline
210
0.0
220
0.0
230
1.0
 70
    24
 71
     2
 72
     6
 73
     3
 74
     0
 42
0.0000000001
 43
0.0000000001
 40
0.0
 40
0.0
 40
0.0
 40
1.0
 40
1.0
 40
1.0
 10
16.09325
 20
13.30350014955896
 30
0.0
 10
16.09325
 20
13.25425014955896
 30
0.0
 10
16.09325
 20
13.20500014955897
 30
0.0
  0
SPLINE
  5
7A
330
1F
100
AcDbEntity
  8
DEFAULT
100
AcDbSpline
210
0.0
220
0.0
230
1.0
 70
    24
 71
     2
 72
     6
 73
     3
 74
     0
 42
0.0000000001
 43
0.0000000001
 40
0.0
 40
0.0
 40
0.0
 40
1.0
 40
1.0
 40
1.0
 10
16.58675
 20
13.30350014955896
 30
0.0
 10
16.58675
 20
13.25425014955896
 30
0.0
 10
16.58675
 20
13.20500014955897
 30
0.0
  0
SPLINE
  5
7B
330
1F
100
AcDbEntity
  8
DEFAULT
100
AcDbSpline
210
0.0
220
0.0
230
1.0
 70
    24
 71
     2
 72
     6
 73
     3
 74
     0
 42
0.0000000001
 43
0.0000000001
 40
0.0
 40
0.0
 40
0.0
 40
1.0
 40
1.0
 40
1.0
 10
16.765
 20
0.1500001495589629
 30
0.0
 10
16.765
 20
0.1163761495589597
 30
0.0
 10
16.765
 20
0.0827521495589565
 30
0.0
  0
SPLINE
  5
7C
330
1F
100
AcDbEntity
  8
DEFAULT
100
AcDbSpline
210
0.0
220
0.0
230
1.0
 70
    24
 71
     2
 72
     6
 73
     3
 74
     0
 42
0.0000000001
 43
0.0000000001
 40
0.0
 40
0.0
 40
0.0
 40
1.0
 40
1.0
 40
1.0
 10
-18.31
 20
13.74150014955896
 30
0.0
 10
0.0000000000000018
 20
13.74150014955896
 30
0.0
 10
18.31
 20
13.74150014955896
 30
0.0
  0
SPLINE
  5
7D
330
1F
100
AcDbEntity
  8
DEFAULT
100
AcDbSpline
210
0.0
220
0.0
230
1.0
 70
    12
 71
     2
 72
     6
 73
     3
 74
     0
 42
0.0000000001
 43
0.0000000001
 40
4.97793644811798
 40
4.97793644811798
 40
4.97793644811798
 40
6.283185307179586
 40
6.283185307179586
 40
6.283185307179586
 10
16.74287306378816
 20
0.0538039150181671
 30
0.0
 41
1.0
 10
16.76499975693969
 20
0.0598217212632276
 30
0.0
 41
0.7944927897335387
 10
16.7649997569397
 20
0.0827521495589565
 30
0.0
 41
1.0
  0
SPLINE
  5
7E
330
1F
100
AcDbEntity
  8
DEFAULT
100
AcDbSpline
210
0.0
220
0.0
230
1.0
 70
     8
 71
     2
 72
    30
 73
    27
 74
     0
 42
0.0000000001
 43
0.0000000001
 40
0.0
 40
0.0
 40
0.0
 40
1.0
 40
1.0
 40
2.0
 40
2.0
 40
3.0
 40
3.0
 40
4.0
 40
4.0
 40
5.0
 40
5.0
 40
6.0
 40
6.0
 40
7.0
 40
7.0
 40
8.0
 40
8.0
 40
9.0
 40
9.0
 40
10.0
 40
10.0
 40
11.0
 40
11.0
 40
12.0
 40
12.0
 40
13.0
 40
13.0
 40
13.0
 10
-15.980964
 20
12.20000014955896
 30
0.0
 10
-15.9804035
 20
12.18683914955897
 30
0.0
 10
-15.979843
 20
12.17367814955897
 30
0.0
 10
-15.9784905
 20
12.16094614955897
 30
0.0
 10
-15.977138
 20
12.14821414955897
 30
0.0
 10
-15.9750325
 20
12.13591114955897
 30
0.0
 10
-15.972927
 20
12.12360814955897
 30
0.0
 10
-15.970065
 20
12.11162114955897
 30
0.0
 10
-15.967203
 20
12.09963414955897
 30
0.0
 10
-15.9637445
 20
12.08807614955897
 30
0.0
 10
-15.960286
 20
12.07651814955897
 30
0.0
 10
-15.9565265
 20
12.06572864955897
 30
0.0
 10
-15.952767
 20
12.05493914955897
 30
0.0
 10
-15.948823
 20
12.04495164955896
 30
0.0
 10
-15.944879
 20
12.03496414955896
 30
0.0
 10
-15.940852
 20
12.02574564955897
 30
0.0
 10
-15.936825
 20
12.01652714955897
 30
0.0
 10
-15.932946
 20
12.00831364955897
 30
0.0
 10
-15.929067
 20
12.00010014955896
 30
0.0
 10
-15.9254485
 20
11.99287364955896
 30
0.0
 10
-15.92183
 20
11.98564714955896
 30
0.0
 10
-15.918592
 20
11.97942664955896
 30
0.0
 10
-15.915354
 20
11.97320614955897
 30
0.0
 10
-15.9126745
 20
11.96828364955897
 30
0.0
 10
-15.909995
 20
11.96336114955897
 30
0.0
 10
-15.906696
 20
11.95760864955897
 30
0.0
 10
-15.903397
 20
11.95185614955897
 30
0.0
  0
SPLINE
  5
7F
330
1F
100
AcDbEntity
  8
DEFAULT
100
AcDbSpline
210
0.0
220
0.0
230
1.0
 70
    12
 71
     2
 72
     6
 73
     3
 74
     0
 42
0.0000000001
 43
0.0000000001
 40
3.141592653589793
 40
3.141592653589793
 40
3.141592653589793
 40
4.446873678419552
 40
4.446873678419552
 40
4.446873678419552
 10
-16.76499962572866
 20
0.08275214955896
 30
0.0
 41
1.0
 10
-16.76499962572867
 20
0.0598210571821504
 30
0.0
 41
0.7944830229201173
 10
-16.74287209821125
 20
0.0538037884030612
 30
0.0
 41
1.0
  0
SPLINE
  5
80
330
1F
100
AcDbEntity
  8
DEFAULT
100
AcDbSpline
210
0.0
220
0.0
230
1.0
 70
    24
 71
     2
 72
     6
 73
     3
 74
     0
 42
0.0000000001
 43
0.0000000001
 40
0.0
 40
0.0
 40
0.0
 40
1.0
 40
1.0
 40
1.0
 10
-16.765
 20
0.1500001495589665
 30
0.0
 10
-16.765
 20
0.1163761495589632
 30
0.0
 10
-16.765
 20
0.08275214955896
 30
0.0
  0
SPLINE
  5
81
330
1F
100
AcDbEntity
  8
DEFAULT
100
AcDbSpline
210
0.0
220
0.0
230
1.0
 70
    24
 71
     2
 72
     6
 73
     3
 74
     0
 42
0.0000000001
 43
0.0000000001
 40
0.0
 40
0.0
 40
0.0
 40
1.0
 40
1.0
 40
1.0
 10
-16.7775
 20
0.1500001495589665
 30
0.0
 10
-16.7775
 20
6.67750014955897
 30
0.0
 10
-16.7775
 20
13.20500014955897
 30
0.0
  0
SPLINE
  5
82
330
1F
100
AcDbEntity
  8
DEFAULT
100
AcDbSpline
210
0.0
220
0.0
230
1.0
 70
    24
 71
     2
 72
     6
 73
     3
 74
     0
 42
0.0000000001
 43
0.0000000001
 40
0.0
 40
0.0
 40
0.0
 40
1.0
 40
1.0
 40
1.0
 10
-16.765
 20
0.08275214955896
 30
0.0
 10
-16.765
 20
0.1163761495589632
 30
0.0
 10
-16.765
 20
0.1500001495589665
 30
0.0
  0
SPLINE
  5
83
330
1F
100
AcDbEntity
  8
DEFAULT
100
AcDbSpline
210
0.0
220
0.0
230
1.0
 70
    24
 71
     2
 72
     6
 73
     3
 74
     0
 42
0.0000000001
 43
0.0000000001
 40
0.0
 40
0.0
 40
0.0
 40
1.0
 40
1.0
 40
1.0
 10
-16.09325
 20
13.30350014955896
 30
0.0
 10
-16.09325
 20
13.25425014955897
 30
0.0
 10
-16.09325
 20
13.20500014955897
 30
0.0
  0
SPLINE
  5
84
330
1F
100
AcDbEntity
  8
DEFAULT
100
AcDbSpline
210
0.0
220
0.0
230
1.0
 70
     8
 71
     2
 72
    34
 73
    31
 74
     0
 42
0.0000000001
 43
0.0000000001
 40
0.0
 40
0.0
 40
0.0
 40
1.0
 40
1.0
 40
2.0
 40
2.0
 40
3.0
 40
3.0
 40
4.0
 40
4.0
 40
5.0
 40
5.0
 40
6.0
 40
6.0
 40
7.0
 40
7.0
 40
8.0
 40
8.0
 40
9.0
 40
9.0
 40
10.0
 40
10.0
 40
11.0
 40
11.0
 40
12.0
 40
12.0
 40
13.0
 40
13.0
 40
14.0
 40
14.0
 40
15.0
 40
15.0
 40
15.0
 10
-15.9025
 20
12.45000014955896
 30
0.0
 10
-15.9028875
 20
12.44933164955897
 30
0.0
 10
-15.903275
 20
12.44866314955897
 30
0.0
 10
-15.904413
 20
12.44666164955897
 30
0.0
 10
-15.905551
 20
12.44466014955896
 30
0.0
 10
-15.9074005
 20
12.44132514955896
 30
0.0
 10
-15.90925
 20
12.43799014955896
 30
0.0
 10
-15.9118005
 20
12.43328214955897
 30
0.0
 10
-15.914351
 20
12.42857414955897
 30
0.0
 10
-15.917545
 20
12.42253314955897
 30
0.0
 10
-15.920739
 20
12.41649214955897
 30
0.0
 10
-15.924395
 20
12.40923464955896
 30
0.0
 10
-15.928051
 20
12.40197714955896
 30
0.0
 10
-15.932093
 20
12.39336664955897
 30
0.0
 10
-15.936135
 20
12.38475614955897
 30
0.0
 10
-15.9404435
 20
12.37492914955897
 30
0.0
 10
-15.944752
 20
12.36510214955897
 30
0.0
 10
-15.948945
 20
12.35458514955897
 30
0.0
 10
-15.953138
 20
12.34406814955897
 30
0.0
 10
-15.957004
 20
12.33286964955897
 30
0.0
 10
-15.96087
 20
12.32167114955897
 30
0.0
 10
-15.964338
 20
12.30978214955897
 30
0.0
 10
-15.967806
 20
12.29789314955896
 30
0.0
 10
-15.9706385
 20
12.28581514955897
 30
0.0
 10
-15.973471
 20
12.27373714955897
 30
0.0
 10
-15.9755275
 20
12.26163714955897
 30
0.0
 10
-15.977584
 20
12.24953714955896
 30
0.0
 10
-15.9788455
 20
12.23724714955896
 30
0.0
 10
-15.980107
 20
12.22495714955896
 30
0.0
 10
-15.9805355
 20
12.21247864955896
 30
0.0
 10
-15.980964
 20
12.20000014955896
 30
0.0
  0
SPLINE
  5
85
330
1F
100
AcDbEntity
  8
DEFAULT
100
AcDbSpline
210
0.0
220
0.0
230
1.0
 70
    24
 71
     2
 72
     6
 73
     3
 74
     0
 42
0.0000000001
 43
0.0000000001
 40
0.0
 40
0.0
 40
0.0
 40
1.0
 40
1.0
 40
1.0
 10
-15.903397
 20
11.95185614955897
 30
0.0
 10
-15.9029485
 20
11.95092814955897
 30
0.0
 10
-15.9025
 20
11.95000014955896
 30
0.0
  0
SPLINE
  5
86
330
1F
100
AcDbEntity
  8
DEFAULT
100
AcDbSpline
210
0.0
220
0.0
230
1.0
 70
    24
 71
     2
 72
     6
 73
     3
 74
     0
 42
0.0000000001
 43
0.0000000001
 40
0.0
 40
0.0
 40
0.0
 40
1.0
 40
1.0
 40
1.0
 10
-18.31
 20
13.74150014955896
 30
0.0
 10
-18.31
 20
13.52250014955896
 30
0.0
 10
-18.31
 20
13.30350014955896
 30
0.0
  0
SPLINE
  5
87
330
1F
100
AcDbEntity
  8
DEFAULT
100
AcDbSpline
210
0.0
220
0.0
230
1.0
 70
    24
 71
     2
 72
     6
 73
     3
 74
     0
 42
0.0000000001
 43
0.0000000001
 40
0.0
 40
0.0
 40
0.0
 40
1.0
 40
1.0
 40
1.0
 10
-15.915
 20
0.1500001495589665
 30
0.0
 10
-15.915
 20
0.1163761495589632
 30
0.0
 10
-15.915
 20
0.08275214955896
 30
0.0
  0
SPLINE
  5
88
330
1F
100
AcDbEntity
  8
DEFAULT
100
AcDbSpline
210
0.0
220
0.0
230
1.0
 70
    24
 71
     2
 72
     6
 73
     3
 74
     0
 42
0.0000000001
 43
0.0000000001
 40
0.0
 40
0.0
 40
0.0
 40
1.0
 40
1.0
 40
1.0
 10
-16.7775
 20
13.20500014955897
 30
0.0
 10
-16.34
 20
13.20500014955897
 30
0.0
 10
-15.9025
 20
13.20500014955897
 30
0.0
  0
SPLINE
  5
89
330
1F
100
AcDbEntity
  8
DEFAULT
100
AcDbSpline
210
0.0
220
0.0
230
1.0
 70
    12
 71
     2
 72
     6
 73
     3
 74
     0
 42
0.0000000001
 43
0.0000000001
 40
4.977936448118094
 40
4.977936448118094
 40
4.977936448118094
 40
6.283185307179586
 40
6.283185307179586
 40
6.283185307179586
 10
-15.93712693621184
 20
0.053803915018172
 30
0.0
 41
1.0
 10
-15.9150002430603
 20
0.0598217212632342
 30
0.0
 41
0.7944927897335734
 10
-15.9150002430603
 20
0.08275214955896
 30
0.0
 41
1.0
  0
SPLINE
  5
8A
330
1F
100
AcDbEntity
  8
DEFAULT
100
AcDbSpline
210
0.0
220
0.0
230
1.0
 70
    12
 71
     2
 72
     6
 73
     3
 74
     0
 42
0.0000000001
 43
0.0000000001
 40
4.446857906699649
 40
4.446857906699649
 40
4.446857906699649
 40
4.977920682618496
 40
4.977920682618496
 40
4.977920682618496
 10
-16.74287203443263
 20
0.0538040229464432
 30
0.0
 41
1.0
 10
-16.3399995
 20
-0.0557583001551158
 30
0.0
 41
0.9649531891982162
 10
-15.93712703443271
 20
0.0538042761714557
 30
0.0
 41
1.0
  0
SPLINE
  5
8B
330
1F
100
AcDbEntity
  8
DEFAULT
100
AcDbSpline
210
0.0
220
0.0
230
1.0
 70
    24
 71
     2
 72
     6
 73
     3
 74
     0
 42
0.0000000001
 43
0.0000000001
 40
0.0
 40
0.0
 40
0.0
 40
1.0
 40
1.0
 40
1.0
 10
-16.7775
 20
0.1500001495589665
 30
0.0
 10
-16.34
 20
0.1500001495589665
 30
0.0
 10
-15.9025
 20
0.1500001495589665
 30
0.0
  0
SPLINE
  5
8C
330
1F
100
AcDbEntity
  8
DEFAULT
100
AcDbSpline
210
0.0
220
0.0
230
1.0
 70
    24
 71
     2
 72
     6
 73
     3
 74
     0
 42
0.0000000001
 43
0.0000000001
 40
0.0
 40
0.0
 40
0.0
 40
1.0
 40
1.0
 40
1.0
 10
-15.9025
 20
12.45000014955896
 30
0.0
 10
-15.9025
 20
12.82750014955897
 30
0.0
 10
-15.9025
 20
13.20500014955897
 30
0.0
  0
SPLINE
  5
8D
330
1F
100
AcDbEntity
  8
DEFAULT
100
AcDbSpline
210
0.0
220
0.0
230
1.0
 70
    24
 71
     2
 72
     6
 73
     3
 74
     0
 42
0.0000000001
 43
0.0000000001
 40
0.0
 40
0.0
 40
0.0
 40
1.0
 40
1.0
 40
1.0
 10
-15.9025
 20
0.1500001495589665
 30
0.0
 10
-15.9025
 20
6.050000149558965
 30
0.0
 10
-15.9025
 20
11.95000014955896
 30
0.0
  0
SPLINE
  5
8E
330
1F
100
AcDbEntity
  8
DEFAULT
100
AcDbSpline
210
0.0
220
0.0
230
1.0
 70
    24
 71
     2
 72
     6
 73
     3
 74
     0
 42
0.0000000001
 43
0.0000000001
 40
0.0
 40
0.0
 40
0.0
 40
1.0
 40
1.0
 40
1.0
 10
-16.58675
 20
13.30350014955896
 30
0.0
 10
-16.58675
 20
13.25425014955897
 30
0.0
 10
-16.58675
 20
13.20500014955897
 30
0.0
  0
SPLINE
  5
8F
330
1F
100
AcDbEntity
  8
DEFAULT
100
AcDbSpline
210
0.0
220
0.0
230
1.0
 70
    24
 71
     2
 72
     6
 73
     3
 74
     0
 42
0.0000000001
 43
0.0000000001
 40
0.0
 40
0.0
 40
0.0
 40
1.0
 40
1.0
 40
1.0
 10
-15.915
 20
0.08275214955896
 30
0.0
 10
-15.915
 20
0.1163761495589632
 30
0.0
 10
-15.915
 20
0.1500001495589665
 30
0.0
  0
ENDSEC
  0
SECTION
  2
OBJECTS
  0
DICTIONARY
  5
C
330
0
100
AcDbDictionary
281
     1
  3
ACAD_GROUP
350
D
  3
ACAD_LAYOUT
350
1A
  3
ACAD_MLEADERSTYLE
350
92
  3
ACAD_MLINESTYLE
350
17
  3
ACAD_PLOTSETTINGS
350
19
  3
ACAD_PLOTSTYLENAME
350
E
  3
ACAD_VISUALSTYLE
350
2A
  3
AcDbVariableDictionary
350
90
  0
DICTIONARY
  5
D
102
{ACAD_REACTORS
330
C
102
}
330
C
100
AcDbDictionary
281
     1
  0
DICTIONARY
  5
1A
102
{ACAD_REACTORS
330
C
102
}
330
C
100
AcDbDictionary
281
     1
  3
Layout1
350
1E
  3
Layout2
350
26
  3
Model
350
22
  0
DICTIONARY
  5
92
102
{ACAD_REACTORS
330
C
102
}
330
C
100
AcDbDictionary
281
     1
  0
DICTIONARY
  5
17
102
{ACAD_REACTORS
330
C
102
}
330
C
100
AcDbDictionary
281
     1
  3
Standard
350
18
  0
DICTIONARY
  5
19
102
{ACAD_REACTORS
330
C
102
}
330
C
100
AcDbDictionary
281
     1
  0
ACDBDICTIONARYWDFLT
  5
E
102
{ACAD_REACTORS
330
C
102
}
330
C
100
AcDbDictionary
281
     1
  3
Normal
350
F
100
AcDbDictionaryWithDefault
340
F
  0
DICTIONARY
  5
2A
102
{ACAD_REACTORS
330
C
102
}
330
C
100
AcDbDictionary
281
     1
  3
2dWireframe
350
2F
  3
3D Hidden
350
31
  3
3dWireframe
350
30
  3
Basic
350
32
  3
Brighten
350
36
  3
ColorChange
350
3A
  3
Conceptual
350
34
  3
Dim
350
35
  3
Facepattern
350
39
  3
Flat
350
2B
  3
FlatWithEdges
350
2C
  3
Gouraud
350
2D
  3
GouraudWithEdges
350
2E
  3
Linepattern
350
38
  3
Realistic
350
33
  3
Thicken
350
37
  0
DICTIONARY
  5
90
102
{ACAD_REACTORS
330
C
102
}
330
C
100
AcDbDictionary
281
     1
  0
LAYOUT
  5
1E
102
{ACAD_REACTORS
330
1A
102
}
330
1A
100
AcDbPlotSettings
  1

  2
none_device
  4

  6

 40
0.0
 41
0.0
 42
0.0
 43
0.0
 44
0.0
 45
0.0
 46
0.0
 47
0.0
 48
0.0
 49
0.0
140
0.0
141
0.0
142
1.0
143
1.0
 70
   688
 72
     0
 73
     0
 74
     5
  7

 75
    16
147
1.0
148
0.0
149
0.0
100
AcDbLayout
  1
Layout1
 70
     1
 71
     1
 10
0.0
 20
0.0
 11
12.0
 21
9.0
 12
0.0
 22
0.0
 32
0.0
 14
1.000000000000000E+20
 24
1.000000000000000E+20
 34
1.000000000000000E+20
 15
-1.000000000000000E+20
 25
-1.000000000000000E+20
 35
-1.000000000000000E+20
146
0.0
 13
0.0
 23
0.0
 33
0.0
 16
1.0
 26
0.0
 36
0.0
 17
0.0
 27
1.0
 37
0.0
 76
     0
330
1B
  0
LAYOUT
  5
26
102
{ACAD_REACTORS
330
1A
102
}
330
1A
100
AcDbPlotSettings
  1

  2
none_device
  4

  6

 40
0.0
 41
0.0
 42
0.0
 43
0.0
 44
0.0
 45
0.0
 46
0.0
 47
0.0
 48
0.0
 49
0.0
140
0.0
141
0.0
142
1.0
143
1.0
 70
   688
 72
     0
 73
     0
 74
     5
  7

 75
    16
147
1.0
148
0.0
149
0.0
100
AcDbLayout
  1
Layout2
 70
     1
 71
     2
 10
0.0
 20
0.0
 11
0.0
 21
0.0
 12
0.0
 22
0.0
 32
0.0
 14
0.0
 24
0.0
 34
0.0
 15
0.0
 25
0.0
 35
0.0
146
0.0
 13
0.0
 23
0.0
 33
0.0
 16
1.0
 26
0.0
 36
0.0
 17
0.0
 27
1.0
 37
0.0
 76
     0
330
23
  0
LAYOUT
  5
22
102
{ACAD_REACTORS
330
1A
102
}
330
1A
100
AcDbPlotSettings
  1

  2
none_device
  4

  6

 40
0.0
 41
0.0
 42
0.0
 43
0.0
 44
0.0
 45
0.0
 46
0.0
 47
0.0
 48
0.0
 49
0.0
140
0.0
141
0.0
142
1.0
143
1.0
 70
  1712
 72
     0
 73
     0
 74
     0
  7

 75
     0
147
1.0
148
0.0
149
0.0
100
AcDbLayout
  1
Model
 70
     1
 71
     0
 10
0.0
 20
0.0
 11
12.0
 21
9.0
 12
0.0
 22
0.0
 32
0.0
 14
-18.3125
 24
-0.0000000000000121
 34
0.0
 15
59.06
 25
54.49150014955896
 35
0.0
146
0.0
 13
0.0
 23
0.0
 33
0.0
 16
1.0
 26
0.0
 36
0.0
 17
0.0
 27
1.0
 37
0.0
 76
     0
330
1F
331
29
  0
MLINESTYLE
  5
18
102
{ACAD_REACTORS
330
17
102
}
330
17
100
AcDbMlineStyle
  2
Standard
 70
     0
  3

 62
   256
 51
90.0
 52
90.0
 71
     2
 49
0.5
 62
   256
  6
BYLAYER
 49
-0.5
 62
   256
  6
BYLAYER
  0
ACDBPLACEHOLDER
  5
F
102
{ACAD_REACTORS
330
E
102
}
330
E
  0
VISUALSTYLE
  5
2F
102
{ACAD_REACTORS
330
2A
102
}
330
2A
100
AcDbVisualStyle
  2
2dWireframe
 70
     4
 71
     0
 72
     2
 73
     0
 90
        0
 40
-0.6
 41
-30.0
 62
     5
 63
     7
 74
     1
 91
        4
 64
     7
 65
   257
 75
     1
175
     1
 42
1.0
 92
        0
 66
   257
 43
1.0
 76
     1
 77
     6
 78
     2
 67
     7
 79
     5
170
     0
171
     0
290
     0
174
     0
 93
        1
 44
0.0
173
     0
291
     0
 45
0.0
1001
ACAD
1000
AcDbSavedByObjectVersion
1070
     0
  0
VISUALSTYLE
  5
31
102
{ACAD_REACTORS
330
2A
102
}
330
2A
100
AcDbVisualStyle
  2
3D Hidden
 70
     6
 71
     1
 72
     2
 73
     2
 90
        0
 40
-0.6
 41
-30.0
 62
     5
 63
     7
 74
     2
 91
        2
 64
     7
 65
   257
 75
     2
175
     1
 42
40.0
 92
        0
 66
   257
 43
1.0
 76
     1
 77
     6
 78
     2
 67
     7
 79
     3
170
     0
171
     0
290
     0
174
     0
 93
        1
 44
0.0
173
     0
291
     0
 45
0.0
1001
ACAD
1000
AcDbSavedByObjectVersion
1070
     0
  0
VISUALSTYLE
  5
30
102
{ACAD_REACTORS
330
2A
102
}
330
2A
100
AcDbVisualStyle
  2
3dWireframe
 70
     5
 71
     0
 72
     2
 73
     0
 90
        0
 40
-0.6
 41
-30.0
 62
     5
 63
     7
 74
     1
 91
        4
 64
     7
 65
   257
 75
     1
175
     1
 42
1.0
 92
        0
 66
   257
 43
1.0
 76
     1
 77
     6
 78
     2
 67
     7
 79
     5
170
     0
171
     0
290
     0
174
     0
 93
        1
 44
0.0
173
     0
291
     0
 45
0.0
1001
ACAD
1000
AcDbSavedByObjectVersion
1070
     0
  0
VISUALSTYLE
  5
32
102
{ACAD_REACTORS
330
2A
102
}
330
2A
100
AcDbVisualStyle
  2
Basic
 70
     7
 71
     1
 72
     0
 73
     1
 90
        0
 40
-0.6
 41
-30.0
 62
     5
 63
     7
 74
     0
 91
        4
 64
     7
 65
   257
 75
     1
175
     1
 42
1.0
 92
        8
 66
     7
 43
1.0
 76
     1
 77
     6
 78
     2
 67
     7
 79
     5
170
     0
171
     0
290
     0
174
     0
 93
        1
 44
0.0
173
     0
291
     1
 45
0.0
1001
ACAD
1000
AcDbSavedByObjectVersion
1070
     0
  0
VISUALSTYLE
  5
36
102
{ACAD_REACTORS
330
2A
102
}
330
2A
100
AcDbVisualStyle
  2
Brighten
 70
    12
 71
     2
 72
     2
 73
     0
 90
        0
 40
-0.6
 41
-30.0
 62
     5
 63
     7
 74
     1
 91
        4
 64
     7
 65
   257
 75
     1
175
     1
 42
1.0
 92
        8
 66
     7
 43
1.0
 76
     1
 77
     6
 78
     2
 67
     7
 79
     5
170
     0
171
     0
290
     0
174
     0
 93
        1
 44
50.0
173
     0
291
     1
 45
0.0
1001
ACAD
1000
AcDbSavedByObjectVersion
1070
     0
  0
VISUALSTYLE
  5
3A
102
{ACAD_REACTORS
330
2A
102
}
330
2A
100
AcDbVisualStyle
  2
ColorChange
 70
    16
 71
     2
 72
     2
 73
     3
 90
        0
 40
-0.6
 41
-30.0
 62
     5
 63
     8
 74
     1
 91
        4
 64
     7
 65
   257
 75
     1
175
     1
 42
1.0
 92
        8
 66
     8
 43
1.0
 76
     1
 77
     6
 78
     2
 67
     7
 79
     5
170
     0
171
     0
290
     0
174
     0
 93
        1
 44
0.0
173
     0
291
     1
 45
0.0
1001
ACAD
1000
AcDbSavedByObjectVersion
1070
     0
  0
VISUALSTYLE
  5
34
102
{ACAD_REACTORS
330
2A
102
}
330
2A
100
AcDbVisualStyle
  2
Conceptual
 70
     9
 71
     3
 72
     2
 73
     0
 90
        0
 40
-0.6
 41
-30.0
 62
     5
 63
     7
 74
     2
 91
        2
 64
     7
 65
   257
 75
     1
175
     1
 42
40.0
 92
        8
 66
     7
 43
1.0
 76
     1
 77
     6
 78
     2
 67
     7
 79
     3
170
     0
171
     0
290
     0
174
     0
 93
        1
 44
0.0
173
     0
291
     0
 45
0.0
1001
ACAD
1000
AcDbSavedByObjectVersion
1070
     0
  0
VISUALSTYLE
  5
35
102
{ACAD_REACTORS
330
2A
102
}
330
2A
100
AcDbVisualStyle
  2
Dim
 70
    11
 71
     2
 72
     2
 73
     0
 90
        0
 40
-0.6
 41
-30.0
 62
     5
 63
     7
 74
     1
 91
        4
 64
     7
 65
   257
 75
     1
175
     1
 42
1.0
 92
        8
 66
     7
 43
1.0
 76
     1
 77
     6
 78
     2
 67
     7
 79
     5
170
     0
171
     0
290
     0
174
     0
 93
        1
 44
-50.0
173
     0
291
     1
 45
0.0
1001
ACAD
1000
AcDbSavedByObjectVersion
1070
     0
  0
VISUALSTYLE
  5
39
102
{ACAD_REACTORS
330
2A
102
}
330
2A
100
AcDbVisualStyle
  2
Facepattern
 70
    15
 71
     2
 72
     2
 73
     0
 90
        0
 40
-0.6
 41
-30.0
 62
     5
 63
     7
 74
     1
 91
        4
 64
     7
 65
   257
 75
     1
175
     1
 42
1.0
 92
        8
 66
     7
 43
1.0
 76
     1
 77
     6
 78
     2
 67
     7
 79
     5
170
     0
171
     0
290
     0
174
     0
 93
        1
 44
0.0
173
     0
291
     1
 45
0.0
1001
ACAD
1000
AcDbSavedByObjectVersion
1070
     0
  0
VISUALSTYLE
  5
2B
102
{ACAD_REACTORS
330
2A
102
}
330
2A
100
AcDbVisualStyle
  2
Flat
 70
     0
 71
     2
 72
     1
 73
     1
 90
        2
 40
-0.6
 41
30.0
 62
     5
 63
     7
 74
     0
 91
        4
 64
     7
 65
   257
 75
     1
175
     1
 42
1.0
 92
        8
 66
     7
 43
1.0
 76
     1
 77
     6
 78
     2
 67
     7
 79
     5
170
     0
171
     0
290
     0
174
     0
 93
       13
 44
0.0
173
     0
291
     1
 45
0.0
1001
ACAD
1000
AcDbSavedByObjectVersion
1070
     0
  0
VISUALSTYLE
  5
2C
102
{ACAD_REACTORS
330
2A
102
}
330
2A
100
AcDbVisualStyle
  2
FlatWithEdges
 70
     1
 71
     2
 72
     1
 73
     1
 90
        2
 40
-0.6
 41
30.0
 62
     5
 63
     7
 74
     1
 91
        4
 64
     7
 65
   257
 75
     1
175
     1
 42
1.0
 92
        0
 66
   257
 43
1.0
 76
     1
 77
     6
 78
     2
 67
     7
 79
     5
170
     0
171
     0
290
     0
174
     0
 93
       13
 44
0.0
173
     0
291
     1
 45
0.0
1001
ACAD
1000
AcDbSavedByObjectVersion
1070
     0
  0
VISUALSTYLE
  5
2D
102
{ACAD_REACTORS
330
2A
102
}
330
2A
100
AcDbVisualStyle
  2
Gouraud
 70
     2
 71
     2
 72
     2
 73
     1
 90
        2
 40
-0.6
 41
30.0
 62
     5
 63
     7
 74
     0
 91
        4
 64
     7
 65
   257
 75
     1
175
     1
 42
1.0
 92
        0
 66
     7
 43
1.0
 76
     1
 77
     6
 78
     2
 67
     7
 79
     5
170
     0
171
     0
290
     0
174
     0
 93
       13
 44
0.0
173
     0
291
     1
 45
0.0
1001
ACAD
1000
AcDbSavedByObjectVersion
1070
     0
  0
VISUALSTYLE
  5
2E
102
{ACAD_REACTORS
330
2A
102
}
330
2A
100
AcDbVisualStyle
  2
GouraudWithEdges
 70
     3
 71
     2
 72
     2
 73
     1
 90
        2
 40
-0.6
 41
30.0
 62
     5
 63
     7
 74
     1
 91
        4
 64
     7
 65
   257
 75
     1
175
     1
 42
1.0
 92
        0
 66
   257
 43
1.0
 76
     1
 77
     6
 78
     2
 67
     7
 79
     5
170
     0
171
     0
290
     0
174
     0
 93
       13
 44
0.0
173
     0
291
     1
 45
0.0
1001
ACAD
1000
AcDbSavedByObjectVersion
1070
     0
  0
VISUALSTYLE
  5
38
102
{ACAD_REACTORS
330
2A
102
}
330
2A
100
AcDbVisualStyle
  2
Linepattern
 70
    14
 71
     2
 72
     2
 73
     0
 90
        0
 40
-0.6
 41
-30.0
 62
     5
 63
     7
 74
     1
 91
        4
 64
     7
 65
   257
 75
     7
175
     7
 42
1.0
 92
        8
 66
     7
 43
1.0
 76
     1
 77
     6
 78
     2
 67
     7
 79
     5
170
     0
171
     0
290
     0
174
     0
 93
        1
 44
0.0
173
     0
291
     1
 45
0.0
1001
ACAD
1000
AcDbSavedByObjectVersion
1070
     0
  0
VISUALSTYLE
  5
33
102
{ACAD_REACTORS
330
2A
102
}
330
2A
100
AcDbVisualStyle
  2
Realistic
 70
     8
 71
     2
 72
     2
 73
     0
 90
        0
 40
-0.6
 41
-30.0
 62
     5
 63
     7
 74
     1
 91
        0
 64
     7
 65
   257
 75
     1
175
     1
 42
1.0
 92
        8
 66
     8
 43
1.0
 76
     1
 77
     6
 78
     2
 67
     7
 79
     5
170
     0
171
     0
290
     0
174
     0
 93
       13
 44
0.0
173
     0
291
     0
 45
0.0
1001
ACAD
1000
AcDbSavedByObjectVersion
1070
     0
  0
VISUALSTYLE
  5
37
102
{ACAD_REACTORS
330
2A
102
}
330
2A
100
AcDbVisualStyle
  2
Thicken
 70
    13
 71
     2
 72
     2
 73
     0
 90
        0
 40
-0.6
 41
-30.0
 62
     5
 63
     7
 74
     1
 91
        4
 64
     7
 65
   257
 75
     1
175
     1
 42
1.0
 92
       12
 66
     7
 43
1.0
 76
     1
 77
     6
 78
     2
 67
     7
 79
     5
170
     0
171
     0
290
     0
174
     0
 93
        1
 44
0.0
173
     0
291
     1
 45
0.0
1001
ACAD
1000
AcDbSavedByObjectVersion
1070
     0
  0
ENDSEC
  0
EOF
