  0
SECTION
  2
HEADER
  9
$ACADVER
  1
AC1015
  9
$ACADMAINTVER
 70
     6
  9
$DWGCODEPAGE
  3
ANSI_1252
  9
$INSBASE
 10
0.0
 20
0.0
 30
0.0
  9
$EXTMIN
 10
-23.625
 20
-0.0000000000000765
 30
0.0
  9
$EXTMAX
 10
67.12500000000001
 20
57.24150014955896
 30
0.0
  9
$LIMMIN
 10
0.0
 20
0.0
  9
$LIMMAX
 10
12.0
 20
9.0
  9
$ORTHOMODE
 70
     0
  9
$REGENMODE
 70
     1
  9
$FILLMODE
 70
     1
  9
$QTEXTMODE
 70
     0
  9
$MIRRTEXT
 70
     1
  9
$LTSCALE
 40
0.0393700787401575
  9
$ATTMODE
 70
     1
  9
$TEXTSIZE
 40
0.2
  9
$TRACEWID
 40
0.05
  9
$TEXTSTYLE
  7
Standard
  9
$CLAYER
  8
DEFAULT
  9
$CELTYPE
  6
ByLayer
  9
$CECOLOR
 62
   256
  9
$CELTSCALE
 40
1.0
  9
$DISPSILH
 70
     0
  9
$DIMSCALE
 40
1.0
  9
$DIMASZ
 40
0.18
  9
$DIMEXO
 40
0.0625
  9
$DIMDLI
 40
0.38
  9
$DIMRND
 40
0.0
  9
$DIMDLE
 40
0.0
  9
$DIMEXE
 40
0.18
  9
$DIMTP
 40
0.0
  9
$DIMTM
 40
0.0
  9
$DIMTXT
 40
0.18
  9
$DIMCEN
 40
0.09
  9
$DIMTSZ
 40
0.0
  9
$DIMTOL
 70
     0
  9
$DIMLIM
 70
     0
  9
$DIMTIH
 70
     1
  9
$DIMTOH
 70
     1
  9
$DIMSE1
 70
     0
  9
$DIMSE2
 70
     0
  9
$DIMTAD
 70
     0
  9
$DIMZIN
 70
     0
  9
$DIMBLK
  1

  9
$DIMASO
 70
     1
  9
$DIMSHO
 70
     1
  9
$DIMPOST
  1

  9
$DIMAPOST
  1

  9
$DIMALT
 70
     0
  9
$DIMALTD
 70
     2
  9
$DIMALTF
 40
25.4
  9
$DIMLFAC
 40
1.0
  9
$DIMTOFL
 70
     0
  9
$DIMTVP
 40
0.0
  9
$DIMTIX
 70
     0
  9
$DIMSOXD
 70
     0
  9
$DIMSAH
 70
     0
  9
$DIMBLK1
  1

  9
$DIMBLK2
  1

  9
$DIMSTYLE
  2
Standard
  9
$DIMCLRD
 70
     0
  9
$DIMCLRE
 70
     0
  9
$DIMCLRT
 70
     0
  9
$DIMTFAC
 40
1.0
  9
$DIMGAP
 40
0.09
  9
$DIMJUST
 70
     0
  9
$DIMSD1
 70
     0
  9
$DIMSD2
 70
     0
  9
$DIMTOLJ
 70
     1
  9
$DIMTZIN
 70
     0
  9
$DIMALTZ
 70
     0
  9
$DIMALTTZ
 70
     0
  9
$DIMUPT
 70
     0
  9
$DIMDEC
 70
     4
  9
$DIMTDEC
 70
     4
  9
$DIMALTU
 70
     2
  9
$DIMALTTD
 70
     2
  9
$DIMTXSTY
  7
Standard
  9
$DIMAUNIT
 70
     0
  9
$DIMADEC
 70
     0
  9
$DIMALTRND
 40
0.0
  9
$DIMAZIN
 70
     0
  9
$DIMDSEP
 70
    46
  9
$DIMATFIT
 70
     3
  9
$DIMFRAC
 70
     0
  9
$DIMLDRBLK
  1

  9
$DIMLUNIT
 70
     2
  9
$DIMLWD
 70
    -2
  9
$DIMLWE
 70
    -2
  9
$DIMTMOVE
 70
     2
  9
$LUNITS
 70
     2
  9
$LUPREC
 70
     3
  9
$SKETCHINC
 40
0.1
  9
$FILLETRAD
 40
0.5
  9
$AUNITS
 70
     0
  9
$AUPREC
 70
     0
  9
$MENU
  1
.
  9
$ELEVATION
 40
0.0
  9
$PELEVATION
 40
0.0
  9
$THICKNESS
 40
0.0
  9
$LIMCHECK
 70
     0
  9
$CHAMFERA
 40
0.5
  9
$CHAMFERB
 40
0.5
  9
$CHAMFERC
 40
1.0
  9
$CHAMFERD
 40
0.0
  9
$SKPOLY
 70
     0
  9
$TDCREATE
 40
2455719.604796864
  9
$TDUCREATE
 40
2455719.77146353
  9
$TDUPDATE
 40
2455719.604796875
  9
$TDUUPDATE
 40
2455719.771463542
  9
$TDINDWG
 40
0.0000000116
  9
$TDUSRTIMER
 40
0.0000000116
  9
$USRTIMER
 70
     1
  9
$ANGBASE
 50
0.0
  9
$ANGDIR
 70
     0
  9
$PDMODE
 70
     0
  9
$PDSIZE
 40
0.0
  9
$PLINEWID
 40
0.0
  9
$SPLFRAME
 70
     0
  9
$SPLINETYPE
 70
     6
  9
$SPLINESEGS
 70
     8
  9
$HANDSEED
  5
93
  9
$SURFTAB1
 70
     6
  9
$SURFTAB2
 70
     6
  9
$SURFTYPE
 70
     6
  9
$SURFU
 70
     6
  9
$SURFV
 70
     6
  9
$UCSBASE
  2

  9
$UCSNAME
  2

  9
$UCSORG
 10
0.0
 20
0.0
 30
0.0
  9
$UCSXDIR
 10
1.0
 20
0.0
 30
0.0
  9
$UCSYDIR
 10
0.0
 20
1.0
 30
0.0
  9
$UCSORTHOREF
  2

  9
$UCSORTHOVIEW
 70
     0
  9
$UCSORGTOP
 10
0.0
 20
0.0
 30
0.0
  9
$UCSORGBOTTOM
 10
0.0
 20
0.0
 30
0.0
  9
$UCSORGLEFT
 10
0.0
 20
0.0
 30
0.0
  9
$UCSORGRIGHT
 10
0.0
 20
0.0
 30
0.0
  9
$UCSORGFRONT
 10
0.0
 20
0.0
 30
0.0
  9
$UCSORGBACK
 10
0.0
 20
0.0
 30
0.0
  9
$PUCSBASE
  2

  9
$PUCSNAME
  2

  9
$PUCSORG
 10
0.0
 20
0.0
 30
0.0
  9
$PUCSXDIR
 10
1.0
 20
0.0
 30
0.0
  9
$PUCSYDIR
 10
0.0
 20
1.0
 30
0.0
  9
$PUCSORTHOREF
  2

  9
$PUCSORTHOVIEW
 70
     0
  9
$PUCSORGTOP
 10
0.0
 20
0.0
 30
0.0
  9
$PUCSORGBOTTOM
 10
0.0
 20
0.0
 30
0.0
  9
$PUCSORGLEFT
 10
0.0
 20
0.0
 30
0.0
  9
$PUCSORGRIGHT
 10
0.0
 20
0.0
 30
0.0
  9
$PUCSORGFRONT
 10
0.0
 20
0.0
 30
0.0
  9
$PUCSORGBACK
 10
0.0
 20
0.0
 30
0.0
  9
$USERI1
 70
     0
  9
$USERI2
 70
     0
  9
$USERI3
 70
     0
  9
$USERI4
 70
     0
  9
$USERI5
 70
     0
  9
$USERR1
 40
0.0
  9
$USERR2
 40
0.0
  9
$USERR3
 40
0.0
  9
$USERR4
 40
0.0
  9
$USERR5
 40
0.0
  9
$WORLDVIEW
 70
     1
  9
$SHADEDGE
 70
     3
  9
$SHADEDIF
 70
    70
  9
$TILEMODE
 70
     1
  9
$MAXACTVP
 70
    64
  9
$PINSBASE
 10
0.0
 20
0.0
 30
0.0
  9
$PLIMCHECK
 70
     0
  9
$PEXTMIN
 10
1.000000000000000E+20
 20
1.000000000000000E+20
 30
1.000000000000000E+20
  9
$PEXTMAX
 10
-1.000000000000000E+20
 20
-1.000000000000000E+20
 30
-1.000000000000000E+20
  9
$PLIMMIN
 10
0.0
 20
0.0
  9
$PLIMMAX
 10
12.0
 20
9.0
  9
$UNITMODE
 70
     0
  9
$VISRETAIN
 70
     1
  9
$PLINEGEN
 70
     0
  9
$PSLTSCALE
 70
     1
  9
$TREEDEPTH
 70
  3020
  9
$CMLSTYLE
  2
Standard
  9
$CMLJUST
 70
     0
  9
$CMLSCALE
 40
1.0
  9
$PROXYGRAPHICS
 70
     1
  9
$MEASUREMENT
 70
     0
  9
$CELWEIGHT
370
    -1
  9
$ENDCAPS
280
     0
  9
$JOINSTYLE
280
     0
  9
$LWDISPLAY
290
     0
  9
$INSUNITS
 70
     1
  9
$HYPERLINKBASE
  1

  9
$STYLESHEET
  1

  9
$XEDIT
290
     1
  9
$CEPSNTYPE
380
     0
  9
$PSTYLEMODE
290
     1
  9
$FINGERPRINTGUID
  2
{AA0B2B46-01D3-4132-8C0E-4B4DD6E92C92}
  9
$VERSIONGUID
  2
{FAEB1C32-E019-11D5-929B-00C0DF256EC4}
  9
$EXTNAMES
290
     1
  9
$PSVPSCALE
 40
0.0
  9
$OLESTARTUP
290
     0
  0
ENDSEC
  0
SECTION
  2
CLASSES
  0
CLASS
  1
ACDBDICTIONARYWDFLT
  2
AcDbDictionaryWithDefault
  3
ObjectDBX Classes
 90
        0
280
     0
281
     0
  0
CLASS
  1
VISUALSTYLE
  2
AcDbVisualStyle
  3
ObjectDBX Classes
 90
     4095
280
     0
281
     0
  0
CLASS
  1
ACDBPLACEHOLDER
  2
AcDbPlaceHolder
  3
ObjectDBX Classes
 90
        0
280
     0
281
     0
  0
CLASS
  1
LAYOUT
  2
AcDbLayout
  3
ObjectDBX Classes
 90
        0
280
     0
281
     0
  0
ENDSEC
  0
SECTION
  2
TABLES
  0
TABLE
  2
VPORT
  5
8
330
0
100
AcDbSymbolTable
 70
     1
  0
VPORT
  5
29
330
8
100
AcDbSymbolTableRecord
100
AcDbViewportTableRecord
  2
*Active
 70
     0
 10
0.0
 20
0.0
 11
1.0
 21
1.0
 12
21.75000000000001
 22
28.62075007477944
 13
0.0
 23
0.0
 14
0.5
 24
0.5
 15
0.5
 25
0.5
 16
0.0
 26
0.0
 36
1.0
 17
0.0
 27
0.0
 37
0.0
 40
58.38633015255022
 41
1.585388219436787
 42
50.0
 43
0.0
 44
0.0
 50
0.0
 51
0.0
 71
     0
 72
   100
 73
     1
 74
     3
 75
     0
 76
     0
 77
     0
 78
     0
281
     0
 65
     1
110
0.0
120
0.0
130
0.0
111
1.0
121
0.0
131
0.0
112
0.0
122
1.0
132
0.0
 79
     0
146
0.0
  0
ENDTAB
  0
TABLE
  2
LTYPE
  5
5
330
0
100
AcDbSymbolTable
 70
     1
  0
LTYPE
  5
14
330
5
100
AcDbSymbolTableRecord
100
AcDbLinetypeTableRecord
  2
ByBlock
 70
     0
  3

 72
    65
 73
     0
 40
0.0
  0
LTYPE
  5
15
330
5
100
AcDbSymbolTableRecord
100
AcDbLinetypeTableRecord
  2
ByLayer
 70
     0
  3

 72
    65
 73
     0
 40
0.0
  0
LTYPE
  5
16
330
5
100
AcDbSymbolTableRecord
100
AcDbLinetypeTableRecord
  2
Continuous
 70
     0
  3
Solid line
 72
    65
 73
     0
 40
0.0
  0
ENDTAB
  0
TABLE
  2
LAYER
  5
2
330
0
100
AcDbSymbolTable
 70
     2
  0
LAYER
  5
10
330
2
100
AcDbSymbolTableRecord
100
AcDbLayerTableRecord
  2
0
 70
     0
 62
     7
  6
Continuous
370
    -3
390
F
  0
LAYER
  5
3B
330
2
100
AcDbSymbolTableRecord
100
AcDbLayerTableRecord
  2
DEFAULT
 70
     0
 62
     7
  6
Continuous
370
    -3
390
F
  0
ENDTAB
  0
TABLE
  2
STYLE
  5
3
330
0
100
AcDbSymbolTable
 70
     1
  0
STYLE
  5
11
330
3
100
AcDbSymbolTableRecord
100
AcDbTextStyleTableRecord
  2
Standard
 70
     0
 40
0.0
 41
1.0
 50
0.0
 71
     0
 42
0.2
  3
txt
  4

  0
ENDTAB
  0
TABLE
  2
VIEW
  5
6
330
0
100
AcDbSymbolTable
 70
     0
  0
ENDTAB
  0
TABLE
  2
UCS
  5
7
330
0
100
AcDbSymbolTable
 70
     0
  0
ENDTAB
  0
TABLE
  2
APPID
  5
9
330
0
100
AcDbSymbolTable
 70
     1
  0
APPID
  5
12
330
9
100
AcDbSymbolTableRecord
100
AcDbRegAppTableRecord
  2
ACAD
 70
     0
  0
ENDTAB
  0
TABLE
  2
DIMSTYLE
  5
A
330
0
100
AcDbSymbolTable
 70
     1
100
AcDbDimStyleTable
  0
DIMSTYLE
105
27
330
A
100
AcDbSymbolTableRecord
100
AcDbDimStyleTableRecord
  2
Standard
 70
     0
340
11
  0
ENDTAB
  0
TABLE
  2
BLOCK_RECORD
  5
1
330
0
100
AcDbSymbolTable
 70
     1
  0
BLOCK_RECORD
  5
1F
330
1
100
AcDbSymbolTableRecord
100
AcDbBlockTableRecord
  2
*Model_Space
340
22
  0
BLOCK_RECORD
  5
1B
330
1
100
AcDbSymbolTableRecord
100
AcDbBlockTableRecord
  2
*Paper_Space
340
1E
  0
BLOCK_RECORD
  5
23
330
1
100
AcDbSymbolTableRecord
100
AcDbBlockTableRecord
  2
*Paper_Space0
340
26
  0
ENDTAB
  0
ENDSEC
  0
SECTION
  2
BLOCKS
  0
BLOCK
  5
20
330
1F
100
AcDbEntity
  8
0
100
AcDbBlockBegin
  2
*Model_Space
 70
     0
 10
0.0
 20
0.0
 30
0.0
  3
*Model_Space
  1

  0
ENDBLK
  5
21
330
1F
100
AcDbEntity
  8
0
100
AcDbBlockEnd
  0
BLOCK
  5
1C
330
1B
100
AcDbEntity
 67
     1
  8
0
100
AcDbBlockBegin
  2
*Paper_Space
 70
     0
 10
0.0
 20
0.0
 30
0.0
  3
*Paper_Space
  1

  0
ENDBLK
  5
1D
330
1B
100
AcDbEntity
 67
     1
  8
0
100
AcDbBlockEnd
  0
BLOCK
  5
24
330
23
100
AcDbEntity
  8
0
100
AcDbBlockBegin
  2
*Paper_Space0
 70
     0
 10
0.0
 20
0.0
 30
0.0
  3
*Paper_Space0
  1

  0
ENDBLK
  5
25
330
23
100
AcDbEntity
  8
0
100
AcDbBlockEnd
  0
ENDSEC
  0
SECTION
  2
ENTITIES
  0
SPLINE
  5
3C
330
1F
100
AcDbEntity
  8
DEFAULT
100
AcDbSpline
210
0.0
220
0.0
230
1.0
 70
    15
 71
     2
 72
    20
 73
    17
 74
     0
 42
0.0000000001
 43
0.0000000001
 40
4.71238898038469
 40
4.71238898038469
 40
4.71238898038469
 40
6.283185307179586
 40
6.283185307179586
 40
7.283185307179586
 40
7.283185307179586
 40
8.853981633974483
 40
8.853981633974483
 40
9.853981633974483
 40
9.853981633974483
 40
11.42477796076938
 40
11.42477796076938
 40
12.42477796076938
 40
12.42477796076938
 40
13.99557428756428
 40
13.99557428756428
 40
14.99557428756428
 40
14.99557428756428
 40
14.99557428756428
 10
23.125
 20
25.74150014955896
 30
0.0
 41
1.0
 10
23.625
 20
25.74150014955896
 30
0.0
 41
0.7071067811865476
 10
23.625
 20
26.24150014955896
 30
0.0
 41
1.0
 10
23.625
 20
41.49150014955896
 30
0.0
 41
1.0
 10
23.625
 20
56.74150014955896
 30
0.0
 41
1.0
 10
23.625
 20
57.24150014955897
 30
0.0
 41
0.7071067811865476
 10
23.125
 20
57.24150014955896
 30
0.0
 41
1.0
 10
0.0000000000000018
 20
57.24150014955896
 30
0.0
 41
1.0
 10
-23.125
 20
57.24150014955896
 30
0.0
 41
1.0
 10
-23.625
 20
57.24150014955897
 30
0.0
 41
0.7071067811865476
 10
-23.625
 20
56.74150014955896
 30
0.0
 41
1.0
 10
-23.625
 20
41.49150014955896
 30
0.0
 41
1.0
 10
-23.625
 20
26.24150014955896
 30
0.0
 41
1.0
 10
-23.625
 20
25.74150014955896
 30
0.0
 41
0.7071067811865476
 10
-23.125
 20
25.74150014955896
 30
0.0
 41
1.0
 10
0.0000000000000018
 20
25.74150014955896
 30
0.0
 41
1.0
 10
23.125
 20
25.74150014955896
 30
0.0
 41
1.0
  0
ARC
  5
3D
330
1F
100
AcDbEntity
  8
DEFAULT
100
AcDbCircle
 10
51.125
 20
4.900000149558966
 30
0.0
 40
0.25
100
AcDbArc
 50
270.0
 51
90.0
  0
SPLINE
  5
3E
330
1F
100
AcDbEntity
  8
DEFAULT
100
AcDbSpline
210
0.0
220
0.0
230
1.0
 70
    24
 71
     2
 72
     6
 73
     3
 74
     0
 42
0.0000000001
 43
0.0000000001
 40
0.0
 40
0.0
 40
0.0
 40
1.0
 40
1.0
 40
1.0
 10
64.71750000000002
 20
0.1500001495589665
 30
0.0
 10
65.15500000000002
 20
0.1500001495589665
 30
0.0
 10
65.59250000000002
 20
0.1500001495589665
 30
0.0
  0
ARC
  5
3F
330
1F
100
AcDbEntity
  8
DEFAULT
100
AcDbCircle
 10
37.59500000000001
 20
1.535208149558972
 30
0.0
 40
1.535208149559048
100
AcDbArc
 50
254.7861541350783
 51
285.2138098517298
  0
SPLINE
  5
40
330
1F
100
AcDbEntity
  8
DEFAULT
100
AcDbSpline
210
0.0
220
0.0
230
1.0
 70
    24
 71
     2
 72
     6
 73
     3
 74
     0
 42
0.0000000001
 43
0.0000000001
 40
0.0
 40
0.0
 40
0.0
 40
1.0
 40
1.0
 40
1.0
 10
64.71750000000002
 20
13.20500014955897
 30
0.0
 10
65.15500000000002
 20
13.20500014955897
 30
0.0
 10
65.59250000000002
 20
13.20500014955897
 30
0.0
  0
SPLINE
  5
41
330
1F
100
AcDbEntity
  8
DEFAULT
100
AcDbSpline
210
0.0
220
0.0
230
1.0
 70
    24
 71
     2
 72
     6
 73
     3
 74
     0
 42
0.0000000001
 43
0.0000000001
 40
0.0
 40
0.0
 40
0.0
 40
1.0
 40
1.0
 40
1.0
 10
37.15750000000001
 20
0.1500001495589665
 30
0.0
 10
37.15750000000001
 20
6.67750014955897
 30
0.0
 10
37.15750000000001
 20
13.20500014955897
 30
0.0
  0
SPLINE
  5
42
330
1F
100
AcDbEntity
  8
DEFAULT
100
AcDbSpline
210
0.0
220
0.0
230
1.0
 70
    24
 71
     2
 72
     6
 73
     3
 74
     0
 42
0.0000000001
 43
0.0000000001
 40
0.0
 40
0.0
 40
0.0
 40
1.0
 40
1.0
 40
1.0
 10
35.625
 20
13.74150014955896
 30
0.0
 10
35.625
 20
13.52250014955896
 30
0.0
 10
35.625
 20
13.30350014955896
 30
0.0
  0
SPLINE
  5
43
330
1F
100
AcDbEntity
  8
DEFAULT
100
AcDbSpline
210
0.0
220
0.0
230
1.0
 70
     8
 71
     2
 72
    32
 73
    29
 74
     0
 42
0.0000000001
 43
0.0000000001
 40
0.0
 40
0.0
 40
0.0
 40
1.0
 40
1.0
 40
2.0
 40
2.0
 40
3.0
 40
3.0
 40
4.0
 40
4.0
 40
5.0
 40
5.0
 40
6.0
 40
6.0
 40
7.0
 40
7.0
 40
8.0
 40
8.0
 40
9.0
 40
9.0
 40
10.0
 40
10.0
 40
11.0
 40
11.0
 40
12.0
 40
12.0
 40
13.0
 40
13.0
 40
14.0
 40
14.0
 40
14.0
 10
64.79596500000001
 20
12.20000014955896
 30
0.0
 10
64.79530100000001
 20
12.21457464955897
 30
0.0
 10
64.79463700000001
 20
12.22914914955897
 30
0.0
 10
64.79298100000001
 20
12.24323614955896
 30
0.0
 10
64.79132500000001
 20
12.25732314955896
 30
0.0
 10
64.78873750000001
 20
12.27092214955897
 30
0.0
 10
64.78615
 20
12.28452114955897
 30
0.0
 10
64.78262500000001
 20
12.29784064955897
 30
0.0
 10
64.77910000000001
 20
12.31116014955896
 30
0.0
 10
64.77489400000002
 20
12.32399114955897
 30
0.0
 10
64.770688
 20
12.33682214955897
 30
0.0
 10
64.766254
 20
12.34854164955897
 30
0.0
 10
64.76182000000001
 20
12.36026114955897
 30
0.0
 10
64.75732900000001
 20
12.37076214955897
 30
0.0
 10
64.75283800000001
 20
12.38126314955896
 30
0.0
 10
64.74843050000001
 20
12.39065214955896
 30
0.0
 10
64.74402300000001
 20
12.40004114955896
 30
0.0
 10
64.740014
 20
12.40801414955896
 30
0.0
 10
64.736005
 20
12.41598714955896
 30
0.0
 10
64.73252350000001
 20
12.42253614955896
 30
0.0
 10
64.729042
 20
12.42908514955896
 30
0.0
 10
64.7262465
 20
12.43421764955896
 30
0.0
 10
64.72345100000001
 20
12.43935014955897
 30
0.0
 10
64.72154800000001
 20
12.44278814955897
 30
0.0
 10
64.71964500000001
 20
12.44622614955897
 30
0.0
 10
64.71868600000002
 20
12.44788214955897
 30
0.0
 10
64.71772700000001
 20
12.44953814955896
 30
0.0
 10
64.71761350000001
 20
12.44973214955897
 30
0.0
 10
64.71750000000002
 20
12.44992614955897
 30
0.0
  0
SPLINE
  5
44
330
1F
100
AcDbEntity
  8
DEFAULT
100
AcDbSpline
210
0.0
220
0.0
230
1.0
 70
    24
 71
     2
 72
     6
 73
     3
 74
     0
 42
0.0000000001
 43
0.0000000001
 40
0.0
 40
0.0
 40
0.0
 40
1.0
 40
1.0
 40
1.0
 10
64.71750000000002
 20
0.1500001495589665
 30
0.0
 10
64.71750000000002
 20
6.051936149558966
 30
0.0
 10
64.71750000000002
 20
11.95387214955896
 30
0.0
  0
SPLINE
  5
45
330
1F
100
AcDbEntity
  8
DEFAULT
100
AcDbSpline
210
0.0
220
0.0
230
1.0
 70
    24
 71
     2
 72
     6
 73
     3
 74
     0
 42
0.0000000001
 43
0.0000000001
 40
0.0
 40
0.0
 40
0.0
 40
1.0
 40
1.0
 40
1.0
 10
64.71970000000002
 20
11.95000014955896
 30
0.0
 10
51.37499000000001
 20
11.95000014955896
 30
0.0
 10
38.03028
 20
11.95000014955896
 30
0.0
  0
SPLINE
  5
46
330
1F
100
AcDbEntity
  8
DEFAULT
100
AcDbSpline
210
0.0
220
0.0
230
1.0
 70
    24
 71
     2
 72
     6
 73
     3
 74
     0
 42
0.0000000001
 43
0.0000000001
 40
0.0
 40
0.0
 40
0.0
 40
1.0
 40
1.0
 40
1.0
 10
64.73
 20
0.1500001495589665
 30
0.0
 10
64.73
 20
0.1163761495589632
 30
0.0
 10
64.73
 20
0.08275214955896
 30
0.0
  0
SPLINE
  5
47
330
1F
100
AcDbEntity
  8
DEFAULT
100
AcDbSpline
210
0.0
220
0.0
230
1.0
 70
    24
 71
     2
 72
     6
 73
     3
 74
     0
 42
0.0000000001
 43
0.0000000001
 40
0.0
 40
0.0
 40
0.0
 40
1.0
 40
1.0
 40
1.0
 10
35.625
 20
13.30350014955896
 30
0.0
 10
51.37500000000001
 20
13.30350014955896
 30
0.0
 10
67.12500000000001
 20
13.30350014955896
 30
0.0
  0
SPLINE
  5
48
330
1F
100
AcDbEntity
  8
DEFAULT
100
AcDbSpline
210
0.0
220
0.0
230
1.0
 70
     8
 71
     2
 72
    32
 73
    29
 74
     0
 42
0.0000000001
 43
0.0000000001
 40
0.0
 40
0.0
 40
0.0
 40
1.0
 40
1.0
 40
2.0
 40
2.0
 40
3.0
 40
3.0
 40
4.0
 40
4.0
 40
5.0
 40
5.0
 40
6.0
 40
6.0
 40
7.0
 40
7.0
 40
8.0
 40
8.0
 40
9.0
 40
9.0
 40
10.0
 40
10.0
 40
11.0
 40
11.0
 40
12.0
 40
12.0
 40
13.0
 40
13.0
 40
14.0
 40
14.0
 40
14.0
 10
64.71750000000002
 20
11.95006614955897
 30
0.0
 10
64.71756750000002
 20
11.95017614955897
 30
0.0
 10
64.71763500000002
 20
11.95028614955897
 30
0.0
 10
64.71849
 20
11.95176414955897
 30
0.0
 10
64.719345
 20
11.95324214955896
 30
0.0
 10
64.721162
 20
11.95652814955897
 30
0.0
 10
64.72297900000001
 20
11.95981414955897
 30
0.0
 10
64.72571850000001
 20
11.96481964955897
 30
0.0
 10
64.72845800000002
 20
11.96982514955896
 30
0.0
 10
64.7319195
 20
11.97631514955896
 30
0.0
 10
64.735381
 20
11.98280514955896
 30
0.0
 10
64.73942000000001
 20
11.99083914955896
 30
0.0
 10
64.74345900000002
 20
11.99887314955896
 30
0.0
 10
64.74794250000002
 20
12.00839214955897
 30
0.0
 10
64.75242600000001
 20
12.01791114955897
 30
0.0
 10
64.75699350000002
 20
12.02850714955897
 30
0.0
 10
64.76156100000001
 20
12.03910314955897
 30
0.0
 10
64.76603000000001
 20
12.05082264955897
 30
0.0
 10
64.77049900000002
 20
12.06254214955897
 30
0.0
 10
64.77471100000001
 20
12.07533914955897
 30
0.0
 10
64.778923
 20
12.08813614955897
 30
0.0
 10
64.78245700000001
 20
12.10146164955897
 30
0.0
 10
64.78599100000001
 20
12.11478714955897
 30
0.0
 10
64.78860350000001
 20
12.12846014955896
 30
0.0
 10
64.791216
 20
12.14213314955896
 30
0.0
 10
64.7928985
 20
12.15633514955897
 30
0.0
 10
64.79458100000001
 20
12.17053714955897
 30
0.0
 10
64.79527300000001
 20
12.18526864955897
 30
0.0
 10
64.79596500000001
 20
12.20000014955896
 30
0.0
  0
SPLINE
  5
49
330
1F
100
AcDbEntity
  8
DEFAULT
100
AcDbSpline
210
0.0
220
0.0
230
1.0
 70
    24
 71
     2
 72
     6
 73
     3
 74
     0
 42
0.0000000001
 43
0.0000000001
 40
0.0
 40
0.0
 40
0.0
 40
1.0
 40
1.0
 40
1.0
 10
35.625
 20
13.74150014955896
 30
0.0
 10
51.37500000000001
 20
13.74150014955896
 30
0.0
 10
67.12500000000001
 20
13.74150014955896
 30
0.0
  0
SPLINE
  5
4A
330
1F
100
AcDbEntity
  8
DEFAULT
100
AcDbSpline
210
0.0
220
0.0
230
1.0
 70
    24
 71
     2
 72
     6
 73
     3
 74
     0
 42
0.0000000001
 43
0.0000000001
 40
0.0
 40
0.0
 40
0.0
 40
1.0
 40
1.0
 40
1.0
 10
64.71972000000001
 20
12.45000014955896
 30
0.0
 10
51.37500950000001
 20
12.45000014955896
 30
0.0
 10
38.03029900000001
 20
12.45000014955896
 30
0.0
  0
SPLINE
  5
4B
330
1F
100
AcDbEntity
  8
DEFAULT
100
AcDbSpline
210
0.0
220
0.0
230
1.0
 70
    24
 71
     2
 72
     6
 73
     3
 74
     0
 42
0.0000000001
 43
0.0000000001
 40
0.0
 40
0.0
 40
0.0
 40
1.0
 40
1.0
 40
1.0
 10
37.34825000000001
 20
13.30350014955896
 30
0.0
 10
37.34825000000001
 20
13.25425014955897
 30
0.0
 10
37.34825000000001
 20
13.20500014955897
 30
0.0
  0
SPLINE
  5
4C
330
1F
100
AcDbEntity
  8
DEFAULT
100
AcDbSpline
210
0.0
220
0.0
230
1.0
 70
    24
 71
     2
 72
     6
 73
     3
 74
     0
 42
0.0000000001
 43
0.0000000001
 40
0.0
 40
0.0
 40
0.0
 40
1.0
 40
1.0
 40
1.0
 10
65.59250000000002
 20
0.1500001495589665
 30
0.0
 10
65.59250000000002
 20
6.67750014955897
 30
0.0
 10
65.59250000000002
 20
13.20500014955897
 30
0.0
  0
SPLINE
  5
4D
330
1F
100
AcDbEntity
  8
DEFAULT
100
AcDbSpline
210
0.0
220
0.0
230
1.0
 70
    24
 71
     2
 72
     6
 73
     3
 74
     0
 42
0.0000000001
 43
0.0000000001
 40
0.0
 40
0.0
 40
0.0
 40
1.0
 40
1.0
 40
1.0
 10
64.90825000000001
 20
13.30350014955896
 30
0.0
 10
64.90825000000001
 20
13.25425014955897
 30
0.0
 10
64.90825000000001
 20
13.20500014955897
 30
0.0
  0
SPLINE
  5
4E
330
1F
100
AcDbEntity
  8
DEFAULT
100
AcDbSpline
210
0.0
220
0.0
230
1.0
 70
    24
 71
     2
 72
     6
 73
     3
 74
     0
 42
0.0000000001
 43
0.0000000001
 40
0.0
 40
0.0
 40
0.0
 40
1.0
 40
1.0
 40
1.0
 10
37.15750000000001
 20
13.20500014955897
 30
0.0
 10
37.59500000000001
 20
13.20500014955897
 30
0.0
 10
38.03250000000001
 20
13.20500014955897
 30
0.0
  0
SPLINE
  5
4F
330
1F
100
AcDbEntity
  8
DEFAULT
100
AcDbSpline
210
0.0
220
0.0
230
1.0
 70
    24
 71
     2
 72
     6
 73
     3
 74
     0
 42
0.0000000001
 43
0.0000000001
 40
0.0
 40
0.0
 40
0.0
 40
1.0
 40
1.0
 40
1.0
 10
37.17
 20
0.1500001495589665
 30
0.0
 10
37.17
 20
0.1163761495589632
 30
0.0
 10
37.17
 20
0.08275214955896
 30
0.0
  0
ARC
  5
50
330
1F
100
AcDbEntity
  8
DEFAULT
100
AcDbCircle
 10
51.625
 20
4.900000149558966
 30
0.0
 40
0.25
100
AcDbArc
 50
90.0
 51
270.0
  0
SPLINE
  5
51
330
1F
100
AcDbEntity
  8
DEFAULT
100
AcDbSpline
210
0.0
220
0.0
230
1.0
 70
    24
 71
     2
 72
     6
 73
     3
 74
     0
 42
0.0000000001
 43
0.0000000001
 40
0.0
 40
0.0
 40
0.0
 40
1.0
 40
1.0
 40
1.0
 10
65.40175
 20
13.30350014955896
 30
0.0
 10
65.40175
 20
13.25425014955897
 30
0.0
 10
65.40175
 20
13.20500014955897
 30
0.0
  0
ARC
  5
52
330
1F
100
AcDbEntity
  8
DEFAULT
100
AcDbCircle
 10
65.15500000000002
 20
1.535208149558972
 30
0.0
 40
1.535208149559049
100
AcDbArc
 50
254.7861541350786
 51
285.2138098517301
  0
SPLINE
  5
53
330
1F
100
AcDbEntity
  8
DEFAULT
100
AcDbSpline
210
0.0
220
0.0
230
1.0
 70
    24
 71
     2
 72
     6
 73
     3
 74
     0
 42
0.0000000001
 43
0.0000000001
 40
0.0
 40
0.0
 40
0.0
 40
1.0
 40
1.0
 40
1.0
 10
51.625
 20
4.650000149558966
 30
0.0
 10
58.17125000000001
 20
4.650000149558966
 30
0.0
 10
64.71750000000002
 20
4.650000149558966
 30
0.0
  0
SPLINE
  5
54
330
1F
100
AcDbEntity
  8
DEFAULT
100
AcDbSpline
210
0.0
220
0.0
230
1.0
 70
    24
 71
     2
 72
     6
 73
     3
 74
     0
 42
0.0000000001
 43
0.0000000001
 40
0.0
 40
0.0
 40
0.0
 40
1.0
 40
1.0
 40
1.0
 10
38.03250000000001
 20
5.150000149558966
 30
0.0
 10
44.57875000000001
 20
5.150000149558966
 30
0.0
 10
51.125
 20
5.150000149558966
 30
0.0
  0
SPLINE
  5
55
330
1F
100
AcDbEntity
  8
DEFAULT
100
AcDbSpline
210
0.0
220
0.0
230
1.0
 70
    24
 71
     2
 72
     6
 73
     3
 74
     0
 42
0.0000000001
 43
0.0000000001
 40
0.0
 40
0.0
 40
0.0
 40
1.0
 40
1.0
 40
1.0
 10
38.03250000000001
 20
4.650000149558966
 30
0.0
 10
44.57875000000001
 20
4.650000149558966
 30
0.0
 10
51.125
 20
4.650000149558966
 30
0.0
  0
SPLINE
  5
56
330
1F
100
AcDbEntity
  8
DEFAULT
100
AcDbSpline
210
0.0
220
0.0
230
1.0
 70
    24
 71
     2
 72
     6
 73
     3
 74
     0
 42
0.0000000001
 43
0.0000000001
 40
0.0
 40
0.0
 40
0.0
 40
1.0
 40
1.0
 40
1.0
 10
67.12500000000001
 20
13.74150014955896
 30
0.0
 10
67.12500000000001
 20
13.52250014955896
 30
0.0
 10
67.12500000000001
 20
13.30350014955896
 30
0.0
  0
ARC
  5
57
330
1F
100
AcDbEntity
  8
DEFAULT
100
AcDbCircle
 10
65.55000000000001
 20
0.08275214955896
 30
0.0
 40
0.0299996257286653
100
AcDbArc
 50
285.2129061987503
 51
359.9999999999999
  0
ARC
  5
58
330
1F
100
AcDbEntity
  8
DEFAULT
100
AcDbCircle
 10
37.99000000000001
 20
0.08275214955896
 30
0.0
 40
0.0299996257286643
100
AcDbArc
 50
285.2129061987499
 51
359.9999999999999
  0
SPLINE
  5
59
330
1F
100
AcDbEntity
  8
DEFAULT
100
AcDbSpline
210
0.0
220
0.0
230
1.0
 70
     8
 71
     2
 72
    30
 73
    27
 74
     0
 42
0.0000000001
 43
0.0000000001
 40
0.0
 40
0.0
 40
0.0
 40
1.0
 40
1.0
 40
2.0
 40
2.0
 40
3.0
 40
3.0
 40
4.0
 40
4.0
 40
5.0
 40
5.0
 40
6.0
 40
6.0
 40
7.0
 40
7.0
 40
8.0
 40
8.0
 40
9.0
 40
9.0
 40
10.0
 40
10.0
 40
11.0
 40
11.0
 40
12.0
 40
12.0
 40
13.0
 40
13.0
 40
13.0
 10
38.03250000000001
 20
12.44993314955896
 30
0.0
 10
38.03118750000001
 20
12.44765514955897
 30
0.0
 10
38.029875
 20
12.44537714955897
 30
0.0
 10
38.02783000000001
 20
12.44167164955897
 30
0.0
 10
38.02578500000001
 20
12.43796614955896
 30
0.0
 10
38.02286300000001
 20
12.43257364955896
 30
0.0
 10
38.019941
 20
12.42718114955897
 30
0.0
 10
38.01636300000001
 20
12.42040564955897
 30
0.0
 10
38.01278500000001
 20
12.41363014955897
 30
0.0
 10
38.008717
 20
12.40546514955897
 30
0.0
 10
38.004649
 20
12.39730014955896
 30
0.0
 10
38.00022300000001
 20
12.38775264955897
 30
0.0
 10
37.99579700000001
 20
12.37820514955897
 30
0.0
 10
37.99132850000001
 20
12.36760064955897
 30
0.0
 10
37.98686000000001
 20
12.35699614955897
 30
0.0
 10
37.98249500000001
 20
12.34519664955897
 30
0.0
 10
37.97813000000001
 20
12.33339714955897
 30
0.0
 10
37.97403300000001
 20
12.32054064955897
 30
0.0
 10
37.969936
 20
12.30768414955897
 30
0.0
 10
37.96653500000001
 20
12.29451214955897
 30
0.0
 10
37.96313400000001
 20
12.28134014955896
 30
0.0
 10
37.96066800000001
 20
12.26809914955896
 30
0.0
 10
37.958202
 20
12.25485814955896
 30
0.0
 10
37.956667
 20
12.24130164955896
 30
0.0
 10
37.95513200000001
 20
12.22774514955896
 30
0.0
 10
37.95458350000001
 20
12.21387264955896
 30
0.0
 10
37.954035
 20
12.20000014955896
 30
0.0
  0
SPLINE
  5
5A
330
1F
100
AcDbEntity
  8
DEFAULT
100
AcDbSpline
210
0.0
220
0.0
230
1.0
 70
    24
 71
     2
 72
     6
 73
     3
 74
     0
 42
0.0000000001
 43
0.0000000001
 40
0.0
 40
0.0
 40
0.0
 40
1.0
 40
1.0
 40
1.0
 10
38.03250000000001
 20
12.44612814955896
 30
0.0
 10
38.03250000000001
 20
12.82556414955897
 30
0.0
 10
38.03250000000001
 20
13.20500014955897
 30
0.0
  0
ARC
  5
5B
330
1F
100
AcDbEntity
  8
DEFAULT
100
AcDbCircle
 10
37.2
 20
0.08275214955896
 30
0.0
 40
0.0299997569396974
100
AcDbArc
 50
180.0
 51
254.7852508385004
  0
SPLINE
  5
5C
330
1F
100
AcDbEntity
  8
DEFAULT
100
AcDbSpline
210
0.0
220
0.0
230
1.0
 70
    24
 71
     2
 72
     6
 73
     3
 74
     0
 42
0.0000000001
 43
0.0000000001
 40
0.0
 40
0.0
 40
0.0
 40
1.0
 40
1.0
 40
1.0
 10
38.02000000000001
 20
0.1500001495589665
 30
0.0
 10
38.02000000000001
 20
0.1163761495589632
 30
0.0
 10
38.02000000000001
 20
0.08275214955896
 30
0.0
  0
SPLINE
  5
5D
330
1F
100
AcDbEntity
  8
DEFAULT
100
AcDbSpline
210
0.0
220
0.0
230
1.0
 70
    24
 71
     2
 72
     6
 73
     3
 74
     0
 42
0.0000000001
 43
0.0000000001
 40
0.0
 40
0.0
 40
0.0
 40
1.0
 40
1.0
 40
1.0
 10
38.03250000000001
 20
0.1500001495589665
 30
0.0
 10
38.03250000000001
 20
6.051952649558967
 30
0.0
 10
38.03250000000001
 20
11.95390514955897
 30
0.0
  0
SPLINE
  5
5E
330
1F
100
AcDbEntity
  8
DEFAULT
100
AcDbSpline
210
0.0
220
0.0
230
1.0
 70
    24
 71
     2
 72
     6
 73
     3
 74
     0
 42
0.0000000001
 43
0.0000000001
 40
0.0
 40
0.0
 40
0.0
 40
1.0
 40
1.0
 40
1.0
 10
37.84175
 20
13.30350014955896
 30
0.0
 10
37.84175
 20
13.25425014955897
 30
0.0
 10
37.84175
 20
13.20500014955897
 30
0.0
  0
SPLINE
  5
5F
330
1F
100
AcDbEntity
  8
DEFAULT
100
AcDbSpline
210
0.0
220
0.0
230
1.0
 70
    24
 71
     2
 72
     6
 73
     3
 74
     0
 42
0.0000000001
 43
0.0000000001
 40
0.0
 40
0.0
 40
0.0
 40
1.0
 40
1.0
 40
1.0
 10
65.58000000000001
 20
0.1500001495589665
 30
0.0
 10
65.58000000000001
 20
0.1163761495589632
 30
0.0
 10
65.58000000000001
 20
0.08275214955896
 30
0.0
  0
SPLINE
  5
60
330
1F
100
AcDbEntity
  8
DEFAULT
100
AcDbSpline
210
0.0
220
0.0
230
1.0
 70
     8
 71
     2
 72
    32
 73
    29
 74
     0
 42
0.0000000001
 43
0.0000000001
 40
0.0
 40
0.0
 40
0.0
 40
1.0
 40
1.0
 40
2.0
 40
2.0
 40
3.0
 40
3.0
 40
4.0
 40
4.0
 40
5.0
 40
5.0
 40
6.0
 40
6.0
 40
7.0
 40
7.0
 40
8.0
 40
8.0
 40
9.0
 40
9.0
 40
10.0
 40
10.0
 40
11.0
 40
11.0
 40
12.0
 40
12.0
 40
13.0
 40
13.0
 40
14.0
 40
14.0
 40
14.0
 10
37.954035
 20
12.20000014955896
 30
0.0
 10
37.95460300000001
 20
12.18600364955897
 30
0.0
 10
37.95517100000001
 20
12.17200714955897
 30
0.0
 10
37.95672700000001
 20
12.15835514955897
 30
0.0
 10
37.95828300000001
 20
12.14470314955897
 30
0.0
 10
37.96077150000001
 20
12.13139614955897
 30
0.0
 10
37.96326000000001
 20
12.11808914955897
 30
0.0
 10
37.96667250000001
 20
12.10490014955897
 30
0.0
 10
37.97008500000001
 20
12.09171114955896
 30
0.0
 10
37.97419250000001
 20
12.07886714955896
 30
0.0
 10
37.9783
 20
12.06602314955896
 30
0.0
 10
37.98270400000001
 20
12.05420414955897
 30
0.0
 10
37.98710800000001
 20
12.04238514955897
 30
0.0
 10
37.99165550000001
 20
12.03167614955897
 30
0.0
 10
37.99620300000001
 20
12.02096714955896
 30
0.0
 10
38.00070800000001
 20
12.01128414955896
 30
0.0
 10
38.00521300000001
 20
12.00160114955897
 30
0.0
 10
38.00931400000001
 20
11.99337014955897
 30
0.0
 10
38.01341500000001
 20
11.98513914955896
 30
0.0
 10
38.01697650000001
 20
11.97841714955897
 30
0.0
 10
38.020538
 20
11.97169514955897
 30
0.0
 10
38.02340700000001
 20
11.96642514955897
 30
0.0
 10
38.02627600000001
 20
11.96115514955897
 30
0.0
 10
38.02823950000001
 20
11.95759814955897
 30
0.0
 10
38.030203
 20
11.95404114955896
 30
0.0
 10
38.031213
 20
11.95229014955897
 30
0.0
 10
38.032223
 20
11.95053914955897
 30
0.0
 10
38.03236150000001
 20
11.95030614955897
 30
0.0
 10
38.03250000000001
 20
11.95007314955896
 30
0.0
  0
SPLINE
  5
61
330
1F
100
AcDbEntity
  8
DEFAULT
100
AcDbSpline
210
0.0
220
0.0
230
1.0
 70
    24
 71
     2
 72
     6
 73
     3
 74
     0
 42
0.0000000001
 43
0.0000000001
 40
0.0
 40
0.0
 40
0.0
 40
1.0
 40
1.0
 40
1.0
 10
51.625
 20
5.150000149558966
 30
0.0
 10
58.17125000000001
 20
5.150000149558966
 30
0.0
 10
64.71750000000002
 20
5.150000149558966
 30
0.0
  0
SPLINE
  5
62
330
1F
100
AcDbEntity
  8
DEFAULT
100
AcDbSpline
210
0.0
220
0.0
230
1.0
 70
    24
 71
     2
 72
     6
 73
     3
 74
     0
 42
0.0000000001
 43
0.0000000001
 40
0.0
 40
0.0
 40
0.0
 40
1.0
 40
1.0
 40
1.0
 10
37.15750000000001
 20
0.1500001495589665
 30
0.0
 10
37.59500000000001
 20
0.1500001495589665
 30
0.0
 10
38.03250000000001
 20
0.1500001495589665
 30
0.0
  0
SPLINE
  5
63
330
1F
100
AcDbEntity
  8
DEFAULT
100
AcDbSpline
210
0.0
220
0.0
230
1.0
 70
    24
 71
     2
 72
     6
 73
     3
 74
     0
 42
0.0000000001
 43
0.0000000001
 40
0.0
 40
0.0
 40
0.0
 40
1.0
 40
1.0
 40
1.0
 10
64.71750000000002
 20
12.44609414955896
 30
0.0
 10
64.71750000000002
 20
12.82554714955897
 30
0.0
 10
64.71750000000002
 20
13.20500014955897
 30
0.0
  0
ARC
  5
64
330
1F
100
AcDbEntity
  8
DEFAULT
100
AcDbCircle
 10
64.76
 20
0.08275214955896
 30
0.0
 40
0.0299997569396964
100
AcDbArc
 50
180.0
 51
254.7852508385008
  0
SPLINE
  5
65
330
1F
100
AcDbEntity
  8
DEFAULT
100
AcDbSpline
210
0.0
220
0.0
230
1.0
 70
    24
 71
     2
 72
     6
 73
     3
 74
     0
 42
0.0000000001
 43
0.0000000001
 40
0.0
 40
0.0
 40
0.0
 40
1.0
 40
1.0
 40
1.0
 10
-21.90175
 20
13.30350014955896
 30
0.0
 10
-21.90175
 20
13.25425014955897
 30
0.0
 10
-21.90175
 20
13.20500014955897
 30
0.0
  0
SPLINE
  5
66
330
1F
100
AcDbEntity
  8
DEFAULT
100
AcDbSpline
210
0.0
220
0.0
230
1.0
 70
    24
 71
     2
 72
     6
 73
     3
 74
     0
 42
0.0000000001
 43
0.0000000001
 40
0.0
 40
0.0
 40
0.0
 40
1.0
 40
1.0
 40
1.0
 10
21.2175
 20
5.150000149558966
 30
0.0
 10
0.0
 20
5.150000149558966
 30
0.0
 10
-21.2175
 20
5.150000149558966
 30
0.0
  0
SPLINE
  5
67
330
1F
100
AcDbEntity
  8
DEFAULT
100
AcDbSpline
210
0.0
220
0.0
230
1.0
 70
    24
 71
     2
 72
     6
 73
     3
 74
     0
 42
0.0000000001
 43
0.0000000001
 40
0.0
 40
0.0
 40
0.0
 40
1.0
 40
1.0
 40
1.0
 10
21.2175
 20
0.1500001495589665
 30
0.0
 10
21.655
 20
0.1500001495589665
 30
0.0
 10
22.0925
 20
0.1500001495589665
 30
0.0
  0
ARC
  5
68
330
1F
100
AcDbEntity
  8
DEFAULT
100
AcDbCircle
 10
21.26
 20
0.08275214955896
 30
0.0
 40
0.0299996257286648
100
AcDbArc
 50
180.0
 51
254.7870938012499
  0
SPLINE
  5
69
330
1F
100
AcDbEntity
  8
DEFAULT
100
AcDbSpline
210
0.0
220
0.0
230
1.0
 70
    24
 71
     2
 72
     6
 73
     3
 74
     0
 42
0.0000000001
 43
0.0000000001
 40
0.0
 40
0.0
 40
0.0
 40
1.0
 40
1.0
 40
1.0
 10
-7.710786
 20
4.650000149558966
 30
0.0
 10
-7.710786
 20
4.900000149558966
 30
0.0
 10
-7.710786
 20
5.150000149558966
 30
0.0
  0
SPLINE
  5
6A
330
1F
100
AcDbEntity
  8
DEFAULT
100
AcDbSpline
210
0.0
220
0.0
230
1.0
 70
    24
 71
     2
 72
     6
 73
     3
 74
     0
 42
0.0000000001
 43
0.0000000001
 40
0.0
 40
0.0
 40
0.0
 40
1.0
 40
1.0
 40
1.0
 10
-23.625
 20
13.74150014955896
 30
0.0
 10
-23.625
 20
13.52250014955896
 30
0.0
 10
-23.625
 20
13.30350014955896
 30
0.0
  0
SPLINE
  5
6B
330
1F
100
AcDbEntity
  8
DEFAULT
100
AcDbSpline
210
0.0
220
0.0
230
1.0
 70
    24
 71
     2
 72
     6
 73
     3
 74
     0
 42
0.0000000001
 43
0.0000000001
 40
0.0
 40
0.0
 40
0.0
 40
1.0
 40
1.0
 40
1.0
 10
-23.625
 20
13.74150014955896
 30
0.0
 10
0.0000000000000018
 20
13.74150014955896
 30
0.0
 10
23.625
 20
13.74150014955896
 30
0.0
  0
SPLINE
  5
6C
330
1F
100
AcDbEntity
  8
DEFAULT
100
AcDbSpline
210
0.0
220
0.0
230
1.0
 70
    24
 71
     2
 72
     6
 73
     3
 74
     0
 42
0.0000000001
 43
0.0000000001
 40
0.0
 40
0.0
 40
0.0
 40
1.0
 40
1.0
 40
1.0
 10
-21.2175
 20
0.1500001495589665
 30
0.0
 10
-21.2175
 20
6.050000149558965
 30
0.0
 10
-21.2175
 20
11.95000014955896
 30
0.0
  0
ARC
  5
6D
330
1F
100
AcDbEntity
  8
DEFAULT
100
AcDbCircle
 10
22.05
 20
0.08275214955896
 30
0.0
 40
0.0299997569396974
100
AcDbArc
 50
285.2147491615061
 51
359.9999999999999
  0
SPLINE
  5
6E
330
1F
100
AcDbEntity
  8
DEFAULT
100
AcDbSpline
210
0.0
220
0.0
230
1.0
 70
    24
 71
     2
 72
     6
 73
     3
 74
     0
 42
0.0000000001
 43
0.0000000001
 40
0.0
 40
0.0
 40
0.0
 40
1.0
 40
1.0
 40
1.0
 10
-21.23
 20
0.08275214955896
 30
0.0
 10
-21.23
 20
0.1163761495589632
 30
0.0
 10
-21.23
 20
0.1500001495589665
 30
0.0
  0
SPLINE
  5
6F
330
1F
100
AcDbEntity
  8
DEFAULT
100
AcDbSpline
210
0.0
220
0.0
230
1.0
 70
    24
 71
     2
 72
     6
 73
     3
 74
     0
 42
0.0000000001
 43
0.0000000001
 40
0.0
 40
0.0
 40
0.0
 40
1.0
 40
1.0
 40
1.0
 10
23.625
 20
13.74150014955896
 30
0.0
 10
23.625
 20
13.52250014955896
 30
0.0
 10
23.625
 20
13.30350014955896
 30
0.0
  0
SPLINE
  5
70
330
1F
100
AcDbEntity
  8
DEFAULT
100
AcDbSpline
210
0.0
220
0.0
230
1.0
 70
    24
 71
     2
 72
     6
 73
     3
 74
     0
 42
0.0000000001
 43
0.0000000001
 40
0.0
 40
0.0
 40
0.0
 40
1.0
 40
1.0
 40
1.0
 10
22.0925
 20
0.1500001495589665
 30
0.0
 10
22.0925
 20
6.67750014955897
 30
0.0
 10
22.0925
 20
13.20500014955897
 30
0.0
  0
SPLINE
  5
71
330
1F
100
AcDbEntity
  8
DEFAULT
100
AcDbSpline
210
0.0
220
0.0
230
1.0
 70
    24
 71
     2
 72
     6
 73
     3
 74
     0
 42
0.0000000001
 43
0.0000000001
 40
0.0
 40
0.0
 40
0.0
 40
1.0
 40
1.0
 40
1.0
 10
22.08
 20
0.08275214955896
 30
0.0
 10
22.08
 20
0.1163761495589632
 30
0.0
 10
22.08
 20
0.1500001495589665
 30
0.0
  0
SPLINE
  5
72
330
1F
100
AcDbEntity
  8
DEFAULT
100
AcDbSpline
210
0.0
220
0.0
230
1.0
 70
    24
 71
     2
 72
     6
 73
     3
 74
     0
 42
0.0000000001
 43
0.0000000001
 40
0.0
 40
0.0
 40
0.0
 40
1.0
 40
1.0
 40
1.0
 10
22.08
 20
0.1500001495589665
 30
0.0
 10
22.08
 20
0.1163761495589632
 30
0.0
 10
22.08
 20
0.08275214955896
 30
0.0
  0
SPLINE
  5
73
330
1F
100
AcDbEntity
  8
DEFAULT
100
AcDbSpline
210
0.0
220
0.0
230
1.0
 70
    24
 71
     2
 72
     6
 73
     3
 74
     0
 42
0.0000000001
 43
0.0000000001
 40
0.0
 40
0.0
 40
0.0
 40
1.0
 40
1.0
 40
1.0
 10
21.90175
 20
13.30350014955896
 30
0.0
 10
21.90175
 20
13.25425014955897
 30
0.0
 10
21.90175
 20
13.20500014955897
 30
0.0
  0
SPLINE
  5
74
330
1F
100
AcDbEntity
  8
DEFAULT
100
AcDbSpline
210
0.0
220
0.0
230
1.0
 70
    24
 71
     2
 72
     6
 73
     3
 74
     0
 42
0.0000000001
 43
0.0000000001
 40
0.0
 40
0.0
 40
0.0
 40
1.0
 40
1.0
 40
1.0
 10
21.40825
 20
13.30350014955896
 30
0.0
 10
21.40825
 20
13.25425014955897
 30
0.0
 10
21.40825
 20
13.20500014955897
 30
0.0
  0
SPLINE
  5
75
330
1F
100
AcDbEntity
  8
DEFAULT
100
AcDbSpline
210
0.0
220
0.0
230
1.0
 70
    24
 71
     2
 72
     6
 73
     3
 74
     0
 42
0.0000000001
 43
0.0000000001
 40
0.0
 40
0.0
 40
0.0
 40
1.0
 40
1.0
 40
1.0
 10
21.23
 20
0.08275214955896
 30
0.0
 10
21.23
 20
0.1163761495589632
 30
0.0
 10
21.23
 20
0.1500001495589665
 30
0.0
  0
SPLINE
  5
76
330
1F
100
AcDbEntity
  8
DEFAULT
100
AcDbSpline
210
0.0
220
0.0
230
1.0
 70
    24
 71
     2
 72
     6
 73
     3
 74
     0
 42
0.0000000001
 43
0.0000000001
 40
0.0
 40
0.0
 40
0.0
 40
1.0
 40
1.0
 40
1.0
 10
21.23
 20
0.1500001495589665
 30
0.0
 10
21.23
 20
0.1163761495589632
 30
0.0
 10
21.23
 20
0.08275214955896
 30
0.0
  0
SPLINE
  5
77
330
1F
100
AcDbEntity
  8
DEFAULT
100
AcDbSpline
210
0.0
220
0.0
230
1.0
 70
    24
 71
     2
 72
     6
 73
     3
 74
     0
 42
0.0000000001
 43
0.0000000001
 40
0.0
 40
0.0
 40
0.0
 40
1.0
 40
1.0
 40
1.0
 10
21.2175
 20
12.45000014955896
 30
0.0
 10
21.2175
 20
12.82750014955897
 30
0.0
 10
21.2175
 20
13.20500014955897
 30
0.0
  0
SPLINE
  5
78
330
1F
100
AcDbEntity
  8
DEFAULT
100
AcDbSpline
210
0.0
220
0.0
230
1.0
 70
    24
 71
     2
 72
     6
 73
     3
 74
     0
 42
0.0000000001
 43
0.0000000001
 40
0.0
 40
0.0
 40
0.0
 40
1.0
 40
1.0
 40
1.0
 10
21.2175
 20
0.1500001495589665
 30
0.0
 10
21.2175
 20
6.050000149558965
 30
0.0
 10
21.2175
 20
11.95000014955896
 30
0.0
  0
SPLINE
  5
79
330
1F
100
AcDbEntity
  8
DEFAULT
100
AcDbSpline
210
0.0
220
0.0
230
1.0
 70
     8
 71
     2
 72
    34
 73
    31
 74
     0
 42
0.0000000001
 43
0.0000000001
 40
0.0
 40
0.0
 40
0.0
 40
1.0
 40
1.0
 40
2.0
 40
2.0
 40
3.0
 40
3.0
 40
4.0
 40
4.0
 40
5.0
 40
5.0
 40
6.0
 40
6.0
 40
7.0
 40
7.0
 40
8.0
 40
8.0
 40
9.0
 40
9.0
 40
10.0
 40
10.0
 40
11.0
 40
11.0
 40
12.0
 40
12.0
 40
13.0
 40
13.0
 40
14.0
 40
14.0
 40
15.0
 40
15.0
 40
15.0
 10
21.295965
 20
12.20000014955896
 30
0.0
 10
21.295374
 20
12.21338364955897
 30
0.0
 10
21.294783
 20
12.22676714955897
 30
0.0
 10
21.2933925
 20
12.23967914955897
 30
0.0
 10
21.292002
 20
12.25259114955897
 30
0.0
 10
21.289852
 20
12.26503064955897
 30
0.0
 10
21.287702
 20
12.27747014955897
 30
0.0
 10
21.28479
 20
12.28954164955897
 30
0.0
 10
21.281878
 20
12.30161314955896
 30
0.0
 10
21.278369
 20
12.31321264955897
 30
0.0
 10
21.27486
 20
12.32481214955897
 30
0.0
 10
21.2710545
 20
12.33562614955897
 30
0.0
 10
21.267249
 20
12.34644014955896
 30
0.0
 10
21.263266
 20
12.35644814955896
 30
0.0
 10
21.259283
 20
12.36645614955896
 30
0.0
 10
21.2552275
 20
12.37567864955896
 30
0.0
 10
21.251172
 20
12.38490114955896
 30
0.0
 10
21.2472825
 20
12.39309114955897
 30
0.0
 10
21.243393
 20
12.40128114955897
 30
0.0
 10
21.239767
 20
12.40845314955897
 30
0.0
 10
21.236141
 20
12.41562514955897
 30
0.0
 10
21.2329215
 20
12.42176464955897
 30
0.0
 10
21.229702
 20
12.42790414955897
 30
0.0
 10
21.227101
 20
12.43272114955897
 30
0.0
 10
21.2245
 20
12.43753814955896
 30
0.0
 10
21.222594
 20
12.44093714955897
 30
0.0
 10
21.220688
 20
12.44433614955897
 30
0.0
 10
21.2195025
 20
12.44641314955897
 30
0.0
 10
21.218317
 20
12.44849014955897
 30
0.0
 10
21.2179085
 20
12.44924514955897
 30
0.0
 10
21.2175
 20
12.45000014955896
 30
0.0
  0
SPLINE
  5
7A
330
1F
100
AcDbEntity
  8
DEFAULT
100
AcDbSpline
210
0.0
220
0.0
230
1.0
 70
     8
 71
     2
 72
    34
 73
    31
 74
     0
 42
0.0000000001
 43
0.0000000001
 40
0.0
 40
0.0
 40
0.0
 40
1.0
 40
1.0
 40
2.0
 40
2.0
 40
3.0
 40
3.0
 40
4.0
 40
4.0
 40
5.0
 40
5.0
 40
6.0
 40
6.0
 40
7.0
 40
7.0
 40
8.0
 40
8.0
 40
9.0
 40
9.0
 40
10.0
 40
10.0
 40
11.0
 40
11.0
 40
12.0
 40
12.0
 40
13.0
 40
13.0
 40
14.0
 40
14.0
 40
15.0
 40
15.0
 40
15.0
 10
21.2175
 20
11.95000014955896
 30
0.0
 10
21.217879
 20
11.95061614955896
 30
0.0
 10
21.218258
 20
11.95123214955897
 30
0.0
 10
21.2193765
 20
11.95320564955896
 30
0.0
 10
21.220495
 20
11.95517914955896
 30
0.0
 10
21.222326
 20
11.95850964955897
 30
0.0
 10
21.224157
 20
11.96184014955897
 30
0.0
 10
21.226713
 20
11.96659264955897
 30
0.0
 10
21.229269
 20
11.97134514955896
 30
0.0
 10
21.232498
 20
11.97745414955896
 30
0.0
 10
21.235727
 20
11.98356314955896
 30
0.0
 10
21.2394105
 20
11.99083514955896
 30
0.0
 10
21.243094
 20
11.99810714955897
 30
0.0
 10
21.2471105
 20
12.00662364955896
 30
0.0
 10
21.251127
 20
12.01514014955896
 30
0.0
 10
21.255373
 20
12.02481964955897
 30
0.0
 10
21.259619
 20
12.03449914955897
 30
0.0
 10
21.26376
 20
12.04489664955897
 30
0.0
 10
21.267901
 20
12.05529414955896
 30
0.0
 10
21.2717585
 20
12.06641964955896
 30
0.0
 10
21.275616
 20
12.07754514955896
 30
0.0
 10
21.2791015
 20
12.08938914955896
 30
0.0
 10
21.282587
 20
12.10123314955897
 30
0.0
 10
21.285444
 20
12.11332514955896
 30
0.0
 10
21.288301
 20
12.12541714955896
 30
0.0
 10
21.290381
 20
12.13759964955896
 30
0.0
 10
21.292461
 20
12.14978214955896
 30
0.0
 10
21.2937515
 20
12.16221264955896
 30
0.0
 10
21.295042
 20
12.17464314955896
 30
0.0
 10
21.2955035
 20
12.18732164955896
 30
0.0
 10
21.295965
 20
12.20000014955896
 30
0.0
  0
SPLINE
  5
7B
330
1F
100
AcDbEntity
  8
DEFAULT
100
AcDbSpline
210
0.0
220
0.0
230
1.0
 70
    24
 71
     2
 72
     6
 73
     3
 74
     0
 42
0.0000000001
 43
0.0000000001
 40
0.0
 40
0.0
 40
0.0
 40
1.0
 40
1.0
 40
1.0
 10
-21.2175
 20
12.45000014955896
 30
0.0
 10
-21.2175
 20
12.82750014955897
 30
0.0
 10
-21.2175
 20
13.20500014955897
 30
0.0
  0
SPLINE
  5
7C
330
1F
100
AcDbEntity
  8
DEFAULT
100
AcDbSpline
210
0.0
220
0.0
230
1.0
 70
    24
 71
     2
 72
     6
 73
     3
 74
     0
 42
0.0000000001
 43
0.0000000001
 40
0.0
 40
0.0
 40
0.0
 40
1.0
 40
1.0
 40
1.0
 10
-22.0925
 20
0.1500001495589665
 30
0.0
 10
-21.655
 20
0.1500001495589665
 30
0.0
 10
-21.2175
 20
0.1500001495589665
 30
0.0
  0
ARC
  5
7D
330
1F
100
AcDbEntity
  8
DEFAULT
100
AcDbCircle
 10
-21.655
 20
1.535208149558972
 30
0.0
 40
1.535208149559049
100
AcDbArc
 50
254.7861901482699
 51
285.2138458649216
  0
ARC
  5
7E
330
1F
100
AcDbEntity
  8
DEFAULT
100
AcDbCircle
 10
-21.26
 20
0.08275214955896
 30
0.0
 40
0.029999756939697
100
AcDbArc
 50
285.2147491615133
 51
359.9999999999999
  0
SPLINE
  5
7F
330
1F
100
AcDbEntity
  8
DEFAULT
100
AcDbSpline
210
0.0
220
0.0
230
1.0
 70
    24
 71
     2
 72
     6
 73
     3
 74
     0
 42
0.0000000001
 43
0.0000000001
 40
0.0
 40
0.0
 40
0.0
 40
1.0
 40
1.0
 40
1.0
 10
21.2175
 20
4.650000149558966
 30
0.0
 10
0.0
 20
4.650000149558966
 30
0.0
 10
-21.2175
 20
4.650000149558966
 30
0.0
  0
SPLINE
  5
80
330
1F
100
AcDbEntity
  8
DEFAULT
100
AcDbSpline
210
0.0
220
0.0
230
1.0
 70
    24
 71
     2
 72
     6
 73
     3
 74
     0
 42
0.0000000001
 43
0.0000000001
 40
0.0
 40
0.0
 40
0.0
 40
1.0
 40
1.0
 40
1.0
 10
-21.2175
 20
12.45000014955896
 30
0.0
 10
0.0
 20
12.45000014955896
 30
0.0
 10
21.2175
 20
12.45000014955896
 30
0.0
  0
SPLINE
  5
81
330
1F
100
AcDbEntity
  8
DEFAULT
100
AcDbSpline
210
0.0
220
0.0
230
1.0
 70
    24
 71
     2
 72
     6
 73
     3
 74
     0
 42
0.0000000001
 43
0.0000000001
 40
0.0
 40
0.0
 40
0.0
 40
1.0
 40
1.0
 40
1.0
 10
-21.23
 20
0.1500001495589665
 30
0.0
 10
-21.23
 20
0.1163761495589632
 30
0.0
 10
-21.23
 20
0.08275214955896
 30
0.0
  0
ARC
  5
82
330
1F
100
AcDbEntity
  8
DEFAULT
100
AcDbCircle
 10
21.655
 20
1.535208149558972
 30
0.0
 40
1.535208149559048
100
AcDbArc
 50
254.78619014827
 51
285.2138458649216
  0
SPLINE
  5
83
330
1F
100
AcDbEntity
  8
DEFAULT
100
AcDbSpline
210
0.0
220
0.0
230
1.0
 70
    24
 71
     2
 72
     6
 73
     3
 74
     0
 42
0.0000000001
 43
0.0000000001
 40
0.0
 40
0.0
 40
0.0
 40
1.0
 40
1.0
 40
1.0
 10
-21.2175
 20
11.95000014955896
 30
0.0
 10
0.0
 20
11.95000014955896
 30
0.0
 10
21.2175
 20
11.95000014955896
 30
0.0
  0
SPLINE
  5
84
330
1F
100
AcDbEntity
  8
DEFAULT
100
AcDbSpline
210
0.0
220
0.0
230
1.0
 70
    24
 71
     2
 72
     6
 73
     3
 74
     0
 42
0.0000000001
 43
0.0000000001
 40
0.0
 40
0.0
 40
0.0
 40
1.0
 40
1.0
 40
1.0
 10
23.625
 20
13.30350014955896
 30
0.0
 10
0.0000000000000018
 20
13.30350014955896
 30
0.0
 10
-23.625
 20
13.30350014955896
 30
0.0
  0
SPLINE
  5
85
330
1F
100
AcDbEntity
  8
DEFAULT
100
AcDbSpline
210
0.0
220
0.0
230
1.0
 70
    24
 71
     2
 72
     6
 73
     3
 74
     0
 42
0.0000000001
 43
0.0000000001
 40
0.0
 40
0.0
 40
0.0
 40
1.0
 40
1.0
 40
1.0
 10
-22.0925
 20
13.20500014955897
 30
0.0
 10
-21.655
 20
13.20500014955897
 30
0.0
 10
-21.2175
 20
13.20500014955897
 30
0.0
  0
SPLINE
  5
86
330
1F
100
AcDbEntity
  8
DEFAULT
100
AcDbSpline
210
0.0
220
0.0
230
1.0
 70
    24
 71
     2
 72
     6
 73
     3
 74
     0
 42
0.0000000001
 43
0.0000000001
 40
0.0
 40
0.0
 40
0.0
 40
1.0
 40
1.0
 40
1.0
 10
-21.218397
 20
11.95185614955897
 30
0.0
 10
-21.2179485
 20
11.95092814955897
 30
0.0
 10
-21.2175
 20
11.95000014955896
 30
0.0
  0
SPLINE
  5
87
330
1F
100
AcDbEntity
  8
DEFAULT
100
AcDbSpline
210
0.0
220
0.0
230
1.0
 70
    24
 71
     2
 72
     6
 73
     3
 74
     0
 42
0.0000000001
 43
0.0000000001
 40
0.0
 40
0.0
 40
0.0
 40
1.0
 40
1.0
 40
1.0
 10
7.710787
 20
4.650000149558966
 30
0.0
 10
7.710787
 20
4.900000149558966
 30
0.0
 10
7.710787
 20
5.150000149558966
 30
0.0
  0
SPLINE
  5
88
330
1F
100
AcDbEntity
  8
DEFAULT
100
AcDbSpline
210
0.0
220
0.0
230
1.0
 70
     8
 71
     2
 72
    34
 73
    31
 74
     0
 42
0.0000000001
 43
0.0000000001
 40
0.0
 40
0.0
 40
0.0
 40
1.0
 40
1.0
 40
2.0
 40
2.0
 40
3.0
 40
3.0
 40
4.0
 40
4.0
 40
5.0
 40
5.0
 40
6.0
 40
6.0
 40
7.0
 40
7.0
 40
8.0
 40
8.0
 40
9.0
 40
9.0
 40
10.0
 40
10.0
 40
11.0
 40
11.0
 40
12.0
 40
12.0
 40
13.0
 40
13.0
 40
14.0
 40
14.0
 40
15.0
 40
15.0
 40
15.0
 10
-21.2175
 20
12.45000014955896
 30
0.0
 10
-21.2178875
 20
12.44933164955897
 30
0.0
 10
-21.218275
 20
12.44866314955897
 30
0.0
 10
-21.219413
 20
12.44666164955897
 30
0.0
 10
-21.220551
 20
12.44466014955896
 30
0.0
 10
-21.2224005
 20
12.44132514955896
 30
0.0
 10
-21.22425
 20
12.43799014955896
 30
0.0
 10
-21.2268005
 20
12.43328214955897
 30
0.0
 10
-21.229351
 20
12.42857414955897
 30
0.0
 10
-21.232545
 20
12.42253314955897
 30
0.0
 10
-21.235739
 20
12.41649214955897
 30
0.0
 10
-21.239395
 20
12.40923464955896
 30
0.0
 10
-21.243051
 20
12.40197714955896
 30
0.0
 10
-21.247093
 20
12.39336664955897
 30
0.0
 10
-21.251135
 20
12.38475614955897
 30
0.0
 10
-21.2554435
 20
12.37492914955897
 30
0.0
 10
-21.259752
 20
12.36510214955897
 30
0.0
 10
-21.263945
 20
12.35458514955897
 30
0.0
 10
-21.268138
 20
12.34406814955897
 30
0.0
 10
-21.272004
 20
12.33286964955897
 30
0.0
 10
-21.27587
 20
12.32167114955897
 30
0.0
 10
-21.279338
 20
12.30978214955897
 30
0.0
 10
-21.282806
 20
12.29789314955896
 30
0.0
 10
-21.2856385
 20
12.28581514955897
 30
0.0
 10
-21.288471
 20
12.27373714955897
 30
0.0
 10
-21.2905275
 20
12.26163714955897
 30
0.0
 10
-21.292584
 20
12.24953714955896
 30
0.0
 10
-21.2938455
 20
12.23724714955896
 30
0.0
 10
-21.295107
 20
12.22495714955896
 30
0.0
 10
-21.2955355
 20
12.21247864955896
 30
0.0
 10
-21.295964
 20
12.20000014955896
 30
0.0
  0
SPLINE
  5
89
330
1F
100
AcDbEntity
  8
DEFAULT
100
AcDbSpline
210
0.0
220
0.0
230
1.0
 70
    24
 71
     2
 72
     6
 73
     3
 74
     0
 42
0.0000000001
 43
0.0000000001
 40
0.0
 40
0.0
 40
0.0
 40
1.0
 40
1.0
 40
1.0
 10
-22.08
 20
0.08275214955896
 30
0.0
 10
-22.08
 20
0.1163761495589632
 30
0.0
 10
-22.08
 20
0.1500001495589665
 30
0.0
  0
SPLINE
  5
8A
330
1F
100
AcDbEntity
  8
DEFAULT
100
AcDbSpline
210
0.0
220
0.0
230
1.0
 70
    24
 71
     2
 72
     6
 73
     3
 74
     0
 42
0.0000000001
 43
0.0000000001
 40
0.0
 40
0.0
 40
0.0
 40
1.0
 40
1.0
 40
1.0
 10
-22.0925
 20
0.1500001495589665
 30
0.0
 10
-22.0925
 20
6.67750014955897
 30
0.0
 10
-22.0925
 20
13.20500014955897
 30
0.0
  0
SPLINE
  5
8B
330
1F
100
AcDbEntity
  8
DEFAULT
100
AcDbSpline
210
0.0
220
0.0
230
1.0
 70
    24
 71
     2
 72
     6
 73
     3
 74
     0
 42
0.0000000001
 43
0.0000000001
 40
0.0
 40
0.0
 40
0.0
 40
1.0
 40
1.0
 40
1.0
 10
21.2175
 20
13.20500014955897
 30
0.0
 10
21.655
 20
13.20500014955897
 30
0.0
 10
22.0925
 20
13.20500014955897
 30
0.0
  0
SPLINE
  5
8C
330
1F
100
AcDbEntity
  8
DEFAULT
100
AcDbSpline
210
0.0
220
0.0
230
1.0
 70
    24
 71
     2
 72
     6
 73
     3
 74
     0
 42
0.0000000001
 43
0.0000000001
 40
0.0
 40
0.0
 40
0.0
 40
1.0
 40
1.0
 40
1.0
 10
-21.40825
 20
13.30350014955896
 30
0.0
 10
-21.40825
 20
13.25425014955897
 30
0.0
 10
-21.40825
 20
13.20500014955897
 30
0.0
  0
SPLINE
  5
8D
330
1F
100
AcDbEntity
  8
DEFAULT
100
AcDbSpline
210
0.0
220
0.0
230
1.0
 70
    24
 71
     2
 72
     6
 73
     3
 74
     0
 42
0.0000000001
 43
0.0000000001
 40
0.0
 40
0.0
 40
0.0
 40
1.0
 40
1.0
 40
1.0
 10
-22.08
 20
0.1500001495589665
 30
0.0
 10
-22.08
 20
0.1163761495589632
 30
0.0
 10
-22.08
 20
0.08275214955896
 30
0.0
  0
ARC
  5
8E
330
1F
100
AcDbEntity
  8
DEFAULT
100
AcDbCircle
 10
-22.05
 20
0.08275214955896
 30
0.0
 40
0.0299996257286635
100
AcDbArc
 50
180.0
 51
254.7870938012562
  0
SPLINE
  5
8F
330
1F
100
AcDbEntity
  8
DEFAULT
100
AcDbSpline
210
0.0
220
0.0
230
1.0
 70
     8
 71
     2
 72
    30
 73
    27
 74
     0
 42
0.0000000001
 43
0.0000000001
 40
0.0
 40
0.0
 40
0.0
 40
1.0
 40
1.0
 40
2.0
 40
2.0
 40
3.0
 40
3.0
 40
4.0
 40
4.0
 40
5.0
 40
5.0
 40
6.0
 40
6.0
 40
7.0
 40
7.0
 40
8.0
 40
8.0
 40
9.0
 40
9.0
 40
10.0
 40
10.0
 40
11.0
 40
11.0
 40
12.0
 40
12.0
 40
13.0
 40
13.0
 40
13.0
 10
-21.295964
 20
12.20000014955896
 30
0.0
 10
-21.2954035
 20
12.18683914955897
 30
0.0
 10
-21.294843
 20
12.17367814955897
 30
0.0
 10
-21.2934905
 20
12.16094614955897
 30
0.0
 10
-21.292138
 20
12.14821414955897
 30
0.0
 10
-21.2900325
 20
12.13591114955897
 30
0.0
 10
-21.287927
 20
12.12360814955897
 30
0.0
 10
-21.285065
 20
12.11162114955897
 30
0.0
 10
-21.282203
 20
12.09963414955897
 30
0.0
 10
-21.2787445
 20
12.08807614955897
 30
0.0
 10
-21.275286
 20
12.07651814955897
 30
0.0
 10
-21.2715265
 20
12.06572864955897
 30
0.0
 10
-21.267767
 20
12.05493914955897
 30
0.0
 10
-21.263823
 20
12.04495164955896
 30
0.0
 10
-21.259879
 20
12.03496414955896
 30
0.0
 10
-21.255852
 20
12.02574564955897
 30
0.0
 10
-21.251825
 20
12.01652714955897
 30
0.0
 10
-21.247946
 20
12.00831364955897
 30
0.0
 10
-21.244067
 20
12.00010014955896
 30
0.0
 10
-21.2404485
 20
11.99287364955896
 30
0.0
 10
-21.23683
 20
11.98564714955896
 30
0.0
 10
-21.233592
 20
11.97942664955896
 30
0.0
 10
-21.230354
 20
11.97320614955897
 30
0.0
 10
-21.2276745
 20
11.96828364955897
 30
0.0
 10
-21.224995
 20
11.96336114955897
 30
0.0
 10
-21.221696
 20
11.95760864955897
 30
0.0
 10
-21.218397
 20
11.95185614955897
 30
0.0
  0
ENDSEC
  0
SECTION
  2
OBJECTS
  0
DICTIONARY
  5
C
330
0
100
AcDbDictionary
281
     1
  3
ACAD_GROUP
350
D
  3
ACAD_LAYOUT
350
1A
  3
ACAD_MLEADERSTYLE
350
92
  3
ACAD_MLINESTYLE
350
17
  3
ACAD_PLOTSETTINGS
350
19
  3
ACAD_PLOTSTYLENAME
350
E
  3
ACAD_VISUALSTYLE
350
2A
  3
AcDbVariableDictionary
350
90
  0
DICTIONARY
  5
D
102
{ACAD_REACTORS
330
C
102
}
330
C
100
AcDbDictionary
281
     1
  0
DICTIONARY
  5
1A
102
{ACAD_REACTORS
330
C
102
}
330
C
100
AcDbDictionary
281
     1
  3
Layout1
350
1E
  3
Layout2
350
26
  3
Model
350
22
  0
DICTIONARY
  5
92
102
{ACAD_REACTORS
330
C
102
}
330
C
100
AcDbDictionary
281
     1
  0
DICTIONARY
  5
17
102
{ACAD_REACTORS
330
C
102
}
330
C
100
AcDbDictionary
281
     1
  3
Standard
350
18
  0
DICTIONARY
  5
19
102
{ACAD_REACTORS
330
C
102
}
330
C
100
AcDbDictionary
281
     1
  0
ACDBDICTIONARYWDFLT
  5
E
102
{ACAD_REACTORS
330
C
102
}
330
C
100
AcDbDictionary
281
     1
  3
Normal
350
F
100
AcDbDictionaryWithDefault
340
F
  0
DICTIONARY
  5
2A
102
{ACAD_REACTORS
330
C
102
}
330
C
100
AcDbDictionary
281
     1
  3
2dWireframe
350
2F
  3
3D Hidden
350
31
  3
3dWireframe
350
30
  3
Basic
350
32
  3
Brighten
350
36
  3
ColorChange
350
3A
  3
Conceptual
350
34
  3
Dim
350
35
  3
Facepattern
350
39
  3
Flat
350
2B
  3
FlatWithEdges
350
2C
  3
Gouraud
350
2D
  3
GouraudWithEdges
350
2E
  3
Linepattern
350
38
  3
Realistic
350
33
  3
Thicken
350
37
  0
DICTIONARY
  5
90
102
{ACAD_REACTORS
330
C
102
}
330
C
100
AcDbDictionary
281
     1
  0
LAYOUT
  5
1E
102
{ACAD_REACTORS
330
1A
102
}
330
1A
100
AcDbPlotSettings
  1

  2
none_device
  4

  6

 40
0.0
 41
0.0
 42
0.0
 43
0.0
 44
0.0
 45
0.0
 46
0.0
 47
0.0
 48
0.0
 49
0.0
140
0.0
141
0.0
142
1.0
143
1.0
 70
   688
 72
     0
 73
     0
 74
     5
  7

 75
    16
147
1.0
148
0.0
149
0.0
100
AcDbLayout
  1
Layout1
 70
     1
 71
     1
 10
0.0
 20
0.0
 11
12.0
 21
9.0
 12
0.0
 22
0.0
 32
0.0
 14
1.000000000000000E+20
 24
1.000000000000000E+20
 34
1.000000000000000E+20
 15
-1.000000000000000E+20
 25
-1.000000000000000E+20
 35
-1.000000000000000E+20
146
0.0
 13
0.0
 23
0.0
 33
0.0
 16
1.0
 26
0.0
 36
0.0
 17
0.0
 27
1.0
 37
0.0
 76
     0
330
1B
  0
LAYOUT
  5
26
102
{ACAD_REACTORS
330
1A
102
}
330
1A
100
AcDbPlotSettings
  1

  2
none_device
  4

  6

 40
0.0
 41
0.0
 42
0.0
 43
0.0
 44
0.0
 45
0.0
 46
0.0
 47
0.0
 48
0.0
 49
0.0
140
0.0
141
0.0
142
1.0
143
1.0
 70
   688
 72
     0
 73
     0
 74
     5
  7

 75
    16
147
1.0
148
0.0
149
0.0
100
AcDbLayout
  1
Layout2
 70
     1
 71
     2
 10
0.0
 20
0.0
 11
0.0
 21
0.0
 12
0.0
 22
0.0
 32
0.0
 14
0.0
 24
0.0
 34
0.0
 15
0.0
 25
0.0
 35
0.0
146
0.0
 13
0.0
 23
0.0
 33
0.0
 16
1.0
 26
0.0
 36
0.0
 17
0.0
 27
1.0
 37
0.0
 76
     0
330
23
  0
LAYOUT
  5
22
102
{ACAD_REACTORS
330
1A
102
}
330
1A
100
AcDbPlotSettings
  1

  2
none_device
  4

  6

 40
0.0
 41
0.0
 42
0.0
 43
0.0
 44
0.0
 45
0.0
 46
0.0
 47
0.0
 48
0.0
 49
0.0
140
0.0
141
0.0
142
1.0
143
1.0
 70
  1712
 72
     0
 73
     0
 74
     0
  7

 75
     0
147
1.0
148
0.0
149
0.0
100
AcDbLayout
  1
Model
 70
     1
 71
     0
 10
0.0
 20
0.0
 11
12.0
 21
9.0
 12
0.0
 22
0.0
 32
0.0
 14
-23.625
 24
-0.0000000000000765
 34
0.0
 15
67.12500000000001
 25
57.24150014955896
 35
0.0
146
0.0
 13
0.0
 23
0.0
 33
0.0
 16
1.0
 26
0.0
 36
0.0
 17
0.0
 27
1.0
 37
0.0
 76
     0
330
1F
331
29
  0
MLINESTYLE
  5
18
102
{ACAD_REACTORS
330
17
102
}
330
17
100
AcDbMlineStyle
  2
Standard
 70
     0
  3

 62
   256
 51
90.0
 52
90.0
 71
     2
 49
0.5
 62
   256
  6
BYLAYER
 49
-0.5
 62
   256
  6
BYLAYER
  0
ACDBPLACEHOLDER
  5
F
102
{ACAD_REACTORS
330
E
102
}
330
E
  0
VISUALSTYLE
  5
2F
102
{ACAD_REACTORS
330
2A
102
}
330
2A
100
AcDbVisualStyle
  2
2dWireframe
 70
     4
 71
     0
 72
     2
 73
     0
 90
        0
 40
-0.6
 41
-30.0
 62
     5
 63
     7
 74
     1
 91
        4
 64
     7
 65
   257
 75
     1
175
     1
 42
1.0
 92
        0
 66
   257
 43
1.0
 76
     1
 77
     6
 78
     2
 67
     7
 79
     5
170
     0
171
     0
290
     0
174
     0
 93
        1
 44
0.0
173
     0
291
     0
 45
0.0
1001
ACAD
1000
AcDbSavedByObjectVersion
1070
     0
  0
VISUALSTYLE
  5
31
102
{ACAD_REACTORS
330
2A
102
}
330
2A
100
AcDbVisualStyle
  2
3D Hidden
 70
     6
 71
     1
 72
     2
 73
     2
 90
        0
 40
-0.6
 41
-30.0
 62
     5
 63
     7
 74
     2
 91
        2
 64
     7
 65
   257
 75
     2
175
     1
 42
40.0
 92
        0
 66
   257
 43
1.0
 76
     1
 77
     6
 78
     2
 67
     7
 79
     3
170
     0
171
     0
290
     0
174
     0
 93
        1
 44
0.0
173
     0
291
     0
 45
0.0
1001
ACAD
1000
AcDbSavedByObjectVersion
1070
     0
  0
VISUALSTYLE
  5
30
102
{ACAD_REACTORS
330
2A
102
}
330
2A
100
AcDbVisualStyle
  2
3dWireframe
 70
     5
 71
     0
 72
     2
 73
     0
 90
        0
 40
-0.6
 41
-30.0
 62
     5
 63
     7
 74
     1
 91
        4
 64
     7
 65
   257
 75
     1
175
     1
 42
1.0
 92
        0
 66
   257
 43
1.0
 76
     1
 77
     6
 78
     2
 67
     7
 79
     5
170
     0
171
     0
290
     0
174
     0
 93
        1
 44
0.0
173
     0
291
     0
 45
0.0
1001
ACAD
1000
AcDbSavedByObjectVersion
1070
     0
  0
VISUALSTYLE
  5
32
102
{ACAD_REACTORS
330
2A
102
}
330
2A
100
AcDbVisualStyle
  2
Basic
 70
     7
 71
     1
 72
     0
 73
     1
 90
        0
 40
-0.6
 41
-30.0
 62
     5
 63
     7
 74
     0
 91
        4
 64
     7
 65
   257
 75
     1
175
     1
 42
1.0
 92
        8
 66
     7
 43
1.0
 76
     1
 77
     6
 78
     2
 67
     7
 79
     5
170
     0
171
     0
290
     0
174
     0
 93
        1
 44
0.0
173
     0
291
     1
 45
0.0
1001
ACAD
1000
AcDbSavedByObjectVersion
1070
     0
  0
VISUALSTYLE
  5
36
102
{ACAD_REACTORS
330
2A
102
}
330
2A
100
AcDbVisualStyle
  2
Brighten
 70
    12
 71
     2
 72
     2
 73
     0
 90
        0
 40
-0.6
 41
-30.0
 62
     5
 63
     7
 74
     1
 91
        4
 64
     7
 65
   257
 75
     1
175
     1
 42
1.0
 92
        8
 66
     7
 43
1.0
 76
     1
 77
     6
 78
     2
 67
     7
 79
     5
170
     0
171
     0
290
     0
174
     0
 93
        1
 44
50.0
173
     0
291
     1
 45
0.0
1001
ACAD
1000
AcDbSavedByObjectVersion
1070
     0
  0
VISUALSTYLE
  5
3A
102
{ACAD_REACTORS
330
2A
102
}
330
2A
100
AcDbVisualStyle
  2
ColorChange
 70
    16
 71
     2
 72
     2
 73
     3
 90
        0
 40
-0.6
 41
-30.0
 62
     5
 63
     8
 74
     1
 91
        4
 64
     7
 65
   257
 75
     1
175
     1
 42
1.0
 92
        8
 66
     8
 43
1.0
 76
     1
 77
     6
 78
     2
 67
     7
 79
     5
170
     0
171
     0
290
     0
174
     0
 93
        1
 44
0.0
173
     0
291
     1
 45
0.0
1001
ACAD
1000
AcDbSavedByObjectVersion
1070
     0
  0
VISUALSTYLE
  5
34
102
{ACAD_REACTORS
330
2A
102
}
330
2A
100
AcDbVisualStyle
  2
Conceptual
 70
     9
 71
     3
 72
     2
 73
     0
 90
        0
 40
-0.6
 41
-30.0
 62
     5
 63
     7
 74
     2
 91
        2
 64
     7
 65
   257
 75
     1
175
     1
 42
40.0
 92
        8
 66
     7
 43
1.0
 76
     1
 77
     6
 78
     2
 67
     7
 79
     3
170
     0
171
     0
290
     0
174
     0
 93
        1
 44
0.0
173
     0
291
     0
 45
0.0
1001
ACAD
1000
AcDbSavedByObjectVersion
1070
     0
  0
VISUALSTYLE
  5
35
102
{ACAD_REACTORS
330
2A
102
}
330
2A
100
AcDbVisualStyle
  2
Dim
 70
    11
 71
     2
 72
     2
 73
     0
 90
        0
 40
-0.6
 41
-30.0
 62
     5
 63
     7
 74
     1
 91
        4
 64
     7
 65
   257
 75
     1
175
     1
 42
1.0
 92
        8
 66
     7
 43
1.0
 76
     1
 77
     6
 78
     2
 67
     7
 79
     5
170
     0
171
     0
290
     0
174
     0
 93
        1
 44
-50.0
173
     0
291
     1
 45
0.0
1001
ACAD
1000
AcDbSavedByObjectVersion
1070
     0
  0
VISUALSTYLE
  5
39
102
{ACAD_REACTORS
330
2A
102
}
330
2A
100
AcDbVisualStyle
  2
Facepattern
 70
    15
 71
     2
 72
     2
 73
     0
 90
        0
 40
-0.6
 41
-30.0
 62
     5
 63
     7
 74
     1
 91
        4
 64
     7
 65
   257
 75
     1
175
     1
 42
1.0
 92
        8
 66
     7
 43
1.0
 76
     1
 77
     6
 78
     2
 67
     7
 79
     5
170
     0
171
     0
290
     0
174
     0
 93
        1
 44
0.0
173
     0
291
     1
 45
0.0
1001
ACAD
1000
AcDbSavedByObjectVersion
1070
     0
  0
VISUALSTYLE
  5
2B
102
{ACAD_REACTORS
330
2A
102
}
330
2A
100
AcDbVisualStyle
  2
Flat
 70
     0
 71
     2
 72
     1
 73
     1
 90
        2
 40
-0.6
 41
30.0
 62
     5
 63
     7
 74
     0
 91
        4
 64
     7
 65
   257
 75
     1
175
     1
 42
1.0
 92
        8
 66
     7
 43
1.0
 76
     1
 77
     6
 78
     2
 67
     7
 79
     5
170
     0
171
     0
290
     0
174
     0
 93
       13
 44
0.0
173
     0
291
     1
 45
0.0
1001
ACAD
1000
AcDbSavedByObjectVersion
1070
     0
  0
VISUALSTYLE
  5
2C
102
{ACAD_REACTORS
330
2A
102
}
330
2A
100
AcDbVisualStyle
  2
FlatWithEdges
 70
     1
 71
     2
 72
     1
 73
     1
 90
        2
 40
-0.6
 41
30.0
 62
     5
 63
     7
 74
     1
 91
        4
 64
     7
 65
   257
 75
     1
175
     1
 42
1.0
 92
        0
 66
   257
 43
1.0
 76
     1
 77
     6
 78
     2
 67
     7
 79
     5
170
     0
171
     0
290
     0
174
     0
 93
       13
 44
0.0
173
     0
291
     1
 45
0.0
1001
ACAD
1000
AcDbSavedByObjectVersion
1070
     0
  0
VISUALSTYLE
  5
2D
102
{ACAD_REACTORS
330
2A
102
}
330
2A
100
AcDbVisualStyle
  2
Gouraud
 70
     2
 71
     2
 72
     2
 73
     1
 90
        2
 40
-0.6
 41
30.0
 62
     5
 63
     7
 74
     0
 91
        4
 64
     7
 65
   257
 75
     1
175
     1
 42
1.0
 92
        0
 66
     7
 43
1.0
 76
     1
 77
     6
 78
     2
 67
     7
 79
     5
170
     0
171
     0
290
     0
174
     0
 93
       13
 44
0.0
173
     0
291
     1
 45
0.0
1001
ACAD
1000
AcDbSavedByObjectVersion
1070
     0
  0
VISUALSTYLE
  5
2E
102
{ACAD_REACTORS
330
2A
102
}
330
2A
100
AcDbVisualStyle
  2
GouraudWithEdges
 70
     3
 71
     2
 72
     2
 73
     1
 90
        2
 40
-0.6
 41
30.0
 62
     5
 63
     7
 74
     1
 91
        4
 64
     7
 65
   257
 75
     1
175
     1
 42
1.0
 92
        0
 66
   257
 43
1.0
 76
     1
 77
     6
 78
     2
 67
     7
 79
     5
170
     0
171
     0
290
     0
174
     0
 93
       13
 44
0.0
173
     0
291
     1
 45
0.0
1001
ACAD
1000
AcDbSavedByObjectVersion
1070
     0
  0
VISUALSTYLE
  5
38
102
{ACAD_REACTORS
330
2A
102
}
330
2A
100
AcDbVisualStyle
  2
Linepattern
 70
    14
 71
     2
 72
     2
 73
     0
 90
        0
 40
-0.6
 41
-30.0
 62
     5
 63
     7
 74
     1
 91
        4
 64
     7
 65
   257
 75
     7
175
     7
 42
1.0
 92
        8
 66
     7
 43
1.0
 76
     1
 77
     6
 78
     2
 67
     7
 79
     5
170
     0
171
     0
290
     0
174
     0
 93
        1
 44
0.0
173
     0
291
     1
 45
0.0
1001
ACAD
1000
AcDbSavedByObjectVersion
1070
     0
  0
VISUALSTYLE
  5
33
102
{ACAD_REACTORS
330
2A
102
}
330
2A
100
AcDbVisualStyle
  2
Realistic
 70
     8
 71
     2
 72
     2
 73
     0
 90
        0
 40
-0.6
 41
-30.0
 62
     5
 63
     7
 74
     1
 91
        0
 64
     7
 65
   257
 75
     1
175
     1
 42
1.0
 92
        8
 66
     8
 43
1.0
 76
     1
 77
     6
 78
     2
 67
     7
 79
     5
170
     0
171
     0
290
     0
174
     0
 93
       13
 44
0.0
173
     0
291
     0
 45
0.0
1001
ACAD
1000
AcDbSavedByObjectVersion
1070
     0
  0
VISUALSTYLE
  5
37
102
{ACAD_REACTORS
330
2A
102
}
330
2A
100
AcDbVisualStyle
  2
Thicken
 70
    13
 71
     2
 72
     2
 73
     0
 90
        0
 40
-0.6
 41
-30.0
 62
     5
 63
     7
 74
     1
 91
        4
 64
     7
 65
   257
 75
     1
175
     1
 42
1.0
 92
       12
 66
     7
 43
1.0
 76
     1
 77
     6
 78
     2
 67
     7
 79
     5
170
     0
171
     0
290
     0
174
     0
 93
        1
 44
0.0
173
     0
291
     1
 45
0.0
1001
ACAD
1000
AcDbSavedByObjectVersion
1070
     0
  0
ENDSEC
  0
EOF
