  0
SECTION
  2
HEADER
  9
$ACADVER
  1
AC1014
  9
$ACADMAINTVER
 70
     9
  9
$DWGCODEPAGE
  3
ANSI_1252
  9
$INSBASE
 10
0.0
 20
0.0
 30
0.0
  9
$EXTMIN
 10
1.000000000000000E+20
 20
1.000000000000000E+20
 30
1.000000000000000E+20
  9
$EXTMAX
 10
-1.000000000000000E+20
 20
-1.000000000000000E+20
 30
-1.000000000000000E+20
  9
$LIMMIN
 10
0.0
 20
0.0
  9
$LIMMAX
 10
12.0
 20
9.0
  9
$ORTHOMODE
 70
     0
  9
$REGENMODE
 70
     1
  9
$FILLMODE
 70
     1
  9
$QTEXTMODE
 70
     0
  9
$MIRRTEXT
 70
     1
  9
$DRAGMODE
 70
     2
  9
$LTSCALE
 40
1.0
  9
$OSMODE
 70
    37
  9
$ATTMODE
 70
     1
  9
$TEXTSIZE
 40
0.2
  9
$TRACEWID
 40
0.05
  9
$TEXTSTYLE
  7
STANDARD
  9
$CLAYER
  8
DEFAULT
  9
$CELTYPE
  6
BYLAYER
  9
$CECOLOR
 62
   256
  9
$CELTSCALE
 40
1.0
  9
$DELOBJ
 70
     1
  9
$DISPSILH
 70
     0
  9
$DIMSCALE
 40
1.0
  9
$DIMASZ
 40
0.18
  9
$DIMEXO
 40
0.0625
  9
$DIMDLI
 40
0.38
  9
$DIMRND
 40
0.0
  9
$DIMDLE
 40
0.0
  9
$DIMEXE
 40
0.18
  9
$DIMTP
 40
0.0
  9
$DIMTM
 40
0.0
  9
$DIMTXT
 40
0.18
  9
$DIMCEN
 40
0.09
  9
$DIMTSZ
 40
0.0
  9
$DIMTOL
 70
     0
  9
$DIMLIM
 70
     0
  9
$DIMTIH
 70
     1
  9
$DIMTOH
 70
     1
  9
$DIMSE1
 70
     0
  9
$DIMSE2
 70
     0
  9
$DIMTAD
 70
     0
  9
$DIMZIN
 70
     0
  9
$DIMBLK
  1

  9
$DIMASO
 70
     1
  9
$DIMSHO
 70
     1
  9
$DIMPOST
  1

  9
$DIMAPOST
  1

  9
$DIMALT
 70
     0
  9
$DIMALTD
 70
     2
  9
$DIMALTF
 40
25.4
  9
$DIMLFAC
 40
1.0
  9
$DIMTOFL
 70
     0
  9
$DIMTVP
 40
0.0
  9
$DIMTIX
 70
     0
  9
$DIMSOXD
 70
     0
  9
$DIMSAH
 70
     0
  9
$DIMBLK1
  1

  9
$DIMBLK2
  1

  9
$DIMSTYLE
  2
STANDARD
  9
$DIMCLRD
 70
     0
  9
$DIMCLRE
 70
     0
  9
$DIMCLRT
 70
     0
  9
$DIMTFAC
 40
1.0
  9
$DIMGAP
 40
0.09
  9
$DIMJUST
 70
     0
  9
$DIMSD1
 70
     0
  9
$DIMSD2
 70
     0
  9
$DIMTOLJ
 70
     1
  9
$DIMTZIN
 70
     0
  9
$DIMALTZ
 70
     0
  9
$DIMALTTZ
 70
     0
  9
$DIMFIT
 70
     3
  9
$DIMUPT
 70
     0
  9
$DIMUNIT
 70
     2
  9
$DIMDEC
 70
     4
  9
$DIMTDEC
 70
     4
  9
$DIMALTU
 70
     2
  9
$DIMALTTD
 70
     2
  9
$DIMTXSTY
  7
STANDARD
  9
$DIMAUNIT
 70
     0
  9
$LUNITS
 70
     2
  9
$LUPREC
 70
     0
  9
$SKETCHINC
 40
0.1
  9
$FILLETRAD
 40
0.5
  9
$AUNITS
 70
     0
  9
$AUPREC
 70
     0
  9
$MENU
  1
.
  9
$ELEVATION
 40
0.0
  9
$PELEVATION
 40
0.0
  9
$THICKNESS
 40
0.0
  9
$LIMCHECK
 70
     0
  9
$CHAMFERA
 40
0.5
  9
$CHAMFERB
 40
0.5
  9
$CHAMFERC
 40
1.0
  9
$CHAMFERD
 40
0.0
  9
$SKPOLY
 70
     0
  9
$TDCREATE
 40
2453768.452553484
  9
$TDUPDATE
 40
2453768.452553495
  9
$TDINDWG
 40
0.0000000116
  9
$TDUSRTIMER
 40
0.0000000116
  9
$USRTIMER
 70
     1
  9
$ANGBASE
 50
0.0
  9
$ANGDIR
 70
     0
  9
$PDMODE
 70
     0
  9
$PDSIZE
 40
0.0
  9
$PLINEWID
 40
0.0
  9
$COORDS
 70
     1
  9
$SPLFRAME
 70
     0
  9
$SPLINETYPE
 70
     6
  9
$SPLINESEGS
 70
     8
  9
$ATTDIA
 70
     0
  9
$ATTREQ
 70
     1
  9
$HANDLING
 70
     1
  9
$HANDSEED
  5
87
  9
$SURFTAB1
 70
     6
  9
$SURFTAB2
 70
     6
  9
$SURFTYPE
 70
     6
  9
$SURFU
 70
     6
  9
$SURFV
 70
     6
  9
$UCSNAME
  2

  9
$UCSORG
 10
0.0
 20
0.0
 30
0.0
  9
$UCSXDIR
 10
1.0
 20
0.0
 30
0.0
  9
$UCSYDIR
 10
0.0
 20
1.0
 30
0.0
  9
$PUCSNAME
  2

  9
$PUCSORG
 10
0.0
 20
0.0
 30
0.0
  9
$PUCSXDIR
 10
1.0
 20
0.0
 30
0.0
  9
$PUCSYDIR
 10
0.0
 20
1.0
 30
0.0
  9
$USERI1
 70
     0
  9
$USERI2
 70
     0
  9
$USERI3
 70
     0
  9
$USERI4
 70
     0
  9
$USERI5
 70
     0
  9
$USERR1
 40
0.0
  9
$USERR2
 40
0.0
  9
$USERR3
 40
0.0
  9
$USERR4
 40
0.0
  9
$USERR5
 40
0.0
  9
$WORLDVIEW
 70
     1
  9
$SHADEDGE
 70
     3
  9
$SHADEDIF
 70
    70
  9
$TILEMODE
 70
     1
  9
$MAXACTVP
 70
    64
  9
$PINSBASE
 10
0.0
 20
0.0
 30
0.0
  9
$PLIMCHECK
 70
     0
  9
$PEXTMIN
 10
1.000000000000000E+20
 20
1.000000000000000E+20
 30
1.000000000000000E+20
  9
$PEXTMAX
 10
-1.000000000000000E+20
 20
-1.000000000000000E+20
 30
-1.000000000000000E+20
  9
$PLIMMIN
 10
0.0
 20
0.0
  9
$PLIMMAX
 10
12.0
 20
9.0
  9
$UNITMODE
 70
     0
  9
$VISRETAIN
 70
     1
  9
$PLINEGEN
 70
     0
  9
$PSLTSCALE
 70
     1
  9
$TREEDEPTH
 70
  3020
  9
$PICKSTYLE
 70
     1
  9
$CMLSTYLE
  2
STANDARD
  9
$CMLJUST
 70
     0
  9
$CMLSCALE
 40
1.0
  9
$PROXYGRAPHICS
 70
     1
  9
$MEASUREMENT
 70
     0
  0
ENDSEC
  0
SECTION
  2
CLASSES
  0
CLASS
  1
ACDBDICTIONARYWDFLT
  2
AcDbDictionaryWithDefault
  3
ObjectDBX Classes
 90
        0
280
     0
281
     0
  0
CLASS
  1
XRECORD
  2
AcDbXrecord
  3
AutoCAD 2000
 90
        0
280
     0
281
     0
  0
CLASS
  1
LWPOLYLINE
  2
AcDbPolyline
  3
AutoCAD 2000
 90
        0
280
     0
281
     1
  0
CLASS
  1
HATCH
  2
AcDbHatch
  3
AutoCAD 2000
 90
        0
280
     0
281
     1
  0
CLASS
  1
ACDBPLACEHOLDER
  2
AcDbPlaceHolder
  3
ObjectDBX Classes
 90
        0
280
     0
281
     0
  0
CLASS
  1
LAYOUT
  2
AcDbLayout
  3
ObjectDBX Classes
 90
        0
280
     0
281
     0
  0
ENDSEC
  0
SECTION
  2
TABLES
  0
TABLE
  2
VPORT
  5
8
330
0
100
AcDbSymbolTable
 70
     2
  0
VPORT
  5
29
102
{ACAD_XDICTIONARY
360
85
102
}
330
8
100
AcDbSymbolTableRecord
100
AcDbViewportTableRecord
  2
*ACTIVE
 70
     0
 10
0.0
 20
0.0
 11
1.0
 21
1.0
 12
51.04377504760931
 22
34.45851599635881
 13
0.0
 23
0.0
 14
0.5
 24
0.5
 15
0.5
 25
0.5
 16
0.0
 26
0.0
 36
80.21230066091221
 17
0.0
 27
0.0
 37
0.0
 40
69.52695463896214
 41
1.972972972850329
 42
50.0
 43
0.0
 44
0.0
 50
0.0
 51
0.0
 71
     0
 72
   100
 73
     1
 74
     3
 75
     0
 76
     0
 77
     0
 78
     0
  0
ENDTAB
  0
TABLE
  2
LTYPE
  5
5
330
0
100
AcDbSymbolTable
 70
     1
  0
LTYPE
  5
14
330
5
100
AcDbSymbolTableRecord
100
AcDbLinetypeTableRecord
  2
BYBLOCK
 70
     0
  3

 72
    65
 73
     0
 40
0.0
  0
LTYPE
  5
15
330
5
100
AcDbSymbolTableRecord
100
AcDbLinetypeTableRecord
  2
BYLAYER
 70
     0
  3

 72
    65
 73
     0
 40
0.0
  0
LTYPE
  5
16
330
5
100
AcDbSymbolTableRecord
100
AcDbLinetypeTableRecord
  2
CONTINUOUS
 70
     0
  3
Solid line
 72
    65
 73
     0
 40
0.0
  0
ENDTAB
  0
TABLE
  2
LAYER
  5
2
330
0
100
AcDbSymbolTable
 70
     2
  0
LAYER
  5
10
330
2
100
AcDbSymbolTableRecord
100
AcDbLayerTableRecord
  2
0
 70
     0
 62
     7
  6
CONTINUOUS
  0
LAYER
  5
2A
330
2
100
AcDbSymbolTableRecord
100
AcDbLayerTableRecord
  2
DEFAULT
 70
     0
 62
     7
  6
CONTINUOUS
  0
ENDTAB
  0
TABLE
  2
STYLE
  5
3
330
0
100
AcDbSymbolTable
 70
     1
  0
STYLE
  5
11
330
3
100
AcDbSymbolTableRecord
100
AcDbTextStyleTableRecord
  2
STANDARD
 70
     0
 40
0.0
 41
1.0
 50
0.0
 71
     0
 42
0.2
  3
txt
  4

  0
ENDTAB
  0
TABLE
  2
VIEW
  5
6
330
0
100
AcDbSymbolTable
 70
     0
  0
ENDTAB
  0
TABLE
  2
UCS
  5
7
330
0
100
AcDbSymbolTable
 70
     0
  0
ENDTAB
  0
TABLE
  2
APPID
  5
9
330
0
100
AcDbSymbolTable
 70
     1
  0
APPID
  5
12
330
9
100
AcDbSymbolTableRecord
100
AcDbRegAppTableRecord
  2
ACAD
 70
     0
  0
ENDTAB
  0
TABLE
  2
DIMSTYLE
  5
A
330
0
100
AcDbSymbolTable
 70
     1
  0
DIMSTYLE
105
27
330
A
100
AcDbSymbolTableRecord
100
AcDbDimStyleTableRecord
  2
STANDARD
 70
     0
  3

  4

  5

  6

  7

 40
1.0
 41
0.18
 42
0.0625
 43
0.38
 44
0.18
 45
0.0
 46
0.0
 47
0.0
 48
0.0
140
0.18
141
0.09
142
0.0
143
25.4
144
1.0
145
0.0
146
1.0
147
0.09
 71
     0
 72
     0
 73
     1
 74
     1
 75
     0
 76
     0
 77
     0
 78
     0
170
     0
171
     2
172
     0
173
     0
174
     0
175
     0
176
     0
177
     0
178
     0
270
     2
271
     4
272
     4
273
     2
274
     2
340
11
275
     0
280
     0
281
     0
282
     0
283
     1
284
     0
285
     0
286
     0
287
     3
288
     0
  0
ENDTAB
  0
TABLE
  2
BLOCK_RECORD
  5
1
330
0
100
AcDbSymbolTable
 70
     1
  0
BLOCK_RECORD
  5
1F
330
1
100
AcDbSymbolTableRecord
100
AcDbBlockTableRecord
  2
*MODEL_SPACE
  0
BLOCK_RECORD
  5
1B
330
1
100
AcDbSymbolTableRecord
100
AcDbBlockTableRecord
  2
*PAPER_SPACE
  0
ENDTAB
  0
ENDSEC
  0
SECTION
  2
BLOCKS
  0
BLOCK
  5
20
330
1F
100
AcDbEntity
  8
0
100
AcDbBlockBegin
  2
*MODEL_SPACE
 70
     0
 71
     0
 10
0.0
 20
0.0
 30
0.0
  3
*MODEL_SPACE
  1

  0
ENDBLK
  5
21
330
1F
100
AcDbEntity
  8
0
100
AcDbBlockEnd
  0
BLOCK
  5
1C
330
1B
100
AcDbEntity
 67
     1
  8
0
100
AcDbBlockBegin
  2
*PAPER_SPACE
 70
     0
 71
     0
 10
0.0
 20
0.0
 30
0.0
  3
*PAPER_SPACE
  1

  0
ENDBLK
  5
1D
330
1B
100
AcDbEntity
 67
     1
  8
0
100
AcDbBlockEnd
  0
ENDSEC
  0
SECTION
  2
ENTITIES
  0
LINE
  5
2B
330
1F
100
AcDbEntity
  8
DEFAULT
 62
     7
100
AcDbLine
 10
0.000000000002503
 20
8.202604832754332
 30
0.0
 11
-0.000000000003898
 21
25.3193372459621
 31
0.0
  0
ARC
  5
2C
330
1F
100
AcDbEntity
  8
DEFAULT
 62
     7
100
AcDbCircle
 10
0.499999999996098
 20
25.31933724595806
 30
0.0
 40
0.4999999999999965
100
AcDbArc
 50
89.9999999999999
 51
179.9999999995363
  0
LINE
  5
2D
330
1F
100
AcDbEntity
  8
DEFAULT
 62
     7
100
AcDbLine
 10
0.499999999996099
 20
25.81933724595805
 30
0.0
 11
54.50000000000345
 21
25.81933724595795
 31
0.0
  0
ARC
  5
2E
330
1F
100
AcDbEntity
  8
DEFAULT
 62
     7
100
AcDbCircle
 10
54.50000000000765
 20
25.31933724596217
 30
0.0
 40
0.4999999999957794
100
AcDbArc
 50
359.9999999999813
 51
90.00000000048038
  0
LINE
  5
2F
330
1F
100
AcDbEntity
  8
DEFAULT
 62
     7
100
AcDbLine
 10
55.00000000000343
 20
25.31933724596201
 30
0.0
 11
54.9999999999978
 21
8.202604832754339
 31
0.0
  0
LINE
  5
30
330
1F
100
AcDbEntity
  8
DEFAULT
 62
     7
100
AcDbLine
 10
80.26397066021528
 20
14.58122728190192
 30
0.0
 11
101.5875500952218
 21
14.58122728190192
 31
0.0
  0
ARC
  5
31
330
1F
100
AcDbEntity
  8
DEFAULT
 62
     7
100
AcDbCircle
 10
101.5875500952212
 20
14.08122728190122
 30
0.0
 40
0.5000000000006963
100
AcDbArc
 50
0.0000000000065138
 51
89.99999999992021
  0
LINE
  5
32
330
1F
100
AcDbEntity
  8
DEFAULT
 62
     7
100
AcDbLine
 10
102.0875500952218
 20
14.08122728190128
 30
0.0
 11
102.0875500952226
 21
7.888060626603587
 31
0.0
  0
LINE
  5
33
330
1F
100
AcDbEntity
  8
DEFAULT
 62
     7
100
AcDbLine
 10
74.30566206499422
 20
14.58122728190192
 30
0.0
 11
74.30566206499492
 21
25.00479303980654
 31
0.0
  0
ARC
  5
34
330
1F
100
AcDbEntity
  8
DEFAULT
 62
     7
100
AcDbCircle
 10
74.80566206499492
 20
25.00479303980721
 30
0.0
 40
0.5
100
AcDbArc
 50
90.0
 51
180.0000000000765
  0
LINE
  5
35
330
1F
100
AcDbEntity
  8
DEFAULT
 62
     7
100
AcDbLine
 10
74.80566206499492
 20
25.50479303980721
 30
0.0
 11
79.96779774928409
 21
25.50479303980722
 31
0.0
  0
ARC
  5
36
330
1F
100
AcDbEntity
  8
DEFAULT
 62
     7
100
AcDbCircle
 10
79.96779774928497
 20
25.00479303980873
 30
0.0
 40
0.4999999999984965
100
AcDbArc
 50
28.1589320043362
 51
90.00000000010097
  0
SPLINE
  5
37
330
1F
100
AcDbEntity
  8
DEFAULT
 62
     7
100
AcDbSpline
210
0.0
220
0.0
230
1.0
 70
    12
 71
     2
 72
     6
 73
     3
 74
     0
 42
0.0000000001
 43
0.0000000001
 40
1.109840595892236
 40
1.109840595892236
 40
1.109840595892236
 40
2.255495287659077
 40
2.255495287659077
 40
2.255495287659077
 10
80.408618717624
 20
25.24075251486989
 30
0.0
 41
0.9916367084610357
 10
84.02547770069558
 20
18.48371392233198
 30
0.0
 41
0.8201307206197479
 10
80.26397066021528
 20
14.58122728190192
 30
0.0
 41
1.0
  0
LINE
  5
38
330
1F
100
AcDbEntity
  8
DEFAULT
 62
     7
100
AcDbLine
 10
55.0
 20
8.202604832754338
 30
0.0
 11
55.00000000000386
 21
14.39577148805654
 31
0.0
  0
ARC
  5
39
330
1F
100
AcDbEntity
  8
DEFAULT
 62
     7
100
AcDbCircle
 10
54.50000000000387
 20
14.39577148805267
 30
0.0
 40
0.4999999999999982
100
AcDbArc
 50
0.0000000004439545
 51
90.0
  0
LINE
  5
3A
330
1F
100
AcDbEntity
  8
DEFAULT
 62
     7
100
AcDbLine
 10
54.50000000000386
 20
14.89577148805267
 30
0.0
 11
0.4999999999960778
 21
14.89577148805267
 31
0.0
  0
ARC
  5
3B
330
1F
100
AcDbEntity
  8
DEFAULT
 62
     7
100
AcDbCircle
 10
0.4999999999918661
 20
14.39577148805686
 30
0.0
 40
0.4999999999958064
100
AcDbArc
 50
89.99999999951714
 51
180.0000000000364
  0
LINE
  5
3C
330
1F
100
AcDbEntity
  8
DEFAULT
 62
     7
100
AcDbLine
 10
-0.000000000003942
 20
14.39577148805654
 30
0.0
 11
0.0
 21
8.202604832754338
 31
0.0
  0
LINE
  5
3D
330
1F
100
AcDbEntity
  8
DEFAULT
 62
     7
100
AcDbLine
 10
0.4999999999998702
 20
41.41620557351059
 30
0.0
 11
54.50000000000399
 21
41.41620557350665
 31
0.0
  0
ARC
  5
3E
330
1F
100
AcDbEntity
  8
DEFAULT
 62
     7
100
AcDbCircle
 10
54.50000000000016
 20
41.91620557350668
 30
0.0
 40
0.5000000000000284
100
AcDbArc
 50
270.000000000438
 51
359.9999999999919
  0
LINE
  5
3F
330
1F
100
AcDbEntity
  8
DEFAULT
 62
     7
100
AcDbLine
 10
55.0000000000002
 20
41.91620557350661
 30
0.0
 11
55.00000000000397
 21
68.72164568454691
 31
0.0
  0
ARC
  5
40
330
1F
100
AcDbEntity
  8
DEFAULT
 62
     7
100
AcDbCircle
 10
54.50000000000398
 20
68.72164568454301
 30
0.0
 40
0.4999999999999858
100
AcDbArc
 50
0.0000000004494505
 51
90.00000000000081
  0
LINE
  5
41
330
1F
100
AcDbEntity
  8
DEFAULT
 62
     7
100
AcDbLine
 10
54.50000000000397
 20
69.22164568454299
 30
0.0
 11
0.4999999999961418
 21
69.22164568454227
 31
0.0
  0
ARC
  5
42
330
1F
100
AcDbEntity
  8
DEFAULT
 62
     7
100
AcDbCircle
 10
0.4999999999921519
 20
68.72164568454626
 30
0.0
 40
0.4999999999960034
100
AcDbArc
 50
89.99999999954279
 51
180.0000000000081
  0
LINE
  5
43
330
1F
100
AcDbEntity
  8
DEFAULT
 62
     7
100
AcDbLine
 10
-0.0000000000038514
 20
68.72164568454619
 30
0.0
 11
-0.0000000000000706
 21
41.91620557351052
 31
0.0
  0
ARC
  5
44
330
1F
100
AcDbEntity
  8
DEFAULT
 62
     7
100
AcDbCircle
 10
0.4999999999999295
 20
41.91620557351059
 30
0.0
 40
0.5
100
AcDbArc
 50
180.0000000000073
 51
269.9999999999932
  0
LINE
  5
45
330
1F
100
AcDbEntity
  8
0
 62
     7
100
AcDbLine
 10
101.4142572666526
 20
7.26740348126806
 30
0.0
 11
74.97895489356417
 21
7.26740348126806
 31
0.0
  0
LINE
  5
46
330
1F
100
AcDbEntity
  8
0
 62
     7
100
AcDbLine
 10
75.66597854200749
 20
-0.304613691825382
 30
0.0
 11
74.30584876660795
 21
-0.304613691825382
 31
0.0
  0
LINE
  5
47
330
1F
100
AcDbEntity
  8
0
 62
     7
100
AcDbLine
 10
75.6661425275697
 20
-0.304613691825382
 30
0.0
 11
75.6661425275697
 21
7.26740348126806
 31
0.0
  0
LINE
  5
48
330
1F
100
AcDbEntity
  8
0
 62
     7
100
AcDbLine
 10
74.9789548925711
 20
7.888060626603587
 30
0.0
 11
74.9789548925711
 21
7.26740348126806
 31
0.0
  0
LINE
  5
49
330
1F
100
AcDbEntity
  8
0
 62
     7
100
AcDbLine
 10
74.30566206499422
 20
-0.304613691825382
 30
0.0
 11
74.30566206499422
 21
7.888060626603587
 31
0.0
  0
LINE
  5
4A
330
1F
100
AcDbEntity
  8
0
 62
     7
100
AcDbLine
 10
101.5910236013949
 20
7.87813011227822
 30
0.0
 11
74.8021885588219
 21
7.87813011227822
 31
0.0
  0
LINE
  5
4B
330
1F
100
AcDbEntity
  8
DEFAULT
 62
     7
100
AcDbLine
 10
74.30566206499422
 20
7.888060626603587
 30
0.0
 11
74.30566206499422
 21
14.58122728190192
 31
0.0
  0
LINE
  5
4C
330
1F
100
AcDbEntity
  8
0
 62
     7
100
AcDbLine
 10
74.30566206499422
 20
7.888060626603587
 30
0.0
 11
86.66159384272393
 21
7.888060626603587
 31
0.0
  0
LINE
  5
4D
330
1F
100
AcDbEntity
  8
0
 62
     7
100
AcDbLine
 10
102.0873633926158
 20
-0.304613691825382
 30
0.0
 11
100.7272336182093
 21
-0.304613691825382
 31
0.0
  0
LINE
  5
4E
330
1F
100
AcDbEntity
  8
0
 62
     7
100
AcDbLine
 10
100.7270696326471
 20
7.26740348126806
 30
0.0
 11
100.7270696326471
 21
-0.3046136918253817
 31
0.0
  0
LINE
  5
4F
330
1F
100
AcDbEntity
  8
0
 62
     7
100
AcDbLine
 10
101.4142572676457
 20
7.26740348126806
 30
0.0
 11
101.4142572676457
 21
7.888060626603587
 31
0.0
  0
LINE
  5
50
330
1F
100
AcDbEntity
  8
0
 62
     7
100
AcDbLine
 10
102.0875500952226
 20
7.888060626603587
 30
0.0
 11
102.0875500952226
 21
-0.3046136918253817
 31
0.0
  0
LINE
  5
51
330
1F
100
AcDbEntity
  8
0
 62
     7
100
AcDbLine
 10
102.0875500952226
 20
7.888060626603587
 30
0.0
 11
86.67152435704931
 21
7.888060626603587
 31
0.0
  0
LINE
  5
52
330
1F
100
AcDbEntity
  8
DEFAULT
 62
     7
100
AcDbLine
 10
0.0
 20
63.26333708932121
 30
0.0
 11
55.00000000000009
 21
63.26333708932121
 31
0.0
  0
LINE
  5
53
330
1F
100
AcDbEntity
  8
DEFAULT
 62
     7
100
AcDbLine
 10
0.0000000000000011
 20
61.52401144940134
 30
0.0
 11
55.00000000000011
 21
61.52401144940136
 31
0.0
  0
LINE
  5
54
330
1F
100
AcDbEntity
  8
0
 62
     7
100
AcDbLine
 10
54.38456919398623
 20
0.0
 30
0.0
 11
54.99973891784092
 21
0.0
 31
0.0
  0
LINE
  5
55
330
1F
100
AcDbEntity
  8
0
 62
     7
100
AcDbLine
 10
52.02084570238946
 20
7.944411460294757
 30
0.0
 11
54.62297006529528
 21
7.944411460294757
 31
0.0
  0
LINE
  5
56
330
1F
100
AcDbEntity
  8
0
 62
     7
100
AcDbLine
 10
52.02084570238946
 20
8.192674318428969
 30
0.0
 11
55.0
 21
8.192674318428969
 31
0.0
  0
LINE
  5
57
330
1F
100
AcDbEntity
  8
0
 62
     7
100
AcDbLine
 10
0.0
 20
8.202604832754338
 30
0.0
 11
55.0
 21
8.202604832754338
 31
0.0
  0
LINE
  5
58
330
1F
100
AcDbEntity
  8
0
 62
     7
100
AcDbLine
 10
52.02084570238946
 20
8.192674318428969
 30
0.0
 11
52.02084570238946
 21
7.944411460294757
 31
0.0
  0
LINE
  5
59
330
1F
100
AcDbEntity
  8
0
 62
     7
100
AcDbLine
 10
54.38430811182715
 20
7.944411460294757
 30
0.0
 11
54.38430811182715
 21
0.0
 31
0.0
  0
LINE
  5
5A
330
1F
100
AcDbEntity
  8
0
 62
     7
100
AcDbLine
 10
54.5761887916569
 20
8.192674318428969
 30
0.0
 11
54.5761887916569
 21
7.944411460294757
 31
0.0
  0
LINE
  5
5B
330
1F
100
AcDbEntity
  8
0
 62
     7
100
AcDbLine
 10
54.62297006529528
 20
7.944411460294757
 30
0.0
 11
54.62297006529528
 21
8.192674318428969
 31
0.0
  0
LINE
  5
5C
330
1F
100
AcDbEntity
  8
0
 62
     7
100
AcDbLine
 10
55.0
 20
0.0
 30
0.0
 11
55.0
 21
8.192674318428969
 31
0.0
  0
LINE
  5
5D
330
1F
100
AcDbEntity
  8
0
 62
     7
100
AcDbLine
 10
0.0
 20
0.0
 30
0.0
 11
0.0
 21
8.192674318428969
 31
0.0
  0
LINE
  5
5E
330
1F
100
AcDbEntity
  8
0
 62
     7
100
AcDbLine
 10
0.3770299337116697
 20
8.192674318428969
 30
0.0
 11
0.3770299337116697
 21
7.944411460294757
 31
0.0
  0
LINE
  5
5F
330
1F
100
AcDbEntity
  8
0
 62
     7
100
AcDbLine
 10
0.423811208343105
 20
8.192674318428969
 30
0.0
 11
0.423811208343105
 21
7.944411460294757
 31
0.0
  0
LINE
  5
60
330
1F
100
AcDbEntity
  8
0
 62
     7
100
AcDbLine
 10
0.6156918881728553
 20
0.0
 30
0.0
 11
0.6156918881728553
 21
7.944411460294757
 31
0.0
  0
LINE
  5
61
330
1F
100
AcDbEntity
  8
0
 62
     7
100
AcDbLine
 10
2.979154297610541
 20
8.192674318428969
 30
0.0
 11
2.979154297610541
 21
7.944411460294757
 31
0.0
  0
LINE
  5
62
330
1F
100
AcDbEntity
  8
0
 62
     7
100
AcDbLine
 10
0.0002610821590873
 20
0.0
 30
0.0
 11
0.6154308060137679
 21
0.0
 31
0.0
  0
LINE
  5
63
330
1F
100
AcDbEntity
  8
0
 62
     7
100
AcDbLine
 10
0.3770299337116697
 20
7.944411460294757
 30
0.0
 11
2.979154297610541
 21
7.944411460294757
 31
0.0
  0
LINE
  5
64
330
1F
100
AcDbEntity
  8
0
 62
     7
100
AcDbLine
 10
2.979154297610541
 20
8.192674318428969
 30
0.0
 11
0.0
 21
8.192674318428969
 31
0.0
  0
ENDSEC
  0
SECTION
  2
OBJECTS
  0
DICTIONARY
  5
C
330
0
100
AcDbDictionary
  3
ACAD_GROUP
350
D
  3
ACAD_LAYOUT
350
1A
  3
ACAD_MLINESTYLE
350
17
  3
ACAD_PLOTSETTINGS
350
19
  3
ACDBHEADERROUNDTRIPXREC
350
65
  0
DICTIONARY
  5
85
330
29
100
AcDbDictionary
280
     1
  3
ACAD_XREC_ROUNDTRIP
360
86
  0
DICTIONARY
  5
D
102
{ACAD_REACTORS
330
C
102
}
330
C
100
AcDbDictionary
  0
DICTIONARY
  5
1A
102
{ACAD_REACTORS
330
C
102
}
330
C
100
AcDbDictionary
  0
DICTIONARY
  5
17
102
{ACAD_REACTORS
330
C
102
}
330
C
100
AcDbDictionary
  3
STANDARD
350
18
  0
DICTIONARY
  5
19
102
{ACAD_REACTORS
330
C
102
}
330
C
100
AcDbDictionary
  0
DICTIONARY
  5
65
102
{ACAD_REACTORS
330
C
102
}
330
C
100
AcDbDictionary
  3
CEPSNTYPE
350
6E
  3
DIMSTYLEDATA
350
84
  3
FINGERPRINTGUID
350
6F
  3
HYPERLINKBASE
350
68
  3
INSUNITS
350
6D
  3
LAYOUTDICT
350
6A
  3
LWETCUNION
350
6C
  3
PLOTSETDICT
350
6B
  3
PSVPSCALE
350
71
  3
PUCSBASE
350
74
  3
PUCSORGBACK
350
7A
  3
PUCSORGBOTTOM
350
76
  3
PUCSORGFRONT
350
79
  3
PUCSORGLEFT
350
77
  3
PUCSORGRIGHT
350
78
  3
PUCSORGTOP
350
75
  3
PUCSORTHOREF
350
72
  3
PUCSORTHOVIEW
350
73
  3
STYLESHEET
350
69
  3
TSTACKALIGN
350
66
  3
TSTACKSIZE
350
67
  3
UCSBASE
350
7D
  3
UCSORGBACK
350
83
  3
UCSORGBOTTOM
350
7F
  3
UCSORGFRONT
350
82
  3
UCSORGLEFT
350
80
  3
UCSORGRIGHT
350
81
  3
UCSORGTOP
350
7E
  3
UCSORTHOREF
350
7B
  3
UCSORTHOVIEW
350
7C
  3
VERSIONGUID
350
70
  0
XRECORD
  5
86
102
{ACAD_REACTORS
330
85
102
}
330
85
100
AcDbXrecord
102
UCS
 74
     0
 71
     1
 10
0.0
 20
0.0
 30
0.0
 10
1.0
 20
0.0
 30
0.0
 10
0.0
 20
1.0
 30
0.0
146
0.0
 79
     0
102
VIEW
281
     0
  0
MLINESTYLE
  5
18
102
{ACAD_REACTORS
330
17
102
}
330
17
100
AcDbMlineStyle
  2
Standard
 70
     0
  3

 62
   256
 51
90.0
 52
90.0
 71
     2
 49
0.5
 62
   256
  6
BYLAYER
 49
-0.5
 62
   256
  6
BYLAYER
  0
XRECORD
  5
6E
102
{ACAD_REACTORS
330
65
102
}
330
65
100
AcDbXrecord
 90
        0
  0
XRECORD
  5
84
102
{ACAD_REACTORS
330
65
102
}
330
65
100
AcDbXrecord
1000
DSTYLE
1002
{
1070
   340
340
11
1002
}
  0
XRECORD
  5
6F
102
{ACAD_REACTORS
330
65
102
}
330
65
100
AcDbXrecord
  1
{FAEB1C30-E019-11D5-929B-00C0DF256EC4}
  0
XRECORD
  5
68
102
{ACAD_REACTORS
330
65
102
}
330
65
100
AcDbXrecord
  1

  0
XRECORD
  5
6D
102
{ACAD_REACTORS
330
65
102
}
330
65
100
AcDbXrecord
 90
        4
  0
XRECORD
  5
6A
102
{ACAD_REACTORS
330
65
102
}
330
65
100
AcDbXrecord
340
1A
  0
XRECORD
  5
6C
102
{ACAD_REACTORS
330
65
102
}
330
65
100
AcDbXrecord
 90
     2560
  0
XRECORD
  5
6B
102
{ACAD_REACTORS
330
65
102
}
330
65
100
AcDbXrecord
340
19
  0
XRECORD
  5
71
102
{ACAD_REACTORS
330
65
102
}
330
65
100
AcDbXrecord
 40
0.0
  0
XRECORD
  5
74
102
{ACAD_REACTORS
330
65
102
}
330
65
100
AcDbXrecord
340
0
  0
XRECORD
  5
7A
102
{ACAD_REACTORS
330
65
102
}
330
65
100
AcDbXrecord
 10
0.0
 20
0.0
 30
0.0
  0
XRECORD
  5
76
102
{ACAD_REACTORS
330
65
102
}
330
65
100
AcDbXrecord
 10
0.0
 20
0.0
 30
0.0
  0
XRECORD
  5
79
102
{ACAD_REACTORS
330
65
102
}
330
65
100
AcDbXrecord
 10
0.0
 20
0.0
 30
0.0
  0
XRECORD
  5
77
102
{ACAD_REACTORS
330
65
102
}
330
65
100
AcDbXrecord
 10
0.0
 20
0.0
 30
0.0
  0
XRECORD
  5
78
102
{ACAD_REACTORS
330
65
102
}
330
65
100
AcDbXrecord
 10
0.0
 20
0.0
 30
0.0
  0
XRECORD
  5
75
102
{ACAD_REACTORS
330
65
102
}
330
65
100
AcDbXrecord
 10
0.0
 20
0.0
 30
0.0
  0
XRECORD
  5
72
102
{ACAD_REACTORS
330
65
102
}
330
65
100
AcDbXrecord
340
0
  0
XRECORD
  5
73
102
{ACAD_REACTORS
330
65
102
}
330
65
100
AcDbXrecord
 70
     0
  0
XRECORD
  5
69
102
{ACAD_REACTORS
330
65
102
}
330
65
100
AcDbXrecord
  1

  0
XRECORD
  5
66
102
{ACAD_REACTORS
330
65
102
}
330
65
100
AcDbXrecord
 90
        1
  0
XRECORD
  5
67
102
{ACAD_REACTORS
330
65
102
}
330
65
100
AcDbXrecord
 90
       70
  0
XRECORD
  5
7D
102
{ACAD_REACTORS
330
65
102
}
330
65
100
AcDbXrecord
340
0
  0
XRECORD
  5
83
102
{ACAD_REACTORS
330
65
102
}
330
65
100
AcDbXrecord
 10
0.0
 20
0.0
 30
0.0
  0
XRECORD
  5
7F
102
{ACAD_REACTORS
330
65
102
}
330
65
100
AcDbXrecord
 10
0.0
 20
0.0
 30
0.0
  0
XRECORD
  5
82
102
{ACAD_REACTORS
330
65
102
}
330
65
100
AcDbXrecord
 10
0.0
 20
0.0
 30
0.0
  0
XRECORD
  5
80
102
{ACAD_REACTORS
330
65
102
}
330
65
100
AcDbXrecord
 10
0.0
 20
0.0
 30
0.0
  0
XRECORD
  5
81
102
{ACAD_REACTORS
330
65
102
}
330
65
100
AcDbXrecord
 10
0.0
 20
0.0
 30
0.0
  0
XRECORD
  5
7E
102
{ACAD_REACTORS
330
65
102
}
330
65
100
AcDbXrecord
 10
0.0
 20
0.0
 30
0.0
  0
XRECORD
  5
7B
102
{ACAD_REACTORS
330
65
102
}
330
65
100
AcDbXrecord
340
0
  0
XRECORD
  5
7C
102
{ACAD_REACTORS
330
65
102
}
330
65
100
AcDbXrecord
 70
     0
  0
XRECORD
  5
70
102
{ACAD_REACTORS
330
65
102
}
330
65
100
AcDbXrecord
  1
{FAEB1C32-E019-11D5-929B-00C0DF256EC4}
  0
ENDSEC
  0
EOF
