  0
SECTION
  2
HEADER
  9
$ACADVER
  1
AC1014
  9
$ACADMAINTVER
 70
     9
  9
$DWGCODEPAGE
  3
ANSI_1252
  9
$INSBASE
 10
0.0
 20
0.0
 30
0.0
  9
$EXTMIN
 10
1.000000000000000E+20
 20
1.000000000000000E+20
 30
1.000000000000000E+20
  9
$EXTMAX
 10
-1.000000000000000E+20
 20
-1.000000000000000E+20
 30
-1.000000000000000E+20
  9
$LIMMIN
 10
0.0
 20
0.0
  9
$LIMMAX
 10
12.0
 20
9.0
  9
$ORTHOMODE
 70
     0
  9
$REGENMODE
 70
     1
  9
$FILLMODE
 70
     1
  9
$QTEXTMODE
 70
     0
  9
$MIRRTEXT
 70
     1
  9
$DRAGMODE
 70
     2
  9
$LTSCALE
 40
1.0
  9
$OSMODE
 70
    37
  9
$ATTMODE
 70
     1
  9
$TEXTSIZE
 40
0.2
  9
$TRACEWID
 40
0.05
  9
$TEXTSTYLE
  7
STANDARD
  9
$CLAYER
  8
DEFAULT
  9
$CELTYPE
  6
BYLAYER
  9
$CECOLOR
 62
   256
  9
$CELTSCALE
 40
1.0
  9
$DELOBJ
 70
     1
  9
$DISPSILH
 70
     0
  9
$DIMSCALE
 40
1.0
  9
$DIMASZ
 40
0.18
  9
$DIMEXO
 40
0.0625
  9
$DIMDLI
 40
0.38
  9
$DIMRND
 40
0.0
  9
$DIMDLE
 40
0.0
  9
$DIMEXE
 40
0.18
  9
$DIMTP
 40
0.0
  9
$DIMTM
 40
0.0
  9
$DIMTXT
 40
0.18
  9
$DIMCEN
 40
0.09
  9
$DIMTSZ
 40
0.0
  9
$DIMTOL
 70
     0
  9
$DIMLIM
 70
     0
  9
$DIMTIH
 70
     1
  9
$DIMTOH
 70
     1
  9
$DIMSE1
 70
     0
  9
$DIMSE2
 70
     0
  9
$DIMTAD
 70
     0
  9
$DIMZIN
 70
     0
  9
$DIMBLK
  1

  9
$DIMASO
 70
     1
  9
$DIMSHO
 70
     1
  9
$DIMPOST
  1

  9
$DIMAPOST
  1

  9
$DIMALT
 70
     0
  9
$DIMALTD
 70
     2
  9
$DIMALTF
 40
25.4
  9
$DIMLFAC
 40
1.0
  9
$DIMTOFL
 70
     0
  9
$DIMTVP
 40
0.0
  9
$DIMTIX
 70
     0
  9
$DIMSOXD
 70
     0
  9
$DIMSAH
 70
     0
  9
$DIMBLK1
  1

  9
$DIMBLK2
  1

  9
$DIMSTYLE
  2
STANDARD
  9
$DIMCLRD
 70
     0
  9
$DIMCLRE
 70
     0
  9
$DIMCLRT
 70
     0
  9
$DIMTFAC
 40
1.0
  9
$DIMGAP
 40
0.09
  9
$DIMJUST
 70
     0
  9
$DIMSD1
 70
     0
  9
$DIMSD2
 70
     0
  9
$DIMTOLJ
 70
     1
  9
$DIMTZIN
 70
     0
  9
$DIMALTZ
 70
     0
  9
$DIMALTTZ
 70
     0
  9
$DIMFIT
 70
     3
  9
$DIMUPT
 70
     0
  9
$DIMUNIT
 70
     2
  9
$DIMDEC
 70
     4
  9
$DIMTDEC
 70
     4
  9
$DIMALTU
 70
     2
  9
$DIMALTTD
 70
     2
  9
$DIMTXSTY
  7
STANDARD
  9
$DIMAUNIT
 70
     0
  9
$LUNITS
 70
     2
  9
$LUPREC
 70
     0
  9
$SKETCHINC
 40
0.1
  9
$FILLETRAD
 40
0.5
  9
$AUNITS
 70
     0
  9
$AUPREC
 70
     0
  9
$MENU
  1
.
  9
$ELEVATION
 40
0.0
  9
$PELEVATION
 40
0.0
  9
$THICKNESS
 40
0.0
  9
$LIMCHECK
 70
     0
  9
$CHAMFERA
 40
0.5
  9
$CHAMFERB
 40
0.5
  9
$CHAMFERC
 40
1.0
  9
$CHAMFERD
 40
0.0
  9
$SKPOLY
 70
     0
  9
$TDCREATE
 40
2453768.455697674
  9
$TDUPDATE
 40
2453768.455697685
  9
$TDINDWG
 40
0.0000000116
  9
$TDUSRTIMER
 40
0.0000000116
  9
$USRTIMER
 70
     1
  9
$ANGBASE
 50
0.0
  9
$ANGDIR
 70
     0
  9
$PDMODE
 70
     0
  9
$PDSIZE
 40
0.0
  9
$PLINEWID
 40
0.0
  9
$COORDS
 70
     1
  9
$SPLFRAME
 70
     0
  9
$SPLINETYPE
 70
     6
  9
$SPLINESEGS
 70
     8
  9
$ATTDIA
 70
     0
  9
$ATTREQ
 70
     1
  9
$HANDLING
 70
     1
  9
$HANDSEED
  5
89
  9
$SURFTAB1
 70
     6
  9
$SURFTAB2
 70
     6
  9
$SURFTYPE
 70
     6
  9
$SURFU
 70
     6
  9
$SURFV
 70
     6
  9
$UCSNAME
  2

  9
$UCSORG
 10
0.0
 20
0.0
 30
0.0
  9
$UCSXDIR
 10
1.0
 20
0.0
 30
0.0
  9
$UCSYDIR
 10
0.0
 20
1.0
 30
0.0
  9
$PUCSNAME
  2

  9
$PUCSORG
 10
0.0
 20
0.0
 30
0.0
  9
$PUCSXDIR
 10
1.0
 20
0.0
 30
0.0
  9
$PUCSYDIR
 10
0.0
 20
1.0
 30
0.0
  9
$USERI1
 70
     0
  9
$USERI2
 70
     0
  9
$USERI3
 70
     0
  9
$USERI4
 70
     0
  9
$USERI5
 70
     0
  9
$USERR1
 40
0.0
  9
$USERR2
 40
0.0
  9
$USERR3
 40
0.0
  9
$USERR4
 40
0.0
  9
$USERR5
 40
0.0
  9
$WORLDVIEW
 70
     1
  9
$SHADEDGE
 70
     3
  9
$SHADEDIF
 70
    70
  9
$TILEMODE
 70
     1
  9
$MAXACTVP
 70
    64
  9
$PINSBASE
 10
0.0
 20
0.0
 30
0.0
  9
$PLIMCHECK
 70
     0
  9
$PEXTMIN
 10
1.000000000000000E+20
 20
1.000000000000000E+20
 30
1.000000000000000E+20
  9
$PEXTMAX
 10
-1.000000000000000E+20
 20
-1.000000000000000E+20
 30
-1.000000000000000E+20
  9
$PLIMMIN
 10
0.0
 20
0.0
  9
$PLIMMAX
 10
12.0
 20
9.0
  9
$UNITMODE
 70
     0
  9
$VISRETAIN
 70
     1
  9
$PLINEGEN
 70
     0
  9
$PSLTSCALE
 70
     1
  9
$TREEDEPTH
 70
  3020
  9
$PICKSTYLE
 70
     1
  9
$CMLSTYLE
  2
STANDARD
  9
$CMLJUST
 70
     0
  9
$CMLSCALE
 40
1.0
  9
$PROXYGRAPHICS
 70
     1
  9
$MEASUREMENT
 70
     0
  0
ENDSEC
  0
SECTION
  2
CLASSES
  0
CLASS
  1
ACDBDICTIONARYWDFLT
  2
AcDbDictionaryWithDefault
  3
ObjectDBX Classes
 90
        0
280
     0
281
     0
  0
CLASS
  1
XRECORD
  2
AcDbXrecord
  3
AutoCAD 2000
 90
        0
280
     0
281
     0
  0
CLASS
  1
LWPOLYLINE
  2
AcDbPolyline
  3
AutoCAD 2000
 90
        0
280
     0
281
     1
  0
CLASS
  1
HATCH
  2
AcDbHatch
  3
AutoCAD 2000
 90
        0
280
     0
281
     1
  0
CLASS
  1
ACDBPLACEHOLDER
  2
AcDbPlaceHolder
  3
ObjectDBX Classes
 90
        0
280
     0
281
     0
  0
CLASS
  1
LAYOUT
  2
AcDbLayout
  3
ObjectDBX Classes
 90
        0
280
     0
281
     0
  0
ENDSEC
  0
SECTION
  2
TABLES
  0
TABLE
  2
VPORT
  5
8
330
0
100
AcDbSymbolTable
 70
     2
  0
VPORT
  5
29
102
{ACAD_XDICTIONARY
360
87
102
}
330
8
100
AcDbSymbolTableRecord
100
AcDbViewportTableRecord
  2
*ACTIVE
 70
     0
 10
0.0
 20
0.0
 11
1.0
 21
1.0
 12
50.22451163936889
 22
34.4393287850166
 13
0.0
 23
0.0
 14
0.5
 24
0.5
 15
0.5
 25
0.5
 16
0.0
 26
0.0
 36
80.21230066091221
 17
0.0
 27
0.0
 37
0.0
 40
68.87934635660891
 41
1.972972972850329
 42
50.0
 43
0.0
 44
0.0
 50
0.0
 51
0.0
 71
     0
 72
   100
 73
     1
 74
     3
 75
     0
 76
     0
 77
     0
 78
     0
  0
ENDTAB
  0
TABLE
  2
LTYPE
  5
5
330
0
100
AcDbSymbolTable
 70
     1
  0
LTYPE
  5
14
330
5
100
AcDbSymbolTableRecord
100
AcDbLinetypeTableRecord
  2
BYBLOCK
 70
     0
  3

 72
    65
 73
     0
 40
0.0
  0
LTYPE
  5
15
330
5
100
AcDbSymbolTableRecord
100
AcDbLinetypeTableRecord
  2
BYLAYER
 70
     0
  3

 72
    65
 73
     0
 40
0.0
  0
LTYPE
  5
16
330
5
100
AcDbSymbolTableRecord
100
AcDbLinetypeTableRecord
  2
CONTINUOUS
 70
     0
  3
Solid line
 72
    65
 73
     0
 40
0.0
  0
ENDTAB
  0
TABLE
  2
LAYER
  5
2
330
0
100
AcDbSymbolTable
 70
     3
  0
LAYER
  5
10
330
2
100
AcDbSymbolTableRecord
100
AcDbLayerTableRecord
  2
0
 70
     0
 62
     7
  6
CONTINUOUS
  0
LAYER
  5
2A
330
2
100
AcDbSymbolTableRecord
100
AcDbLayerTableRecord
  2
DEFAULT
 70
     0
 62
     7
  6
CONTINUOUS
  0
LAYER
  5
3F
330
2
100
AcDbSymbolTableRecord
100
AcDbLayerTableRecord
  2
LAYER_02
 70
     0
 62
   255
  6
CONTINUOUS
  0
ENDTAB
  0
TABLE
  2
STYLE
  5
3
330
0
100
AcDbSymbolTable
 70
     1
  0
STYLE
  5
11
330
3
100
AcDbSymbolTableRecord
100
AcDbTextStyleTableRecord
  2
STANDARD
 70
     0
 40
0.0
 41
1.0
 50
0.0
 71
     0
 42
0.2
  3
txt
  4

  0
ENDTAB
  0
TABLE
  2
VIEW
  5
6
330
0
100
AcDbSymbolTable
 70
     0
  0
ENDTAB
  0
TABLE
  2
UCS
  5
7
330
0
100
AcDbSymbolTable
 70
     0
  0
ENDTAB
  0
TABLE
  2
APPID
  5
9
330
0
100
AcDbSymbolTable
 70
     1
  0
APPID
  5
12
330
9
100
AcDbSymbolTableRecord
100
AcDbRegAppTableRecord
  2
ACAD
 70
     0
  0
ENDTAB
  0
TABLE
  2
DIMSTYLE
  5
A
330
0
100
AcDbSymbolTable
 70
     1
  0
DIMSTYLE
105
27
330
A
100
AcDbSymbolTableRecord
100
AcDbDimStyleTableRecord
  2
STANDARD
 70
     0
  3

  4

  5

  6

  7

 40
1.0
 41
0.18
 42
0.0625
 43
0.38
 44
0.18
 45
0.0
 46
0.0
 47
0.0
 48
0.0
140
0.18
141
0.09
142
0.0
143
25.4
144
1.0
145
0.0
146
1.0
147
0.09
 71
     0
 72
     0
 73
     1
 74
     1
 75
     0
 76
     0
 77
     0
 78
     0
170
     0
171
     2
172
     0
173
     0
174
     0
175
     0
176
     0
177
     0
178
     0
270
     2
271
     4
272
     4
273
     2
274
     2
340
11
275
     0
280
     0
281
     0
282
     0
283
     1
284
     0
285
     0
286
     0
287
     3
288
     0
  0
ENDTAB
  0
TABLE
  2
BLOCK_RECORD
  5
1
330
0
100
AcDbSymbolTable
 70
     1
  0
BLOCK_RECORD
  5
1F
330
1
100
AcDbSymbolTableRecord
100
AcDbBlockTableRecord
  2
*MODEL_SPACE
  0
BLOCK_RECORD
  5
1B
330
1
100
AcDbSymbolTableRecord
100
AcDbBlockTableRecord
  2
*PAPER_SPACE
  0
ENDTAB
  0
ENDSEC
  0
SECTION
  2
BLOCKS
  0
BLOCK
  5
20
330
1F
100
AcDbEntity
  8
0
100
AcDbBlockBegin
  2
*MODEL_SPACE
 70
     0
 71
     0
 10
0.0
 20
0.0
 30
0.0
  3
*MODEL_SPACE
  1

  0
ENDBLK
  5
21
330
1F
100
AcDbEntity
  8
0
100
AcDbBlockEnd
  0
BLOCK
  5
1C
330
1B
100
AcDbEntity
 67
     1
  8
0
100
AcDbBlockBegin
  2
*PAPER_SPACE
 70
     0
 71
     0
 10
0.0
 20
0.0
 30
0.0
  3
*PAPER_SPACE
  1

  0
ENDBLK
  5
1D
330
1B
100
AcDbEntity
 67
     1
  8
0
100
AcDbBlockEnd
  0
ENDSEC
  0
SECTION
  2
ENTITIES
  0
LINE
  5
2B
330
1F
100
AcDbEntity
  8
DEFAULT
 62
     7
100
AcDbLine
 10
93.15068991834265
 20
24.9939268436557
 30
0.0
 11
93.15068991834265
 21
16.00853159832548
 31
0.0
  0
LINE
  5
2C
330
1F
100
AcDbEntity
  8
DEFAULT
 62
     7
100
AcDbLine
 10
77.18588869470388
 20
10.93323614370047
 30
0.0
 11
77.18588869470388
 21
16.00853159832548
 31
0.0
  0
LINE
  5
2D
330
1F
100
AcDbEntity
  8
DEFAULT
 62
     7
100
AcDbLine
 10
77.18588869470388
 20
16.00853159832548
 30
0.0
 11
99.62843344455285
 21
16.00853159832548
 31
0.0
  0
ARC
  5
2E
330
1F
100
AcDbEntity
  8
DEFAULT
 62
     7
100
AcDbCircle
 10
99.6284340575953
 20
15.18794237718286
 30
0.0
 40
0.8205892211428473
100
AcDbArc
 50
44.99999999999097
 51
90.00004280429705
  0
ARC
  5
2F
330
1F
100
AcDbEntity
  8
DEFAULT
 62
     7
100
AcDbCircle
 10
99.62843257757857
 20
15.18794176414023
 30
0.0
 40
0.8205907011595439
100
AcDbArc
 50
0.0
 51
44.99995719571372
  0
LINE
  5
30
330
1F
100
AcDbEntity
  8
DEFAULT
 62
     7
100
AcDbLine
 10
100.4490232787381
 20
15.18794176414023
 30
0.0
 11
100.4490232787381
 21
10.93323614370047
 31
0.0
  0
LINE
  5
31
330
1F
100
AcDbEntity
  8
DEFAULT
 62
     7
100
AcDbLine
 10
100.4490232787381
 20
10.93323614370047
 30
0.0
 11
72.49043124278235
 21
10.93323614370047
 31
0.0
  0
LINE
  5
32
330
1F
100
AcDbEntity
  8
DEFAULT
 62
     7
100
AcDbLine
 10
72.82217263866588
 20
10.67808216590004
 30
0.0
 11
74.40430126038352
 21
10.67808216590004
 31
0.0
  0
LINE
  5
33
330
1F
100
AcDbEntity
  8
DEFAULT
 62
     7
100
AcDbLine
 10
74.40430126038352
 20
10.67808216590004
 30
0.0
 11
74.40430126038352
 21
0.0
 31
0.0
  0
LINE
  5
34
330
1F
100
AcDbEntity
  8
DEFAULT
 62
     7
100
AcDbLine
 10
74.40430126038352
 20
0.0
 30
0.0
 11
72.82217263866588
 21
0.0
 31
0.0
  0
LINE
  5
35
330
1F
100
AcDbEntity
  8
DEFAULT
 62
     7
100
AcDbLine
 10
72.82217263866588
 20
0.0
 30
0.0
 11
72.82217263866588
 21
10.93323614370047
 31
0.0
  0
LINE
  5
36
330
1F
100
AcDbEntity
  8
DEFAULT
 62
     7
100
AcDbLine
 10
74.40430126038352
 20
10.67808216590004
 30
0.0
 11
98.50962563183973
 21
10.67808216590004
 31
0.0
  0
LINE
  5
37
330
1F
100
AcDbEntity
  8
DEFAULT
 62
     7
100
AcDbLine
 10
72.49043124278235
 20
10.93323614370047
 30
0.0
 11
72.49043124278235
 21
24.99392684365572
 31
0.0
  0
LINE
  5
38
330
1F
100
AcDbEntity
  8
DEFAULT
 62
     7
100
AcDbLine
 10
72.49043124278235
 20
24.99392684365572
 30
0.0
 11
93.15068991834265
 21
24.9939268436557
 31
0.0
  0
LINE
  5
39
330
1F
100
AcDbEntity
  8
DEFAULT
 62
     7
100
AcDbLine
 10
100.0917542535574
 20
10.93323614370047
 30
0.0
 11
100.0917542535574
 21
0.0
 31
0.0
  0
LINE
  5
3A
330
1F
100
AcDbEntity
  8
DEFAULT
 62
     7
100
AcDbLine
 10
100.0917542535574
 20
0.0
 30
0.0
 11
98.50962563183973
 21
0.0
 31
0.0
  0
LINE
  5
3B
330
1F
100
AcDbEntity
  8
DEFAULT
 62
     7
100
AcDbLine
 10
98.50962563183973
 20
0.0
 30
0.0
 11
98.50962563183973
 21
10.67808216590004
 31
0.0
  0
LINE
  5
3C
330
1F
100
AcDbEntity
  8
DEFAULT
 62
     7
100
AcDbLine
 10
98.50962563183973
 20
10.67808216590004
 30
0.0
 11
100.0917542535574
 21
10.67808216590004
 31
0.0
  0
LINE
  5
3D
330
1F
100
AcDbEntity
  8
DEFAULT
 62
     7
100
AcDbLine
 10
27.0
 20
24.96429486082822
 30
0.0
 11
27.00000039266034
 21
16.00853159832548
 31
0.0
  0
LINE
  5
3E
330
1F
100
AcDbEntity
  8
DEFAULT
 62
     7
100
AcDbLine
 10
0.0399291081855197
 20
24.96429486082822
 30
0.0
 11
53.96007089181448
 21
24.96429486082822
 31
0.0
  0
LINE
  5
40
330
1F
100
AcDbEntity
  8
LAYER_02
 62
     7
100
AcDbLine
 10
53.99999999999999
 20
41.27819173659864
 30
0.0
 11
53.99999999999999
 21
48.2141097742301
 31
0.0
  0
LINE
  5
41
330
1F
100
AcDbEntity
  8
LAYER_02
 62
     7
100
AcDbLine
 10
53.99999999999999
 20
48.2141097742301
 30
0.0
 11
50.89613473991179
 21
48.2141097742301
 31
0.0
  0
LINE
  5
42
330
1F
100
AcDbEntity
  8
LAYER_02
 62
     7
100
AcDbLine
 10
50.89613473991179
 20
48.2141097742301
 30
0.0
 11
50.89613473991179
 21
65.68298797849732
 31
0.0
  0
LINE
  5
43
330
1F
100
AcDbEntity
  8
LAYER_02
 62
     7
100
AcDbLine
 10
50.89613473991179
 20
65.68298797849732
 30
0.0
 11
3.103865260088213
 21
65.68298797849732
 31
0.0
  0
LINE
  5
44
330
1F
100
AcDbEntity
  8
LAYER_02
 62
     7
100
AcDbLine
 10
3.10386526008821
 20
65.68298797849732
 30
0.0
 11
3.10386526008821
 21
48.2141097742301
 31
0.0
  0
LINE
  5
45
330
1F
100
AcDbEntity
  8
LAYER_02
 62
     7
100
AcDbLine
 10
3.10386526008821
 20
48.2141097742301
 30
0.0
 11
0.0
 21
48.2141097742301
 31
0.0
  0
LINE
  5
46
330
1F
100
AcDbEntity
  8
LAYER_02
 62
     7
100
AcDbLine
 10
0.0
 20
48.2141097742301
 30
0.0
 11
0.0
 21
41.27819173659864
 31
0.0
  0
LINE
  5
47
330
1F
100
AcDbEntity
  8
DEFAULT
 62
     7
100
AcDbLine
 10
53.99999999999999
 20
48.2141097742301
 30
0.0
 11
53.99999999999999
 21
68.8786575700332
 31
0.0
  0
LINE
  5
48
330
1F
100
AcDbEntity
  8
DEFAULT
 62
     7
100
AcDbLine
 10
53.99999999999999
 20
68.8786575700332
 30
0.0
 11
0.0000000000001066
 21
68.8786575700332
 31
0.0
  0
LINE
  5
49
330
1F
100
AcDbEntity
  8
DEFAULT
 62
     7
100
AcDbLine
 10
0.0000000000001064
 20
68.8786575700332
 30
0.0
 11
0.0
 21
48.2141097742301
 31
0.0
  0
LINE
  5
4A
330
1F
100
AcDbEntity
  8
DEFAULT
 62
     7
100
AcDbLine
 10
50.89613473991179
 20
65.68298797849732
 30
0.0
 11
53.99999999999999
 21
68.8786575700332
 31
0.0
  0
LINE
  5
4B
330
1F
100
AcDbEntity
  8
LAYER_02
 62
     7
100
AcDbLine
 10
0.3624153227639714
 20
40.91577641383468
 30
0.0
 11
53.63758467723602
 21
40.91577641383468
 31
0.0
  0
ARC
  5
4C
330
1F
100
AcDbEntity
  8
LAYER_02
 62
     7
100
AcDbCircle
 10
53.63758467723603
 20
41.27819173659864
 30
0.0
 40
0.362415322763967
100
AcDbArc
 50
270.0
 51
0.0000000000011233
  0
LINE
  5
4D
330
1F
100
AcDbEntity
  8
DEFAULT
 62
     7
100
AcDbLine
 10
53.96007089181448
 20
24.96429486082822
 30
0.0
 11
50.89613473991181
 21
24.96429486082822
 31
0.0
  0
LINE
  5
4E
330
1F
100
AcDbEntity
  8
DEFAULT
 62
     7
100
AcDbLine
 10
50.89613473991181
 20
24.96429486082822
 30
0.0
 11
50.89613473991179
 21
16.00853159832548
 31
0.0
  0
ARC
  5
4F
330
1F
100
AcDbEntity
  8
DEFAULT
 62
     7
100
AcDbCircle
 10
52.76911616828555
 20
14.77764776661105
 30
0.0
 40
1.230883831714788
100
AcDbArc
 50
359.9999571957134
 51
44.99999999999965
  0
ARC
  5
50
330
1F
100
AcDbEntity
  8
DEFAULT
 62
     7
100
AcDbCircle
 10
52.76911524872212
 20
14.77764554658614
 30
0.0
 40
1.230886051739336
100
AcDbArc
 50
45.00004280428752
 51
90.0
  0
LINE
  5
51
330
1F
100
AcDbEntity
  8
DEFAULT
 62
     7
100
AcDbLine
 10
52.76911524872212
 20
16.00853159832548
 30
0.0
 11
1.23088475127787
 21
16.00853159832548
 31
0.0
  0
ARC
  5
52
330
1F
100
AcDbEntity
  8
DEFAULT
 62
     7
100
AcDbCircle
 10
1.230883831714416
 20
14.77764776661108
 30
0.0
 40
1.230883831714745
100
AcDbArc
 50
89.99995719571258
 51
135.0000000000007
  0
ARC
  5
53
330
1F
100
AcDbEntity
  8
DEFAULT
 62
     7
100
AcDbCircle
 10
1.230883831714454
 20
14.77764776661104
 30
0.0
 40
1.230883831714798
100
AcDbArc
 50
135.0000000000006
 51
180.0000428042863
  0
LINE
  5
54
330
1F
100
AcDbEntity
  8
DEFAULT
 62
     7
100
AcDbLine
 10
53.25511872674014
 20
10.67808216590004
 30
0.0
 11
51.58562989147023
 21
10.67808216590004
 31
0.0
  0
LINE
  5
55
330
1F
100
AcDbEntity
  8
DEFAULT
 62
     7
100
AcDbLine
 10
51.58562989147023
 20
10.67808216590004
 30
0.0
 11
51.58562989147023
 21
10.93323614370047
 31
0.0
  0
LINE
  5
56
330
1F
100
AcDbEntity
  8
DEFAULT
 62
     7
100
AcDbLine
 10
53.25511872674014
 20
10.67808216590004
 30
0.0
 11
53.25511872674014
 21
0.0
 31
0.0
  0
LINE
  5
57
330
1F
100
AcDbEntity
  8
DEFAULT
 62
     7
100
AcDbLine
 10
53.25511872674014
 20
0.0
 30
0.0
 11
53.99999999999999
 21
0.0
 31
0.0
  0
LINE
  5
58
330
1F
100
AcDbEntity
  8
DEFAULT
 62
     7
100
AcDbLine
 10
53.99999999999999
 20
0.0
 30
0.0
 11
53.99999999999999
 21
10.67808216590004
 31
0.0
  0
LINE
  5
59
330
1F
100
AcDbEntity
  8
DEFAULT
 62
     7
100
AcDbLine
 10
53.99999999999999
 20
10.67808216590004
 30
0.0
 11
53.25511872674014
 21
10.67808216590004
 31
0.0
  0
LINE
  5
5A
330
1F
100
AcDbEntity
  8
DEFAULT
 62
     7
100
AcDbLine
 10
53.99999999999999
 20
10.67808216590004
 30
0.0
 11
53.99999999999999
 21
24.96429486082822
 31
0.0
  0
LINE
  5
5B
330
1F
100
AcDbEntity
  8
DEFAULT
 62
     7
100
AcDbLine
 10
0.0
 20
10.93323614370047
 30
0.0
 11
53.99999999999999
 21
10.93323614370047
 31
0.0
  0
LINE
  5
5C
330
1F
100
AcDbEntity
  8
DEFAULT
 62
     7
100
AcDbLine
 10
3.10386526008821
 20
65.68298797849732
 30
0.0
 11
0.0000000000001066
 21
68.8786575700332
 31
0.0
  0
ARC
  5
5D
330
1F
100
AcDbEntity
  8
LAYER_02
 62
     7
100
AcDbCircle
 10
0.3624153227639784
 20
41.27819173659864
 30
0.0
 40
0.3624153227639784
100
AcDbArc
 50
179.9999999999989
 51
269.9999999999996
  0
LINE
  5
5E
330
1F
100
AcDbEntity
  8
DEFAULT
 62
     7
100
AcDbLine
 10
0.0399291081855197
 20
24.96429486082822
 30
0.0
 11
3.103865260088183
 21
24.96429486082822
 31
0.0
  0
LINE
  5
5F
330
1F
100
AcDbEntity
  8
DEFAULT
 62
     7
100
AcDbLine
 10
3.103865260088183
 20
24.96429486082822
 30
0.0
 11
3.103865260088212
 21
16.00853159832548
 31
0.0
  0
LINE
  5
60
330
1F
100
AcDbEntity
  8
DEFAULT
 62
     7
100
AcDbLine
 10
0.7448858034513899
 20
0.0
 30
0.0
 11
0.0
 21
0.0
 31
0.0
  0
LINE
  5
61
330
1F
100
AcDbEntity
  8
DEFAULT
 62
     7
100
AcDbLine
 10
0.7448858034513899
 20
10.67808216590004
 30
0.0
 11
2.414370108529757
 21
10.67808216590004
 31
0.0
  0
LINE
  5
62
330
1F
100
AcDbEntity
  8
DEFAULT
 62
     7
100
AcDbLine
 10
2.414370108529757
 20
10.67808216590004
 30
0.0
 11
2.414370108529757
 21
10.93323614370047
 31
0.0
  0
LINE
  5
63
330
1F
100
AcDbEntity
  8
DEFAULT
 62
     7
100
AcDbLine
 10
0.0
 20
10.67808216590004
 30
0.0
 11
0.7448858034513899
 21
10.67808216590004
 31
0.0
  0
LINE
  5
64
330
1F
100
AcDbEntity
  8
DEFAULT
 62
     7
100
AcDbLine
 10
0.7448858034513899
 20
10.67808216590004
 30
0.0
 11
0.7448858034513899
 21
0.0
 31
0.0
  0
LINE
  5
65
330
1F
100
AcDbEntity
  8
DEFAULT
 62
     7
100
AcDbLine
 10
0.0
 20
0.0
 30
0.0
 11
0.0
 21
10.67808216590004
 31
0.0
  0
LINE
  5
66
330
1F
100
AcDbEntity
  8
DEFAULT
 62
     7
100
AcDbLine
 10
0.0
 20
24.96429486082822
 30
0.0
 11
0.0
 21
10.67808216590004
 31
0.0
  0
ENDSEC
  0
SECTION
  2
OBJECTS
  0
DICTIONARY
  5
C
330
0
100
AcDbDictionary
  3
ACAD_GROUP
350
D
  3
ACAD_LAYOUT
350
1A
  3
ACAD_MLINESTYLE
350
17
  3
ACAD_PLOTSETTINGS
350
19
  3
ACDBHEADERROUNDTRIPXREC
350
67
  0
DICTIONARY
  5
87
330
29
100
AcDbDictionary
280
     1
  3
ACAD_XREC_ROUNDTRIP
360
88
  0
DICTIONARY
  5
D
102
{ACAD_REACTORS
330
C
102
}
330
C
100
AcDbDictionary
  0
DICTIONARY
  5
1A
102
{ACAD_REACTORS
330
C
102
}
330
C
100
AcDbDictionary
  0
DICTIONARY
  5
17
102
{ACAD_REACTORS
330
C
102
}
330
C
100
AcDbDictionary
  3
STANDARD
350
18
  0
DICTIONARY
  5
19
102
{ACAD_REACTORS
330
C
102
}
330
C
100
AcDbDictionary
  0
DICTIONARY
  5
67
102
{ACAD_REACTORS
330
C
102
}
330
C
100
AcDbDictionary
  3
CEPSNTYPE
350
70
  3
DIMSTYLEDATA
350
86
  3
FINGERPRINTGUID
350
71
  3
HYPERLINKBASE
350
6A
  3
INSUNITS
350
6F
  3
LAYOUTDICT
350
6C
  3
LWETCUNION
350
6E
  3
PLOTSETDICT
350
6D
  3
PSVPSCALE
350
73
  3
PUCSBASE
350
76
  3
PUCSORGBACK
350
7C
  3
PUCSORGBOTTOM
350
78
  3
PUCSORGFRONT
350
7B
  3
PUCSORGLEFT
350
79
  3
PUCSORGRIGHT
350
7A
  3
PUCSORGTOP
350
77
  3
PUCSORTHOREF
350
74
  3
PUCSORTHOVIEW
350
75
  3
STYLESHEET
350
6B
  3
TSTACKALIGN
350
68
  3
TSTACKSIZE
350
69
  3
UCSBASE
350
7F
  3
UCSORGBACK
350
85
  3
UCSORGBOTTOM
350
81
  3
UCSORGFRONT
350
84
  3
UCSORGLEFT
350
82
  3
UCSORGRIGHT
350
83
  3
UCSORGTOP
350
80
  3
UCSORTHOREF
350
7D
  3
UCSORTHOVIEW
350
7E
  3
VERSIONGUID
350
72
  0
XRECORD
  5
88
102
{ACAD_REACTORS
330
87
102
}
330
87
100
AcDbXrecord
102
UCS
 74
     0
 71
     1
 10
0.0
 20
0.0
 30
0.0
 10
1.0
 20
0.0
 30
0.0
 10
0.0
 20
1.0
 30
0.0
146
0.0
 79
     0
102
VIEW
281
     0
  0
MLINESTYLE
  5
18
102
{ACAD_REACTORS
330
17
102
}
330
17
100
AcDbMlineStyle
  2
Standard
 70
     0
  3

 62
   256
 51
90.0
 52
90.0
 71
     2
 49
0.5
 62
   256
  6
BYLAYER
 49
-0.5
 62
   256
  6
BYLAYER
  0
XRECORD
  5
70
102
{ACAD_REACTORS
330
67
102
}
330
67
100
AcDbXrecord
 90
        0
  0
XRECORD
  5
86
102
{ACAD_REACTORS
330
67
102
}
330
67
100
AcDbXrecord
1000
DSTYLE
1002
{
1070
   340
340
11
1002
}
  0
XRECORD
  5
71
102
{ACAD_REACTORS
330
67
102
}
330
67
100
AcDbXrecord
  1
{FAEB1C30-E019-11D5-929B-00C0DF256EC4}
  0
XRECORD
  5
6A
102
{ACAD_REACTORS
330
67
102
}
330
67
100
AcDbXrecord
  1

  0
XRECORD
  5
6F
102
{ACAD_REACTORS
330
67
102
}
330
67
100
AcDbXrecord
 90
        4
  0
XRECORD
  5
6C
102
{ACAD_REACTORS
330
67
102
}
330
67
100
AcDbXrecord
340
1A
  0
XRECORD
  5
6E
102
{ACAD_REACTORS
330
67
102
}
330
67
100
AcDbXrecord
 90
     2560
  0
XRECORD
  5
6D
102
{ACAD_REACTORS
330
67
102
}
330
67
100
AcDbXrecord
340
19
  0
XRECORD
  5
73
102
{ACAD_REACTORS
330
67
102
}
330
67
100
AcDbXrecord
 40
0.0
  0
XRECORD
  5
76
102
{ACAD_REACTORS
330
67
102
}
330
67
100
AcDbXrecord
340
0
  0
XRECORD
  5
7C
102
{ACAD_REACTORS
330
67
102
}
330
67
100
AcDbXrecord
 10
0.0
 20
0.0
 30
0.0
  0
XRECORD
  5
78
102
{ACAD_REACTORS
330
67
102
}
330
67
100
AcDbXrecord
 10
0.0
 20
0.0
 30
0.0
  0
XRECORD
  5
7B
102
{ACAD_REACTORS
330
67
102
}
330
67
100
AcDbXrecord
 10
0.0
 20
0.0
 30
0.0
  0
XRECORD
  5
79
102
{ACAD_REACTORS
330
67
102
}
330
67
100
AcDbXrecord
 10
0.0
 20
0.0
 30
0.0
  0
XRECORD
  5
7A
102
{ACAD_REACTORS
330
67
102
}
330
67
100
AcDbXrecord
 10
0.0
 20
0.0
 30
0.0
  0
XRECORD
  5
77
102
{ACAD_REACTORS
330
67
102
}
330
67
100
AcDbXrecord
 10
0.0
 20
0.0
 30
0.0
  0
XRECORD
  5
74
102
{ACAD_REACTORS
330
67
102
}
330
67
100
AcDbXrecord
340
0
  0
XRECORD
  5
75
102
{ACAD_REACTORS
330
67
102
}
330
67
100
AcDbXrecord
 70
     0
  0
XRECORD
  5
6B
102
{ACAD_REACTORS
330
67
102
}
330
67
100
AcDbXrecord
  1

  0
XRECORD
  5
68
102
{ACAD_REACTORS
330
67
102
}
330
67
100
AcDbXrecord
 90
        1
  0
XRECORD
  5
69
102
{ACAD_REACTORS
330
67
102
}
330
67
100
AcDbXrecord
 90
       70
  0
XRECORD
  5
7F
102
{ACAD_REACTORS
330
67
102
}
330
67
100
AcDbXrecord
340
0
  0
XRECORD
  5
85
102
{ACAD_REACTORS
330
67
102
}
330
67
100
AcDbXrecord
 10
0.0
 20
0.0
 30
0.0
  0
XRECORD
  5
81
102
{ACAD_REACTORS
330
67
102
}
330
67
100
AcDbXrecord
 10
0.0
 20
0.0
 30
0.0
  0
XRECORD
  5
84
102
{ACAD_REACTORS
330
67
102
}
330
67
100
AcDbXrecord
 10
0.0
 20
0.0
 30
0.0
  0
XRECORD
  5
82
102
{ACAD_REACTORS
330
67
102
}
330
67
100
AcDbXrecord
 10
0.0
 20
0.0
 30
0.0
  0
XRECORD
  5
83
102
{ACAD_REACTORS
330
67
102
}
330
67
100
AcDbXrecord
 10
0.0
 20
0.0
 30
0.0
  0
XRECORD
  5
80
102
{ACAD_REACTORS
330
67
102
}
330
67
100
AcDbXrecord
 10
0.0
 20
0.0
 30
0.0
  0
XRECORD
  5
7D
102
{ACAD_REACTORS
330
67
102
}
330
67
100
AcDbXrecord
340
0
  0
XRECORD
  5
7E
102
{ACAD_REACTORS
330
67
102
}
330
67
100
AcDbXrecord
 70
     0
  0
XRECORD
  5
72
102
{ACAD_REACTORS
330
67
102
}
330
67
100
AcDbXrecord
  1
{FAEB1C32-E019-11D5-929B-00C0DF256EC4}
  0
ENDSEC
  0
EOF
