  0
SECTION
  2
HEADER
  9
$ACADVER
  1
AC1014
  9
$ACADMAINTVER
 70
     9
  9
$DWGCODEPAGE
  3
ANSI_1252
  9
$INSBASE
 10
0.0
 20
0.0
 30
0.0
  9
$EXTMIN
 10
1.000000000000000E+20
 20
1.000000000000000E+20
 30
1.000000000000000E+20
  9
$EXTMAX
 10
-1.000000000000000E+20
 20
-1.000000000000000E+20
 30
-1.000000000000000E+20
  9
$LIMMIN
 10
0.0
 20
0.0
  9
$LIMMAX
 10
12.0
 20
9.0
  9
$ORTHOMODE
 70
     0
  9
$REGENMODE
 70
     1
  9
$FILLMODE
 70
     1
  9
$QTEXTMODE
 70
     0
  9
$MIRRTEXT
 70
     1
  9
$DRAGMODE
 70
     2
  9
$LTSCALE
 40
1.0
  9
$OSMODE
 70
    37
  9
$ATTMODE
 70
     1
  9
$TEXTSIZE
 40
0.2
  9
$TRACEWID
 40
0.05
  9
$TEXTSTYLE
  7
STANDARD
  9
$CLAYER
  8
DEFAULT
  9
$CELTYPE
  6
BYLAYER
  9
$CECOLOR
 62
   256
  9
$CELTSCALE
 40
1.0
  9
$DELOBJ
 70
     1
  9
$DISPSILH
 70
     0
  9
$DIMSCALE
 40
1.0
  9
$DIMASZ
 40
0.18
  9
$DIMEXO
 40
0.0625
  9
$DIMDLI
 40
0.38
  9
$DIMRND
 40
0.0
  9
$DIMDLE
 40
0.0
  9
$DIMEXE
 40
0.18
  9
$DIMTP
 40
0.0
  9
$DIMTM
 40
0.0
  9
$DIMTXT
 40
0.18
  9
$DIMCEN
 40
0.09
  9
$DIMTSZ
 40
0.0
  9
$DIMTOL
 70
     0
  9
$DIMLIM
 70
     0
  9
$DIMTIH
 70
     1
  9
$DIMTOH
 70
     1
  9
$DIMSE1
 70
     0
  9
$DIMSE2
 70
     0
  9
$DIMTAD
 70
     0
  9
$DIMZIN
 70
     0
  9
$DIMBLK
  1

  9
$DIMASO
 70
     1
  9
$DIMSHO
 70
     1
  9
$DIMPOST
  1

  9
$DIMAPOST
  1

  9
$DIMALT
 70
     0
  9
$DIMALTD
 70
     2
  9
$DIMALTF
 40
25.4
  9
$DIMLFAC
 40
1.0
  9
$DIMTOFL
 70
     0
  9
$DIMTVP
 40
0.0
  9
$DIMTIX
 70
     0
  9
$DIMSOXD
 70
     0
  9
$DIMSAH
 70
     0
  9
$DIMBLK1
  1

  9
$DIMBLK2
  1

  9
$DIMSTYLE
  2
STANDARD
  9
$DIMCLRD
 70
     0
  9
$DIMCLRE
 70
     0
  9
$DIMCLRT
 70
     0
  9
$DIMTFAC
 40
1.0
  9
$DIMGAP
 40
0.09
  9
$DIMJUST
 70
     0
  9
$DIMSD1
 70
     0
  9
$DIMSD2
 70
     0
  9
$DIMTOLJ
 70
     1
  9
$DIMTZIN
 70
     0
  9
$DIMALTZ
 70
     0
  9
$DIMALTTZ
 70
     0
  9
$DIMFIT
 70
     3
  9
$DIMUPT
 70
     0
  9
$DIMUNIT
 70
     2
  9
$DIMDEC
 70
     4
  9
$DIMTDEC
 70
     4
  9
$DIMALTU
 70
     2
  9
$DIMALTTD
 70
     2
  9
$DIMTXSTY
  7
STANDARD
  9
$DIMAUNIT
 70
     0
  9
$LUNITS
 70
     2
  9
$LUPREC
 70
     0
  9
$SKETCHINC
 40
0.1
  9
$FILLETRAD
 40
0.5
  9
$AUNITS
 70
     0
  9
$AUPREC
 70
     0
  9
$MENU
  1
.
  9
$ELEVATION
 40
0.0
  9
$PELEVATION
 40
0.0
  9
$THICKNESS
 40
0.0
  9
$LIMCHECK
 70
     0
  9
$CHAMFERA
 40
0.5
  9
$CHAMFERB
 40
0.5
  9
$CHAMFERC
 40
1.0
  9
$CHAMFERD
 40
0.0
  9
$SKPOLY
 70
     0
  9
$TDCREATE
 40
2453768.456948773
  9
$TDUPDATE
 40
2453768.456948785
  9
$TDINDWG
 40
0.0000000116
  9
$TDUSRTIMER
 40
0.0000000116
  9
$USRTIMER
 70
     1
  9
$ANGBASE
 50
0.0
  9
$ANGDIR
 70
     0
  9
$PDMODE
 70
     0
  9
$PDSIZE
 40
0.0
  9
$PLINEWID
 40
0.0
  9
$COORDS
 70
     1
  9
$SPLFRAME
 70
     0
  9
$SPLINETYPE
 70
     6
  9
$SPLINESEGS
 70
     8
  9
$ATTDIA
 70
     0
  9
$ATTREQ
 70
     1
  9
$HANDLING
 70
     1
  9
$HANDSEED
  5
9C
  9
$SURFTAB1
 70
     6
  9
$SURFTAB2
 70
     6
  9
$SURFTYPE
 70
     6
  9
$SURFU
 70
     6
  9
$SURFV
 70
     6
  9
$UCSNAME
  2

  9
$UCSORG
 10
0.0
 20
0.0
 30
0.0
  9
$UCSXDIR
 10
1.0
 20
0.0
 30
0.0
  9
$UCSYDIR
 10
0.0
 20
1.0
 30
0.0
  9
$PUCSNAME
  2

  9
$PUCSORG
 10
0.0
 20
0.0
 30
0.0
  9
$PUCSXDIR
 10
1.0
 20
0.0
 30
0.0
  9
$PUCSYDIR
 10
0.0
 20
1.0
 30
0.0
  9
$USERI1
 70
     0
  9
$USERI2
 70
     0
  9
$USERI3
 70
     0
  9
$USERI4
 70
     0
  9
$USERI5
 70
     0
  9
$USERR1
 40
0.0
  9
$USERR2
 40
0.0
  9
$USERR3
 40
0.0
  9
$USERR4
 40
0.0
  9
$USERR5
 40
0.0
  9
$WORLDVIEW
 70
     1
  9
$SHADEDGE
 70
     3
  9
$SHADEDIF
 70
    70
  9
$TILEMODE
 70
     1
  9
$MAXACTVP
 70
    64
  9
$PINSBASE
 10
0.0
 20
0.0
 30
0.0
  9
$PLIMCHECK
 70
     0
  9
$PEXTMIN
 10
1.000000000000000E+20
 20
1.000000000000000E+20
 30
1.000000000000000E+20
  9
$PEXTMAX
 10
-1.000000000000000E+20
 20
-1.000000000000000E+20
 30
-1.000000000000000E+20
  9
$PLIMMIN
 10
0.0
 20
0.0
  9
$PLIMMAX
 10
12.0
 20
9.0
  9
$UNITMODE
 70
     0
  9
$VISRETAIN
 70
     1
  9
$PLINEGEN
 70
     0
  9
$PSLTSCALE
 70
     1
  9
$TREEDEPTH
 70
  3020
  9
$PICKSTYLE
 70
     1
  9
$CMLSTYLE
  2
STANDARD
  9
$CMLJUST
 70
     0
  9
$CMLSCALE
 40
1.0
  9
$PROXYGRAPHICS
 70
     1
  9
$MEASUREMENT
 70
     0
  0
ENDSEC
  0
SECTION
  2
CLASSES
  0
CLASS
  1
ACDBDICTIONARYWDFLT
  2
AcDbDictionaryWithDefault
  3
ObjectDBX Classes
 90
        0
280
     0
281
     0
  0
CLASS
  1
XRECORD
  2
AcDbXrecord
  3
AutoCAD 2000
 90
        0
280
     0
281
     0
  0
CLASS
  1
LWPOLYLINE
  2
AcDbPolyline
  3
AutoCAD 2000
 90
        0
280
     0
281
     1
  0
CLASS
  1
HATCH
  2
AcDbHatch
  3
AutoCAD 2000
 90
        0
280
     0
281
     1
  0
CLASS
  1
ACDBPLACEHOLDER
  2
AcDbPlaceHolder
  3
ObjectDBX Classes
 90
        0
280
     0
281
     0
  0
CLASS
  1
LAYOUT
  2
AcDbLayout
  3
ObjectDBX Classes
 90
        0
280
     0
281
     0
  0
ENDSEC
  0
SECTION
  2
TABLES
  0
TABLE
  2
VPORT
  5
8
330
0
100
AcDbSymbolTable
 70
     2
  0
VPORT
  5
29
102
{ACAD_XDICTIONARY
360
9A
102
}
330
8
100
AcDbSymbolTableRecord
100
AcDbViewportTableRecord
  2
*ACTIVE
 70
     0
 10
0.0
 20
0.0
 11
1.0
 21
1.0
 12
37.64418924340294
 22
36.08120222359872
 13
0.0
 23
0.0
 14
0.5
 24
0.5
 15
0.5
 25
0.5
 16
0.0
 26
0.0
 36
80.21230066091221
 17
0.0
 27
0.0
 37
0.0
 40
72.16312607124191
 41
1.972972972850329
 42
50.0
 43
0.0
 44
0.0
 50
0.0
 51
0.0
 71
     0
 72
   100
 73
     1
 74
     3
 75
     0
 76
     0
 77
     0
 78
     0
  0
ENDTAB
  0
TABLE
  2
LTYPE
  5
5
330
0
100
AcDbSymbolTable
 70
     1
  0
LTYPE
  5
14
330
5
100
AcDbSymbolTableRecord
100
AcDbLinetypeTableRecord
  2
BYBLOCK
 70
     0
  3

 72
    65
 73
     0
 40
0.0
  0
LTYPE
  5
15
330
5
100
AcDbSymbolTableRecord
100
AcDbLinetypeTableRecord
  2
BYLAYER
 70
     0
  3

 72
    65
 73
     0
 40
0.0
  0
LTYPE
  5
16
330
5
100
AcDbSymbolTableRecord
100
AcDbLinetypeTableRecord
  2
CONTINUOUS
 70
     0
  3
Solid line
 72
    65
 73
     0
 40
0.0
  0
ENDTAB
  0
TABLE
  2
LAYER
  5
2
330
0
100
AcDbSymbolTable
 70
     3
  0
LAYER
  5
10
330
2
100
AcDbSymbolTableRecord
100
AcDbLayerTableRecord
  2
0
 70
     0
 62
     7
  6
CONTINUOUS
  0
LAYER
  5
2A
330
2
100
AcDbSymbolTableRecord
100
AcDbLayerTableRecord
  2
LAYER_02
 70
     0
 62
   255
  6
CONTINUOUS
  0
LAYER
  5
41
330
2
100
AcDbSymbolTableRecord
100
AcDbLayerTableRecord
  2
DEFAULT
 70
     0
 62
     7
  6
CONTINUOUS
  0
ENDTAB
  0
TABLE
  2
STYLE
  5
3
330
0
100
AcDbSymbolTable
 70
     1
  0
STYLE
  5
11
330
3
100
AcDbSymbolTableRecord
100
AcDbTextStyleTableRecord
  2
STANDARD
 70
     0
 40
0.0
 41
1.0
 50
0.0
 71
     0
 42
0.2
  3
txt
  4

  0
ENDTAB
  0
TABLE
  2
VIEW
  5
6
330
0
100
AcDbSymbolTable
 70
     0
  0
ENDTAB
  0
TABLE
  2
UCS
  5
7
330
0
100
AcDbSymbolTable
 70
     0
  0
ENDTAB
  0
TABLE
  2
APPID
  5
9
330
0
100
AcDbSymbolTable
 70
     1
  0
APPID
  5
12
330
9
100
AcDbSymbolTableRecord
100
AcDbRegAppTableRecord
  2
ACAD
 70
     0
  0
ENDTAB
  0
TABLE
  2
DIMSTYLE
  5
A
330
0
100
AcDbSymbolTable
 70
     1
  0
DIMSTYLE
105
27
330
A
100
AcDbSymbolTableRecord
100
AcDbDimStyleTableRecord
  2
STANDARD
 70
     0
  3

  4

  5

  6

  7

 40
1.0
 41
0.18
 42
0.0625
 43
0.38
 44
0.18
 45
0.0
 46
0.0
 47
0.0
 48
0.0
140
0.18
141
0.09
142
0.0
143
25.4
144
1.0
145
0.0
146
1.0
147
0.09
 71
     0
 72
     0
 73
     1
 74
     1
 75
     0
 76
     0
 77
     0
 78
     0
170
     0
171
     2
172
     0
173
     0
174
     0
175
     0
176
     0
177
     0
178
     0
270
     2
271
     4
272
     4
273
     2
274
     2
340
11
275
     0
280
     0
281
     0
282
     0
283
     1
284
     0
285
     0
286
     0
287
     3
288
     0
  0
ENDTAB
  0
TABLE
  2
BLOCK_RECORD
  5
1
330
0
100
AcDbSymbolTable
 70
     1
  0
BLOCK_RECORD
  5
1F
330
1
100
AcDbSymbolTableRecord
100
AcDbBlockTableRecord
  2
*MODEL_SPACE
  0
BLOCK_RECORD
  5
1B
330
1
100
AcDbSymbolTableRecord
100
AcDbBlockTableRecord
  2
*PAPER_SPACE
  0
ENDTAB
  0
ENDSEC
  0
SECTION
  2
BLOCKS
  0
BLOCK
  5
20
330
1F
100
AcDbEntity
  8
0
100
AcDbBlockBegin
  2
*MODEL_SPACE
 70
     0
 71
     0
 10
0.0
 20
0.0
 30
0.0
  3
*MODEL_SPACE
  1

  0
ENDBLK
  5
21
330
1F
100
AcDbEntity
  8
0
100
AcDbBlockEnd
  0
BLOCK
  5
1C
330
1B
100
AcDbEntity
 67
     1
  8
0
100
AcDbBlockBegin
  2
*PAPER_SPACE
 70
     0
 71
     0
 10
0.0
 20
0.0
 30
0.0
  3
*PAPER_SPACE
  1

  0
ENDBLK
  5
1D
330
1B
100
AcDbEntity
 67
     1
  8
0
100
AcDbBlockEnd
  0
ENDSEC
  0
SECTION
  2
ENTITIES
  0
ARC
  5
2B
330
1F
100
AcDbEntity
  8
LAYER_02
 62
     7
100
AcDbCircle
 10
0.3016328920938829
 20
44.17102335921205
 30
0.0
 40
0.3016328920938828
100
AcDbArc
 50
180.0000000000013
 51
269.9999999999988
  0
LINE
  5
2C
330
1F
100
AcDbEntity
  8
LAYER_02
 62
     7
100
AcDbLine
 10
1.213974359987911
 20
69.92777978858689
 30
0.0
 11
0.9320192436920112
 21
70.20205834777899
 31
0.0
  0
LINE
  5
2D
330
1F
100
AcDbEntity
  8
LAYER_02
 62
     7
100
AcDbLine
 10
1.821451693431518
 20
69.06587888107323
 30
0.0
 11
1.213974359987911
 21
69.92777978858689
 31
0.0
  0
LINE
  5
2E
330
1F
100
AcDbEntity
  8
LAYER_02
 62
     7
100
AcDbLine
 10
2.583300970637619
 20
67.71855261949062
 30
0.0
 11
1.821451693431518
 21
69.06587888107323
 31
0.0
  0
LINE
  5
2F
330
1F
100
AcDbEntity
  8
LAYER_02
 62
     7
100
AcDbLine
 10
0.0
 20
49.94368495933805
 30
0.0
 11
0.0000000000000001
 21
71.86077155510355
 31
0.0
  0
ARC
  5
30
330
1F
100
AcDbEntity
  8
LAYER_02
 62
     7
100
AcDbCircle
 10
0.3016328920938859
 20
71.86077155510353
 30
0.0
 40
0.301632892093897
100
AcDbArc
 50
90.00000000000253
 51
179.9999999999946
  0
LINE
  5
31
330
1F
100
AcDbEntity
  8
LAYER_02
 62
     7
100
AcDbLine
 10
0.3016328920938736
 20
43.86939046711817
 30
0.0
 11
28.69836710790612
 21
43.86939046711817
 31
0.0
  0
ARC
  5
32
330
1F
100
AcDbEntity
  8
LAYER_02
 62
     7
100
AcDbCircle
 10
28.69836710790613
 20
44.17102335921203
 30
0.0
 40
0.3016328920938615
100
AcDbArc
 50
269.9999999999993
 51
0.0000000000026994
  0
LINE
  5
33
330
1F
100
AcDbEntity
  8
LAYER_02
 62
     7
100
AcDbLine
 10
27.78602941042324
 20
69.92777978858689
 30
0.0
 11
28.06798075630799
 21
70.20205834777899
 31
0.0
  0
LINE
  5
34
330
1F
100
AcDbEntity
  8
LAYER_02
 62
     7
100
AcDbLine
 10
27.17854830656848
 20
69.06587888107323
 30
0.0
 11
27.78602941042324
 21
69.92777978858689
 31
0.0
  0
LINE
  5
35
330
1F
100
AcDbEntity
  8
LAYER_02
 62
     7
100
AcDbLine
 10
26.41669902936238
 20
67.71855261949062
 30
0.0
 11
27.17854830656848
 21
69.06587888107323
 31
0.0
  0
LINE
  5
36
330
1F
100
AcDbEntity
  8
LAYER_02
 62
     7
100
AcDbLine
 10
0.0000000000000001
 20
71.86077155510355
 30
0.0
 11
29.0
 21
71.86077155510355
 31
0.0
  0
LINE
  5
37
330
1F
100
AcDbEntity
  8
LAYER_02
 62
     7
100
AcDbLine
 10
0.3016328920938737
 20
72.16240444719743
 30
0.0
 11
28.69836710790612
 21
72.16240444719743
 31
0.0
  0
LINE
  5
38
330
1F
100
AcDbEntity
  8
LAYER_02
 62
     7
100
AcDbLine
 10
29.0
 20
71.86077155510355
 30
0.0
 11
29.0
 21
49.94368495933805
 31
0.0
  0
ARC
  5
39
330
1F
100
AcDbEntity
  8
LAYER_02
 62
     7
100
AcDbCircle
 10
28.69836710790615
 20
71.86077155510357
 30
0.0
 40
0.3016328920938526
100
AcDbArc
 50
359.9999999999973
 51
90.00000000000406
  0
LINE
  5
3A
330
1F
100
AcDbEntity
  8
LAYER_02
 62
     7
100
AcDbLine
 10
0.0
 20
49.94368495933805
 30
0.0
 11
0.0
 21
44.17102335921204
 31
0.0
  0
LINE
  5
3B
330
1F
100
AcDbEntity
  8
LAYER_02
 62
     7
100
AcDbLine
 10
2.583300970637619
 20
49.94368495933805
 30
0.0
 11
0.0
 21
49.94368495933805
 31
0.0
  0
LINE
  5
3C
330
1F
100
AcDbEntity
  8
LAYER_02
 62
     7
100
AcDbLine
 10
2.583300970637619
 20
67.71855261949062
 30
0.0
 11
2.583300970637619
 21
49.94368495933805
 31
0.0
  0
LINE
  5
3D
330
1F
100
AcDbEntity
  8
LAYER_02
 62
     7
100
AcDbLine
 10
26.41669902936238
 20
67.71855261949062
 30
0.0
 11
2.58330097063762
 21
67.71855261949062
 31
0.0
  0
LINE
  5
3E
330
1F
100
AcDbEntity
  8
LAYER_02
 62
     7
100
AcDbLine
 10
26.41669902936238
 20
49.94368495933805
 30
0.0
 11
26.41669902936238
 21
67.71855261949062
 31
0.0
  0
LINE
  5
3F
330
1F
100
AcDbEntity
  8
LAYER_02
 62
     7
100
AcDbLine
 10
29.0
 20
49.94368495933805
 30
0.0
 11
26.41669902936238
 21
49.94368495933805
 31
0.0
  0
LINE
  5
40
330
1F
100
AcDbEntity
  8
LAYER_02
 62
     7
100
AcDbLine
 10
29.0
 20
44.17102335921204
 30
0.0
 11
29.0
 21
49.94368495933805
 31
0.0
  0
LINE
  5
42
330
1F
100
AcDbEntity
  8
DEFAULT
 62
     7
100
AcDbLine
 10
47.28837848680617
 20
11.5709148659406
 30
0.0
 11
47.28837848680617
 21
23.35108562731957
 31
0.0
  0
ARC
  5
43
330
1F
100
AcDbEntity
  8
DEFAULT
 62
     7
100
AcDbCircle
 10
-6.024720167189772
 20
23.3650305337159
 30
0.0
 40
53.31310047775421
100
AcDbArc
 50
359.985013359115
 51
5.594417788165036
  0
LINE
  5
44
330
1F
100
AcDbEntity
  8
DEFAULT
 62
     7
100
AcDbLine
 10
50.77247944892712
 20
23.27341896626273
 30
0.0
 11
69.21408399458629
 21
23.27341896626273
 31
0.0
  0
LINE
  5
45
330
1F
100
AcDbEntity
  8
DEFAULT
 62
     7
100
AcDbLine
 10
47.54416670183596
 20
28.98709765304067
 30
0.0
 11
47.85876603787872
 21
28.89414947734195
 31
0.0
  0
LINE
  5
46
330
1F
100
AcDbEntity
  8
DEFAULT
 62
     7
100
AcDbLine
 10
47.85876603787872
 20
28.89414947734195
 30
0.0
 11
48.07132296652612
 21
28.80187997565044
 31
0.0
  0
LINE
  5
47
330
1F
100
AcDbEntity
  8
DEFAULT
 62
     7
100
AcDbLine
 10
48.07132296652612
 20
28.80187997565044
 30
0.0
 11
48.30876460877128
 21
28.65784272885331
 31
0.0
  0
LINE
  5
48
330
1F
100
AcDbEntity
  8
DEFAULT
 62
     7
100
AcDbLine
 10
48.30876460877128
 20
28.65784272885331
 30
0.0
 11
48.56214000854128
 21
28.44611152024802
 31
0.0
  0
LINE
  5
49
330
1F
100
AcDbEntity
  8
DEFAULT
 62
     7
100
AcDbLine
 10
48.56214000854128
 20
28.44611152024802
 30
0.0
 11
48.82249066894094
 21
28.15075636272084
 31
0.0
  0
LINE
  5
4A
330
1F
100
AcDbEntity
  8
DEFAULT
 62
     7
100
AcDbLine
 10
48.82249066894094
 20
28.15075636272084
 30
0.0
 11
49.08085055225281
 21
27.7558548099804
 31
0.0
  0
LINE
  5
4B
330
1F
100
AcDbEntity
  8
DEFAULT
 62
     7
100
AcDbLine
 10
49.08085055225281
 20
27.7558548099804
 30
0.0
 11
49.32826870240397
 21
27.24548064532411
 31
0.0
  0
LINE
  5
4C
330
1F
100
AcDbEntity
  8
DEFAULT
 62
     7
100
AcDbLine
 10
49.32826870240397
 20
27.24548064532411
 30
0.0
 11
50.77247944892712
 21
23.27341896626273
 31
0.0
  0
LINE
  5
4D
330
1F
100
AcDbEntity
  8
DEFAULT
 62
     7
100
AcDbLine
 10
51.19633800718555
 20
15.50000000000001
 30
0.0
 11
74.60541375170492
 21
15.50000000000001
 31
0.0
  0
ARC
  5
4E
330
1F
100
AcDbEntity
  8
DEFAULT
 62
     7
100
AcDbCircle
 10
74.60541375170492
 20
14.81703526489875
 30
0.0
 40
0.6829647351012546
100
AcDbArc
 50
0.0
 51
89.99999999999882
  0
LINE
  5
4F
330
1F
100
AcDbEntity
  8
DEFAULT
 62
     7
100
AcDbLine
 10
75.28837848680617
 20
14.81703526489875
 30
0.0
 11
75.28837848680617
 21
11.5709148659406
 31
0.0
  0
LINE
  5
50
330
1F
100
AcDbEntity
  8
DEFAULT
 62
     7
100
AcDbLine
 10
48.8812640858424
 20
11.35855399867306
 30
0.0
 11
73.67424662093308
 21
11.35855399867306
 31
0.0
  0
LINE
  5
51
330
1F
100
AcDbEntity
  8
DEFAULT
 62
     7
100
AcDbLine
 10
47.28837848680617
 20
11.5709148659406
 30
0.0
 11
75.28837848680617
 21
11.5709148659406
 31
0.0
  0
LINE
  5
52
330
1F
100
AcDbEntity
  8
DEFAULT
 62
     7
100
AcDbLine
 10
74.99102878178002
 20
11.5709148659406
 30
0.0
 11
74.99102878178002
 21
0.0
 31
0.0
  0
LINE
  5
53
330
1F
100
AcDbEntity
  8
DEFAULT
 62
     7
100
AcDbLine
 10
74.99102878178002
 20
0.0
 30
0.0
 11
73.67424662093308
 21
0.0
 31
0.0
  0
LINE
  5
54
330
1F
100
AcDbEntity
  8
DEFAULT
 62
     7
100
AcDbLine
 10
73.67424662093308
 20
0.0
 30
0.0
 11
73.67424662093308
 21
11.35855399867306
 31
0.0
  0
LINE
  5
55
330
1F
100
AcDbEntity
  8
DEFAULT
 62
     7
100
AcDbLine
 10
73.67424662093308
 20
11.35855399867306
 30
0.0
 11
74.99102878178002
 21
11.35855399867306
 31
0.0
  0
LINE
  5
56
330
1F
100
AcDbEntity
  8
DEFAULT
 62
     7
100
AcDbLine
 10
69.21408399458629
 20
23.27341896626273
 30
0.0
 11
69.21408399458629
 21
15.50000000000001
 31
0.0
  0
LINE
  5
57
330
1F
100
AcDbEntity
  8
DEFAULT
 62
     7
100
AcDbLine
 10
51.19633800718555
 20
11.5709148659406
 30
0.0
 11
51.19633800718555
 21
15.50000000000001
 31
0.0
  0
LINE
  5
58
330
1F
100
AcDbEntity
  8
DEFAULT
 62
     7
100
AcDbLine
 10
47.56448192499544
 20
11.35855399867306
 30
0.0
 11
48.88126408584241
 21
11.35855399867306
 31
0.0
  0
LINE
  5
59
330
1F
100
AcDbEntity
  8
DEFAULT
 62
     7
100
AcDbLine
 10
48.88126408584241
 20
11.35855399867306
 30
0.0
 11
48.88126408584241
 21
0.0
 31
0.0
  0
LINE
  5
5A
330
1F
100
AcDbEntity
  8
DEFAULT
 62
     7
100
AcDbLine
 10
48.88126408584241
 20
0.0
 30
0.0
 11
47.56448192499544
 21
0.0
 31
0.0
  0
LINE
  5
5B
330
1F
100
AcDbEntity
  8
DEFAULT
 62
     7
100
AcDbLine
 10
47.56448192499544
 20
0.0
 30
0.0
 11
47.56448192499544
 21
11.5709148659406
 31
0.0
  0
LINE
  5
5C
330
1F
100
AcDbEntity
  8
DEFAULT
 62
     7
100
AcDbLine
 10
29.0
 20
11.35855399867306
 30
0.0
 11
29.0
 21
28.91462658030397
 31
0.0
  0
LINE
  5
5D
330
1F
100
AcDbEntity
  8
DEFAULT
 62
     7
100
AcDbLine
 10
28.91463035071513
 20
28.99999999999999
 30
0.0
 11
0.0853696492848677
 21
28.99999999999999
 31
0.0
  0
ARC
  5
5E
330
1F
100
AcDbEntity
  8
DEFAULT
 62
     7
100
AcDbCircle
 10
27.97555366268707
 20
14.47555366268711
 30
0.0
 40
1.024446337313217
100
AcDbArc
 50
359.9999571957146
 51
44.99999999999874
  0
ARC
  5
5F
330
1F
100
AcDbEntity
  8
DEFAULT
 62
     7
100
AcDbCircle
 10
27.97555289734812
 20
14.47555181499336
 30
0.0
 40
1.024448185006641
100
AcDbArc
 50
45.00004280428737
 51
90.0
  0
LINE
  5
60
330
1F
100
AcDbEntity
  8
DEFAULT
 62
     7
100
AcDbLine
 10
27.97555289734812
 20
15.50000000000001
 30
0.0
 11
1.024447102651877
 21
15.50000000000001
 31
0.0
  0
ARC
  5
61
330
1F
100
AcDbEntity
  8
DEFAULT
 62
     7
100
AcDbCircle
 10
1.024446337312868
 20
14.47555366268714
 30
0.0
 40
1.024446337313149
100
AcDbArc
 50
89.99995719571294
 51
135.0000000000001
  0
ARC
  5
62
330
1F
100
AcDbEntity
  8
DEFAULT
 62
     7
100
AcDbCircle
 10
1.024446337312879
 20
14.47555366268713
 30
0.0
 40
1.024446337313165
100
AcDbArc
 50
135.0000000000001
 51
180.0000428042866
  0
LINE
  5
63
330
1F
100
AcDbEntity
  8
DEFAULT
 62
     7
100
AcDbLine
 10
28.96676759611356
 20
23.2487567069229
 30
0.0
 11
27.44114613201425
 21
23.2487567069229
 31
0.0
  0
ARC
  5
64
330
1F
100
AcDbEntity
  8
DEFAULT
 62
     7
100
AcDbCircle
 10
27.44114536667524
 20
22.22431036961007
 30
0.0
 40
1.024446337313125
100
AcDbArc
 50
89.99995719571268
 51
135.0000000000009
  0
ARC
  5
65
330
1F
100
AcDbEntity
  8
DEFAULT
 62
     7
100
AcDbCircle
 10
27.44114721436901
 20
22.22430960427104
 30
0.0
 40
1.024448185006625
100
AcDbArc
 50
135.0000428042869
 51
180.0
  0
LINE
  5
66
330
1F
100
AcDbEntity
  8
DEFAULT
 62
     7
100
AcDbLine
 10
26.41669902936238
 20
22.22430960427104
 30
0.0
 11
26.41669902936238
 21
15.50000000000001
 31
0.0
  0
LINE
  5
67
330
1F
100
AcDbEntity
  8
DEFAULT
 62
     7
100
AcDbLine
 10
28.38004637605716
 20
11.35855399867306
 30
0.0
 11
26.99055560657097
 21
11.35855399867306
 31
0.0
  0
LINE
  5
68
330
1F
100
AcDbEntity
  8
DEFAULT
 62
     7
100
AcDbLine
 10
26.99055560657097
 20
11.35855399867306
 30
0.0
 11
26.99055560657097
 21
11.5709148659406
 31
0.0
  0
LINE
  5
69
330
1F
100
AcDbEntity
  8
DEFAULT
 62
     7
100
AcDbLine
 10
28.38004637605716
 20
11.35855399867306
 30
0.0
 11
28.38004637605716
 21
0.0
 31
0.0
  0
LINE
  5
6A
330
1F
100
AcDbEntity
  8
DEFAULT
 62
     7
100
AcDbLine
 10
28.38004637605716
 20
0.0
 30
0.0
 11
29.0
 21
0.0
 31
0.0
  0
LINE
  5
6B
330
1F
100
AcDbEntity
  8
DEFAULT
 62
     7
100
AcDbLine
 10
29.0
 20
0.0
 30
0.0
 11
29.0
 21
11.35855399867306
 31
0.0
  0
LINE
  5
6C
330
1F
100
AcDbEntity
  8
DEFAULT
 62
     7
100
AcDbLine
 10
29.0
 20
11.35855399867306
 30
0.0
 11
28.38004637605716
 21
11.35855399867306
 31
0.0
  0
LINE
  5
6D
330
1F
100
AcDbEntity
  8
DEFAULT
 62
     7
100
AcDbLine
 10
0.0000000000000006
 20
11.5709148659406
 30
0.0
 11
29.0
 21
11.5709148659406
 31
0.0
  0
LINE
  5
6E
330
1F
100
AcDbEntity
  8
DEFAULT
 62
     7
100
AcDbLine
 10
0.0
 20
0.0
 30
0.0
 11
0.0000000000000006
 21
28.91462658030397
 31
0.0
  0
LINE
  5
6F
330
1F
100
AcDbEntity
  8
DEFAULT
 62
     7
100
AcDbLine
 10
0.0000000000000006
 20
28.91462658030397
 30
0.0
 11
0.0000000000000006
 21
11.35855399867306
 31
0.0
  0
LINE
  5
70
330
1F
100
AcDbEntity
  8
DEFAULT
 62
     7
100
AcDbLine
 10
0.0
 20
0.0
 30
0.0
 11
0.0000000000000006
 21
11.35855399867306
 31
0.0
  0
LINE
  5
71
330
1F
100
AcDbEntity
  8
DEFAULT
 62
     7
100
AcDbLine
 10
0.6199573943539924
 20
11.35855399867306
 30
0.0
 11
0.6199573943539918
 21
0.0
 31
0.0
  0
LINE
  5
72
330
1F
100
AcDbEntity
  8
DEFAULT
 62
     7
100
AcDbLine
 10
0.0000000000000006
 20
11.35855399867306
 30
0.0
 11
0.6199573943539924
 21
11.35855399867306
 31
0.0
  0
LINE
  5
73
330
1F
100
AcDbEntity
  8
DEFAULT
 62
     7
100
AcDbLine
 10
0.6199573943539924
 20
11.35855399867306
 30
0.0
 11
2.009444393429026
 21
11.35855399867306
 31
0.0
  0
LINE
  5
74
330
1F
100
AcDbEntity
  8
DEFAULT
 62
     7
100
AcDbLine
 10
2.009444393429026
 20
11.35855399867306
 30
0.0
 11
2.009444393429026
 21
11.5709148659406
 31
0.0
  0
LINE
  5
75
330
1F
100
AcDbEntity
  8
DEFAULT
 62
     7
100
AcDbLine
 10
0.0332361742975942
 20
23.2487567069229
 30
0.0
 11
1.558853867985744
 21
23.2487567069229
 31
0.0
  0
ARC
  5
76
330
1F
100
AcDbEntity
  8
DEFAULT
 62
     7
100
AcDbCircle
 10
1.558854633324756
 20
22.22431036961005
 30
0.0
 40
1.024446337313144
100
AcDbArc
 50
44.99999999999975
 51
90.0000428042873
  0
ARC
  5
77
330
1F
100
AcDbEntity
  8
DEFAULT
 62
     7
100
AcDbCircle
 10
1.558852785630996
 20
22.22430960427104
 30
0.0
 40
1.024448185006624
100
AcDbArc
 50
0.0
 51
44.99995719571316
  0
LINE
  5
78
330
1F
100
AcDbEntity
  8
DEFAULT
 62
     7
100
AcDbLine
 10
2.58330097063762
 20
22.22430960427104
 30
0.0
 11
2.58330097063762
 21
15.50000000000001
 31
0.0
  0
LINE
  5
79
330
1F
100
AcDbEntity
  8
DEFAULT
 62
     7
100
AcDbLine
 10
0.6199573943539918
 20
0.0
 30
0.0
 11
0.0
 21
0.0
 31
0.0
  0
ENDSEC
  0
SECTION
  2
OBJECTS
  0
DICTIONARY
  5
C
330
0
100
AcDbDictionary
  3
ACAD_GROUP
350
D
  3
ACAD_LAYOUT
350
1A
  3
ACAD_MLINESTYLE
350
17
  3
ACAD_PLOTSETTINGS
350
19
  3
ACDBHEADERROUNDTRIPXREC
350
7A
  0
DICTIONARY
  5
9A
330
29
100
AcDbDictionary
280
     1
  3
ACAD_XREC_ROUNDTRIP
360
9B
  0
DICTIONARY
  5
D
102
{ACAD_REACTORS
330
C
102
}
330
C
100
AcDbDictionary
  0
DICTIONARY
  5
1A
102
{ACAD_REACTORS
330
C
102
}
330
C
100
AcDbDictionary
  0
DICTIONARY
  5
17
102
{ACAD_REACTORS
330
C
102
}
330
C
100
AcDbDictionary
  3
STANDARD
350
18
  0
DICTIONARY
  5
19
102
{ACAD_REACTORS
330
C
102
}
330
C
100
AcDbDictionary
  0
DICTIONARY
  5
7A
102
{ACAD_REACTORS
330
C
102
}
330
C
100
AcDbDictionary
  3
CEPSNTYPE
350
83
  3
DIMSTYLEDATA
350
99
  3
FINGERPRINTGUID
350
84
  3
HYPERLINKBASE
350
7D
  3
INSUNITS
350
82
  3
LAYOUTDICT
350
7F
  3
LWETCUNION
350
81
  3
PLOTSETDICT
350
80
  3
PSVPSCALE
350
86
  3
PUCSBASE
350
89
  3
PUCSORGBACK
350
8F
  3
PUCSORGBOTTOM
350
8B
  3
PUCSORGFRONT
350
8E
  3
PUCSORGLEFT
350
8C
  3
PUCSORGRIGHT
350
8D
  3
PUCSORGTOP
350
8A
  3
PUCSORTHOREF
350
87
  3
PUCSORTHOVIEW
350
88
  3
STYLESHEET
350
7E
  3
TSTACKALIGN
350
7B
  3
TSTACKSIZE
350
7C
  3
UCSBASE
350
92
  3
UCSORGBACK
350
98
  3
UCSORGBOTTOM
350
94
  3
UCSORGFRONT
350
97
  3
UCSORGLEFT
350
95
  3
UCSORGRIGHT
350
96
  3
UCSORGTOP
350
93
  3
UCSORTHOREF
350
90
  3
UCSORTHOVIEW
350
91
  3
VERSIONGUID
350
85
  0
XRECORD
  5
9B
102
{ACAD_REACTORS
330
9A
102
}
330
9A
100
AcDbXrecord
102
UCS
 74
     0
 71
     1
 10
0.0
 20
0.0
 30
0.0
 10
1.0
 20
0.0
 30
0.0
 10
0.0
 20
1.0
 30
0.0
146
0.0
 79
     0
102
VIEW
281
     0
  0
MLINESTYLE
  5
18
102
{ACAD_REACTORS
330
17
102
}
330
17
100
AcDbMlineStyle
  2
Standard
 70
     0
  3

 62
   256
 51
90.0
 52
90.0
 71
     2
 49
0.5
 62
   256
  6
BYLAYER
 49
-0.5
 62
   256
  6
BYLAYER
  0
XRECORD
  5
83
102
{ACAD_REACTORS
330
7A
102
}
330
7A
100
AcDbXrecord
 90
        0
  0
XRECORD
  5
99
102
{ACAD_REACTORS
330
7A
102
}
330
7A
100
AcDbXrecord
1000
DSTYLE
1002
{
1070
   340
340
11
1002
}
  0
XRECORD
  5
84
102
{ACAD_REACTORS
330
7A
102
}
330
7A
100
AcDbXrecord
  1
{FAEB1C30-E019-11D5-929B-00C0DF256EC4}
  0
XRECORD
  5
7D
102
{ACAD_REACTORS
330
7A
102
}
330
7A
100
AcDbXrecord
  1

  0
XRECORD
  5
82
102
{ACAD_REACTORS
330
7A
102
}
330
7A
100
AcDbXrecord
 90
        4
  0
XRECORD
  5
7F
102
{ACAD_REACTORS
330
7A
102
}
330
7A
100
AcDbXrecord
340
1A
  0
XRECORD
  5
81
102
{ACAD_REACTORS
330
7A
102
}
330
7A
100
AcDbXrecord
 90
     2560
  0
XRECORD
  5
80
102
{ACAD_REACTORS
330
7A
102
}
330
7A
100
AcDbXrecord
340
19
  0
XRECORD
  5
86
102
{ACAD_REACTORS
330
7A
102
}
330
7A
100
AcDbXrecord
 40
0.0
  0
XRECORD
  5
89
102
{ACAD_REACTORS
330
7A
102
}
330
7A
100
AcDbXrecord
340
0
  0
XRECORD
  5
8F
102
{ACAD_REACTORS
330
7A
102
}
330
7A
100
AcDbXrecord
 10
0.0
 20
0.0
 30
0.0
  0
XRECORD
  5
8B
102
{ACAD_REACTORS
330
7A
102
}
330
7A
100
AcDbXrecord
 10
0.0
 20
0.0
 30
0.0
  0
XRECORD
  5
8E
102
{ACAD_REACTORS
330
7A
102
}
330
7A
100
AcDbXrecord
 10
0.0
 20
0.0
 30
0.0
  0
XRECORD
  5
8C
102
{ACAD_REACTORS
330
7A
102
}
330
7A
100
AcDbXrecord
 10
0.0
 20
0.0
 30
0.0
  0
XRECORD
  5
8D
102
{ACAD_REACTORS
330
7A
102
}
330
7A
100
AcDbXrecord
 10
0.0
 20
0.0
 30
0.0
  0
XRECORD
  5
8A
102
{ACAD_REACTORS
330
7A
102
}
330
7A
100
AcDbXrecord
 10
0.0
 20
0.0
 30
0.0
  0
XRECORD
  5
87
102
{ACAD_REACTORS
330
7A
102
}
330
7A
100
AcDbXrecord
340
0
  0
XRECORD
  5
88
102
{ACAD_REACTORS
330
7A
102
}
330
7A
100
AcDbXrecord
 70
     0
  0
XRECORD
  5
7E
102
{ACAD_REACTORS
330
7A
102
}
330
7A
100
AcDbXrecord
  1

  0
XRECORD
  5
7B
102
{ACAD_REACTORS
330
7A
102
}
330
7A
100
AcDbXrecord
 90
        1
  0
XRECORD
  5
7C
102
{ACAD_REACTORS
330
7A
102
}
330
7A
100
AcDbXrecord
 90
       70
  0
XRECORD
  5
92
102
{ACAD_REACTORS
330
7A
102
}
330
7A
100
AcDbXrecord
340
0
  0
XRECORD
  5
98
102
{ACAD_REACTORS
330
7A
102
}
330
7A
100
AcDbXrecord
 10
0.0
 20
0.0
 30
0.0
  0
XRECORD
  5
94
102
{ACAD_REACTORS
330
7A
102
}
330
7A
100
AcDbXrecord
 10
0.0
 20
0.0
 30
0.0
  0
XRECORD
  5
97
102
{ACAD_REACTORS
330
7A
102
}
330
7A
100
AcDbXrecord
 10
0.0
 20
0.0
 30
0.0
  0
XRECORD
  5
95
102
{ACAD_REACTORS
330
7A
102
}
330
7A
100
AcDbXrecord
 10
0.0
 20
0.0
 30
0.0
  0
XRECORD
  5
96
102
{ACAD_REACTORS
330
7A
102
}
330
7A
100
AcDbXrecord
 10
0.0
 20
0.0
 30
0.0
  0
XRECORD
  5
93
102
{ACAD_REACTORS
330
7A
102
}
330
7A
100
AcDbXrecord
 10
0.0
 20
0.0
 30
0.0
  0
XRECORD
  5
90
102
{ACAD_REACTORS
330
7A
102
}
330
7A
100
AcDbXrecord
340
0
  0
XRECORD
  5
91
102
{ACAD_REACTORS
330
7A
102
}
330
7A
100
AcDbXrecord
 70
     0
  0
XRECORD
  5
85
102
{ACAD_REACTORS
330
7A
102
}
330
7A
100
AcDbXrecord
  1
{FAEB1C32-E019-11D5-929B-00C0DF256EC4}
  0
ENDSEC
  0
EOF
