  0
SECTION
  2
HEADER
  9
$ACADVER
  1
AC1014
  9
$ACADMAINTVER
 70
     9
  9
$DWGCODEPAGE
  3
ANSI_1252
  9
$INSBASE
 10
0.0
 20
0.0
 30
0.0
  9
$EXTMIN
 10
1.000000000000000E+20
 20
1.000000000000000E+20
 30
1.000000000000000E+20
  9
$EXTMAX
 10
-1.000000000000000E+20
 20
-1.000000000000000E+20
 30
-1.000000000000000E+20
  9
$LIMMIN
 10
0.0
 20
0.0
  9
$LIMMAX
 10
12.0
 20
9.0
  9
$ORTHOMODE
 70
     0
  9
$REGENMODE
 70
     1
  9
$FILLMODE
 70
     1
  9
$QTEXTMODE
 70
     0
  9
$MIRRTEXT
 70
     1
  9
$DRAGMODE
 70
     2
  9
$LTSCALE
 40
1.0
  9
$OSMODE
 70
    37
  9
$ATTMODE
 70
     1
  9
$TEXTSIZE
 40
0.2
  9
$TRACEWID
 40
0.05
  9
$TEXTSTYLE
  7
STANDARD
  9
$CLAYER
  8
DEFAULT
  9
$CELTYPE
  6
BYLAYER
  9
$CECOLOR
 62
   256
  9
$CELTSCALE
 40
1.0
  9
$DELOBJ
 70
     1
  9
$DISPSILH
 70
     0
  9
$DIMSCALE
 40
1.0
  9
$DIMASZ
 40
0.18
  9
$DIMEXO
 40
0.0625
  9
$DIMDLI
 40
0.38
  9
$DIMRND
 40
0.0
  9
$DIMDLE
 40
0.0
  9
$DIMEXE
 40
0.18
  9
$DIMTP
 40
0.0
  9
$DIMTM
 40
0.0
  9
$DIMTXT
 40
0.18
  9
$DIMCEN
 40
0.09
  9
$DIMTSZ
 40
0.0
  9
$DIMTOL
 70
     0
  9
$DIMLIM
 70
     0
  9
$DIMTIH
 70
     1
  9
$DIMTOH
 70
     1
  9
$DIMSE1
 70
     0
  9
$DIMSE2
 70
     0
  9
$DIMTAD
 70
     0
  9
$DIMZIN
 70
     0
  9
$DIMBLK
  1

  9
$DIMASO
 70
     1
  9
$DIMSHO
 70
     1
  9
$DIMPOST
  1

  9
$DIMAPOST
  1

  9
$DIMALT
 70
     0
  9
$DIMALTD
 70
     2
  9
$DIMALTF
 40
25.4
  9
$DIMLFAC
 40
1.0
  9
$DIMTOFL
 70
     0
  9
$DIMTVP
 40
0.0
  9
$DIMTIX
 70
     0
  9
$DIMSOXD
 70
     0
  9
$DIMSAH
 70
     0
  9
$DIMBLK1
  1

  9
$DIMBLK2
  1

  9
$DIMSTYLE
  2
STANDARD
  9
$DIMCLRD
 70
     0
  9
$DIMCLRE
 70
     0
  9
$DIMCLRT
 70
     0
  9
$DIMTFAC
 40
1.0
  9
$DIMGAP
 40
0.09
  9
$DIMJUST
 70
     0
  9
$DIMSD1
 70
     0
  9
$DIMSD2
 70
     0
  9
$DIMTOLJ
 70
     1
  9
$DIMTZIN
 70
     0
  9
$DIMALTZ
 70
     0
  9
$DIMALTTZ
 70
     0
  9
$DIMFIT
 70
     3
  9
$DIMUPT
 70
     0
  9
$DIMUNIT
 70
     2
  9
$DIMDEC
 70
     4
  9
$DIMTDEC
 70
     4
  9
$DIMALTU
 70
     2
  9
$DIMALTTD
 70
     2
  9
$DIMTXSTY
  7
STANDARD
  9
$DIMAUNIT
 70
     0
  9
$LUNITS
 70
     2
  9
$LUPREC
 70
     0
  9
$SKETCHINC
 40
0.1
  9
$FILLETRAD
 40
0.5
  9
$AUNITS
 70
     0
  9
$AUPREC
 70
     0
  9
$MENU
  1
.
  9
$ELEVATION
 40
0.0
  9
$PELEVATION
 40
0.0
  9
$THICKNESS
 40
0.0
  9
$LIMCHECK
 70
     0
  9
$CHAMFERA
 40
0.5
  9
$CHAMFERB
 40
0.5
  9
$CHAMFERC
 40
1.0
  9
$CHAMFERD
 40
0.0
  9
$SKPOLY
 70
     0
  9
$TDCREATE
 40
2453768.460054109
  9
$TDUPDATE
 40
2453768.460054121
  9
$TDINDWG
 40
0.0000000116
  9
$TDUSRTIMER
 40
0.0000000116
  9
$USRTIMER
 70
     1
  9
$ANGBASE
 50
0.0
  9
$ANGDIR
 70
     0
  9
$PDMODE
 70
     0
  9
$PDSIZE
 40
0.0
  9
$PLINEWID
 40
0.0
  9
$COORDS
 70
     1
  9
$SPLFRAME
 70
     0
  9
$SPLINETYPE
 70
     6
  9
$SPLINESEGS
 70
     8
  9
$ATTDIA
 70
     0
  9
$ATTREQ
 70
     1
  9
$HANDLING
 70
     1
  9
$HANDSEED
  5
A2
  9
$SURFTAB1
 70
     6
  9
$SURFTAB2
 70
     6
  9
$SURFTYPE
 70
     6
  9
$SURFU
 70
     6
  9
$SURFV
 70
     6
  9
$UCSNAME
  2

  9
$UCSORG
 10
0.0
 20
0.0
 30
0.0
  9
$UCSXDIR
 10
1.0
 20
0.0
 30
0.0
  9
$UCSYDIR
 10
0.0
 20
1.0
 30
0.0
  9
$PUCSNAME
  2

  9
$PUCSORG
 10
0.0
 20
0.0
 30
0.0
  9
$PUCSXDIR
 10
1.0
 20
0.0
 30
0.0
  9
$PUCSYDIR
 10
0.0
 20
1.0
 30
0.0
  9
$USERI1
 70
     0
  9
$USERI2
 70
     0
  9
$USERI3
 70
     0
  9
$USERI4
 70
     0
  9
$USERI5
 70
     0
  9
$USERR1
 40
0.0
  9
$USERR2
 40
0.0
  9
$USERR3
 40
0.0
  9
$USERR4
 40
0.0
  9
$USERR5
 40
0.0
  9
$WORLDVIEW
 70
     1
  9
$SHADEDGE
 70
     3
  9
$SHADEDIF
 70
    70
  9
$TILEMODE
 70
     1
  9
$MAXACTVP
 70
    64
  9
$PINSBASE
 10
0.0
 20
0.0
 30
0.0
  9
$PLIMCHECK
 70
     0
  9
$PEXTMIN
 10
1.000000000000000E+20
 20
1.000000000000000E+20
 30
1.000000000000000E+20
  9
$PEXTMAX
 10
-1.000000000000000E+20
 20
-1.000000000000000E+20
 30
-1.000000000000000E+20
  9
$PLIMMIN
 10
0.0
 20
0.0
  9
$PLIMMAX
 10
12.0
 20
9.0
  9
$UNITMODE
 70
     0
  9
$VISRETAIN
 70
     1
  9
$PLINEGEN
 70
     0
  9
$PSLTSCALE
 70
     1
  9
$TREEDEPTH
 70
  3020
  9
$PICKSTYLE
 70
     1
  9
$CMLSTYLE
  2
STANDARD
  9
$CMLJUST
 70
     0
  9
$CMLSCALE
 40
1.0
  9
$PROXYGRAPHICS
 70
     1
  9
$MEASUREMENT
 70
     0
  0
ENDSEC
  0
SECTION
  2
CLASSES
  0
CLASS
  1
ACDBDICTIONARYWDFLT
  2
AcDbDictionaryWithDefault
  3
ObjectDBX Classes
 90
        0
280
     0
281
     0
  0
CLASS
  1
XRECORD
  2
AcDbXrecord
  3
AutoCAD 2000
 90
        0
280
     0
281
     0
  0
CLASS
  1
LWPOLYLINE
  2
AcDbPolyline
  3
AutoCAD 2000
 90
        0
280
     0
281
     1
  0
CLASS
  1
HATCH
  2
AcDbHatch
  3
AutoCAD 2000
 90
        0
280
     0
281
     1
  0
CLASS
  1
ACDBPLACEHOLDER
  2
AcDbPlaceHolder
  3
ObjectDBX Classes
 90
        0
280
     0
281
     0
  0
CLASS
  1
LAYOUT
  2
AcDbLayout
  3
ObjectDBX Classes
 90
        0
280
     0
281
     0
  0
ENDSEC
  0
SECTION
  2
TABLES
  0
TABLE
  2
VPORT
  5
8
330
0
100
AcDbSymbolTable
 70
     2
  0
VPORT
  5
29
102
{ACAD_XDICTIONARY
360
A0
102
}
330
8
100
AcDbSymbolTableRecord
100
AcDbViewportTableRecord
  2
*ACTIVE
 70
     0
 10
0.0
 20
0.0
 11
1.0
 21
1.0
 12
42.36455917559705
 22
40.77580815407661
 13
0.0
 23
0.0
 14
0.5
 24
0.5
 15
0.5
 25
0.5
 16
0.0
 26
0.0
 36
80.21230066091221
 17
0.0
 27
0.0
 37
0.0
 40
81.55243182431632
 41
1.972972972850329
 42
50.0
 43
0.0
 44
0.0
 50
0.0
 51
0.0
 71
     0
 72
   100
 73
     1
 74
     3
 75
     0
 76
     0
 77
     0
 78
     0
  0
ENDTAB
  0
TABLE
  2
LTYPE
  5
5
330
0
100
AcDbSymbolTable
 70
     1
  0
LTYPE
  5
14
330
5
100
AcDbSymbolTableRecord
100
AcDbLinetypeTableRecord
  2
BYBLOCK
 70
     0
  3

 72
    65
 73
     0
 40
0.0
  0
LTYPE
  5
15
330
5
100
AcDbSymbolTableRecord
100
AcDbLinetypeTableRecord
  2
BYLAYER
 70
     0
  3

 72
    65
 73
     0
 40
0.0
  0
LTYPE
  5
16
330
5
100
AcDbSymbolTableRecord
100
AcDbLinetypeTableRecord
  2
CONTINUOUS
 70
     0
  3
Solid line
 72
    65
 73
     0
 40
0.0
  0
ENDTAB
  0
TABLE
  2
LAYER
  5
2
330
0
100
AcDbSymbolTable
 70
     2
  0
LAYER
  5
10
330
2
100
AcDbSymbolTableRecord
100
AcDbLayerTableRecord
  2
0
 70
     0
 62
     7
  6
CONTINUOUS
  0
LAYER
  5
2F
330
2
100
AcDbSymbolTableRecord
100
AcDbLayerTableRecord
  2
DEFAULT
 70
     0
 62
     7
  6
CONTINUOUS
  0
ENDTAB
  0
TABLE
  2
STYLE
  5
3
330
0
100
AcDbSymbolTable
 70
     1
  0
STYLE
  5
11
330
3
100
AcDbSymbolTableRecord
100
AcDbTextStyleTableRecord
  2
STANDARD
 70
     0
 40
0.0
 41
1.0
 50
0.0
 71
     0
 42
0.2
  3
txt
  4

  0
ENDTAB
  0
TABLE
  2
VIEW
  5
6
330
0
100
AcDbSymbolTable
 70
     0
  0
ENDTAB
  0
TABLE
  2
UCS
  5
7
330
0
100
AcDbSymbolTable
 70
     0
  0
ENDTAB
  0
TABLE
  2
APPID
  5
9
330
0
100
AcDbSymbolTable
 70
     1
  0
APPID
  5
12
330
9
100
AcDbSymbolTableRecord
100
AcDbRegAppTableRecord
  2
ACAD
 70
     0
  0
ENDTAB
  0
TABLE
  2
DIMSTYLE
  5
A
330
0
100
AcDbSymbolTable
 70
     1
  0
DIMSTYLE
105
27
330
A
100
AcDbSymbolTableRecord
100
AcDbDimStyleTableRecord
  2
STANDARD
 70
     0
  3

  4

  5

  6

  7

 40
1.0
 41
0.18
 42
0.0625
 43
0.38
 44
0.18
 45
0.0
 46
0.0
 47
0.0
 48
0.0
140
0.18
141
0.09
142
0.0
143
25.4
144
1.0
145
0.0
146
1.0
147
0.09
 71
     0
 72
     0
 73
     1
 74
     1
 75
     0
 76
     0
 77
     0
 78
     0
170
     0
171
     2
172
     0
173
     0
174
     0
175
     0
176
     0
177
     0
178
     0
270
     2
271
     4
272
     4
273
     2
274
     2
340
11
275
     0
280
     0
281
     0
282
     0
283
     1
284
     0
285
     0
286
     0
287
     3
288
     0
  0
ENDTAB
  0
TABLE
  2
BLOCK_RECORD
  5
1
330
0
100
AcDbSymbolTable
 70
     1
  0
BLOCK_RECORD
  5
1F
330
1
100
AcDbSymbolTableRecord
100
AcDbBlockTableRecord
  2
*MODEL_SPACE
  0
BLOCK_RECORD
  5
1B
330
1
100
AcDbSymbolTableRecord
100
AcDbBlockTableRecord
  2
*PAPER_SPACE
  0
ENDTAB
  0
ENDSEC
  0
SECTION
  2
BLOCKS
  0
BLOCK
  5
20
330
1F
100
AcDbEntity
  8
0
100
AcDbBlockBegin
  2
*MODEL_SPACE
 70
     0
 71
     0
 10
0.0
 20
0.0
 30
0.0
  3
*MODEL_SPACE
  1

  0
ENDBLK
  5
21
330
1F
100
AcDbEntity
  8
0
100
AcDbBlockEnd
  0
BLOCK
  5
1C
330
1B
100
AcDbEntity
 67
     1
  8
0
100
AcDbBlockBegin
  2
*PAPER_SPACE
 70
     0
 71
     0
 10
0.0
 20
0.0
 30
0.0
  3
*PAPER_SPACE
  1

  0
ENDBLK
  5
1D
330
1B
100
AcDbEntity
 67
     1
  8
0
100
AcDbBlockEnd
  0
ENDSEC
  0
SECTION
  2
ENTITIES
  0
LINE
  5
2A
330
1F
100
AcDbEntity
  8
0
 62
     7
100
AcDbLine
 10
4.499999999999999
 20
55.09922775415323
 30
0.0
 11
4.499999999999999
 21
75.6763589491523
 31
0.0
  0
ARC
  5
2B
330
1F
100
AcDbEntity
  8
0
 62
     7
100
AcDbCircle
 10
5.000000000000917
 20
75.67635894915139
 30
0.0
 40
0.5000000000009095
100
AcDbArc
 50
90.00000000000193
 51
179.9999999998958
  0
LINE
  5
2C
330
1F
100
AcDbEntity
  8
0
 62
     7
100
AcDbLine
 10
5.0000000000009
 20
76.1763589491523
 30
0.0
 11
30.99999999999908
 21
76.17635894915321
 31
0.0
  0
ARC
  5
2D
330
1F
100
AcDbEntity
  8
0
 62
     7
100
AcDbCircle
 10
30.9999999999982
 20
75.6763589491523
 30
0.0
 40
0.5000000000009095
100
AcDbArc
 50
0.0000000000016284
 51
89.99999999989944
  0
LINE
  5
2E
330
1F
100
AcDbEntity
  8
0
 62
     7
100
AcDbLine
 10
31.49999999999911
 20
75.67635894915232
 30
0.0
 11
31.5
 21
55.09922775415323
 31
0.0
  0
LINE
  5
30
330
1F
100
AcDbEntity
  8
DEFAULT
100
AcDbLine
 10
36.00000000000374
 20
55.59922775415671
 30
0.0
 11
36.0
 21
47.09922775415325
 31
0.0
  0
LINE
  5
31
330
1F
100
AcDbEntity
  8
DEFAULT
100
AcDbLine
 10
-0.000000000003746
 20
55.59922775415675
 30
0.0
 11
0.0
 21
47.09922775415325
 31
0.0
  0
LINE
  5
32
330
1F
100
AcDbEntity
  8
0
 62
     7
100
AcDbLine
 10
4.499999999999999
 20
55.09922775415323
 30
0.0
 11
0.4999999999962546
 21
55.09922775415323
 31
0.0
  0
ARC
  5
33
330
1F
100
AcDbEntity
  8
0
 62
     7
100
AcDbCircle
 10
0.4999999999997642
 20
55.59922775415674
 30
0.0
 40
0.5000000000035101
100
AcDbArc
 50
179.9999999999992
 51
269.9999999995978
  0
LINE
  5
34
330
1F
100
AcDbEntity
  8
0
 62
     7
100
AcDbLine
 10
-0.000000000003746
 20
55.59922775415675
 30
0.0
 11
-0.0000000000036495
 21
81.0516163081569
 31
0.0
  0
ARC
  5
35
330
1F
100
AcDbEntity
  8
0
 62
     7
100
AcDbCircle
 10
0.4999999999963473
 20
81.05161630815323
 30
0.0
 40
0.5
100
AcDbArc
 50
90.0
 51
179.9999999995799
  0
LINE
  5
36
330
1F
100
AcDbEntity
  8
0
 62
     7
100
AcDbLine
 10
0.4999999999963474
 20
81.55161630815323
 30
0.0
 11
35.50000000000364
 21
81.55161630815323
 31
0.0
  0
ARC
  5
37
330
1F
100
AcDbEntity
  8
0
 62
     7
100
AcDbCircle
 10
35.50000000000731
 20
81.0516163081569
 30
0.0
 40
0.4999999999963336
100
AcDbArc
 50
0.0
 51
90.00000000042095
  0
LINE
  5
38
330
1F
100
AcDbEntity
  8
0
 62
     7
100
AcDbLine
 10
36.00000000000365
 20
81.0516163081569
 30
0.0
 11
36.00000000000374
 21
55.59922775415671
 31
0.0
  0
ARC
  5
39
330
1F
100
AcDbEntity
  8
0
 62
     7
100
AcDbCircle
 10
35.50000000000374
 20
55.59922775415323
 30
0.0
 40
0.5
100
AcDbArc
 50
270.0
 51
0.0000000003981546
  0
LINE
  5
3A
330
1F
100
AcDbEntity
  8
0
 62
     7
100
AcDbLine
 10
35.50000000000374
 20
55.09922775415323
 30
0.0
 11
31.5
 21
55.09922775415323
 31
0.0
  0
LINE
  5
3B
330
1F
100
AcDbEntity
  8
0
 62
     7
100
AcDbLine
 10
31.49999999999942
 20
25.52
 30
0.0
 11
35.50000000000025
 21
25.52
 31
0.0
  0
ARC
  5
3C
330
1F
100
AcDbEntity
  8
0
 62
     7
100
AcDbCircle
 10
35.50000000000047
 20
25.02000000000022
 30
0.0
 40
0.4999999999997726
100
AcDbArc
 50
359.999999999998
 51
90.00000000002443
  0
LINE
  5
3D
330
1F
100
AcDbEntity
  8
0
 62
     7
100
AcDbLine
 10
36.00000000000024
 20
25.02000000000021
 30
0.0
 11
36.0
 21
17.03
 31
0.0
  0
LINE
  5
3E
330
1F
100
AcDbEntity
  8
0
 62
     7
100
AcDbLine
 10
4.500000000000569
 20
25.52
 30
0.0
 11
0.499999999999746
 21
25.52
 31
0.0
  0
ARC
  5
3F
330
1F
100
AcDbEntity
  8
0
 62
     7
100
AcDbCircle
 10
0.4999999999995224
 20
25.02000000000022
 30
0.0
 40
0.4999999999997762
100
AcDbArc
 50
89.99999999997435
 51
180.0000000000016
  0
LINE
  5
40
330
1F
100
AcDbEntity
  8
0
 62
     7
100
AcDbLine
 10
-0.0000000000002537
 20
25.02000000000021
 30
0.0
 11
0.0
 21
17.03
 31
0.0
  0
LINE
  5
41
330
1F
100
AcDbEntity
  8
0
 62
     7
100
AcDbLine
 10
50.27672979719785
 20
8.26
 30
0.0
 11
50.27672979719873
 21
25.01999999999909
 31
0.0
  0
ARC
  5
42
330
1F
100
AcDbEntity
  8
0
 62
     7
100
AcDbCircle
 10
50.77672979719874
 20
25.02
 30
0.0
 40
0.5000000000000036
100
AcDbArc
 50
90.0
 51
180.0000000001042
  0
LINE
  5
43
330
1F
100
AcDbEntity
  8
0
 62
     7
100
AcDbLine
 10
50.77672979719874
 20
25.52
 30
0.0
 11
76.22911835119693
 21
25.52
 31
0.0
  0
ARC
  5
44
330
1F
100
AcDbEntity
  8
0
 62
     7
100
AcDbCircle
 10
76.22911835119598
 20
25.01999999999904
 30
0.0
 40
0.5000000000009521
100
AcDbArc
 50
0.0000000000069209
 51
89.99999999989089
  0
LINE
  5
45
330
1F
100
AcDbEntity
  8
0
 62
     7
100
AcDbLine
 10
76.72911835119693
 20
25.0199999999991
 30
0.0
 11
76.72911835119786
 21
17.03
 31
0.0
  0
LINE
  5
46
330
1F
100
AcDbEntity
  8
0
 62
     7
100
AcDbLine
 10
56.76198631919785
 20
25.52
 30
0.0
 11
55.75137524329804
 21
28.32917968568192
 31
0.0
  0
ARC
  5
47
330
1F
100
AcDbEntity
  8
0
 62
     7
100
AcDbCircle
 10
56.22185595966737
 20
28.49843657778563
 30
0.0
 40
0.5000000000000116
100
AcDbArc
 50
109.7863516279596
 51
199.786351619775
  0
LINE
  5
48
330
1F
100
AcDbEntity
  8
0
 62
     7
100
AcDbLine
 10
56.05259906749645
 20
28.96891729413079
 30
0.0
 11
61.22788694682011
 21
30.83074310784073
 31
0.0
  0
ARC
  5
49
330
1F
100
AcDbEntity
  8
0
 62
     7
100
AcDbCircle
 10
61.39714383899073
 20
30.360262391495
 30
0.0
 40
0.500000000000443
100
AcDbArc
 50
19.7863516269882
 51
109.7863516279055
  0
LINE
  5
4A
330
1F
100
AcDbEntity
  8
0
 62
     7
100
AcDbLine
 10
61.86762455533917
 20
30.52951928365809
 30
0.0
 11
63.66981460419785
 21
25.52
 31
0.0
  0
LINE
  5
4B
330
1F
100
AcDbEntity
  8
0
 62
     7
100
AcDbLine
 10
4.499999999999999
 20
17.03
 30
0.0
 11
4.500000000000899
 21
30.43013119599908
 31
0.0
  0
ARC
  5
4C
330
1F
100
AcDbEntity
  8
0
 62
     7
100
AcDbCircle
 10
5.0000000000009
 20
30.43013119599999
 30
0.0
 40
0.5
100
AcDbArc
 50
90.0
 51
180.0000000001042
  0
LINE
  5
4D
330
1F
100
AcDbEntity
  8
0
 62
     7
100
AcDbLine
 10
5.0000000000009
 20
30.93013119599999
 30
0.0
 11
30.99999999999909
 21
30.93013119599999
 31
0.0
  0
ARC
  5
4E
330
1F
100
AcDbEntity
  8
0
 62
     7
100
AcDbCircle
 10
30.99999999999815
 20
30.43013119599905
 30
0.0
 40
0.500000000000945
100
AcDbArc
 50
0.0000000000040711
 51
89.9999999998913
  0
LINE
  5
4F
330
1F
100
AcDbEntity
  8
0
 62
     7
100
AcDbLine
 10
31.49999999999909
 20
30.43013119599908
 30
0.0
 11
31.5
 21
17.03
 31
0.0
  0
LINE
  5
50
330
1F
100
AcDbEntity
  8
0
 62
     7
100
AcDbLine
 10
4.749999999999998
 20
70.36521879915324
 30
0.0
 11
31.24999999999999
 21
70.36521879915324
 31
0.0
  0
LINE
  5
51
330
1F
100
AcDbEntity
  8
0
 62
     7
100
AcDbLine
 10
31.5
 20
70.28059035315323
 30
0.0
 11
31.24999999999999
 21
70.36521879915324
 31
0.0
  0
LINE
  5
52
330
1F
100
AcDbEntity
  8
0
 62
     7
100
AcDbLine
 10
4.499999999999999
 20
70.28059035315323
 30
0.0
 11
4.749999999999998
 21
70.36521879915324
 31
0.0
  0
LINE
  5
53
330
1F
100
AcDbEntity
  8
0
 62
     7
100
AcDbLine
 10
31.5
 20
65.10422775415324
 30
0.0
 11
4.5
 21
65.10422775415324
 31
0.0
  0
LINE
  5
54
330
1F
100
AcDbEntity
  8
0
 62
     7
100
AcDbLine
 10
0.0
 20
47.09922775415325
 30
0.0
 11
36.0
 21
47.09922775415325
 31
0.0
  0
LINE
  5
55
330
1F
100
AcDbEntity
  8
0
 62
     7
100
AcDbLine
 10
0.0
 20
0.0
 30
0.0
 11
0.0
 21
8.25
 31
0.0
  0
LINE
  5
56
330
1F
100
AcDbEntity
  8
0
 62
     7
100
AcDbLine
 10
0.0
 20
8.26
 30
0.0
 11
0.0
 21
11.01
 31
0.0
  0
LINE
  5
57
330
1F
100
AcDbEntity
  8
0
 62
     7
100
AcDbLine
 10
0.0
 20
11.02
 30
0.0
 11
0.0
 21
17.02
 31
0.0
  0
LINE
  5
58
330
1F
100
AcDbEntity
  8
0
 62
     7
100
AcDbLine
 10
0.3796680829999998
 20
8.25
 30
0.0
 11
0.3796680829999998
 21
7.999999999999999
 31
0.0
  0
LINE
  5
59
330
1F
100
AcDbEntity
  8
0
 62
     7
100
AcDbLine
 10
0.4267766949999995
 20
8.25
 30
0.0
 11
0.4267766949999995
 21
7.999999999999999
 31
0.0
  0
LINE
  5
5A
330
1F
100
AcDbEntity
  8
0
 62
     7
100
AcDbLine
 10
0.6199999999999982
 20
0.0
 30
0.0
 11
0.6199999999999982
 21
7.999999999999999
 31
0.0
  0
LINE
  5
5B
330
1F
100
AcDbEntity
  8
0
 62
     7
100
AcDbLine
 10
2.999999999999998
 20
8.25
 30
0.0
 11
2.999999999999998
 21
7.999999999999999
 31
0.0
  0
LINE
  5
5C
330
1F
100
AcDbEntity
  8
0
 62
     7
100
AcDbLine
 10
0.0002629089999995
 20
0.0
 30
0.0
 11
0.6197370909999987
 21
0.0
 31
0.0
  0
LINE
  5
5D
330
1F
100
AcDbEntity
  8
0
 62
     7
100
AcDbLine
 10
35.380262909
 20
0.0
 30
0.0
 11
35.999737091
 21
0.0
 31
0.0
  0
LINE
  5
5E
330
1F
100
AcDbEntity
  8
0
 62
     7
100
AcDbLine
 10
0.3796680829999998
 20
7.999999999999999
 30
0.0
 11
2.999999999999998
 21
7.999999999999999
 31
0.0
  0
LINE
  5
5F
330
1F
100
AcDbEntity
  8
0
 62
     7
100
AcDbLine
 10
32.99999999999999
 20
7.999999999999999
 30
0.0
 11
35.620331916
 21
7.999999999999999
 31
0.0
  0
LINE
  5
60
330
1F
100
AcDbEntity
  8
0
 62
     7
100
AcDbLine
 10
2.999999999999998
 20
8.25
 30
0.0
 11
0.0
 21
8.25
 31
0.0
  0
LINE
  5
61
330
1F
100
AcDbEntity
  8
0
 62
     7
100
AcDbLine
 10
32.99999999999999
 20
8.25
 30
0.0
 11
36.0
 21
8.25
 31
0.0
  0
LINE
  5
62
330
1F
100
AcDbEntity
  8
0
 62
     7
100
AcDbLine
 10
0.0
 20
8.26
 30
0.0
 11
36.0
 21
8.26
 31
0.0
  0
LINE
  5
63
330
1F
100
AcDbEntity
  8
0
 62
     7
100
AcDbLine
 10
0.0
 20
17.02
 30
0.0
 11
36.0
 21
17.02
 31
0.0
  0
LINE
  5
64
330
1F
100
AcDbEntity
  8
0
 62
     7
100
AcDbLine
 10
0.0
 20
17.03
 30
0.0
 11
36.0
 21
17.03
 31
0.0
  0
LINE
  5
65
330
1F
100
AcDbEntity
  8
0
 62
     7
100
AcDbLine
 10
32.99999999999999
 20
8.25
 30
0.0
 11
32.99999999999999
 21
7.999999999999999
 31
0.0
  0
LINE
  5
66
330
1F
100
AcDbEntity
  8
0
 62
     7
100
AcDbLine
 10
35.38
 20
7.999999999999999
 30
0.0
 11
35.38
 21
-0.0000000000000009
 31
0.0
  0
LINE
  5
67
330
1F
100
AcDbEntity
  8
0
 62
     7
100
AcDbLine
 10
35.57322330499999
 20
8.25
 30
0.0
 11
35.57322330499999
 21
7.999999999999999
 31
0.0
  0
LINE
  5
68
330
1F
100
AcDbEntity
  8
0
 62
     7
100
AcDbLine
 10
35.620331916
 20
7.999999999999999
 30
0.0
 11
35.620331916
 21
8.25
 31
0.0
  0
LINE
  5
69
330
1F
100
AcDbEntity
  8
0
 62
     7
100
AcDbLine
 10
36.0
 20
0.0
 30
0.0
 11
36.0
 21
8.25
 31
0.0
  0
LINE
  5
6A
330
1F
100
AcDbEntity
  8
0
 62
     7
100
AcDbLine
 10
36.0
 20
8.26
 30
0.0
 11
36.0
 21
11.01
 31
0.0
  0
LINE
  5
6B
330
1F
100
AcDbEntity
  8
0
 62
     7
100
AcDbLine
 10
36.0
 20
11.02
 30
0.0
 11
36.0
 21
17.02
 31
0.0
  0
ARC
  5
6C
330
1F
100
AcDbEntity
  8
0
 62
     7
100
AcDbCircle
 10
83.22911835119787
 20
15.52000000000002
 30
0.0
 40
1.499999999999979
100
AcDbArc
 50
359.9999999999989
 51
90.00000000000054
  0
LINE
  5
6D
330
1F
100
AcDbEntity
  8
0
 62
     7
100
AcDbLine
 10
50.77672979719784
 20
0.0
 30
0.0
 11
50.77672979719784
 21
8.25
 31
0.0
  0
LINE
  5
6E
330
1F
100
AcDbEntity
  8
0
 62
     7
100
AcDbLine
 10
51.45473378119785
 20
8.25
 30
0.0
 11
51.45473378119785
 21
7.625
 31
0.0
  0
LINE
  5
6F
330
1F
100
AcDbEntity
  8
0
 62
     7
100
AcDbLine
 10
52.14672979719784
 20
0.0
 30
0.0
 11
52.14672979719784
 21
7.625
 31
0.0
  0
LINE
  5
70
330
1F
100
AcDbEntity
  8
0
 62
     7
100
AcDbLine
 10
56.71911835119784
 20
8.26
 30
0.0
 11
56.71911835119784
 21
17.03
 31
0.0
  0
LINE
  5
71
330
1F
100
AcDbEntity
  8
0
 62
     7
100
AcDbLine
 10
56.72911835119784
 20
11.02
 30
0.0
 11
56.72911835119784
 21
17.02
 31
0.0
  0
LINE
  5
72
330
1F
100
AcDbEntity
  8
0
 62
     7
100
AcDbLine
 10
56.72911835119784
 20
8.26
 30
0.0
 11
56.72911835119784
 21
11.01
 31
0.0
  0
LINE
  5
73
330
1F
100
AcDbEntity
  8
0
 62
     7
100
AcDbLine
 10
56.71911835119784
 20
17.03
 30
0.0
 11
76.72911835119786
 21
17.03
 31
0.0
  0
LINE
  5
74
330
1F
100
AcDbEntity
  8
0
 62
     7
100
AcDbLine
 10
83.22911835119784
 20
17.02
 30
0.0
 11
56.72911835119784
 21
17.02
 31
0.0
  0
LINE
  5
75
330
1F
100
AcDbEntity
  8
0
 62
     7
100
AcDbLine
 10
84.72911835119786
 20
8.26
 30
0.0
 11
56.72911835119784
 21
8.26
 31
0.0
  0
LINE
  5
76
330
1F
100
AcDbEntity
  8
0
 62
     7
100
AcDbLine
 10
50.27672979719785
 20
8.26
 30
0.0
 11
56.71911835119784
 21
8.26
 31
0.0
  0
LINE
  5
77
330
1F
100
AcDbEntity
  8
0
 62
     7
100
AcDbLine
 10
84.22911756819785
 20
8.25
 30
0.0
 11
50.77673058019785
 21
8.25
 31
0.0
  0
LINE
  5
78
330
1F
100
AcDbEntity
  8
0
 62
     7
100
AcDbLine
 10
83.55111436619785
 20
7.625
 30
0.0
 11
51.45473378219785
 21
7.625
 31
0.0
  0
LINE
  5
79
330
1F
100
AcDbEntity
  8
0
 62
     7
100
AcDbLine
 10
52.14656466419784
 20
0.0
 30
0.0
 11
50.77691780519785
 21
0.0
 31
0.0
  0
LINE
  5
7A
330
1F
100
AcDbEntity
  8
0
 62
     7
100
AcDbLine
 10
84.22893034219784
 20
0.0
 30
0.0
 11
82.85928348419786
 21
0.0
 31
0.0
  0
LINE
  5
7B
330
1F
100
AcDbEntity
  8
0
 62
     7
100
AcDbLine
 10
82.85911835119785
 20
7.625
 30
0.0
 11
82.85911835119785
 21
-0.0000000000000009
 31
0.0
  0
LINE
  5
7C
330
1F
100
AcDbEntity
  8
0
 62
     7
100
AcDbLine
 10
83.55111436719785
 20
7.625
 30
0.0
 11
83.55111436719785
 21
8.25
 31
0.0
  0
LINE
  5
7D
330
1F
100
AcDbEntity
  8
0
 62
     7
100
AcDbLine
 10
84.22911835119786
 20
8.25
 30
0.0
 11
84.22911835119786
 21
0.0
 31
0.0
  0
LINE
  5
7E
330
1F
100
AcDbEntity
  8
0
 62
     7
100
AcDbLine
 10
84.72911835119786
 20
11.02
 30
0.0
 11
84.72911835119786
 21
15.52
 31
0.0
  0
LINE
  5
7F
330
1F
100
AcDbEntity
  8
0
 62
     7
100
AcDbLine
 10
84.72911835119786
 20
8.26
 30
0.0
 11
84.72911835119786
 21
11.01
 31
0.0
  0
ENDSEC
  0
SECTION
  2
OBJECTS
  0
DICTIONARY
  5
C
330
0
100
AcDbDictionary
  3
ACAD_GROUP
350
D
  3
ACAD_LAYOUT
350
1A
  3
ACAD_MLINESTYLE
350
17
  3
ACAD_PLOTSETTINGS
350
19
  3
ACDBHEADERROUNDTRIPXREC
350
80
  0
DICTIONARY
  5
A0
330
29
100
AcDbDictionary
280
     1
  3
ACAD_XREC_ROUNDTRIP
360
A1
  0
DICTIONARY
  5
D
102
{ACAD_REACTORS
330
C
102
}
330
C
100
AcDbDictionary
  0
DICTIONARY
  5
1A
102
{ACAD_REACTORS
330
C
102
}
330
C
100
AcDbDictionary
  0
DICTIONARY
  5
17
102
{ACAD_REACTORS
330
C
102
}
330
C
100
AcDbDictionary
  3
STANDARD
350
18
  0
DICTIONARY
  5
19
102
{ACAD_REACTORS
330
C
102
}
330
C
100
AcDbDictionary
  0
DICTIONARY
  5
80
102
{ACAD_REACTORS
330
C
102
}
330
C
100
AcDbDictionary
  3
CEPSNTYPE
350
89
  3
DIMSTYLEDATA
350
9F
  3
FINGERPRINTGUID
350
8A
  3
HYPERLINKBASE
350
83
  3
INSUNITS
350
88
  3
LAYOUTDICT
350
85
  3
LWETCUNION
350
87
  3
PLOTSETDICT
350
86
  3
PSVPSCALE
350
8C
  3
PUCSBASE
350
8F
  3
PUCSORGBACK
350
95
  3
PUCSORGBOTTOM
350
91
  3
PUCSORGFRONT
350
94
  3
PUCSORGLEFT
350
92
  3
PUCSORGRIGHT
350
93
  3
PUCSORGTOP
350
90
  3
PUCSORTHOREF
350
8D
  3
PUCSORTHOVIEW
350
8E
  3
STYLESHEET
350
84
  3
TSTACKALIGN
350
81
  3
TSTACKSIZE
350
82
  3
UCSBASE
350
98
  3
UCSORGBACK
350
9E
  3
UCSORGBOTTOM
350
9A
  3
UCSORGFRONT
350
9D
  3
UCSORGLEFT
350
9B
  3
UCSORGRIGHT
350
9C
  3
UCSORGTOP
350
99
  3
UCSORTHOREF
350
96
  3
UCSORTHOVIEW
350
97
  3
VERSIONGUID
350
8B
  0
XRECORD
  5
A1
102
{ACAD_REACTORS
330
A0
102
}
330
A0
100
AcDbXrecord
102
UCS
 74
     0
 71
     1
 10
0.0
 20
0.0
 30
0.0
 10
1.0
 20
0.0
 30
0.0
 10
0.0
 20
1.0
 30
0.0
146
0.0
 79
     0
102
VIEW
281
     0
  0
MLINESTYLE
  5
18
102
{ACAD_REACTORS
330
17
102
}
330
17
100
AcDbMlineStyle
  2
Standard
 70
     0
  3

 62
   256
 51
90.0
 52
90.0
 71
     2
 49
0.5
 62
   256
  6
BYLAYER
 49
-0.5
 62
   256
  6
BYLAYER
  0
XRECORD
  5
89
102
{ACAD_REACTORS
330
80
102
}
330
80
100
AcDbXrecord
 90
        0
  0
XRECORD
  5
9F
102
{ACAD_REACTORS
330
80
102
}
330
80
100
AcDbXrecord
1000
DSTYLE
1002
{
1070
   340
340
11
1002
}
  0
XRECORD
  5
8A
102
{ACAD_REACTORS
330
80
102
}
330
80
100
AcDbXrecord
  1
{FAEB1C30-E019-11D5-929B-00C0DF256EC4}
  0
XRECORD
  5
83
102
{ACAD_REACTORS
330
80
102
}
330
80
100
AcDbXrecord
  1

  0
XRECORD
  5
88
102
{ACAD_REACTORS
330
80
102
}
330
80
100
AcDbXrecord
 90
        4
  0
XRECORD
  5
85
102
{ACAD_REACTORS
330
80
102
}
330
80
100
AcDbXrecord
340
1A
  0
XRECORD
  5
87
102
{ACAD_REACTORS
330
80
102
}
330
80
100
AcDbXrecord
 90
     2560
  0
XRECORD
  5
86
102
{ACAD_REACTORS
330
80
102
}
330
80
100
AcDbXrecord
340
19
  0
XRECORD
  5
8C
102
{ACAD_REACTORS
330
80
102
}
330
80
100
AcDbXrecord
 40
0.0
  0
XRECORD
  5
8F
102
{ACAD_REACTORS
330
80
102
}
330
80
100
AcDbXrecord
340
0
  0
XRECORD
  5
95
102
{ACAD_REACTORS
330
80
102
}
330
80
100
AcDbXrecord
 10
0.0
 20
0.0
 30
0.0
  0
XRECORD
  5
91
102
{ACAD_REACTORS
330
80
102
}
330
80
100
AcDbXrecord
 10
0.0
 20
0.0
 30
0.0
  0
XRECORD
  5
94
102
{ACAD_REACTORS
330
80
102
}
330
80
100
AcDbXrecord
 10
0.0
 20
0.0
 30
0.0
  0
XRECORD
  5
92
102
{ACAD_REACTORS
330
80
102
}
330
80
100
AcDbXrecord
 10
0.0
 20
0.0
 30
0.0
  0
XRECORD
  5
93
102
{ACAD_REACTORS
330
80
102
}
330
80
100
AcDbXrecord
 10
0.0
 20
0.0
 30
0.0
  0
XRECORD
  5
90
102
{ACAD_REACTORS
330
80
102
}
330
80
100
AcDbXrecord
 10
0.0
 20
0.0
 30
0.0
  0
XRECORD
  5
8D
102
{ACAD_REACTORS
330
80
102
}
330
80
100
AcDbXrecord
340
0
  0
XRECORD
  5
8E
102
{ACAD_REACTORS
330
80
102
}
330
80
100
AcDbXrecord
 70
     0
  0
XRECORD
  5
84
102
{ACAD_REACTORS
330
80
102
}
330
80
100
AcDbXrecord
  1

  0
XRECORD
  5
81
102
{ACAD_REACTORS
330
80
102
}
330
80
100
AcDbXrecord
 90
        1
  0
XRECORD
  5
82
102
{ACAD_REACTORS
330
80
102
}
330
80
100
AcDbXrecord
 90
       70
  0
XRECORD
  5
98
102
{ACAD_REACTORS
330
80
102
}
330
80
100
AcDbXrecord
340
0
  0
XRECORD
  5
9E
102
{ACAD_REACTORS
330
80
102
}
330
80
100
AcDbXrecord
 10
0.0
 20
0.0
 30
0.0
  0
XRECORD
  5
9A
102
{ACAD_REACTORS
330
80
102
}
330
80
100
AcDbXrecord
 10
0.0
 20
0.0
 30
0.0
  0
XRECORD
  5
9D
102
{ACAD_REACTORS
330
80
102
}
330
80
100
AcDbXrecord
 10
0.0
 20
0.0
 30
0.0
  0
XRECORD
  5
9B
102
{ACAD_REACTORS
330
80
102
}
330
80
100
AcDbXrecord
 10
0.0
 20
0.0
 30
0.0
  0
XRECORD
  5
9C
102
{ACAD_REACTORS
330
80
102
}
330
80
100
AcDbXrecord
 10
0.0
 20
0.0
 30
0.0
  0
XRECORD
  5
99
102
{ACAD_REACTORS
330
80
102
}
330
80
100
AcDbXrecord
 10
0.0
 20
0.0
 30
0.0
  0
XRECORD
  5
96
102
{ACAD_REACTORS
330
80
102
}
330
80
100
AcDbXrecord
340
0
  0
XRECORD
  5
97
102
{ACAD_REACTORS
330
80
102
}
330
80
100
AcDbXrecord
 70
     0
  0
XRECORD
  5
8B
102
{ACAD_REACTORS
330
80
102
}
330
80
100
AcDbXrecord
  1
{FAEB1C32-E019-11D5-929B-00C0DF256EC4}
  0
ENDSEC
  0
EOF
