  0
SECTION
  2
HEADER
  9
$ACADVER
  1
AC1018
  9
$ACADMAINTVER
 70
     0
  9
$DWGCODEPAGE
  3
ANSI_1252
  9
$INSBASE
 10
0.0
 20
0.0
 30
0.0
  9
$EXTMIN
 10
-20.88026246249814
 20
0.0
 30
0.0
  9
$EXTMAX
 10
64.77168090474919
 20
72.87200226682516
 30
0.0
  9
$LIMMIN
 10
0.0
 20
0.0
  9
$LIMMAX
 10
12.0
 20
9.0
  9
$ORTHOMODE
 70
     0
  9
$REGENMODE
 70
     1
  9
$FILLMODE
 70
     1
  9
$QTEXTMODE
 70
     0
  9
$MIRRTEXT
 70
     1
  9
$LTSCALE
 40
0.0393700787401575
  9
$ATTMODE
 70
     1
  9
$TEXTSIZE
 40
0.2
  9
$TRACEWID
 40
0.05
  9
$TEXTSTYLE
  7
Standard
  9
$CLAYER
  8
DEFAULT
  9
$CELTYPE
  6
ByLayer
  9
$CECOLOR
 62
   256
  9
$CELTSCALE
 40
1.0
  9
$DISPSILH
 70
     0
  9
$DIMSCALE
 40
1.0
  9
$DIMASZ
 40
0.18
  9
$DIMEXO
 40
0.0625
  9
$DIMDLI
 40
0.38
  9
$DIMRND
 40
0.0
  9
$DIMDLE
 40
0.0
  9
$DIMEXE
 40
0.18
  9
$DIMTP
 40
0.0
  9
$DIMTM
 40
0.0
  9
$DIMTXT
 40
0.18
  9
$DIMCEN
 40
0.09
  9
$DIMTSZ
 40
0.0
  9
$DIMTOL
 70
     0
  9
$DIMLIM
 70
     0
  9
$DIMTIH
 70
     1
  9
$DIMTOH
 70
     1
  9
$DIMSE1
 70
     0
  9
$DIMSE2
 70
     0
  9
$DIMTAD
 70
     0
  9
$DIMZIN
 70
     0
  9
$DIMBLK
  1

  9
$DIMASO
 70
     1
  9
$DIMSHO
 70
     1
  9
$DIMPOST
  1

  9
$DIMAPOST
  1

  9
$DIMALT
 70
     0
  9
$DIMALTD
 70
     2
  9
$DIMALTF
 40
25.4
  9
$DIMLFAC
 40
1.0
  9
$DIMTOFL
 70
     0
  9
$DIMTVP
 40
0.0
  9
$DIMTIX
 70
     0
  9
$DIMSOXD
 70
     0
  9
$DIMSAH
 70
     0
  9
$DIMBLK1
  1

  9
$DIMBLK2
  1

  9
$DIMSTYLE
  2
Standard
  9
$DIMCLRD
 70
     0
  9
$DIMCLRE
 70
     0
  9
$DIMCLRT
 70
     0
  9
$DIMTFAC
 40
1.0
  9
$DIMGAP
 40
0.09
  9
$DIMJUST
 70
     0
  9
$DIMSD1
 70
     0
  9
$DIMSD2
 70
     0
  9
$DIMTOLJ
 70
     1
  9
$DIMTZIN
 70
     0
  9
$DIMALTZ
 70
     0
  9
$DIMALTTZ
 70
     0
  9
$DIMUPT
 70
     0
  9
$DIMDEC
 70
     4
  9
$DIMTDEC
 70
     4
  9
$DIMALTU
 70
     2
  9
$DIMALTTD
 70
     2
  9
$DIMTXSTY
  7
Standard
  9
$DIMAUNIT
 70
     0
  9
$DIMADEC
 70
     0
  9
$DIMALTRND
 40
0.0
  9
$DIMAZIN
 70
     0
  9
$DIMDSEP
 70
    46
  9
$DIMATFIT
 70
     3
  9
$DIMFRAC
 70
     0
  9
$DIMLDRBLK
  1

  9
$DIMLUNIT
 70
     2
  9
$DIMLWD
 70
    -2
  9
$DIMLWE
 70
    -2
  9
$DIMTMOVE
 70
     2
  9
$LUNITS
 70
     2
  9
$LUPREC
 70
     3
  9
$SKETCHINC
 40
0.1
  9
$FILLETRAD
 40
0.5
  9
$AUNITS
 70
     0
  9
$AUPREC
 70
     0
  9
$MENU
  1
.
  9
$ELEVATION
 40
0.0
  9
$PELEVATION
 40
0.0
  9
$THICKNESS
 40
0.0
  9
$LIMCHECK
 70
     0
  9
$CHAMFERA
 40
0.5
  9
$CHAMFERB
 40
0.5
  9
$CHAMFERC
 40
1.0
  9
$CHAMFERD
 40
0.0
  9
$SKPOLY
 70
     0
  9
$TDCREATE
 40
2456013.434051817
  9
$TDUCREATE
 40
2456013.600718484
  9
$TDUPDATE
 40
2456013.434051829
  9
$TDUUPDATE
 40
2456013.600718495
  9
$TDINDWG
 40
0.0000000116
  9
$TDUSRTIMER
 40
0.0000000116
  9
$USRTIMER
 70
     1
  9
$ANGBASE
 50
0.0
  9
$ANGDIR
 70
     0
  9
$PDMODE
 70
     0
  9
$PDSIZE
 40
0.0
  9
$PLINEWID
 40
0.0
  9
$SPLFRAME
 70
     0
  9
$SPLINETYPE
 70
     6
  9
$SPLINESEGS
 70
     8
  9
$HANDSEED
  5
95
  9
$SURFTAB1
 70
     6
  9
$SURFTAB2
 70
     6
  9
$SURFTYPE
 70
     6
  9
$SURFU
 70
     6
  9
$SURFV
 70
     6
  9
$UCSBASE
  2

  9
$UCSNAME
  2

  9
$UCSORG
 10
0.0
 20
0.0
 30
0.0
  9
$UCSXDIR
 10
1.0
 20
0.0
 30
0.0
  9
$UCSYDIR
 10
0.0
 20
1.0
 30
0.0
  9
$UCSORTHOREF
  2

  9
$UCSORTHOVIEW
 70
     0
  9
$UCSORGTOP
 10
0.0
 20
0.0
 30
0.0
  9
$UCSORGBOTTOM
 10
0.0
 20
0.0
 30
0.0
  9
$UCSORGLEFT
 10
0.0
 20
0.0
 30
0.0
  9
$UCSORGRIGHT
 10
0.0
 20
0.0
 30
0.0
  9
$UCSORGFRONT
 10
0.0
 20
0.0
 30
0.0
  9
$UCSORGBACK
 10
0.0
 20
0.0
 30
0.0
  9
$PUCSBASE
  2

  9
$PUCSNAME
  2

  9
$PUCSORG
 10
0.0
 20
0.0
 30
0.0
  9
$PUCSXDIR
 10
1.0
 20
0.0
 30
0.0
  9
$PUCSYDIR
 10
0.0
 20
1.0
 30
0.0
  9
$PUCSORTHOREF
  2

  9
$PUCSORTHOVIEW
 70
     0
  9
$PUCSORGTOP
 10
0.0
 20
0.0
 30
0.0
  9
$PUCSORGBOTTOM
 10
0.0
 20
0.0
 30
0.0
  9
$PUCSORGLEFT
 10
0.0
 20
0.0
 30
0.0
  9
$PUCSORGRIGHT
 10
0.0
 20
0.0
 30
0.0
  9
$PUCSORGFRONT
 10
0.0
 20
0.0
 30
0.0
  9
$PUCSORGBACK
 10
0.0
 20
0.0
 30
0.0
  9
$USERI1
 70
     0
  9
$USERI2
 70
     0
  9
$USERI3
 70
     0
  9
$USERI4
 70
     0
  9
$USERI5
 70
     0
  9
$USERR1
 40
0.0
  9
$USERR2
 40
0.0
  9
$USERR3
 40
0.0
  9
$USERR4
 40
0.0
  9
$USERR5
 40
0.0
  9
$WORLDVIEW
 70
     1
  9
$SHADEDGE
 70
     3
  9
$SHADEDIF
 70
    70
  9
$TILEMODE
 70
     1
  9
$MAXACTVP
 70
    64
  9
$PINSBASE
 10
0.0
 20
0.0
 30
0.0
  9
$PLIMCHECK
 70
     0
  9
$PEXTMIN
 10
1.000000000000000E+20
 20
1.000000000000000E+20
 30
1.000000000000000E+20
  9
$PEXTMAX
 10
-1.000000000000000E+20
 20
-1.000000000000000E+20
 30
-1.000000000000000E+20
  9
$PLIMMIN
 10
0.0
 20
0.0
  9
$PLIMMAX
 10
12.0
 20
9.0
  9
$UNITMODE
 70
     0
  9
$VISRETAIN
 70
     1
  9
$PLINEGEN
 70
     0
  9
$PSLTSCALE
 70
     1
  9
$TREEDEPTH
 70
  3020
  9
$CMLSTYLE
  2
Standard
  9
$CMLJUST
 70
     0
  9
$CMLSCALE
 40
1.0
  9
$PROXYGRAPHICS
 70
     1
  9
$MEASUREMENT
 70
     0
  9
$CELWEIGHT
370
    -1
  9
$ENDCAPS
280
     0
  9
$JOINSTYLE
280
     0
  9
$LWDISPLAY
290
     0
  9
$INSUNITS
 70
     1
  9
$HYPERLINKBASE
  1

  9
$STYLESHEET
  1

  9
$XEDIT
290
     1
  9
$CEPSNTYPE
380
     0
  9
$PSTYLEMODE
290
     1
  9
$FINGERPRINTGUID
  2
{FAFBB3B2-EE08-4E74-91DE-41661D0EDDB4}
  9
$VERSIONGUID
  2
{FAEB1C32-E019-11D5-929B-00C0DF256EC4}
  9
$EXTNAMES
290
     1
  9
$PSVPSCALE
 40
0.0
  9
$OLESTARTUP
290
     0
  9
$SORTENTS
280
   127
  9
$INDEXCTL
280
     0
  9
$HIDETEXT
280
     1
  9
$XCLIPFRAME
290
     0
  9
$HALOGAP
280
     0
  9
$OBSCOLOR
 70
   257
  9
$OBSLTYPE
280
     0
  9
$INTERSECTIONDISPLAY
280
     0
  9
$INTERSECTIONCOLOR
 70
   257
  9
$DIMASSOC
280
     2
  9
$PROJECTNAME
  1

  0
ENDSEC
  0
SECTION
  2
CLASSES
  0
CLASS
  1
ACDBDICTIONARYWDFLT
  2
AcDbDictionaryWithDefault
  3
ObjectDBX Classes
 90
        0
 91
        4
280
     0
281
     0
  0
CLASS
  1
VISUALSTYLE
  2
AcDbVisualStyle
  3
ObjectDBX Classes
 90
     4095
 91
        4
280
     0
281
     0
  0
ENDSEC
  0
SECTION
  2
TABLES
  0
TABLE
  2
VPORT
  5
8
330
0
100
AcDbSymbolTable
 70
     1
  0
VPORT
  5
29
330
8
100
AcDbSymbolTableRecord
100
AcDbViewportTableRecord
  2
*Active
 70
     0
 10
0.0
 20
0.0
 11
1.0
 21
1.0
 12
21.94570922112553
 22
36.43600113341258
 13
0.0
 23
0.0
 14
0.5
 24
0.5
 15
0.5
 25
0.5
 16
0.0
 26
0.0
 36
1.0
 17
0.0
 27
0.0
 37
0.0
 40
74.32944231216167
 41
1.175375188040362
 42
50.0
 43
0.0
 44
0.0
 50
0.0
 51
0.0
 71
     0
 72
   100
 73
     1
 74
     3
 75
     0
 76
     0
 77
     0
 78
     0
281
     0
 65
     1
110
0.0
120
0.0
130
0.0
111
1.0
121
0.0
131
0.0
112
0.0
122
1.0
132
0.0
 79
     0
146
0.0
  0
ENDTAB
  0
TABLE
  2
LTYPE
  5
5
330
0
100
AcDbSymbolTable
 70
     1
  0
LTYPE
  5
14
330
5
100
AcDbSymbolTableRecord
100
AcDbLinetypeTableRecord
  2
ByBlock
 70
     0
  3

 72
    65
 73
     0
 40
0.0
  0
LTYPE
  5
15
330
5
100
AcDbSymbolTableRecord
100
AcDbLinetypeTableRecord
  2
ByLayer
 70
     0
  3

 72
    65
 73
     0
 40
0.0
  0
LTYPE
  5
16
330
5
100
AcDbSymbolTableRecord
100
AcDbLinetypeTableRecord
  2
Continuous
 70
     0
  3
Solid line
 72
    65
 73
     0
 40
0.0
  0
ENDTAB
  0
TABLE
  2
LAYER
  5
2
330
0
100
AcDbSymbolTable
 70
     2
  0
LAYER
  5
10
330
2
100
AcDbSymbolTableRecord
100
AcDbLayerTableRecord
  2
0
 70
     0
 62
     7
  6
Continuous
370
    -3
390
F
  0
LAYER
  5
3B
330
2
100
AcDbSymbolTableRecord
100
AcDbLayerTableRecord
  2
DEFAULT
 70
     0
 62
     7
  6
Continuous
370
    -3
390
F
  0
ENDTAB
  0
TABLE
  2
STYLE
  5
3
330
0
100
AcDbSymbolTable
 70
     1
  0
STYLE
  5
11
330
3
100
AcDbSymbolTableRecord
100
AcDbTextStyleTableRecord
  2
Standard
 70
     0
 40
0.0
 41
1.0
 50
0.0
 71
     0
 42
0.2
  3
txt
  4

  0
ENDTAB
  0
TABLE
  2
VIEW
  5
6
330
0
100
AcDbSymbolTable
 70
     0
  0
ENDTAB
  0
TABLE
  2
UCS
  5
7
330
0
100
AcDbSymbolTable
 70
     0
  0
ENDTAB
  0
TABLE
  2
APPID
  5
9
330
0
100
AcDbSymbolTable
 70
     1
  0
APPID
  5
12
330
9
100
AcDbSymbolTableRecord
100
AcDbRegAppTableRecord
  2
ACAD
 70
     0
  0
ENDTAB
  0
TABLE
  2
DIMSTYLE
  5
A
330
0
100
AcDbSymbolTable
 70
     1
100
AcDbDimStyleTable
  0
DIMSTYLE
105
27
330
A
100
AcDbSymbolTableRecord
100
AcDbDimStyleTableRecord
  2
Standard
 70
     0
340
11
  0
ENDTAB
  0
TABLE
  2
BLOCK_RECORD
  5
1
330
0
100
AcDbSymbolTable
 70
     1
  0
BLOCK_RECORD
  5
1F
330
1
100
AcDbSymbolTableRecord
100
AcDbBlockTableRecord
  2
*Model_Space
340
22
  0
BLOCK_RECORD
  5
1B
330
1
100
AcDbSymbolTableRecord
100
AcDbBlockTableRecord
  2
*Paper_Space
340
1E
  0
BLOCK_RECORD
  5
23
330
1
100
AcDbSymbolTableRecord
100
AcDbBlockTableRecord
  2
*Paper_Space0
340
26
  0
ENDTAB
  0
ENDSEC
  0
SECTION
  2
BLOCKS
  0
BLOCK
  5
20
330
1F
100
AcDbEntity
  8
0
100
AcDbBlockBegin
  2
*Model_Space
 70
     0
 10
0.0
 20
0.0
 30
0.0
  3
*Model_Space
  1

  0
ENDBLK
  5
21
330
1F
100
AcDbEntity
  8
0
100
AcDbBlockEnd
  0
BLOCK
  5
1C
330
1B
100
AcDbEntity
 67
     1
  8
0
100
AcDbBlockBegin
  2
*Paper_Space
 70
     0
 10
0.0
 20
0.0
 30
0.0
  3
*Paper_Space
  1

  0
ENDBLK
  5
1D
330
1B
100
AcDbEntity
 67
     1
  8
0
100
AcDbBlockEnd
  0
BLOCK
  5
24
330
23
100
AcDbEntity
  8
0
100
AcDbBlockBegin
  2
*Paper_Space0
 70
     0
 10
0.0
 20
0.0
 30
0.0
  3
*Paper_Space0
  1

  0
ENDBLK
  5
25
330
23
100
AcDbEntity
  8
0
100
AcDbBlockEnd
  0
ENDSEC
  0
SECTION
  2
ENTITIES
  0
POLYLINE
  5
3C
330
1F
100
AcDbEntity
  8
DEFAULT
100
AcDb2dPolyline
 66
     1
 10
0.0
 20
0.0
 30
0.0
  0
VERTEX
  5
3D
330
3C
100
AcDbEntity
  8
DEFAULT
100
AcDbVertex
100
AcDb2dVertex
 10
17.97380670799414
 20
50.7642608781374
 30
0.0
  0
VERTEX
  5
3E
330
3C
100
AcDbEntity
  8
DEFAULT
100
AcDbVertex
100
AcDb2dVertex
 10
19.39588462252594
 20
51.76691119480203
 30
0.0
  0
SEQEND
  5
3F
330
3C
100
AcDbEntity
  8
DEFAULT
  0
SPLINE
  5
40
330
1F
100
AcDbEntity
  8
DEFAULT
100
AcDbSpline
210
0.0
220
0.0
230
1.0
 70
    12
 71
     2
 72
    10
 73
     7
 74
     0
 42
0.0000000001
 43
0.0000000001
 40
-0.0372938358421239
 40
-0.0372938358421239
 40
-0.0372938358421239
 40
1.0
 40
1.0
 40
2.570796209642641
 40
2.570796209642641
 40
3.608090045484765
 40
3.608090045484765
 40
3.608090045484765
 10
-18.6773862163023
 20
53.72131554062741
 30
0.0
 41
1.0
 10
-13.71270913955557
 20
58.68599313602105
 30
0.0
 41
1.0
 10
-8.748032033683247
 20
63.65067076054031
 30
0.0
 41
1.0
 10
-0.0000000000000045
 20
72.39870176937193
 30
0.0
 41
0.7071068226061235
 10
8.748032033683248
 20
63.65067076054031
 30
0.0
 41
1.0
 10
13.71270913955558
 20
58.68599313602105
 30
0.0
 41
1.0
 10
18.6773862163023
 20
53.72131554062741
 30
0.0
 41
1.0
  0
POLYLINE
  5
41
330
1F
100
AcDbEntity
  8
DEFAULT
100
AcDb2dPolyline
 66
     1
 10
0.0
 20
0.0
 30
0.0
  0
VERTEX
  5
42
330
41
100
AcDbEntity
  8
DEFAULT
100
AcDbVertex
100
AcDb2dVertex
 10
17.97380670799414
 20
50.7642608781374
 30
0.0
  0
VERTEX
  5
43
330
41
100
AcDbEntity
  8
DEFAULT
100
AcDbVertex
100
AcDb2dVertex
 10
18.86677666356405
 20
52.57115952918276
 30
0.0
  0
SEQEND
  5
44
330
41
100
AcDbEntity
  8
DEFAULT
  0
ARC
  5
45
330
1F
100
AcDbEntity
  8
DEFAULT
100
AcDbCircle
 10
17.97027939818078
 20
53.01420879637584
 30
0.0
 40
1.0
100
AcDbArc
 50
333.7014011633646
 51
44.99999700721533
  0
POLYLINE
  5
46
330
1F
100
AcDbEntity
  8
DEFAULT
100
AcDb2dPolyline
 66
     1
 10
0.0
 20
0.0
 30
0.0
  0
VERTEX
  5
47
330
46
100
AcDbEntity
  8
DEFAULT
100
AcDbVertex
100
AcDb2dVertex
 10
-17.97380670799414
 20
50.7642608781374
 30
0.0
  0
VERTEX
  5
48
330
46
100
AcDbEntity
  8
DEFAULT
100
AcDbVertex
100
AcDb2dVertex
 10
-18.86677666356405
 20
52.57115952918276
 30
0.0
  0
SEQEND
  5
49
330
46
100
AcDbEntity
  8
DEFAULT
  0
ARC
  5
4A
330
1F
100
AcDbEntity
  8
DEFAULT
100
AcDbCircle
 10
-17.97027939818078
 20
53.01420879637584
 30
0.0
 40
1.0
100
AcDbArc
 50
135.0000029927847
 51
206.2985988366354
  0
POLYLINE
  5
4B
330
1F
100
AcDbEntity
  8
DEFAULT
100
AcDb2dPolyline
 66
     1
 10
0.0
 20
0.0
 30
0.0
  0
VERTEX
  5
4C
330
4B
100
AcDbEntity
  8
DEFAULT
100
AcDbVertex
100
AcDb2dVertex
 10
-19.39588462252594
 20
51.76691119480203
 30
0.0
  0
VERTEX
  5
4D
330
4B
100
AcDbEntity
  8
DEFAULT
100
AcDbVertex
100
AcDb2dVertex
 10
-17.97380670799414
 20
50.7642608781374
 30
0.0
  0
SEQEND
  5
4E
330
4B
100
AcDbEntity
  8
DEFAULT
  0
LINE
  5
4F
330
1F
100
AcDbEntity
  8
DEFAULT
100
AcDbLine
 10
17.98558087421151
 20
50.75248671407642
 30
0.0
 11
17.54445672255108
 21
50.06224003865435
 31
0.0
  0
ARC
  5
50
330
1F
100
AcDbEntity
  8
DEFAULT
100
AcDbCircle
 10
0.0000000000009383
 20
61.27458464483095
 30
0.0
 40
20.82125436320041
100
AcDbArc
 50
210.317294430469
 51
327.4180906482354
  0
SPLINE
  5
51
330
1F
100
AcDbEntity
  8
DEFAULT
100
AcDbSpline
210
0.0
220
0.0
230
1.0
 70
    12
 71
     2
 72
    10
 73
     7
 74
     0
 42
0.0000000001
 43
0.0000000001
 40
-0.0107214592143489
 40
-0.0107214592143489
 40
-0.0107214592143489
 40
1.0
 40
1.0
 40
2.570796326794897
 40
2.570796326794897
 40
3.583674441584527
 40
3.583674441584527
 40
3.583674441584527
 10
-17.97380670799414
 20
50.76426087813741
 30
0.0
 41
1.0
 10
-15.21481204118423
 20
53.5232550395866
 30
0.0
 41
1.0
 10
-12.4558173990453
 20
56.28224917636479
 30
0.0
 41
1.0
 10
0.0000000000000035
 20
68.73806657541012
 30
0.0
 41
0.7071067811865474
 10
12.4558173990453
 20
56.28224917636479
 30
0.0
 41
1.0
 10
15.22069912424049
 20
53.51736795760868
 30
0.0
 41
1.0
 10
17.98558087421151
 20
50.75248671407642
 30
0.0
 41
1.0
  0
ARC
  5
52
330
1F
100
AcDbEntity
  8
DEFAULT
100
AcDbCircle
 10
-17.76565656601161
 20
58.81653783573972
 30
0.0
 40
9.324859291134706
100
AcDbArc
 50
2.856676871481403
 51
26.50418513959509
  0
ARC
  5
53
330
1F
100
AcDbEntity
  8
DEFAULT
100
AcDbCircle
 10
17.76565656601161
 20
58.81653783573972
 30
0.0
 40
9.324859291134706
100
AcDbArc
 50
153.4958148604049
 51
177.1433231285186
  0
LINE
  5
54
330
1F
100
AcDbEntity
  8
DEFAULT
100
AcDbLine
 10
-19.39588462252594
 20
51.76691119480203
 30
0.0
 11
-20.77097310737863
 21
54.54936262315116
 31
0.0
  0
ARC
  5
55
330
1F
100
AcDbEntity
  8
DEFAULT
100
AcDbCircle
 10
-19.87447584199534
 20
54.99241189034422
 30
0.0
 40
1.000000000000015
100
AcDbArc
 50
141.7751118185157
 51
206.2985988366342
  0
ARC
  5
56
330
1F
100
AcDbEntity
  8
DEFAULT
100
AcDbCircle
 10
-14.66181067053902
 20
50.80316415637093
 30
0.0
 40
7.687384649360271
100
AcDbArc
 50
134.9999990637318
 51
141.2855144661712
  0
LINE
  5
57
330
1F
100
AcDbEntity
  8
DEFAULT
100
AcDbLine
 10
-20.0976123968648
 20
56.23896606034918
 30
0.0
 11
-4.805559569164506
 21
71.53101838827592
 31
0.0
  0
SPLINE
  5
58
330
1F
100
AcDbEntity
  8
DEFAULT
100
AcDbSpline
210
0.0
220
0.0
230
1.0
 70
     8
 71
     3
 72
    11
 73
     7
 74
     0
 42
0.0000000001
 43
0.0000000001
 40
2.510004628362286
 40
2.510004628362286
 40
2.510004628362286
 40
2.510004628362286
 40
2.968848613993544
 40
3.43148381751419
 40
3.903083412613761
 40
4.798652582373057
 40
4.798652582373057
 40
4.798652582373057
 40
4.798652582373057
 10
-4.805559569164506
 20
71.53101838827592
 30
0.0
 10
-4.697405892451862
 20
71.63916584063807
 30
0.0
 10
-4.475341883911845
 20
71.85137676184101
 30
0.0
 10
-4.127953372670516
 20
72.15993194394034
 30
0.0
 10
-3.64418104583594
 20
72.53170429284532
 30
0.0
 10
-3.256005194376231
 20
72.7735812512588
 30
0.0
 10
-2.969055426483543
 20
72.87200226682516
 30
0.0
  0
POLYLINE
  5
59
330
1F
100
AcDbEntity
  8
DEFAULT
100
AcDb2dPolyline
 66
     1
 10
0.0
 20
0.0
 30
0.0
  0
VERTEX
  5
5A
330
59
100
AcDbEntity
  8
DEFAULT
100
AcDbVertex
100
AcDb2dVertex
 10
-2.969055426483543
 20
72.87200226682516
 30
0.0
  0
VERTEX
  5
5B
330
59
100
AcDbEntity
  8
DEFAULT
100
AcDbVertex
100
AcDb2dVertex
 10
2.969055426483543
 20
72.87200226682516
 30
0.0
  0
SEQEND
  5
5C
330
59
100
AcDbEntity
  8
DEFAULT
  0
SPLINE
  5
5D
330
1F
100
AcDbEntity
  8
DEFAULT
100
AcDbSpline
210
0.0
220
0.0
230
1.0
 70
     8
 71
     3
 72
    11
 73
     7
 74
     0
 42
0.0000000001
 43
0.0000000001
 40
-4.798652582373057
 40
-4.798652582373057
 40
-4.798652582373057
 40
-4.798652582373057
 40
-3.903083412613761
 40
-3.43148381751419
 40
-2.968848613993544
 40
-2.510004628362286
 40
-2.510004628362286
 40
-2.510004628362286
 40
-2.510004628362286
 10
2.969055426483543
 20
72.87200226682516
 30
0.0
 10
3.256005194376231
 20
72.7735812512588
 30
0.0
 10
3.64418104583594
 20
72.53170429284532
 30
0.0
 10
4.127953372670516
 20
72.15993194394034
 30
0.0
 10
4.475341883911845
 20
71.85137676184101
 30
0.0
 10
4.697405892451862
 20
71.63916584063807
 30
0.0
 10
4.805559569164506
 20
71.53101838827592
 30
0.0
  0
LINE
  5
5E
330
1F
100
AcDbEntity
  8
DEFAULT
100
AcDbLine
 10
4.805559569164506
 20
71.53101838827592
 30
0.0
 11
20.0976123968648
 21
56.23896606034918
 31
0.0
  0
ARC
  5
5F
330
1F
100
AcDbEntity
  8
DEFAULT
100
AcDbCircle
 10
14.66181067053902
 20
50.80316415637093
 30
0.0
 40
7.687384649360271
100
AcDbArc
 50
38.71448553382871
 51
45.00000093626811
  0
ARC
  5
60
330
1F
100
AcDbEntity
  8
DEFAULT
100
AcDbCircle
 10
19.87447584199534
 20
54.99241189034422
 30
0.0
 40
1.000000000000015
100
AcDbArc
 50
333.7014011633659
 51
38.22488818148434
  0
LINE
  5
61
330
1F
100
AcDbEntity
  8
DEFAULT
100
AcDbLine
 10
20.77097310737863
 20
54.54936262315116
 30
0.0
 11
19.39588462252594
 21
51.76691119480203
 31
0.0
  0
SPLINE
  5
62
330
1F
100
AcDbEntity
  8
DEFAULT
100
AcDbSpline
210
0.0
220
0.0
230
1.0
 70
     8
 71
     3
 72
    15
 73
    11
 74
     0
 42
0.0000000001
 43
0.0000000001
 40
-7.114729003495935
 40
-7.114729003495935
 40
-7.114729003495935
 40
-7.114729003495935
 40
-6.0
 40
-6.0
 40
-6.0
 40
-5.000000138659329
 40
-4.000000103994497
 40
-3.000000069329664
 40
-2.000000034664832
 40
-1.0
 40
-1.0
 40
-1.0
 40
-1.0
 10
14.54022027108008
 20
1.000000000000133
 30
0.0
 10
15.27105924824601
 20
3.998970613775086
 30
0.0
 10
16.00189822541193
 20
6.997941227550041
 30
0.0
 10
16.73273720257786
 20
9.996911841324991
 30
0.0
 10
16.80493190106962
 20
10.31355849500814
 30
0.0
 10
16.95615339983073
 20
10.94537247478732
 30
0.0
 10
17.14249496523357
 20
11.90188672745068
 30
0.0
 10
17.30846152691338
 20
12.86198148835903
 30
0.0
 10
17.44634100970072
 20
13.82666582250161
 30
0.0
 10
17.517694572342
 20
14.47229571455916
 30
0.0
 10
17.55298827636785
 20
14.79515875819499
 30
0.0
  0
LINE
  5
63
330
1F
100
AcDbEntity
  8
DEFAULT
100
AcDbLine
 10
17.55298827636785
 20
14.79515875819499
 30
0.0
 11
18.80650134691709
 21
27.46393999999981
 31
0.0
  0
SPLINE
  5
64
330
1F
100
AcDbEntity
  8
DEFAULT
100
AcDbSpline
210
0.0
220
0.0
230
1.0
 70
     8
 71
     3
 72
     8
 73
     4
 74
     0
 42
0.0000000001
 43
0.0000000001
 40
-1.0
 40
-1.0
 40
-1.0
 40
-1.0
 40
0.0
 40
0.0
 40
0.0
 40
0.0
 10
18.80650134691709
 20
27.46393999999981
 30
0.0
 10
18.87749092760365
 20
28.18140477104633
 30
0.0
 10
18.3088085974378
 20
29.25084299999981
 30
0.0
 10
17.58784034691709
 20
29.25084299999981
 30
0.0
  0
SPLINE
  5
65
330
1F
100
AcDbEntity
  8
DEFAULT
100
AcDbSpline
210
0.0
220
0.0
230
1.0
 70
     8
 71
     3
 72
    15
 73
    11
 74
     0
 42
0.0000000001
 43
0.0000000001
 40
-7.114729003495935
 40
-7.114729003495935
 40
-7.114729003495935
 40
-7.114729003495935
 40
-6.0
 40
-6.0
 40
-6.0
 40
-5.000000138659329
 40
-4.000000103994497
 40
-3.000000069329664
 40
-2.000000034664832
 40
-1.0
 40
-1.0
 40
-1.0
 40
-1.0
 10
-14.54022027108008
 20
1.000000000000133
 30
0.0
 10
-15.27105924824601
 20
3.998970613775086
 30
0.0
 10
-16.00189822541193
 20
6.997941227550041
 30
0.0
 10
-16.73273720257786
 20
9.996911841324991
 30
0.0
 10
-16.80493190106962
 20
10.31355849500814
 30
0.0
 10
-16.95615339983073
 20
10.94537247478732
 30
0.0
 10
-17.14249496523357
 20
11.90188672745068
 30
0.0
 10
-17.30846152691338
 20
12.86198148835903
 30
0.0
 10
-17.44634100970072
 20
13.82666582250161
 30
0.0
 10
-17.517694572342
 20
14.47229571455916
 30
0.0
 10
-17.55298827636785
 20
14.79515875819499
 30
0.0
  0
LINE
  5
66
330
1F
100
AcDbEntity
  8
DEFAULT
100
AcDbLine
 10
-17.55298827636785
 20
14.79515875819499
 30
0.0
 11
-18.80650134691709
 21
27.46393999999981
 31
0.0
  0
SPLINE
  5
67
330
1F
100
AcDbEntity
  8
DEFAULT
100
AcDbSpline
210
0.0
220
0.0
230
1.0
 70
     8
 71
     3
 72
     8
 73
     4
 74
     0
 42
0.0000000001
 43
0.0000000001
 40
-1.0
 40
-1.0
 40
-1.0
 40
-1.0
 40
0.0
 40
0.0
 40
0.0
 40
0.0
 10
-18.80650134691709
 20
27.46393999999981
 30
0.0
 10
-18.87749092760365
 20
28.18140477104633
 30
0.0
 10
-18.3088085974378
 20
29.25084299999981
 30
0.0
 10
-17.58784034691709
 20
29.25084299999981
 30
0.0
  0
SPLINE
  5
68
330
1F
100
AcDbEntity
  8
DEFAULT
100
AcDbSpline
210
0.0
220
0.0
230
1.0
 70
     8
 71
     3
 72
     8
 73
     4
 74
     0
 42
0.0000000001
 43
0.0000000001
 40
-1.0
 40
-1.0
 40
-1.0
 40
-1.0
 40
0.0
 40
0.0
 40
0.0
 40
0.0
 10
-20.87432908060424
 20
27.46393999999981
 30
0.0
 10
-20.9453186612908
 20
28.18140477104633
 30
0.0
 10
-20.37663633112495
 20
29.25084299999981
 30
0.0
 10
-19.65566808060424
 20
29.25084299999981
 30
0.0
  0
POLYLINE
  5
69
330
1F
100
AcDbEntity
  8
DEFAULT
100
AcDb2dPolyline
 66
     1
 10
0.0
 20
0.0
 30
0.0
  0
VERTEX
  5
6A
330
69
100
AcDbEntity
  8
DEFAULT
100
AcDbVertex
100
AcDb2dVertex
 10
-19.65566808060424
 20
29.25084299999981
 30
0.0
  0
VERTEX
  5
6B
330
69
100
AcDbEntity
  8
DEFAULT
100
AcDbVertex
100
AcDb2dVertex
 10
19.65566808060424
 20
29.25084299999981
 30
0.0
  0
SEQEND
  5
6C
330
69
100
AcDbEntity
  8
DEFAULT
  0
SPLINE
  5
6D
330
1F
100
AcDbEntity
  8
DEFAULT
100
AcDbSpline
210
0.0
220
0.0
230
1.0
 70
     8
 71
     3
 72
     8
 73
     4
 74
     0
 42
0.0000000001
 43
0.0000000001
 40
0.0
 40
0.0
 40
0.0
 40
0.0
 40
1.0
 40
1.0
 40
1.0
 40
1.0
 10
19.65566808060424
 20
29.25084299999981
 30
0.0
 10
20.37663633112495
 20
29.25084299999981
 30
0.0
 10
20.9453186612908
 20
28.18140477104633
 30
0.0
 10
20.87432908060424
 20
27.46393999999981
 30
0.0
  0
LINE
  5
6E
330
1F
100
AcDbEntity
  8
DEFAULT
100
AcDbLine
 10
20.87432908060424
 20
27.46393999999981
 30
0.0
 11
19.620816010055
 21
14.79515875819499
 31
0.0
  0
SPLINE
  5
6F
330
1F
100
AcDbEntity
  8
DEFAULT
100
AcDbSpline
210
0.0
220
0.0
230
1.0
 70
     8
 71
     3
 72
    12
 73
     8
 74
     0
 42
0.0000000001
 43
0.0000000001
 40
0.0
 40
0.0
 40
0.0
 40
0.0
 40
1.000000034664832
 40
2.000000069329664
 40
3.000000103994497
 40
4.000000138659329
 40
5.0
 40
5.0
 40
5.0
 40
5.0
 10
19.620816010055
 20
14.79515875819499
 30
0.0
 10
19.58552230602914
 20
14.47229571455916
 30
0.0
 10
19.51416874338787
 20
13.82666582250161
 30
0.0
 10
19.37628926060053
 20
12.86198148835903
 30
0.0
 10
19.21032269892072
 20
11.90188672745068
 30
0.0
 10
19.02398113351787
 20
10.94537247478732
 30
0.0
 10
18.87275963475677
 20
10.31355849500814
 30
0.0
 10
18.800564936265
 20
9.996911841324991
 30
0.0
  0
LINE
  5
70
330
1F
100
AcDbEntity
  8
DEFAULT
100
AcDbLine
 10
18.800564936265
 20
9.996911841324991
 30
0.0
 11
16.60804800476738
 21
0.9999999999998419
 31
0.0
  0
LINE
  5
71
330
1F
100
AcDbEntity
  8
DEFAULT
100
AcDbLine
 10
16.60804800476723
 20
1.000000000000133
 30
0.0
 11
-16.60804800476738
 21
0.9999999999998419
 31
0.0
  0
LINE
  5
72
330
1F
100
AcDbEntity
  8
DEFAULT
100
AcDbLine
 10
-16.60804800476738
 20
0.9999999999998419
 30
0.0
 11
-18.800564936265
 21
9.996911841324991
 31
0.0
  0
SPLINE
  5
73
330
1F
100
AcDbEntity
  8
DEFAULT
100
AcDbSpline
210
0.0
220
0.0
230
1.0
 70
     8
 71
     3
 72
    12
 73
     8
 74
     0
 42
0.0000000001
 43
0.0000000001
 40
-5.0
 40
-5.0
 40
-5.0
 40
-5.0
 40
-4.000000138659329
 40
-3.000000103994497
 40
-2.000000069329664
 40
-1.000000034664832
 40
0.0
 40
0.0
 40
0.0
 40
0.0
 10
-18.800564936265
 20
9.996911841324991
 30
0.0
 10
-18.87275963475677
 20
10.31355849500814
 30
0.0
 10
-19.02398113351787
 20
10.94537247478732
 30
0.0
 10
-19.21032269892072
 20
11.90188672745068
 30
0.0
 10
-19.37628926060053
 20
12.86198148835903
 30
0.0
 10
-19.51416874338787
 20
13.82666582250161
 30
0.0
 10
-19.58552230602914
 20
14.47229571455916
 30
0.0
 10
-19.620816010055
 20
14.79515875819499
 30
0.0
  0
LINE
  5
74
330
1F
100
AcDbEntity
  8
DEFAULT
100
AcDbLine
 10
-19.620816010055
 20
14.79515875819499
 30
0.0
 11
-20.87432908060424
 21
27.46393999999981
 31
0.0
  0
LINE
  5
75
330
1F
100
AcDbEntity
  8
DEFAULT
100
AcDbLine
 10
55.25036749634668
 20
0.9990969999999899
 30
0.0
 11
55.0318208720774
 21
9.996911841324991
 31
0.0
  0
SPLINE
  5
76
330
1F
100
AcDbEntity
  8
DEFAULT
100
AcDbSpline
210
0.0
220
0.0
230
1.0
 70
     8
 71
     3
 72
    12
 73
     8
 74
     0
 42
0.0000000001
 43
0.0000000001
 40
-6.0
 40
-6.0
 40
-6.0
 40
-6.0
 40
-5.000000134222855
 40
-4.000000100667141
 40
-3.000000067111427
 40
-2.000000033555714
 40
-1.0
 40
-1.0
 40
-1.0
 40
-1.0
 10
55.0318208720774
 20
9.996911841324991
 30
0.0
 10
55.02401178299893
 20
10.31842098310347
 30
0.0
 10
55.00012100860022
 20
10.96142175669438
 30
0.0
 10
54.92921054006632
 20
11.9239277550882
 30
0.0
 10
54.83723990568551
 20
12.88447571544905
 30
0.0
 10
54.71699267329837
 20
13.84205489020279
 30
0.0
 10
54.61654051691911
 20
14.47746476710967
 30
0.0
 10
54.56621184837741
 20
14.79515875819499
 30
0.0
  0
LINE
  5
77
330
1F
100
AcDbEntity
  8
DEFAULT
100
AcDbLine
 10
54.56621184837741
 20
14.79515875819499
 30
0.0
 11
52.42467716072468
 21
27.46394007217156
 31
0.0
  0
SPLINE
  5
78
330
1F
100
AcDbEntity
  8
DEFAULT
100
AcDbSpline
210
0.0
220
0.0
230
1.0
 70
     8
 71
     3
 72
     8
 73
     4
 74
     0
 42
0.0000000001
 43
0.0000000001
 40
0.0
 40
0.0
 40
0.0
 40
0.0
 40
1.0
 40
1.0
 40
1.0
 40
1.0
 10
52.42467716072468
 20
27.46394007217156
 30
0.0
 10
52.28512333270093
 20
28.28950546644452
 30
0.0
 10
51.49665600506803
 20
29.25084307547315
 30
0.0
 10
50.65937857724819
 20
29.2508430692866
 30
0.0
  0
LINE
  5
79
330
1F
100
AcDbEntity
  8
DEFAULT
100
AcDbLine
 10
50.65937857724819
 20
29.2508430692866
 30
0.0
 11
33.82000483885263
 21
29.25084299999981
 31
0.0
  0
ARC
  5
7A
330
1F
100
AcDbEntity
  8
DEFAULT
100
AcDbCircle
 10
33.82000484473014
 20
27.7603163554444
 30
0.0
 40
1.490526644555409
100
AcDbArc
 50
90.00000022593123
 51
141.9487747811177
  0
ARC
  5
7B
330
1F
100
AcDbEntity
  8
DEFAULT
100
AcDbCircle
 10
34.62215956847975
 20
27.13244810230608
 30
0.0
 40
2.509187895478724
100
AcDbArc
 50
141.9487646887184
 51
161.9614702879036
  0
SPLINE
  5
7C
330
1F
100
AcDbEntity
  8
DEFAULT
100
AcDbSpline
210
0.0
220
0.0
230
1.0
 70
     8
 71
     3
 72
    10
 73
     6
 74
     0
 42
0.0000000001
 43
0.0000000001
 40
-25.33986996350304
 40
-25.33986996350304
 40
-25.33986996350304
 40
-25.33986996350304
 40
-24.26386751162871
 40
-23.70843500256814
 40
-23.12866407968882
 40
-23.12866407968882
 40
-23.12866407968882
 40
-23.12866407968882
 10
32.23630203060986
 20
27.90943439807091
 30
0.0
 10
32.12525242672713
 20
27.56844005380436
 30
0.0
 10
32.02556104611905
 20
27.02881421540447
 30
0.0
 10
32.12991265356565
 20
26.31448827277554
 30
0.0
 10
32.22785006999752
 20
25.94898083341485
 30
0.0
 10
32.27786865231636
 20
25.76230892996995
 30
0.0
  0
LINE
  5
7D
330
1F
100
AcDbEntity
  8
DEFAULT
100
AcDbLine
 10
32.27786865231636
 20
25.76230892996995
 30
0.0
 11
38.26400701770431
 21
3.421734864348488
 31
0.0
  0
SPLINE
  5
7E
330
1F
100
AcDbEntity
  8
DEFAULT
100
AcDbSpline
210
0.0
220
0.0
230
1.0
 70
    12
 71
     3
 72
    11
 73
     7
 74
     0
 42
0.0000000001
 43
0.0000000001
 40
-21.47291801070303
 40
-21.47291801070303
 40
-21.47291801070303
 40
-21.47291801070303
 40
-20.47291801070303
 40
-20.47291801070303
 40
-20.47291801070303
 40
1.015415439561821
 40
1.015415439561821
 40
1.015415439561821
 40
1.015415439561821
 10
38.26400701770431
 20
3.421734864348488
 30
0.0
 41
1.0
 10
38.58661898097135
 20
2.217730543049147
 30
0.0
 41
1.0
 10
39.86606820435946
 20
0.9990969999999919
 30
0.0
 41
1.0
 10
41.11254519353756
 20
0.9990969999999919
 30
0.0
 41
1.0
 10
48.27532301029251
 20
0.9990969999999919
 30
0.0
 41
1.0
 10
55.43810082704746
 20
0.9990969999999919
 30
0.0
 41
1.0
 10
62.6008786438026
 20
0.9990969999999524
 30
0.0
 41
1.0
  0
LINE
  5
7F
330
1F
100
AcDbEntity
  8
DEFAULT
100
AcDbLine
 10
62.6008786438026
 20
0.9990969999999524
 30
0.0
 11
64.77168090474919
 21
13.31482299999997
 31
0.0
  0
ARC
  5
80
330
1F
100
AcDbEntity
  8
DEFAULT
100
AcDbCircle
 10
52.8037268134193
 20
-25.55928212791455
 30
0.0
 40
40.67466010464415
100
AcDbArc
 50
72.8882626737133
 51
87.17006923947052
  0
ARC
  5
81
330
1F
100
AcDbEntity
  8
DEFAULT
100
AcDbCircle
 10
52.79959407610441
 20
-25.6428869378925
 30
0.0
 40
40.7583669966493
100
AcDbArc
 50
87.17006923946363
 51
87.58337671057593
  0
SPLINE
  5
82
330
1F
100
AcDbEntity
  8
DEFAULT
100
AcDbSpline
210
0.0
220
0.0
230
1.0
 70
     8
 71
     3
 72
     8
 73
     4
 74
     0
 42
0.0000000001
 43
0.0000000001
 40
-1.0
 40
-1.0
 40
-1.0
 40
-1.0
 40
0.0
 40
0.0
 40
0.0
 40
0.0
 10
49.10072599377138
 20
29.2508430692866
 30
0.0
 10
49.93800342159122
 20
29.25084307547315
 30
0.0
 10
50.72647074922411
 20
28.28950546644452
 30
0.0
 10
50.86602457724786
 20
27.46394007217156
 30
0.0
  0
LINE
  5
83
330
1F
100
AcDbEntity
  8
DEFAULT
100
AcDbLine
 10
50.86602457724786
 20
27.46394007217156
 30
0.0
 11
53.00755926490059
 21
14.79515875819499
 31
0.0
  0
SPLINE
  5
84
330
1F
100
AcDbEntity
  8
DEFAULT
100
AcDbSpline
210
0.0
220
0.0
230
1.0
 70
     8
 71
     3
 72
    15
 73
    11
 74
     0
 42
0.0000000001
 43
0.0000000001
 40
1.0
 40
1.0
 40
1.0
 40
1.0
 40
2.000000033555714
 40
3.000000067111427
 40
4.000000100667141
 40
5.000000134222855
 40
6.0
 40
6.0
 40
6.0
 40
7.114840886362864
 40
7.114840886362864
 40
7.114840886362864
 40
7.114840886362864
 10
53.00755926490059
 20
14.79515875819499
 30
0.0
 10
53.0578879334423
 20
14.47746476710967
 30
0.0
 10
53.15834008982156
 20
13.84205489020279
 30
0.0
 10
53.27858732220869
 20
12.88447571544905
 30
0.0
 10
53.37055795658951
 20
11.9239277550882
 30
0.0
 10
53.4414684251234
 20
10.96142175669438
 30
0.0
 10
53.46042028566125
 20
10.3183010225385
 30
0.0
 10
53.47316828860059
 20
9.996911841324991
 30
0.0
 10
53.54601716335701
 20
6.997640227549994
 30
0.0
 10
53.61886603811345
 20
3.998368613774992
 30
0.0
 10
53.69171491286987
 20
0.9990969999999899
 30
0.0
  0
ARC
  5
85
330
1F
100
AcDbEntity
  8
DEFAULT
100
AcDbCircle
 10
100.0247142851723
 20
15.72105038428748
 30
0.0
 40
91.67883621085504
100
AcDbArc
 50
171.513397481565
 51
180.6471766463841
  0
ARC
  5
86
330
1F
100
AcDbEntity
  8
DEFAULT
100
AcDbCircle
 10
-100.0247142851723
 20
15.72105038428748
 30
0.0
 40
91.67883621085504
100
AcDbArc
 50
359.3528233536158
 51
8.48660251843499
  0
SPLINE
  5
87
330
1F
100
AcDbEntity
  8
DEFAULT
100
AcDbSpline
210
0.0
220
0.0
230
1.0
 70
    12
 71
     2
 72
    14
 73
    11
 74
     0
 42
0.0000000001
 43
0.0000000001
 40
0.0
 40
0.0
 40
0.0
 40
0.6250000000000002
 40
0.6250000000000002
 40
1.214048622548086
 40
1.214048622548086
 40
2.464048622548086
 40
2.464048622548086
 40
3.053097245096173
 40
3.053097245096173
 40
3.678097245096173
 40
3.678097245096173
 40
3.678097245096173
 10
42.00980959471109
 20
1.0
 30
0.0
 41
1.0
 10
42.00980959471109
 20
0.6875
 30
0.0
 41
1.0
 10
42.00980959471109
 20
0.375
 30
0.0
 41
1.0
 10
42.00980959471109
 20
0.0
 30
0.0
 41
0.7071067811865476
 10
42.38480959471109
 20
0.0
 30
0.0
 41
1.0
 10
43.00980959471109
 20
0.0
 30
0.0
 41
1.0
 10
43.63480959471109
 20
0.0
 30
0.0
 41
1.0
 10
44.00980959471109
 20
0.0
 30
0.0
 41
0.7071067811865476
 10
44.00980959471109
 20
0.375
 30
0.0
 41
1.0
 10
44.00980959471109
 20
0.6875
 30
0.0
 41
1.0
 10
44.00980959471109
 20
1.0
 30
0.0
 41
1.0
  0
SPLINE
  5
88
330
1F
100
AcDbEntity
  8
DEFAULT
100
AcDbSpline
210
0.0
220
0.0
230
1.0
 70
    12
 71
     2
 72
    14
 73
    11
 74
     0
 42
0.0000000001
 43
0.0000000001
 40
0.0
 40
0.0
 40
0.0
 40
0.6250000000000002
 40
0.6250000000000002
 40
1.214048622548086
 40
1.214048622548086
 40
2.464048622548086
 40
2.464048622548086
 40
3.053097245096173
 40
3.053097245096173
 40
3.678097245096173
 40
3.678097245096173
 40
3.678097245096173
 10
52.62710037007133
 20
1.0
 30
0.0
 41
1.0
 10
52.62710037007133
 20
0.6875
 30
0.0
 41
1.0
 10
52.62710037007133
 20
0.375
 30
0.0
 41
1.0
 10
52.62710037007134
 20
0.0
 30
0.0
 41
0.7071067811865476
 10
53.00210037007133
 20
0.0
 30
0.0
 41
1.0
 10
53.62710037007133
 20
0.0
 30
0.0
 41
1.0
 10
54.25210037007133
 20
0.0
 30
0.0
 41
1.0
 10
54.62710037007133
 20
0.0
 30
0.0
 41
0.7071067811865476
 10
54.62710037007133
 20
0.375
 30
0.0
 41
1.0
 10
54.62710037007133
 20
0.6875
 30
0.0
 41
1.0
 10
54.62710037007133
 20
1.0
 30
0.0
 41
1.0
  0
SPLINE
  5
89
330
1F
100
AcDbEntity
  8
DEFAULT
100
AcDbSpline
210
0.0
220
0.0
230
1.0
 70
    12
 71
     2
 72
    14
 73
    11
 74
     0
 42
0.0000000001
 43
0.0000000001
 40
0.0
 40
0.0
 40
0.0
 40
0.6250000000000002
 40
0.6250000000000002
 40
1.214048622548086
 40
1.214048622548086
 40
2.464048622548086
 40
2.464048622548086
 40
3.053097245096173
 40
3.053097245096173
 40
3.678097245096173
 40
3.678097245096173
 40
3.678097245096173
 10
59.36946750478914
 20
1.0
 30
0.0
 41
1.0
 10
59.36946750478914
 20
0.6875
 30
0.0
 41
1.0
 10
59.36946750478914
 20
0.375
 30
0.0
 41
1.0
 10
59.36946750478914
 20
0.0
 30
0.0
 41
0.7071067811865476
 10
59.74446750478914
 20
0.0
 30
0.0
 41
1.0
 10
60.36946750478914
 20
0.0
 30
0.0
 41
1.0
 10
60.99446750478914
 20
0.0
 30
0.0
 41
1.0
 10
61.36946750478914
 20
0.0
 30
0.0
 41
0.7071067811865476
 10
61.36946750478914
 20
0.375
 30
0.0
 41
1.0
 10
61.36946750478914
 20
0.6875
 30
0.0
 41
1.0
 10
61.36946750478914
 20
1.0
 30
0.0
 41
1.0
  0
SPLINE
  5
8A
330
1F
100
AcDbEntity
  8
DEFAULT
100
AcDbSpline
210
0.0
220
0.0
230
1.0
 70
    12
 71
     2
 72
    14
 73
    11
 74
     0
 42
0.0000000001
 43
0.0000000001
 40
0.0
 40
0.0
 40
0.0
 40
0.6250000000000002
 40
0.6250000000000002
 40
1.214048622548086
 40
1.214048622548086
 40
2.464048622548086
 40
2.464048622548086
 40
3.053097245096173
 40
3.053097245096173
 40
3.678097245096173
 40
3.678097245096173
 40
3.678097245096173
 10
-13.02722357912556
 20
1.0
 30
0.0
 41
1.0
 10
-13.02722357912556
 20
0.6875
 30
0.0
 41
1.0
 10
-13.02722357912556
 20
0.375
 30
0.0
 41
1.0
 10
-13.02722357912556
 20
0.0
 30
0.0
 41
0.7071067811865476
 10
-13.40222357912556
 20
0.0
 30
0.0
 41
1.0
 10
-14.02722357912556
 20
0.0
 30
0.0
 41
1.0
 10
-14.65222357912556
 20
0.0
 30
0.0
 41
1.0
 10
-15.02722357912556
 20
0.0
 30
0.0
 41
0.7071067811865476
 10
-15.02722357912556
 20
0.375
 30
0.0
 41
1.0
 10
-15.02722357912556
 20
0.6875
 30
0.0
 41
1.0
 10
-15.02722357912556
 20
1.0
 30
0.0
 41
1.0
  0
SPLINE
  5
8B
330
1F
100
AcDbEntity
  8
DEFAULT
100
AcDbSpline
210
0.0
220
0.0
230
1.0
 70
    12
 71
     2
 72
    14
 73
    11
 74
     0
 42
0.0000000001
 43
0.0000000001
 40
0.0
 40
0.0
 40
0.0
 40
0.6250000000000002
 40
0.6250000000000002
 40
1.214048622548086
 40
1.214048622548086
 40
2.464048622548086
 40
2.464048622548086
 40
3.053097245096173
 40
3.053097245096173
 40
3.678097245096173
 40
3.678097245096173
 40
3.678097245096173
 10
13.02722357912556
 20
1.0
 30
0.0
 41
1.0
 10
13.02722357912556
 20
0.6875
 30
0.0
 41
1.0
 10
13.02722357912556
 20
0.375
 30
0.0
 41
1.0
 10
13.02722357912556
 20
0.0
 30
0.0
 41
0.7071067811865476
 10
13.40222357912556
 20
0.0
 30
0.0
 41
1.0
 10
14.02722357912556
 20
0.0
 30
0.0
 41
1.0
 10
14.65222357912556
 20
0.0
 30
0.0
 41
1.0
 10
15.02722357912556
 20
0.0
 30
0.0
 41
0.7071067811865476
 10
15.02722357912556
 20
0.375
 30
0.0
 41
1.0
 10
15.02722357912556
 20
0.6875
 30
0.0
 41
1.0
 10
15.02722357912556
 20
1.0
 30
0.0
 41
1.0
  0
SPLINE
  5
8C
330
1F
100
AcDbEntity
  8
DEFAULT
100
AcDbSpline
210
0.0
220
0.0
230
1.0
 70
    12
 71
     2
 72
    14
 73
    11
 74
     0
 42
0.0000000001
 43
0.0000000001
 40
0.0
 40
0.0
 40
0.0
 40
0.6250000000000002
 40
0.6250000000000002
 40
1.214048622548086
 40
1.214048622548086
 40
2.464048622548086
 40
2.464048622548086
 40
3.053097245096173
 40
3.053097245096173
 40
3.678097245096173
 40
3.678097245096173
 40
3.678097245096173
 10
-1.0
 20
1.0
 30
0.0
 41
1.0
 10
-1.0
 20
0.6875
 30
0.0
 41
1.0
 10
-1.0
 20
0.375
 30
0.0
 41
1.0
 10
-1.0
 20
0.0
 30
0.0
 41
0.7071067811865476
 10
-0.625
 20
0.0
 30
0.0
 41
1.0
 10
0.0
 20
0.0
 30
0.0
 41
1.0
 10
0.625
 20
0.0
 30
0.0
 41
1.0
 10
0.9999999999999998
 20
0.0
 30
0.0
 41
0.7071067811865476
 10
1.0
 20
0.375
 30
0.0
 41
1.0
 10
1.0
 20
0.6875
 30
0.0
 41
1.0
 10
1.0
 20
1.0
 30
0.0
 41
1.0
  0
ARC
  5
8D
330
1F
100
AcDbEntity
  8
DEFAULT
100
AcDbCircle
 10
0.0000000000000053
 20
-66.30289680206748
 30
0.0
 40
81.4179099848097
100
AcDbArc
 50
77.68778353344696
 51
102.312216466553
  0
POLYLINE
  5
8E
330
1F
100
AcDbEntity
  8
DEFAULT
100
AcDb2dPolyline
 66
     1
 10
0.0
 20
0.0
 30
0.0
  0
VERTEX
  5
8F
330
8E
100
AcDbEntity
  8
DEFAULT
100
AcDbVertex
100
AcDb2dVertex
 10
17.36144966524503
 20
13.24241187051069
 30
0.0
  0
VERTEX
  5
90
330
8E
100
AcDbEntity
  8
DEFAULT
100
AcDbVertex
100
AcDb2dVertex
 10
-17.36144966524501
 20
13.2424118705107
 30
0.0
  0
SEQEND
  5
91
330
8E
100
AcDbEntity
  8
DEFAULT
  0
LINE
  5
92
330
1F
100
AcDbEntity
  8
DEFAULT
100
AcDbLine
 10
64.77168090474919
 20
13.31482299999995
 30
0.0
 11
54.78193376491643
 21
13.31482299999999
 31
0.0
  0
ENDSEC
  0
SECTION
  2
OBJECTS
  0
DICTIONARY
  5
C
330
0
100
AcDbDictionary
281
     1
  3
ACAD_GROUP
350
D
  3
ACAD_LAYOUT
350
1A
  3
ACAD_MLEADERSTYLE
350
94
  3
ACAD_MLINESTYLE
350
17
  3
ACAD_PLOTSETTINGS
350
19
  3
ACAD_PLOTSTYLENAME
350
E
  3
ACAD_TABLESTYLE
350
93
  3
ACAD_VISUALSTYLE
350
2A
  0
DICTIONARY
  5
D
102
{ACAD_REACTORS
330
C
102
}
330
C
100
AcDbDictionary
281
     1
  0
DICTIONARY
  5
1A
102
{ACAD_REACTORS
330
C
102
}
330
C
100
AcDbDictionary
281
     1
  3
Layout1
350
1E
  3
Layout2
350
26
  3
Model
350
22
  0
DICTIONARY
  5
94
102
{ACAD_REACTORS
330
C
102
}
330
C
100
AcDbDictionary
281
     1
  0
DICTIONARY
  5
17
102
{ACAD_REACTORS
330
C
102
}
330
C
100
AcDbDictionary
281
     1
  3
Standard
350
18
  0
DICTIONARY
  5
19
102
{ACAD_REACTORS
330
C
102
}
330
C
100
AcDbDictionary
281
     1
  0
ACDBDICTIONARYWDFLT
  5
E
102
{ACAD_REACTORS
330
C
102
}
330
C
100
AcDbDictionary
281
     1
  3
Normal
350
F
100
AcDbDictionaryWithDefault
340
F
  0
DICTIONARY
  5
93
102
{ACAD_REACTORS
330
C
102
}
330
C
100
AcDbDictionary
281
     1
  0
DICTIONARY
  5
2A
102
{ACAD_REACTORS
330
C
102
}
330
C
100
AcDbDictionary
281
     1
  3
2dWireframe
350
2F
  3
3D Hidden
350
31
  3
3dWireframe
350
30
  3
Basic
350
32
  3
Brighten
350
36
  3
ColorChange
350
3A
  3
Conceptual
350
34
  3
Dim
350
35
  3
Facepattern
350
39
  3
Flat
350
2B
  3
FlatWithEdges
350
2C
  3
Gouraud
350
2D
  3
GouraudWithEdges
350
2E
  3
Linepattern
350
38
  3
Realistic
350
33
  3
Thicken
350
37
  0
LAYOUT
  5
1E
102
{ACAD_REACTORS
330
1A
102
}
330
1A
100
AcDbPlotSettings
  1

  2
none_device
  4

  6

 40
0.0
 41
0.0
 42
0.0
 43
0.0
 44
0.0
 45
0.0
 46
0.0
 47
0.0
 48
0.0
 49
0.0
140
0.0
141
0.0
142
1.0
143
1.0
 70
   688
 72
     0
 73
     0
 74
     5
  7

 75
    16
 76
     0
 77
     2
 78
   300
147
1.0
148
0.0
149
0.0
100
AcDbLayout
  1
Layout1
 70
     1
 71
     1
 10
0.0
 20
0.0
 11
12.0
 21
9.0
 12
0.0
 22
0.0
 32
0.0
 14
1.000000000000000E+20
 24
1.000000000000000E+20
 34
1.000000000000000E+20
 15
-1.000000000000000E+20
 25
-1.000000000000000E+20
 35
-1.000000000000000E+20
146
0.0
 13
0.0
 23
0.0
 33
0.0
 16
1.0
 26
0.0
 36
0.0
 17
0.0
 27
1.0
 37
0.0
 76
     0
330
1B
  0
LAYOUT
  5
26
102
{ACAD_REACTORS
330
1A
102
}
330
1A
100
AcDbPlotSettings
  1

  2
none_device
  4

  6

 40
0.0
 41
0.0
 42
0.0
 43
0.0
 44
0.0
 45
0.0
 46
0.0
 47
0.0
 48
0.0
 49
0.0
140
0.0
141
0.0
142
1.0
143
1.0
 70
   688
 72
     0
 73
     0
 74
     5
  7

 75
    16
 76
     0
 77
     2
 78
   300
147
1.0
148
0.0
149
0.0
100
AcDbLayout
  1
Layout2
 70
     1
 71
     2
 10
0.0
 20
0.0
 11
0.0
 21
0.0
 12
0.0
 22
0.0
 32
0.0
 14
0.0
 24
0.0
 34
0.0
 15
0.0
 25
0.0
 35
0.0
146
0.0
 13
0.0
 23
0.0
 33
0.0
 16
1.0
 26
0.0
 36
0.0
 17
0.0
 27
1.0
 37
0.0
 76
     0
330
23
  0
LAYOUT
  5
22
102
{ACAD_REACTORS
330
1A
102
}
330
1A
100
AcDbPlotSettings
  1

  2
none_device
  4

  6

 40
0.0
 41
0.0
 42
0.0
 43
0.0
 44
0.0
 45
0.0
 46
0.0
 47
0.0
 48
0.0
 49
0.0
140
0.0
141
0.0
142
1.0
143
1.0
 70
  1712
 72
     0
 73
     0
 74
     0
  7

 75
     0
 76
     0
 77
     2
 78
   300
147
1.0
148
0.0
149
0.0
100
AcDbLayout
  1
Model
 70
     1
 71
     0
 10
0.0
 20
0.0
 11
12.0
 21
9.0
 12
0.0
 22
0.0
 32
0.0
 14
-20.88026246249814
 24
0.0
 34
0.0
 15
64.77168090474919
 25
72.87200226682516
 35
0.0
146
0.0
 13
0.0
 23
0.0
 33
0.0
 16
1.0
 26
0.0
 36
0.0
 17
0.0
 27
1.0
 37
0.0
 76
     0
330
1F
331
29
  0
MLINESTYLE
  5
18
102
{ACAD_REACTORS
330
17
102
}
330
17
100
AcDbMlineStyle
  2
Standard
 70
     0
  3

 62
   256
 51
90.0
 52
90.0
 71
     2
 49
0.5
 62
   256
  6
BYLAYER
 49
-0.5
 62
   256
  6
BYLAYER
  0
ACDBPLACEHOLDER
  5
F
102
{ACAD_REACTORS
330
E
102
}
330
E
  0
VISUALSTYLE
  5
2F
102
{ACAD_REACTORS
330
2A
102
}
330
2A
100
AcDbVisualStyle
  2
2dWireframe
 70
     4
 71
     0
 72
     2
 73
     0
 90
        0
 40
-0.6
 41
-30.0
 62
     5
 63
     7
421
 16777215
 74
     1
 91
        4
 64
     7
 65
   257
 75
     1
175
     1
 42
1.0
 92
        0
 66
   257
 43
1.0
 76
     1
 77
     6
 78
     2
 67
     7
 79
     5
170
     0
171
     0
290
     0
174
     0
 93
        1
 44
0.0
173
     0
291
     0
 45
0.0
1001
ACAD
1000
AcDbSavedByObjectVersion
1070
     0
  0
VISUALSTYLE
  5
31
102
{ACAD_REACTORS
330
2A
102
}
330
2A
100
AcDbVisualStyle
  2
3D Hidden
 70
     6
 71
     1
 72
     2
 73
     2
 90
        0
 40
-0.6
 41
-30.0
 62
     5
 63
     7
421
 16777215
 74
     2
 91
        2
 64
     7
 65
   257
 75
     2
175
     1
 42
40.0
 92
        0
 66
   257
 43
1.0
 76
     1
 77
     6
 78
     2
 67
     7
 79
     3
170
     0
171
     0
290
     0
174
     0
 93
        1
 44
0.0
173
     0
291
     0
 45
0.0
1001
ACAD
1000
AcDbSavedByObjectVersion
1070
     0
  0
VISUALSTYLE
  5
30
102
{ACAD_REACTORS
330
2A
102
}
330
2A
100
AcDbVisualStyle
  2
3dWireframe
 70
     5
 71
     0
 72
     2
 73
     0
 90
        0
 40
-0.6
 41
-30.0
 62
     5
 63
     7
421
 16777215
 74
     1
 91
        4
 64
     7
 65
   257
 75
     1
175
     1
 42
1.0
 92
        0
 66
   257
 43
1.0
 76
     1
 77
     6
 78
     2
 67
     7
 79
     5
170
     0
171
     0
290
     0
174
     0
 93
        1
 44
0.0
173
     0
291
     0
 45
0.0
1001
ACAD
1000
AcDbSavedByObjectVersion
1070
     0
  0
VISUALSTYLE
  5
32
102
{ACAD_REACTORS
330
2A
102
}
330
2A
100
AcDbVisualStyle
  2
Basic
 70
     7
 71
     1
 72
     0
 73
     1
 90
        0
 40
-0.6
 41
-30.0
 62
     5
 63
     7
421
 16777215
 74
     0
 91
        4
 64
     7
 65
   257
 75
     1
175
     1
 42
1.0
 92
        8
 66
     7
 43
1.0
 76
     1
 77
     6
 78
     2
 67
     7
 79
     5
170
     0
171
     0
290
     0
174
     0
 93
        1
 44
0.0
173
     0
291
     1
 45
0.0
1001
ACAD
1000
AcDbSavedByObjectVersion
1070
     0
  0
VISUALSTYLE
  5
36
102
{ACAD_REACTORS
330
2A
102
}
330
2A
100
AcDbVisualStyle
  2
Brighten
 70
    12
 71
     2
 72
     2
 73
     0
 90
        0
 40
-0.6
 41
-30.0
 62
     5
 63
     7
421
 16777215
 74
     1
 91
        4
 64
     7
 65
   257
 75
     1
175
     1
 42
1.0
 92
        8
 66
     7
 43
1.0
 76
     1
 77
     6
 78
     2
 67
     7
 79
     5
170
     0
171
     0
290
     0
174
     0
 93
        1
 44
50.0
173
     0
291
     1
 45
0.0
1001
ACAD
1000
AcDbSavedByObjectVersion
1070
     0
  0
VISUALSTYLE
  5
3A
102
{ACAD_REACTORS
330
2A
102
}
330
2A
100
AcDbVisualStyle
  2
ColorChange
 70
    16
 71
     2
 72
     2
 73
     3
 90
        0
 40
-0.6
 41
-30.0
 62
     5
 63
     8
421
  8421504
 74
     1
 91
        4
 64
     7
 65
   257
 75
     1
175
     1
 42
1.0
 92
        8
 66
     8
424
  8421504
 43
1.0
 76
     1
 77
     6
 78
     2
 67
     7
 79
     5
170
     0
171
     0
290
     0
174
     0
 93
        1
 44
0.0
173
     0
291
     1
 45
0.0
1001
ACAD
1000
AcDbSavedByObjectVersion
1070
     0
  0
VISUALSTYLE
  5
34
102
{ACAD_REACTORS
330
2A
102
}
330
2A
100
AcDbVisualStyle
  2
Conceptual
 70
     9
 71
     3
 72
     2
 73
     0
 90
        0
 40
-0.6
 41
-30.0
 62
     5
 63
     7
421
 16777215
 74
     2
 91
        2
 64
     7
 65
   257
 75
     1
175
     1
 42
40.0
 92
        8
 66
     7
 43
1.0
 76
     1
 77
     6
 78
     2
 67
     7
 79
     3
170
     0
171
     0
290
     0
174
     0
 93
        1
 44
0.0
173
     0
291
     0
 45
0.0
1001
ACAD
1000
AcDbSavedByObjectVersion
1070
     0
  0
VISUALSTYLE
  5
35
102
{ACAD_REACTORS
330
2A
102
}
330
2A
100
AcDbVisualStyle
  2
Dim
 70
    11
 71
     2
 72
     2
 73
     0
 90
        0
 40
-0.6
 41
-30.0
 62
     5
 63
     7
421
 16777215
 74
     1
 91
        4
 64
     7
 65
   257
 75
     1
175
     1
 42
1.0
 92
        8
 66
     7
 43
1.0
 76
     1
 77
     6
 78
     2
 67
     7
 79
     5
170
     0
171
     0
290
     0
174
     0
 93
        1
 44
-50.0
173
     0
291
     1
 45
0.0
1001
ACAD
1000
AcDbSavedByObjectVersion
1070
     0
  0
VISUALSTYLE
  5
39
102
{ACAD_REACTORS
330
2A
102
}
330
2A
100
AcDbVisualStyle
  2
Facepattern
 70
    15
 71
     2
 72
     2
 73
     0
 90
        0
 40
-0.6
 41
-30.0
 62
     5
 63
     7
421
 16777215
 74
     1
 91
        4
 64
     7
 65
   257
 75
     1
175
     1
 42
1.0
 92
        8
 66
     7
 43
1.0
 76
     1
 77
     6
 78
     2
 67
     7
 79
     5
170
     0
171
     0
290
     0
174
     0
 93
        1
 44
0.0
173
     0
291
     1
 45
0.0
1001
ACAD
1000
AcDbSavedByObjectVersion
1070
     0
  0
VISUALSTYLE
  5
2B
102
{ACAD_REACTORS
330
2A
102
}
330
2A
100
AcDbVisualStyle
  2
Flat
 70
     0
 71
     2
 72
     1
 73
     1
 90
        2
 40
-0.6
 41
30.0
 62
     5
 63
     7
421
 16777215
 74
     0
 91
        4
 64
     7
 65
   257
 75
     1
175
     1
 42
1.0
 92
        8
 66
     7
 43
1.0
 76
     1
 77
     6
 78
     2
 67
     7
 79
     5
170
     0
171
     0
290
     0
174
     0
 93
       13
 44
0.0
173
     0
291
     1
 45
0.0
1001
ACAD
1000
AcDbSavedByObjectVersion
1070
     0
  0
VISUALSTYLE
  5
2C
102
{ACAD_REACTORS
330
2A
102
}
330
2A
100
AcDbVisualStyle
  2
FlatWithEdges
 70
     1
 71
     2
 72
     1
 73
     1
 90
        2
 40
-0.6
 41
30.0
 62
     5
 63
     7
421
 16777215
 74
     1
 91
        4
 64
     7
 65
   257
 75
     1
175
     1
 42
1.0
 92
        0
 66
   257
 43
1.0
 76
     1
 77
     6
 78
     2
 67
     7
 79
     5
170
     0
171
     0
290
     0
174
     0
 93
       13
 44
0.0
173
     0
291
     1
 45
0.0
1001
ACAD
1000
AcDbSavedByObjectVersion
1070
     0
  0
VISUALSTYLE
  5
2D
102
{ACAD_REACTORS
330
2A
102
}
330
2A
100
AcDbVisualStyle
  2
Gouraud
 70
     2
 71
     2
 72
     2
 73
     1
 90
        2
 40
-0.6
 41
30.0
 62
     5
 63
     7
421
 16777215
 74
     0
 91
        4
 64
     7
 65
   257
 75
     1
175
     1
 42
1.0
 92
        0
 66
     7
 43
1.0
 76
     1
 77
     6
 78
     2
 67
     7
 79
     5
170
     0
171
     0
290
     0
174
     0
 93
       13
 44
0.0
173
     0
291
     1
 45
0.0
1001
ACAD
1000
AcDbSavedByObjectVersion
1070
     0
  0
VISUALSTYLE
  5
2E
102
{ACAD_REACTORS
330
2A
102
}
330
2A
100
AcDbVisualStyle
  2
GouraudWithEdges
 70
     3
 71
     2
 72
     2
 73
     1
 90
        2
 40
-0.6
 41
30.0
 62
     5
 63
     7
421
 16777215
 74
     1
 91
        4
 64
     7
 65
   257
 75
     1
175
     1
 42
1.0
 92
        0
 66
   257
 43
1.0
 76
     1
 77
     6
 78
     2
 67
     7
 79
     5
170
     0
171
     0
290
     0
174
     0
 93
       13
 44
0.0
173
     0
291
     1
 45
0.0
1001
ACAD
1000
AcDbSavedByObjectVersion
1070
     0
  0
VISUALSTYLE
  5
38
102
{ACAD_REACTORS
330
2A
102
}
330
2A
100
AcDbVisualStyle
  2
Linepattern
 70
    14
 71
     2
 72
     2
 73
     0
 90
        0
 40
-0.6
 41
-30.0
 62
     5
 63
     7
421
 16777215
 74
     1
 91
        4
 64
     7
 65
   257
 75
     7
175
     7
 42
1.0
 92
        8
 66
     7
 43
1.0
 76
     1
 77
     6
 78
     2
 67
     7
 79
     5
170
     0
171
     0
290
     0
174
     0
 93
        1
 44
0.0
173
     0
291
     1
 45
0.0
1001
ACAD
1000
AcDbSavedByObjectVersion
1070
     0
  0
VISUALSTYLE
  5
33
102
{ACAD_REACTORS
330
2A
102
}
330
2A
100
AcDbVisualStyle
  2
Realistic
 70
     8
 71
     2
 72
     2
 73
     0
 90
        0
 40
-0.6
 41
-30.0
 62
     5
 63
     7
421
 16777215
 74
     1
 91
        0
 64
     7
 65
   257
 75
     1
175
     1
 42
1.0
 92
        8
 66
     8
424
  7895160
 43
1.0
 76
     1
 77
     6
 78
     2
 67
     7
 79
     5
170
     0
171
     0
290
     0
174
     0
 93
       13
 44
0.0
173
     0
291
     0
 45
0.0
1001
ACAD
1000
AcDbSavedByObjectVersion
1070
     0
  0
VISUALSTYLE
  5
37
102
{ACAD_REACTORS
330
2A
102
}
330
2A
100
AcDbVisualStyle
  2
Thicken
 70
    13
 71
     2
 72
     2
 73
     0
 90
        0
 40
-0.6
 41
-30.0
 62
     5
 63
     7
421
 16777215
 74
     1
 91
        4
 64
     7
 65
   257
 75
     1
175
     1
 42
1.0
 92
       12
 66
     7
 43
1.0
 76
     1
 77
     6
 78
     2
 67
     7
 79
     5
170
     0
171
     0
290
     0
174
     0
 93
        1
 44
0.0
173
     0
291
     1
 45
0.0
1001
ACAD
1000
AcDbSavedByObjectVersion
1070
     0
  0
ENDSEC
  0
EOF
