  0
SECTION
  2
HEADER
  9
$ACADVER
  1
AC1015
  9
$ACADMAINTVER
 70
     6
  9
$DWGCODEPAGE
  3
ANSI_1252
  9
$INSBASE
 10
0.0
 20
0.0
 30
0.0
  9
$EXTMIN
 10
-13.32071000000023
 20
0.0012997415088861
 30
0.0
  9
$EXTMAX
 10
51.45660424214414
 20
65.7544359598084
 30
0.0
  9
$LIMMIN
 10
0.0
 20
0.0
  9
$LIMMAX
 10
12.0
 20
9.0
  9
$ORTHOMODE
 70
     0
  9
$REGENMODE
 70
     1
  9
$FILLMODE
 70
     1
  9
$QTEXTMODE
 70
     0
  9
$MIRRTEXT
 70
     1
  9
$LTSCALE
 40
0.0393700787401575
  9
$ATTMODE
 70
     1
  9
$TEXTSIZE
 40
0.2
  9
$TRACEWID
 40
0.05
  9
$TEXTSTYLE
  7
Standard
  9
$CLAYER
  8
DEFAULT
  9
$CELTYPE
  6
ByLayer
  9
$CECOLOR
 62
   256
  9
$CELTSCALE
 40
1.0
  9
$DISPSILH
 70
     0
  9
$DIMSCALE
 40
1.0
  9
$DIMASZ
 40
0.18
  9
$DIMEXO
 40
0.0625
  9
$DIMDLI
 40
0.38
  9
$DIMRND
 40
0.0
  9
$DIMDLE
 40
0.0
  9
$DIMEXE
 40
0.18
  9
$DIMTP
 40
0.0
  9
$DIMTM
 40
0.0
  9
$DIMTXT
 40
0.18
  9
$DIMCEN
 40
0.09
  9
$DIMTSZ
 40
0.0
  9
$DIMTOL
 70
     0
  9
$DIMLIM
 70
     0
  9
$DIMTIH
 70
     1
  9
$DIMTOH
 70
     1
  9
$DIMSE1
 70
     0
  9
$DIMSE2
 70
     0
  9
$DIMTAD
 70
     0
  9
$DIMZIN
 70
     0
  9
$DIMBLK
  1

  9
$DIMASO
 70
     1
  9
$DIMSHO
 70
     1
  9
$DIMPOST
  1

  9
$DIMAPOST
  1

  9
$DIMALT
 70
     0
  9
$DIMALTD
 70
     2
  9
$DIMALTF
 40
25.4
  9
$DIMLFAC
 40
1.0
  9
$DIMTOFL
 70
     0
  9
$DIMTVP
 40
0.0
  9
$DIMTIX
 70
     0
  9
$DIMSOXD
 70
     0
  9
$DIMSAH
 70
     0
  9
$DIMBLK1
  1

  9
$DIMBLK2
  1

  9
$DIMSTYLE
  2
Standard
  9
$DIMCLRD
 70
     0
  9
$DIMCLRE
 70
     0
  9
$DIMCLRT
 70
     0
  9
$DIMTFAC
 40
1.0
  9
$DIMGAP
 40
0.09
  9
$DIMJUST
 70
     0
  9
$DIMSD1
 70
     0
  9
$DIMSD2
 70
     0
  9
$DIMTOLJ
 70
     1
  9
$DIMTZIN
 70
     0
  9
$DIMALTZ
 70
     0
  9
$DIMALTTZ
 70
     0
  9
$DIMUPT
 70
     0
  9
$DIMDEC
 70
     4
  9
$DIMTDEC
 70
     4
  9
$DIMALTU
 70
     2
  9
$DIMALTTD
 70
     2
  9
$DIMTXSTY
  7
Standard
  9
$DIMAUNIT
 70
     0
  9
$DIMADEC
 70
     0
  9
$DIMALTRND
 40
0.0
  9
$DIMAZIN
 70
     0
  9
$DIMDSEP
 70
    46
  9
$DIMATFIT
 70
     3
  9
$DIMFRAC
 70
     0
  9
$DIMLDRBLK
  1

  9
$DIMLUNIT
 70
     2
  9
$DIMLWD
 70
    -2
  9
$DIMLWE
 70
    -2
  9
$DIMTMOVE
 70
     2
  9
$LUNITS
 70
     2
  9
$LUPREC
 70
     3
  9
$SKETCHINC
 40
0.1
  9
$FILLETRAD
 40
0.5
  9
$AUNITS
 70
     0
  9
$AUPREC
 70
     0
  9
$MENU
  1
.
  9
$ELEVATION
 40
0.0
  9
$PELEVATION
 40
0.0
  9
$THICKNESS
 40
0.0
  9
$LIMCHECK
 70
     0
  9
$CHAMFERA
 40
0.5
  9
$CHAMFERB
 40
0.5
  9
$CHAMFERC
 40
1.0
  9
$CHAMFERD
 40
0.0
  9
$SKPOLY
 70
     0
  9
$TDCREATE
 40
2455348.510341967
  9
$TDUCREATE
 40
2455348.677008634
  9
$TDUPDATE
 40
2455348.510341979
  9
$TDUUPDATE
 40
2455348.677008646
  9
$TDINDWG
 40
0.0000000116
  9
$TDUSRTIMER
 40
0.0000000116
  9
$USRTIMER
 70
     1
  9
$ANGBASE
 50
0.0
  9
$ANGDIR
 70
     0
  9
$PDMODE
 70
     0
  9
$PDSIZE
 40
0.0
  9
$PLINEWID
 40
0.0
  9
$SPLFRAME
 70
     0
  9
$SPLINETYPE
 70
     6
  9
$SPLINESEGS
 70
     8
  9
$HANDSEED
  5
6C
  9
$SURFTAB1
 70
     6
  9
$SURFTAB2
 70
     6
  9
$SURFTYPE
 70
     6
  9
$SURFU
 70
     6
  9
$SURFV
 70
     6
  9
$UCSBASE
  2

  9
$UCSNAME
  2

  9
$UCSORG
 10
0.0
 20
0.0
 30
0.0
  9
$UCSXDIR
 10
1.0
 20
0.0
 30
0.0
  9
$UCSYDIR
 10
0.0
 20
1.0
 30
0.0
  9
$UCSORTHOREF
  2

  9
$UCSORTHOVIEW
 70
     0
  9
$UCSORGTOP
 10
0.0
 20
0.0
 30
0.0
  9
$UCSORGBOTTOM
 10
0.0
 20
0.0
 30
0.0
  9
$UCSORGLEFT
 10
0.0
 20
0.0
 30
0.0
  9
$UCSORGRIGHT
 10
0.0
 20
0.0
 30
0.0
  9
$UCSORGFRONT
 10
0.0
 20
0.0
 30
0.0
  9
$UCSORGBACK
 10
0.0
 20
0.0
 30
0.0
  9
$PUCSBASE
  2

  9
$PUCSNAME
  2

  9
$PUCSORG
 10
0.0
 20
0.0
 30
0.0
  9
$PUCSXDIR
 10
1.0
 20
0.0
 30
0.0
  9
$PUCSYDIR
 10
0.0
 20
1.0
 30
0.0
  9
$PUCSORTHOREF
  2

  9
$PUCSORTHOVIEW
 70
     0
  9
$PUCSORGTOP
 10
0.0
 20
0.0
 30
0.0
  9
$PUCSORGBOTTOM
 10
0.0
 20
0.0
 30
0.0
  9
$PUCSORGLEFT
 10
0.0
 20
0.0
 30
0.0
  9
$PUCSORGRIGHT
 10
0.0
 20
0.0
 30
0.0
  9
$PUCSORGFRONT
 10
0.0
 20
0.0
 30
0.0
  9
$PUCSORGBACK
 10
0.0
 20
0.0
 30
0.0
  9
$USERI1
 70
     0
  9
$USERI2
 70
     0
  9
$USERI3
 70
     0
  9
$USERI4
 70
     0
  9
$USERI5
 70
     0
  9
$USERR1
 40
0.0
  9
$USERR2
 40
0.0
  9
$USERR3
 40
0.0
  9
$USERR4
 40
0.0
  9
$USERR5
 40
0.0
  9
$WORLDVIEW
 70
     1
  9
$SHADEDGE
 70
     3
  9
$SHADEDIF
 70
    70
  9
$TILEMODE
 70
     1
  9
$MAXACTVP
 70
    64
  9
$PINSBASE
 10
0.0
 20
0.0
 30
0.0
  9
$PLIMCHECK
 70
     0
  9
$PEXTMIN
 10
1.000000000000000E+20
 20
1.000000000000000E+20
 30
1.000000000000000E+20
  9
$PEXTMAX
 10
-1.000000000000000E+20
 20
-1.000000000000000E+20
 30
-1.000000000000000E+20
  9
$PLIMMIN
 10
0.0
 20
0.0
  9
$PLIMMAX
 10
12.0
 20
9.0
  9
$UNITMODE
 70
     0
  9
$VISRETAIN
 70
     1
  9
$PLINEGEN
 70
     0
  9
$PSLTSCALE
 70
     1
  9
$TREEDEPTH
 70
  3020
  9
$CMLSTYLE
  2
Standard
  9
$CMLJUST
 70
     0
  9
$CMLSCALE
 40
1.0
  9
$PROXYGRAPHICS
 70
     1
  9
$MEASUREMENT
 70
     0
  9
$CELWEIGHT
370
    -1
  9
$ENDCAPS
280
     0
  9
$JOINSTYLE
280
     0
  9
$LWDISPLAY
290
     0
  9
$INSUNITS
 70
     1
  9
$HYPERLINKBASE
  1

  9
$STYLESHEET
  1

  9
$XEDIT
290
     1
  9
$CEPSNTYPE
380
     0
  9
$PSTYLEMODE
290
     1
  9
$FINGERPRINTGUID
  2
{30099000-11AC-4F97-813B-B7C3BFC7054C}
  9
$VERSIONGUID
  2
{FAEB1C32-E019-11D5-929B-00C0DF256EC4}
  9
$EXTNAMES
290
     1
  9
$PSVPSCALE
 40
0.0
  9
$OLESTARTUP
290
     0
  0
ENDSEC
  0
SECTION
  2
CLASSES
  0
CLASS
  1
ACDBDICTIONARYWDFLT
  2
AcDbDictionaryWithDefault
  3
ObjectDBX Classes
 90
        0
280
     0
281
     0
  0
CLASS
  1
VISUALSTYLE
  2
AcDbVisualStyle
  3
ObjectDBX Classes
 90
     4095
280
     0
281
     0
  0
CLASS
  1
ACDBPLACEHOLDER
  2
AcDbPlaceHolder
  3
ObjectDBX Classes
 90
        0
280
     0
281
     0
  0
CLASS
  1
LAYOUT
  2
AcDbLayout
  3
ObjectDBX Classes
 90
        0
280
     0
281
     0
  0
ENDSEC
  0
SECTION
  2
TABLES
  0
TABLE
  2
VPORT
  5
8
330
0
100
AcDbSymbolTable
 70
     1
  0
VPORT
  5
29
330
8
100
AcDbSymbolTableRecord
100
AcDbViewportTableRecord
  2
*Active
 70
     0
 10
0.0
 20
0.0
 11
1.0
 21
1.0
 12
19.06794712107195
 22
32.87786785065865
 13
0.0
 23
0.0
 14
0.5
 24
0.5
 15
0.5
 25
0.5
 16
0.0
 26
0.0
 36
1.0
 17
0.0
 27
0.0
 37
0.0
 40
67.0681989426655
 41
0.9851593090112778
 42
50.0
 43
0.0
 44
0.0
 50
0.0
 51
0.0
 71
     0
 72
   100
 73
     1
 74
     3
 75
     0
 76
     0
 77
     0
 78
     0
281
     0
 65
     1
110
0.0
120
0.0
130
0.0
111
1.0
121
0.0
131
0.0
112
0.0
122
1.0
132
0.0
 79
     0
146
0.0
  0
ENDTAB
  0
TABLE
  2
LTYPE
  5
5
330
0
100
AcDbSymbolTable
 70
     1
  0
LTYPE
  5
14
330
5
100
AcDbSymbolTableRecord
100
AcDbLinetypeTableRecord
  2
ByBlock
 70
     0
  3

 72
    65
 73
     0
 40
0.0
  0
LTYPE
  5
15
330
5
100
AcDbSymbolTableRecord
100
AcDbLinetypeTableRecord
  2
ByLayer
 70
     0
  3

 72
    65
 73
     0
 40
0.0
  0
LTYPE
  5
16
330
5
100
AcDbSymbolTableRecord
100
AcDbLinetypeTableRecord
  2
Continuous
 70
     0
  3
Solid line
 72
    65
 73
     0
 40
0.0
  0
ENDTAB
  0
TABLE
  2
LAYER
  5
2
330
0
100
AcDbSymbolTable
 70
     2
  0
LAYER
  5
10
330
2
100
AcDbSymbolTableRecord
100
AcDbLayerTableRecord
  2
0
 70
     0
 62
     7
  6
Continuous
370
    -3
390
F
  0
LAYER
  5
3B
330
2
100
AcDbSymbolTableRecord
100
AcDbLayerTableRecord
  2
DEFAULT
 70
     0
 62
     7
  6
Continuous
370
    -3
390
F
  0
ENDTAB
  0
TABLE
  2
STYLE
  5
3
330
0
100
AcDbSymbolTable
 70
     1
  0
STYLE
  5
11
330
3
100
AcDbSymbolTableRecord
100
AcDbTextStyleTableRecord
  2
Standard
 70
     0
 40
0.0
 41
1.0
 50
0.0
 71
     0
 42
0.2
  3
txt
  4

  0
ENDTAB
  0
TABLE
  2
VIEW
  5
6
330
0
100
AcDbSymbolTable
 70
     0
  0
ENDTAB
  0
TABLE
  2
UCS
  5
7
330
0
100
AcDbSymbolTable
 70
     0
  0
ENDTAB
  0
TABLE
  2
APPID
  5
9
330
0
100
AcDbSymbolTable
 70
     1
  0
APPID
  5
12
330
9
100
AcDbSymbolTableRecord
100
AcDbRegAppTableRecord
  2
ACAD
 70
     0
  0
ENDTAB
  0
TABLE
  2
DIMSTYLE
  5
A
330
0
100
AcDbSymbolTable
 70
     1
100
AcDbDimStyleTable
  0
DIMSTYLE
105
27
330
A
100
AcDbSymbolTableRecord
100
AcDbDimStyleTableRecord
  2
Standard
 70
     0
340
11
  0
ENDTAB
  0
TABLE
  2
BLOCK_RECORD
  5
1
330
0
100
AcDbSymbolTable
 70
     1
  0
BLOCK_RECORD
  5
1F
330
1
100
AcDbSymbolTableRecord
100
AcDbBlockTableRecord
  2
*Model_Space
340
22
  0
BLOCK_RECORD
  5
1B
330
1
100
AcDbSymbolTableRecord
100
AcDbBlockTableRecord
  2
*Paper_Space
340
1E
  0
BLOCK_RECORD
  5
23
330
1
100
AcDbSymbolTableRecord
100
AcDbBlockTableRecord
  2
*Paper_Space0
340
26
  0
ENDTAB
  0
ENDSEC
  0
SECTION
  2
BLOCKS
  0
BLOCK
  5
20
330
1F
100
AcDbEntity
  8
0
100
AcDbBlockBegin
  2
*Model_Space
 70
     0
 10
0.0
 20
0.0
 30
0.0
  3
*Model_Space
  1

  0
ENDBLK
  5
21
330
1F
100
AcDbEntity
  8
0
100
AcDbBlockEnd
  0
BLOCK
  5
1C
330
1B
100
AcDbEntity
 67
     1
  8
0
100
AcDbBlockBegin
  2
*Paper_Space
 70
     0
 10
0.0
 20
0.0
 30
0.0
  3
*Paper_Space
  1

  0
ENDBLK
  5
1D
330
1B
100
AcDbEntity
 67
     1
  8
0
100
AcDbBlockEnd
  0
BLOCK
  5
24
330
23
100
AcDbEntity
  8
0
100
AcDbBlockBegin
  2
*Paper_Space0
 70
     0
 10
0.0
 20
0.0
 30
0.0
  3
*Paper_Space0
  1

  0
ENDBLK
  5
25
330
23
100
AcDbEntity
  8
0
100
AcDbBlockEnd
  0
ENDSEC
  0
SECTION
  2
ENTITIES
  0
SPLINE
  5
3C
330
1F
100
AcDbEntity
  8
DEFAULT
100
AcDbSpline
210
0.0
220
0.0
230
1.0
 70
    12
 71
     2
 72
    10
 73
     7
 74
     0
 42
0.0000000001
 43
0.0000000001
 40
1.707667869191614
 40
1.707667869191614
 40
1.707667869191614
 40
5.34591558170236
 40
5.34591558170236
 40
21.96734975681522
 40
21.96734975681522
 40
25.60559746932597
 40
25.60559746932597
 40
25.60559746932597
 10
-10.72050508755642
 20
56.82161973247059
 30
0.0
 41
1.0
 10
-10.57539414484341
 20
59.08164295980853
 30
0.0
 41
0.729409273751986
 10
-8.310717087556432
 20
59.08164295980853
 30
0.0
 41
1.0
 10
0.0
 20
59.08164295980853
 30
0.0
 41
1.0
 10
8.31071708755643
 20
59.08164295980853
 30
0.0
 41
1.0
 10
10.57539414484341
 20
59.08164295980853
 30
0.0
 41
0.729409273751987
 10
10.72050508755643
 20
56.82161973247059
 30
0.0
 41
1.0
  0
SPLINE
  5
3D
330
1F
100
AcDbEntity
  8
DEFAULT
100
AcDbSpline
210
0.0
220
0.0
230
1.0
 70
    15
 71
     2
 72
    20
 73
    17
 74
     0
 42
0.0000000001
 43
0.0000000001
 40
-7.456592668214191
 40
-7.456592668214191
 40
-7.456592668214191
 40
-4.256592668213464
 40
-4.256592668213464
 40
-3.161696078685857
 40
-3.161696078685857
 40
-2.035567145602756
 40
-2.035567145602756
 40
1.561033770088624
 40
1.561033770088624
 40
2.68716270317191
 40
2.68716270317191
 40
3.782059292699517
 40
3.782059292699517
 40
6.982059292700245
 40
6.982059292700245
 40
29.62923805256341
 40
29.62923805256341
 40
29.62923805256341
 10
11.32071000000001
 20
40.88213095980849
 30
0.0
 41
1.0
 10
12.32071000000012
 20
40.88213095980842
 30
0.0
 41
1.0
 10
13.32071000000023
 20
40.88213095980835
 30
0.0
 41
1.0
 10
13.32085500000007
 20
52.33306478786403
 30
0.0
 41
1.0
 10
13.32099999999991
 20
63.78399861591972
 30
0.0
 41
1.0
 10
12.34507274725018
 20
64.76921728786407
 30
0.0
 41
1.0
 10
11.36914549450045
 20
65.7544359598084
 30
0.0
 41
1.0
 10
0.0002900000000867
 20
65.7544359598084
 30
0.0
 41
1.0
 10
-11.36856549450027
 20
65.7544359598084
 30
0.0
 41
1.0
 10
-12.34463774725017
 20
64.76921728786398
 30
0.0
 41
1.0
 10
-13.32071000000007
 20
63.78399861591956
 30
0.0
 41
1.0
 10
-13.32071000000015
 20
52.33306478786395
 30
0.0
 41
1.0
 10
-13.32071000000023
 20
40.88213095980835
 30
0.0
 41
1.0
 10
-12.32071000000011
 20
40.88213095980843
 30
0.0
 41
1.0
 10
-11.32071
 20
40.88213095980851
 30
0.0
 41
1.0
 10
0.0000000000000196
 20
40.43970128449178
 30
0.0
 41
0.9992371941293624
 10
11.32071000000002
 20
40.88213095980853
 30
0.0
 41
1.0
  0
SPLINE
  5
3E
330
1F
100
AcDbEntity
  8
DEFAULT
100
AcDbSpline
210
0.0
220
0.0
230
1.0
 70
     8
 71
     3
 72
    28
 73
    24
 74
     0
 42
0.0000000001
 43
0.0000000001
 40
-19.16169797225331
 40
-19.16169797225331
 40
-19.16169797225331
 40
-19.16169797225331
 40
0.0
 40
0.0
 40
0.0
 40
1.0
 40
2.0
 40
3.0
 40
4.0
 40
5.0
 40
5.0
 40
5.0
 40
19.68481924086709
 40
19.68481924086709
 40
19.68481924086709
 40
20.68481924086709
 40
21.68481924086709
 40
22.68481924086709
 40
23.68481924086709
 40
24.68481924086709
 40
24.68481924086709
 40
24.68481924086709
 40
43.84651721312041
 40
43.84651721312041
 40
43.84651721312041
 40
43.84651721312041
 10
-10.72050508755643
 20
40.85929680800847
 30
0.0
 10
-10.72050508755643
 20
47.24652946542625
 30
0.0
 10
-10.72050508755643
 20
53.63376212284402
 30
0.0
 10
-10.72050508755643
 20
60.02099478026179
 30
0.0
 10
-10.72504279609472
 20
60.3694151330204
 30
0.0
 10
-10.62016603076303
 20
61.06763874070745
 30
0.0
 10
-10.13218053240286
 20
62.00850772967366
 30
0.0
 10
-9.360243644225417
 20
62.73478998165275
 30
0.0
 10
-8.392786003805634
 20
63.16955272284054
 30
0.0
 10
-7.690339892201965
 20
63.23023169440548
 30
0.0
 10
-7.342409620433545
 20
63.21832033652485
 30
0.0
 10
-2.447469873477849
 20
63.21832033652485
 30
0.0
 10
2.447469873477849
 20
63.21832033652485
 30
0.0
 10
7.342409620433545
 20
63.21832033652485
 30
0.0
 10
7.690339892201965
 20
63.23023169440548
 30
0.0
 10
8.392786003805634
 20
63.16955272284054
 30
0.0
 10
9.360243644225417
 20
62.73478998165275
 30
0.0
 10
10.13218053240286
 20
62.00850772967366
 30
0.0
 10
10.62016603076303
 20
61.06763874070745
 30
0.0
 10
10.72504279609472
 20
60.3694151330204
 30
0.0
 10
10.72050508755643
 20
60.02099478026179
 30
0.0
 10
10.72050508755643
 20
53.63376212284402
 30
0.0
 10
10.72050508755643
 20
47.24652946542625
 30
0.0
 10
10.72050508755643
 20
40.85929680800847
 30
0.0
  0
LINE
  5
3F
330
1F
100
AcDbEntity
  8
DEFAULT
100
AcDbLine
 10
50.39021561315457
 20
4.121299994198885
 30
0.0
 11
29.06903902209828
 21
4.121299994198885
 31
0.0
  0
SPLINE
  5
40
330
1F
100
AcDbEntity
  8
DEFAULT
100
AcDbSpline
210
0.0
220
0.0
230
1.0
 70
    12
 71
     3
 72
    23
 73
    19
 74
     0
 42
0.0000000001
 43
0.0000000001
 40
0.0
 40
0.0
 40
0.0
 40
0.0
 40
1.0
 40
1.0
 40
1.0
 40
2.0
 40
2.0
 40
2.0
 40
3.0
 40
3.0
 40
3.0
 40
3.343611696486383
 40
3.343611696486383
 40
3.343611696486383
 40
3.687223392972767
 40
3.687223392972767
 40
3.687223392972767
 40
4.691983700261838
 40
4.691983700261838
 40
4.691983700261838
 40
4.691983700261838
 10
29.88148577376281
 20
3.933799994198884
 30
0.0
 41
1.0
 10
29.88148577376281
 20
2.912966660865551
 30
0.0
 41
1.0
 10
29.88148577376281
 20
1.892133327532218
 30
0.0
 41
1.0
 10
29.88148577376281
 20
0.8712999941988845
 30
0.0
 41
1.0
 10
29.88148577376281
 20
0.7414055335672697
 30
0.0
 41
1.0
 10
30.0213163131312
 20
0.5900499941988845
 30
0.0
 41
1.0
 10
30.15121077376281
 20
0.5900499941988845
 30
0.0
 41
1.0
 10
33.36905244042948
 20
0.5900499941988845
 30
0.0
 41
1.0
 10
36.58689410709615
 20
0.5900499941988845
 30
0.0
 41
1.0
 10
39.80473577376281
 20
0.5900499941988845
 30
0.0
 41
1.0
 10
39.9328765569937
 20
0.5900499941988844
 30
0.0
 41
0.8047378541243649
 10
40.02348577376281
 20
0.4994407774297699
 30
0.0
 41
0.8047378541243649
 10
40.02348577376281
 20
0.3712999941988844
 30
0.0
 41
1.0
 10
40.02348577376281
 20
0.243159210967999
 30
0.0
 41
0.8047378541243649
 10
39.9328765569937
 20
0.1525499941988844
 30
0.0
 41
0.8047378541243649
 10
39.80473577376281
 20
0.1525499941988844
 30
0.0
 41
1.0
 10
37.42530394413353
 20
0.1525499941988844
 30
0.0
 41
1.0
 10
35.04587211450426
 20
0.1525499941988844
 30
0.0
 41
1.0
 10
32.66644028487497
 20
0.1525499941988844
 30
0.0
 41
1.0
  0
SPLINE
  5
41
330
1F
100
AcDbEntity
  8
DEFAULT
100
AcDbSpline
210
0.0
220
0.0
230
1.0
 70
     8
 71
     3
 72
    14
 73
    10
 74
     0
 42
0.0000000001
 43
0.0000000001
 40
0.0
 40
0.0
 40
0.0
 40
0.0
 40
1.0
 40
1.0
 40
1.0
 40
2.0
 40
2.0
 40
2.0
 40
3.086719967023061
 40
3.086719967023061
 40
3.086719967023061
 40
3.086719967023061
 10
29.44398577376281
 20
4.121299994198885
 30
0.0
 10
29.44398577376281
 20
3.037966660865551
 30
0.0
 10
29.44398577376281
 20
1.954633327532218
 30
0.0
 10
29.44398577376281
 20
0.8712999941988845
 30
0.0
 10
29.44398577376281
 20
0.5351933051205177
 30
0.0
 10
29.81506208468444
 20
0.1525499941988844
 30
0.0
 10
30.15116877376281
 20
0.1525499941988844
 30
0.0
 10
30.35515299413283
 20
0.1525499941988844
 30
0.0
 10
30.55913721450285
 20
0.1525499941988844
 30
0.0
 10
30.76312143487287
 20
0.1525499941988844
 30
0.0
  0
SPLINE
  5
42
330
1F
100
AcDbEntity
  8
DEFAULT
100
AcDbSpline
210
0.0
220
0.0
230
1.0
 70
    12
 71
     3
 72
    34
 73
    30
 74
     0
 42
0.0000000001
 43
0.0000000001
 40
-5.0
 40
-5.0
 40
-5.0
 40
-5.0
 40
-4.0
 40
-3.0
 40
-2.0
 40
-1.0
 40
0.0
 40
0.0
 40
0.0
 40
0.1647388164013454
 40
0.1647388164013454
 40
0.1647388164013454
 40
1.164738816401345
 40
2.164738816401345
 40
3.164738816401345
 40
4.164738816401345
 40
5.164738816401345
 40
5.164738816401345
 40
5.164738816401345
 40
6.164738816401345
 40
6.164738816401345
 40
6.164738816401345
 40
7.164738816401345
 40
7.164738816401345
 40
7.164738816401345
 40
7.34972147021033
 40
7.34972147021033
 40
7.34972147021033
 40
7.608200882987391
 40
7.608200882987391
 40
7.608200882987391
 40
7.608200882987391
 10
30.96177155156281
 20
0.0012997415088865
 30
0.0
 41
1.0
 10
30.97036286837444
 20
0.0107598538290314
 30
0.0
 41
1.0
 10
30.97205944001624
 20
0.0377598909498775
 30
0.0
 41
1.0
 10
30.96936770032054
 20
0.0756412284115189
 30
0.0
 41
1.0
 10
30.96273646343734
 20
0.1137006896566806
 30
0.0
 41
1.0
 10
30.95543672929194
 20
0.1514153670593668
 30
0.0
 41
1.0
 10
30.95080357931283
 20
0.1766491435279913
 30
0.0
 41
1.0
 10
30.94874106692281
 20
0.1893008914588836
 30
0.0
 41
1.0
 10
30.93876748954281
 20
0.2433005081422172
 30
0.0
 41
1.0
 10
30.92879391216281
 20
0.2973001248255507
 30
0.0
 41
1.0
 10
30.91882033478281
 20
0.3512997415088843
 30
0.0
 41
1.0
 10
30.91570642207873
 20
0.3644361554597448
 30
0.0
 41
1.0
 10
30.9140259994897
 20
0.3914586199559149
 30
0.0
 41
1.0
 10
30.91912478192764
 20
0.4317130604095663
 30
0.0
 41
1.0
 10
30.93345146033619
 20
0.4698623358489289
 30
0.0
 41
1.0
 10
30.95922591881104
 20
0.5018921527039726
 30
0.0
 41
1.0
 10
30.98387079590518
 20
0.5143296808563338
 30
0.0
 41
1.0
 10
30.99694970557282
 20
0.5175260753988862
 30
0.0
 41
1.0
 10
31.51122106163615
 20
0.5175260483322196
 30
0.0
 41
1.0
 10
32.02549241769947
 20
0.5175260212655531
 30
0.0
 41
1.0
 10
32.53976377376281
 20
0.5175259941988866
 30
0.0
 41
1.0
 10
32.6007464863271
 20
0.5175259941988866
 30
0.0
 41
1.0
 10
32.66061790139353
 20
0.4312986198486211
 30
0.0
 41
1.0
 10
32.64970862811282
 20
0.3712996282888834
 30
0.0
 41
1.0
 10
32.63867803579281
 20
0.3106334043822171
 30
0.0
 41
1.0
 10
32.62764744347282
 20
0.2499671804755509
 30
0.0
 41
1.0
 10
32.61661685115281
 20
0.1893009565688846
 30
0.0
 41
1.0
 10
32.60045107139378
 20
0.1003921485886961
 30
0.0
 41
0.9102799825676658
 10
32.54191337586737
 20
0.0315485085474197
 30
0.0
 41
0.9102799825676658
 10
32.45675977376283
 20
0.001299994198882
 30
0.0
 41
1.0
  0
SPLINE
  5
43
330
1F
100
AcDbEntity
  8
DEFAULT
100
AcDbSpline
210
0.0
220
0.0
230
1.0
 70
    12
 71
     3
 72
    40
 73
    36
 74
     0
 42
0.0000000001
 43
0.0000000001
 40
-4.84954538012715
 40
-4.84954538012715
 40
-4.84954538012715
 40
-4.84954538012715
 40
-4.0
 40
-3.0
 40
-2.0
 40
-1.0
 40
0.0
 40
0.0
 40
0.0
 40
1.0
 40
2.0
 40
3.0
 40
4.0
 40
5.0
 40
5.0
 40
5.0
 40
6.0
 40
6.0
 40
6.0
 40
6.150117243555048
 40
6.150117243555048
 40
6.150117243555048
 40
6.300234487110097
 40
6.300234487110097
 40
6.300234487110097
 40
6.470664657047816
 40
6.470664657047816
 40
6.470664657047816
 40
6.77301867328667
 40
6.77301867328667
 40
6.77301867328667
 40
7.77301867328667
 40
7.77301867328667
 40
7.77301867328667
 40
8.050361278420045
 40
8.050361278420045
 40
8.050361278420045
 40
8.050361278420045
 10
30.76312143487287
 20
0.1525499941988844
 30
0.0
 41
1.0
 10
30.77503388052705
 20
0.1563466354384591
 30
0.0
 41
1.0
 10
30.79060718139953
 20
0.1813801423236849
 30
0.0
 41
1.0
 10
30.80845680609918
 20
0.2190591660070449
 30
0.0
 41
1.0
 10
30.81999222000687
 20
0.2626308716646857
 30
0.0
 41
1.0
 10
30.82708806853247
 20
0.3066967289055913
 30
0.0
 41
1.0
 10
30.82925618353202
 20
0.3364560918156474
 30
0.0
 41
1.0
 10
30.82978066201282
 20
0.3514880766788859
 30
0.0
 41
1.0
 10
30.83049261236967
 20
0.3712543392658414
 30
0.0
 41
1.0
 10
30.8356891012271
 20
0.4102358287886883
 30
0.0
 41
1.0
 10
30.85501256016367
 20
0.4664187400087296
 30
0.0
 41
1.0
 10
30.89286564665766
 20
0.5130715264401313
 30
0.0
 41
1.0
 10
30.94866996038908
 20
0.5360337255194406
 30
0.0
 41
1.0
 10
30.98757391622448
 20
0.5412898179430091
 30
0.0
 41
1.0
 10
31.00724177376281
 20
0.5412999941988862
 30
0.0
 41
1.0
 10
31.50431510709615
 20
0.5412999941988862
 30
0.0
 41
1.0
 10
32.00138844042948
 20
0.5412999941988862
 30
0.0
 41
1.0
 10
32.49846177376281
 20
0.5412999941988862
 30
0.0
 41
1.0
 10
32.54991465507599
 20
0.5412999941988896
 30
0.0
 41
0.9462355234583462
 10
32.59721803054362
 20
0.5210567319915296
 30
0.0
 41
0.9462355234583462
 10
32.63274217650368
 20
0.4838353127650319
 30
0.0
 41
1.0
 10
32.66826632246376
 20
0.4466138935385343
 30
0.0
 41
0.9462355234583462
 10
32.68628142757988
 20
0.3984178876554493
 30
0.0
 41
0.9462355234583462
 10
32.68388177376281
 20
0.3470209941988846
 30
0.0
 41
1.0
 10
32.68032544042947
 20
0.2906246608655513
 30
0.0
 41
1.0
 10
32.67676910709613
 20
0.2342283275322182
 30
0.0
 41
1.0
 10
32.67321277376281
 20
0.1778319941988851
 30
0.0
 41
1.0
 10
32.65118532692164
 20
0.0705309809800032
 30
0.0
 41
0.8499662179601936
 10
32.56629842380078
 20
0.0012999941988834
 30
0.0
 41
0.8499662179601936
 10
32.45675977376282
 20
0.0012999941988834
 30
0.0
 41
1.0
 10
31.92662144042949
 20
0.0012999941988834
 30
0.0
 41
1.0
 10
31.39648310709616
 20
0.0012999941988834
 30
0.0
 41
1.0
 10
30.86634477376282
 20
0.0012999941988834
 30
0.0
 41
1.0
 10
30.7674048955028
 20
0.0012999941988834
 30
0.0
 41
0.8754180999275772
 10
30.68695419428263
 20
0.0588915229447913
 30
0.0
 41
0.8754180999275772
 10
30.65506077376281
 20
0.1525499941988848
 30
0.0
 41
1.0
  0
SPLINE
  5
44
330
1F
100
AcDbEntity
  8
DEFAULT
100
AcDbSpline
210
0.0
220
0.0
230
1.0
 70
    12
 71
     3
 72
    40
 73
    36
 74
     0
 42
0.0000000001
 43
0.0000000001
 40
-4.84954538012715
 40
-4.84954538012715
 40
-4.84954538012715
 40
-4.84954538012715
 40
-4.0
 40
-3.0
 40
-2.0
 40
-1.0
 40
0.0
 40
0.0
 40
0.0
 40
1.0
 40
2.0
 40
3.0
 40
4.0
 40
5.0
 40
5.0
 40
5.0
 40
6.0
 40
6.0
 40
6.0
 40
6.150117243555048
 40
6.150117243555048
 40
6.150117243555048
 40
6.300234487110097
 40
6.300234487110097
 40
6.300234487110097
 40
6.470664657047816
 40
6.470664657047816
 40
6.470664657047816
 40
6.77301867328667
 40
6.77301867328667
 40
6.77301867328667
 40
7.77301867328667
 40
7.77301867328667
 40
7.77301867328667
 40
8.050361278420045
 40
8.050361278420045
 40
8.050361278420045
 40
8.050361278420045
 10
48.67542711265276
 20
0.1525499941988844
 30
0.0
 41
1.0
 10
48.66351466699857
 20
0.1563466354384591
 30
0.0
 41
1.0
 10
48.6479413661261
 20
0.1813801423236849
 30
0.0
 41
1.0
 10
48.63009174142645
 20
0.2190591660070449
 30
0.0
 41
1.0
 10
48.61855632751876
 20
0.2626308716646857
 30
0.0
 41
1.0
 10
48.61146047899316
 20
0.3066967289055913
 30
0.0
 41
1.0
 10
48.6092923639936
 20
0.3364560918156474
 30
0.0
 41
1.0
 10
48.60876788551281
 20
0.3514880766788859
 30
0.0
 41
1.0
 10
48.60805593515596
 20
0.3712543392658414
 30
0.0
 41
1.0
 10
48.60285944629852
 20
0.4102358287886883
 30
0.0
 41
1.0
 10
48.58353598736196
 20
0.4664187400087296
 30
0.0
 41
1.0
 10
48.54568290086797
 20
0.5130715264401313
 30
0.0
 41
1.0
 10
48.48987858713654
 20
0.5360337255194406
 30
0.0
 41
1.0
 10
48.45097463130114
 20
0.5412898179430091
 30
0.0
 41
1.0
 10
48.43130677376281
 20
0.5412999941988862
 30
0.0
 41
1.0
 10
47.93423344042949
 20
0.5412999941988862
 30
0.0
 41
1.0
 10
47.43716010709615
 20
0.5412999941988862
 30
0.0
 41
1.0
 10
46.94008677376281
 20
0.5412999941988862
 30
0.0
 41
1.0
 10
46.88863389244965
 20
0.5412999941988896
 30
0.0
 41
0.9462355234583462
 10
46.84133051698202
 20
0.5210567319915296
 30
0.0
 41
0.9462355234583462
 10
46.80580637102194
 20
0.4838353127650319
 30
0.0
 41
1.0
 10
46.77028222506187
 20
0.4466138935385343
 30
0.0
 41
0.9462355234583462
 10
46.75226711994575
 20
0.3984178876554493
 30
0.0
 41
0.9462355234583462
 10
46.75466677376282
 20
0.3470209941988846
 30
0.0
 41
1.0
 10
46.75822310709615
 20
0.2906246608655513
 30
0.0
 41
1.0
 10
46.76177944042949
 20
0.2342283275322182
 30
0.0
 41
1.0
 10
46.76533577376282
 20
0.1778319941988851
 30
0.0
 41
1.0
 10
46.78736322060399
 20
0.0705309809800032
 30
0.0
 41
0.8499662179601936
 10
46.87225012372485
 20
0.0012999941988834
 30
0.0
 41
0.8499662179601936
 10
46.98178877376281
 20
0.0012999941988834
 30
0.0
 41
1.0
 10
47.51192710709614
 20
0.0012999941988834
 30
0.0
 41
1.0
 10
48.04206544042948
 20
0.0012999941988834
 30
0.0
 41
1.0
 10
48.57220377376281
 20
0.0012999941988834
 30
0.0
 41
1.0
 10
48.67114365202283
 20
0.0012999941988834
 30
0.0
 41
0.8754180999275772
 10
48.75159435324301
 20
0.0588915229447913
 30
0.0
 41
0.8754180999275772
 10
48.78348777376281
 20
0.1525499941988848
 30
0.0
 41
1.0
  0
LINE
  5
45
330
1F
100
AcDbEntity
  8
DEFAULT
100
AcDbLine
 10
26.36530396138629
 20
29.51197833183597
 30
0.0
 11
29.06903902209812
 21
4.121299994198679
 31
0.0
  0
SPLINE
  5
46
330
1F
100
AcDbEntity
  8
DEFAULT
100
AcDbSpline
210
0.0
220
0.0
230
1.0
 70
    12
 71
     3
 72
    32
 73
    28
 74
     0
 42
0.0000000001
 43
0.0000000001
 40
-1.032493185778631
 40
-1.032493185778631
 40
-1.032493185778631
 40
-1.032493185778631
 40
0.0000000000000001
 40
0.0000000000000001
 40
0.0000000000000001
 40
0.3280646013520067
 40
0.5908487693113806
 40
0.8710218453327241
 40
1.249799716768683
 40
1.628577645622178
 40
1.908750801839906
 40
2.499599771321381
 40
2.499599771321381
 40
2.499599771321381
 40
2.509696103088913
 40
2.509696103088913
 40
2.509696103088913
 40
2.519792434856444
 40
2.519792434856444
 40
2.519792434856444
 40
3.519792434856445
 40
3.519792434856445
 40
3.519792434856445
 40
3.764138525274376
 40
3.764138525274376
 40
3.764138525274376
 40
4.875783088444718
 40
4.875783088444718
 40
4.875783088444718
 40
4.875783088444718
 10
26.36530396138647
 20
29.51197833183602
 30
0.0
 41
1.0
 10
33.71318291991177
 20
28.80277554366335
 30
0.0
 41
1.0
 10
41.06106187843705
 20
28.09357275549068
 30
0.0
 41
1.0
 10
48.40894083696234
 20
27.38436996731802
 30
0.0
 41
1.0
 10
48.51778986858176
 20
27.37386400340375
 30
0.0
 41
1.0
 10
48.71331846368636
 20
27.34949487674599
 30
0.0
 41
1.0
 10
48.99716900620055
 20
27.28561810417834
 30
0.0
 41
1.0
 10
49.2855272355767
 20
27.17764666804788
 30
0.0
 41
1.0
 10
49.57830937608418
 20
26.98553402197378
 30
0.0
 41
1.0
 10
49.79420172368499
 20
26.71020636500858
 30
0.0
 41
1.0
 10
49.97255368419593
 20
26.33197819055811
 30
0.0
 41
1.0
 10
50.03825016214081
 20
26.04750246771559
 30
0.0
 41
1.0
 10
50.07351117906863
 20
25.85373500946149
 30
0.0
 41
1.0
 10
50.07411371363117
 20
25.85042394242858
 30
0.0
 41
1.0
 10
50.07471624819373
 20
25.84711287539566
 30
0.0
 41
1.0
 10
50.07531878275629
 20
25.84380180836274
 30
0.0
 41
1.0
 10
50.07578716213541
 20
25.84046911672492
 30
0.0
 41
1.0
 10
50.07625554151451
 20
25.83713642508711
 30
0.0
 41
1.0
 10
50.07672392089363
 20
25.83380373344929
 30
0.0
 41
1.0
 10
50.49197910041613
 20
22.87911032447755
 30
0.0
 41
1.0
 10
50.90723427993862
 20
19.92441691550581
 30
0.0
 41
1.0
 10
51.32248945946112
 20
16.96972350653406
 30
0.0
 41
1.0
 10
51.48158208733128
 20
15.83772071560278
 30
0.0
 41
0.9950307679583613
 10
51.5015324282873
 20
14.69476718295623
 30
0.0
 41
0.9950307679583613
 10
51.38204306870861
 20
13.557901712544
 30
0.0
 41
1.0
 10
51.05143391685734
 20
10.41236780642891
 30
0.0
 41
1.0
 10
50.72082476500606
 20
7.266833900313826
 30
0.0
 41
1.0
 10
50.39021561315479
 20
4.121299994198741
 30
0.0
 41
1.0
  0
LINE
  5
47
330
1F
100
AcDbEntity
  8
DEFAULT
100
AcDbLine
 10
28.50240014233683
 20
29.30571002248062
 30
0.0
 11
31.1841700933722
 21
4.121299994198885
 31
0.0
  0
SPLINE
  5
48
330
1F
100
AcDbEntity
  8
DEFAULT
100
AcDbSpline
210
0.0
220
0.0
230
1.0
 70
    12
 71
     3
 72
    27
 73
    23
 74
     0
 42
0.0000000001
 43
0.0000000001
 40
0.0
 40
0.0
 40
0.0
 40
0.0
 40
1.0
 40
1.0
 40
1.0
 40
2.000047548823527
 40
3.000095097647054
 40
4.000142646470581
 40
5.000190195294109
 40
6.0
 40
6.0
 40
6.0
 40
7.0
 40
7.0
 40
7.0
 40
7.343611696486383
 40
7.343611696486383
 40
7.343611696486383
 40
7.687223392972768
 40
7.687223392972768
 40
7.687223392972768
 40
8.687223392972768
 40
8.687223392972768
 40
8.687223392972768
 40
8.687223392972768
 10
49.45448577376281
 20
3.933799994198884
 30
0.0
 41
1.0
 10
49.4544857737628
 20
2.912966660865551
 30
0.0
 41
1.0
 10
49.4544857737628
 20
1.892133327532218
 30
0.0
 41
1.0
 10
49.45448577376281
 20
0.8712999941988845
 30
0.0
 41
1.0
 10
49.45392247346093
 20
0.8449039131564139
 30
0.0
 41
1.0
 10
49.44029978626808
 20
0.7933230087321793
 30
0.0
 41
1.0
 10
49.4010924124144
 20
0.7243306947140223
 30
0.0
 41
1.0
 10
49.35010070034102
 20
0.6635850815458885
 30
0.0
 41
1.0
 10
49.28829357098852
 20
0.6140716084780412
 30
0.0
 41
1.0
 10
49.23950769663079
 20
0.5916040089816147
 30
0.0
 41
1.0
 10
49.21296477376281
 20
0.5900499941988845
 30
0.0
 41
1.0
 10
46.22272177376282
 20
0.5900499941988845
 30
0.0
 41
1.0
 10
43.23247877376281
 20
0.5900499941988845
 30
0.0
 41
1.0
 10
40.24223577376281
 20
0.5900499941988845
 30
0.0
 41
1.0
 10
40.11409499053193
 20
0.5900499941988844
 30
0.0
 41
0.8047378541243649
 10
40.02348577376282
 20
0.4994407774297699
 30
0.0
 41
0.8047378541243649
 10
40.02348577376281
 20
0.3712999941988844
 30
0.0
 41
1.0
 10
40.02348577376282
 20
0.243159210967999
 30
0.0
 41
0.8047378541243649
 10
40.11409499053195
 20
0.1525499941988844
 30
0.0
 41
0.8047378541243649
 10
40.24223577376281
 20
0.1525499941988844
 30
0.0
 41
1.0
 10
42.41660244042948
 20
0.1525499941988844
 30
0.0
 41
1.0
 10
44.59096910709615
 20
0.1525499941988844
 30
0.0
 41
1.0
 10
46.76533577376281
 20
0.1525499941988844
 30
0.0
 41
1.0
  0
SPLINE
  5
49
330
1F
100
AcDbEntity
  8
DEFAULT
100
AcDbSpline
210
0.0
220
0.0
230
1.0
 70
     8
 71
     2
 72
    10
 73
     7
 74
     0
 42
0.0000000001
 43
0.0000000001
 40
0.0
 40
0.0
 40
0.0
 40
1.0
 40
1.0
 40
2.0
 40
2.0
 40
3.0
 40
3.0
 40
3.0
 10
49.65455177376281
 20
4.121299994198885
 30
0.0
 10
49.65455177376281
 20
4.027549994198885
 30
0.0
 10
49.65455177376281
 20
3.933799994198884
 30
0.0
 10
39.64930177376282
 20
3.933799994198884
 30
0.0
 10
29.64405177376281
 20
3.933799994198884
 30
0.0
 10
29.64405177376281
 20
4.027549994198885
 30
0.0
 10
29.64405177376281
 20
4.121299994198885
 30
0.0
  0
SPLINE
  5
4A
330
1F
100
AcDbEntity
  8
DEFAULT
100
AcDbSpline
210
0.0
220
0.0
230
1.0
 70
     8
 71
     3
 72
    18
 73
    14
 74
     0
 42
0.0000000001
 43
0.0000000001
 40
0.0012006079580314
 40
0.0012006079580314
 40
0.0012006079580314
 40
0.0012006079580314
 40
1.0
 40
1.0
 40
1.0
 40
1.999977819249913
 40
2.999983364437435
 40
3.999988909624956
 40
4.999994454812478
 40
6.0
 40
6.0
 40
6.0
 40
7.0
 40
7.0
 40
7.0
 40
7.0
 10
48.67542711265276
 20
0.1525499941988844
 30
0.0
 10
48.85465933302277
 20
0.1525499941988844
 30
0.0
 10
49.0338915533928
 20
0.1525499941988844
 30
0.0
 10
49.21312377376281
 20
0.1525499941988844
 30
0.0
 10
49.28523413272313
 20
0.153827703206846
 30
0.0
 10
49.42850906176405
 20
0.1850487696362808
 30
0.0
 10
49.61304917215721
 20
0.3029648588583231
 30
0.0
 10
49.76027461560865
 20
0.463419465890502
 30
0.0
 10
49.86324162872456
 20
0.6559044956454753
 30
0.0
 10
49.89096538104545
 20
0.7991596321649536
 30
0.0
 10
49.89198577376281
 20
0.8712999941988845
 30
0.0
 10
49.8919857737628
 20
1.954633327532218
 30
0.0
 10
49.8919857737628
 20
3.037966660865551
 30
0.0
 10
49.89198577376281
 20
4.121299994198885
 30
0.0
  0
SPLINE
  5
4B
330
1F
100
AcDbEntity
  8
DEFAULT
100
AcDbSpline
210
0.0
220
0.0
230
1.0
 70
    12
 71
     3
 72
    34
 73
    30
 74
     0
 42
0.0000000001
 43
0.0000000001
 40
-5.0
 40
-5.0
 40
-5.0
 40
-5.0
 40
-4.0
 40
-3.0
 40
-2.0
 40
-1.0
 40
0.0
 40
0.0
 40
0.0
 40
0.1647388164013454
 40
0.1647388164013454
 40
0.1647388164013454
 40
1.164738816401345
 40
2.164738816401345
 40
3.164738816401345
 40
4.164738816401345
 40
5.164738816401345
 40
5.164738816401345
 40
5.164738816401345
 40
6.164738816401345
 40
6.164738816401345
 40
6.164738816401345
 40
7.164738816401345
 40
7.164738816401345
 40
7.164738816401345
 40
7.34972147021033
 40
7.34972147021033
 40
7.34972147021033
 40
7.608200882987391
 40
7.608200882987391
 40
7.608200882987391
 40
7.608200882987391
 10
48.47677699596282
 20
0.0012997415088865
 30
0.0
 41
1.0
 10
48.46818567915119
 20
0.0107598538290314
 30
0.0
 41
1.0
 10
48.46648910750939
 20
0.0377598909498775
 30
0.0
 41
1.0
 10
48.46918084720509
 20
0.0756412284115189
 30
0.0
 41
1.0
 10
48.47581208408829
 20
0.1137006896566806
 30
0.0
 41
1.0
 10
48.48311181823369
 20
0.1514153670593668
 30
0.0
 41
1.0
 10
48.4877449682128
 20
0.1766491435279913
 30
0.0
 41
1.0
 10
48.48980748060281
 20
0.1893008914588836
 30
0.0
 41
1.0
 10
48.49978105798281
 20
0.2433005081422172
 30
0.0
 41
1.0
 10
48.50975463536281
 20
0.2973001248255507
 30
0.0
 41
1.0
 10
48.51972821274281
 20
0.3512997415088843
 30
0.0
 41
1.0
 10
48.5228421254469
 20
0.3644361554597448
 30
0.0
 41
1.0
 10
48.52452254803593
 20
0.3914586199559149
 30
0.0
 41
1.0
 10
48.51942376559799
 20
0.4317130604095663
 30
0.0
 41
1.0
 10
48.50509708718944
 20
0.4698623358489289
 30
0.0
 41
1.0
 10
48.47932262871458
 20
0.5018921527039726
 30
0.0
 41
1.0
 10
48.45467775162045
 20
0.5143296808563338
 30
0.0
 41
1.0
 10
48.44159884195281
 20
0.5175260753988862
 30
0.0
 41
1.0
 10
47.92732748588949
 20
0.5175260483322196
 30
0.0
 41
1.0
 10
47.41305612982615
 20
0.5175260212655531
 30
0.0
 41
1.0
 10
46.89878477376281
 20
0.5175259941988866
 30
0.0
 41
1.0
 10
46.83780206119852
 20
0.5175259941988866
 30
0.0
 41
1.0
 10
46.7779306461321
 20
0.4312986198486211
 30
0.0
 41
1.0
 10
46.78883991941281
 20
0.3712996282888834
 30
0.0
 41
1.0
 10
46.79987051173281
 20
0.3106334043822171
 30
0.0
 41
1.0
 10
46.81090110405281
 20
0.2499671804755509
 30
0.0
 41
1.0
 10
46.82193169637281
 20
0.1893009565688846
 30
0.0
 41
1.0
 10
46.83809747613184
 20
0.1003921485886964
 30
0.0
 41
0.9102799825676658
 10
46.89663517165824
 20
0.0315485085474199
 30
0.0
 41
0.9102799825676658
 10
46.9817887737628
 20
0.0012999941988821
 30
0.0
 41
1.0
  0
ARC
  5
4C
330
1F
100
AcDbEntity
  8
DEFAULT
100
AcDbCircle
 10
0.0224437968196991
 20
-197.5144565382204
 30
0.0
 40
214.8220324419774
100
AcDbArc
 50
87.14550981956324
 51
92.86647721061799
  0
SPLINE
  5
4D
330
1F
100
AcDbEntity
  8
DEFAULT
100
AcDbSpline
210
0.0
220
0.0
230
1.0
 70
     8
 71
     3
 72
    28
 73
    24
 74
     0
 42
0.0000000001
 43
0.0000000001
 40
-24.82751332008183
 40
-24.82751332008183
 40
-24.82751332008183
 40
-24.82751332008183
 40
0.0
 40
0.0
 40
0.0
 40
1.0
 40
2.0
 40
3.0
 40
4.0
 40
5.0
 40
5.0
 40
5.0
 40
19.6857746717607
 40
19.6857746717607
 40
19.6857746717607
 40
20.68577465670351
 40
21.68577466046781
 40
22.68577466423211
 40
23.68577466799641
 40
24.6857746717607
 40
24.6857746717607
 40
24.6857746717607
 40
49.51328799184253
 40
49.51328799184253
 40
49.51328799184253
 40
49.51328799184253
 10
-10.72050479717538
 20
4.121299994198885
 30
0.0
 10
-10.72050479717538
 20
12.39713776755949
 30
0.0
 10
-10.72050479717538
 20
20.67297554092011
 30
0.0
 10
-10.72050479717538
 20
28.94881331428072
 30
0.0
 10
-10.55333659797557
 20
29.09428549188018
 30
0.0
 10
-10.07491609217392
 20
29.13583652588806
 30
0.0
 10
-9.402023177090525
 20
29.20832464481231
 30
0.0
 10
-8.713995438965732
 20
29.23869293823753
 30
0.0
 10
-8.029031826237786
 20
29.25707460807142
 30
0.0
 10
-7.571491845744854
 20
29.25766001513126
 30
0.0
 10
-7.342887322859964
 20
29.25743684534467
 30
0.0
 10
-2.447629103279859
 20
29.25743680698605
 30
0.0
 10
2.447629116300245
 20
29.25743676862742
 30
0.0
 10
7.34288733588035
 20
29.25743673026879
 30
0.0
 10
7.571491854356438
 20
29.25766001512024
 30
0.0
 10
8.02903183053513
 20
29.2570746079561
 30
0.0
 10
8.713995438965732
 20
29.23869293823753
 30
0.0
 10
9.402023177090525
 20
29.20832464481231
 30
0.0
 10
10.07491609217392
 20
29.13583652588806
 30
0.0
 10
10.55333659797557
 20
29.09428549188018
 30
0.0
 10
10.72050479717538
 20
28.94881331428072
 30
0.0
 10
10.72050479717538
 20
20.67297554092011
 30
0.0
 10
10.72050479717538
 20
12.39713776755949
 30
0.0
 10
10.72050479717538
 20
4.121299994198885
 30
0.0
  0
LINE
  5
4E
330
1F
100
AcDbEntity
  8
DEFAULT
100
AcDbLine
 10
13.32129
 20
29.15506146201387
 30
0.0
 11
13.32129
 21
4.121299994198889
 31
0.0
  0
LINE
  5
4F
330
1F
100
AcDbEntity
  8
DEFAULT
100
AcDbLine
 10
-13.32071
 20
4.121299994198885
 30
0.0
 11
13.32129
 21
4.121299994198885
 31
0.0
  0
LINE
  5
50
330
1F
100
AcDbEntity
  8
DEFAULT
100
AcDbLine
 10
-13.32071
 20
29.15506146201387
 30
0.0
 11
-13.32071
 21
4.121299994198889
 31
0.0
  0
SPLINE
  5
51
330
1F
100
AcDbEntity
  8
DEFAULT
100
AcDbSpline
210
0.0
220
0.0
230
1.0
 70
     8
 71
     2
 72
    10
 73
     7
 74
     0
 42
0.0000000001
 43
0.0000000001
 40
-0.1249964507360588
 40
-0.1249964507360588
 40
-0.1249964507360588
 40
1.025559130814662
 40
1.025559130814662
 40
1.049857200544204
 40
1.049857200544204
 40
1.077116749904384
 40
1.077116749904384
 40
1.077116749904384
 10
13.32129000000036
 20
29.15506146201384
 30
0.0
 10
11.82126186469068
 20
29.30119772810636
 30
0.0
 10
10.321233729381
 20
29.44733399419887
 30
0.0
 10
0.0002900000002288
 20
29.44733399419889
 30
0.0
 10
-10.32065372938054
 20
29.4473339941989
 30
0.0
 10
-11.82068186469022
 20
29.30119772810639
 30
0.0
 10
-13.3207099999999
 20
29.15506146201389
 30
0.0
  0
SPLINE
  5
52
330
1F
100
AcDbEntity
  8
DEFAULT
100
AcDbSpline
210
0.0
220
0.0
230
1.0
 70
    24
 71
     2
 72
     6
 73
     3
 74
     0
 42
0.0000000001
 43
0.0000000001
 40
0.0
 40
0.0
 40
0.0
 40
1.0
 40
1.0
 40
1.0
 10
11.394233
 20
0.0705229941988843
 30
0.0
 10
11.1973825
 20
0.0705229941988843
 30
0.0
 10
11.000532
 20
0.0705229941988843
 30
0.0
  0
SPLINE
  5
53
330
1F
100
AcDbEntity
  8
DEFAULT
100
AcDbSpline
210
0.0
220
0.0
230
1.0
 70
     8
 71
     2
 72
    10
 73
     7
 74
     0
 42
0.0000000001
 43
0.0000000001
 40
0.0
 40
0.0
 40
0.0
 40
1.0
 40
1.0
 40
2.0
 40
2.0
 40
3.0
 40
3.0
 40
3.0
 10
-12.478039
 20
4.121299994198885
 30
0.0
 10
-12.478039
 20
4.027549994198885
 30
0.0
 10
-12.478039
 20
3.933799994198884
 30
0.0
 10
-11.489862
 20
3.933799994198884
 30
0.0
 10
-10.501685
 20
3.933799994198884
 30
0.0
 10
-10.501685
 20
4.027549994198885
 30
0.0
 10
-10.501685
 20
4.121299994198885
 30
0.0
  0
SPLINE
  5
54
330
1F
100
AcDbEntity
  8
DEFAULT
100
AcDbSpline
210
0.0
220
0.0
230
1.0
 70
     8
 71
     2
 72
    10
 73
     7
 74
     0
 42
0.0000000001
 43
0.0000000001
 40
0.0
 40
0.0
 40
0.0
 40
1.0
 40
1.0
 40
2.0
 40
2.0
 40
3.0
 40
3.0
 40
3.0
 10
12.478039
 20
4.121299994198885
 30
0.0
 10
12.478039
 20
4.027549994198885
 30
0.0
 10
12.478039
 20
3.933799994198884
 30
0.0
 10
11.489862
 20
3.933799994198884
 30
0.0
 10
10.501685
 20
3.933799994198884
 30
0.0
 10
10.501685
 20
4.027549994198885
 30
0.0
 10
10.501685
 20
4.121299994198885
 30
0.0
  0
SPLINE
  5
55
330
1F
100
AcDbEntity
  8
DEFAULT
100
AcDbSpline
210
0.0
220
0.0
230
1.0
 70
     8
 71
     2
 72
    46
 73
    43
 74
     0
 42
0.0000000001
 43
0.0000000001
 40
0.0
 40
0.0
 40
0.0
 40
1.0
 40
1.0
 40
2.0
 40
2.0
 40
3.0
 40
3.0
 40
4.0
 40
4.0
 40
5.0
 40
5.0
 40
6.0
 40
6.0
 40
7.0
 40
7.0
 40
8.0
 40
8.0
 40
9.0
 40
9.0
 40
10.0
 40
10.0
 40
11.0
 40
11.0
 40
12.0
 40
12.0
 40
13.0
 40
13.0
 40
14.0
 40
14.0
 40
15.0
 40
15.0
 40
16.0
 40
16.0
 40
17.0
 40
17.0
 40
18.0
 40
18.0
 40
19.0
 40
19.0
 40
20.0
 40
20.0
 40
21.0
 40
21.0
 40
21.0
 10
-10.7422
 20
3.933799994198884
 30
0.0
 10
-10.742193
 20
2.400138994198884
 30
0.0
 10
-10.742186
 20
0.8664779941988837
 30
0.0
 10
-10.742091
 20
0.8592449941988843
 30
0.0
 10
-10.741996
 20
0.852011994198885
 30
0.0
 10
-10.7418115
 20
0.8447124941988847
 30
0.0
 10
-10.741627
 20
0.8374129941988845
 30
0.0
 10
-10.7413705
 20
0.8300479941988844
 30
0.0
 10
-10.741114
 20
0.8226829941988844
 30
0.0
 10
-10.740797
 20
0.815278994198885
 30
0.0
 10
-10.74048
 20
0.8078749941988858
 30
0.0
 10
-10.7401065
 20
0.800439494198886
 30
0.0
 10
-10.739733
 20
0.7930039941988863
 30
0.0
 10
-10.7393025
 20
0.785557494198886
 30
0.0
 10
-10.738872
 20
0.7781109941988856
 30
0.0
 10
-10.7383825
 20
0.7706989941988852
 30
0.0
 10
-10.737893
 20
0.7632869941988848
 30
0.0
 10
-10.737339
 20
0.7559499941988851
 30
0.0
 10
-10.736785
 20
0.7486129941988854
 30
0.0
 10
-10.7361565
 20
0.7413544941988847
 30
0.0
 10
-10.735528
 20
0.7340959941988839
 30
0.0
 10
-10.734812
 20
0.7269024941988843
 30
0.0
 10
-10.734096
 20
0.7197089941988847
 30
0.0
 10
-10.7333005
 20
0.7125849941988854
 30
0.0
 10
-10.732505
 20
0.7054609941988862
 30
0.0
 10
-10.731648
 20
0.6984234941988853
 30
0.0
 10
-10.730791
 20
0.6913859941988844
 30
0.0
 10
-10.7298845
 20
0.6844279941988852
 30
0.0
 10
-10.728978
 20
0.6774699941988861
 30
0.0
 10
-10.7280285
 20
0.6705884941988857
 30
0.0
 10
-10.727079
 20
0.6637069941988852
 30
0.0
 10
-10.726094
 20
0.6569254941988846
 30
0.0
 10
-10.725109
 20
0.6501439941988839
 30
0.0
 10
-10.724095
 20
0.6435049941988841
 30
0.0
 10
-10.723081
 20
0.6368659941988842
 30
0.0
 10
-10.722041
 20
0.6303974941988856
 30
0.0
 10
-10.721001
 20
0.6239289941988869
 30
0.0
 10
-10.719932
 20
0.617641494198886
 30
0.0
 10
-10.718863
 20
0.6113539941988851
 30
0.0
 10
-10.7177625
 20
0.6052799941988852
 30
0.0
 10
-10.716662
 20
0.5992059941988853
 30
0.0
 10
-10.71577
 20
0.5946279941988849
 30
0.0
 10
-10.714878
 20
0.5900499941988845
 30
0.0
  0
SPLINE
  5
56
330
1F
100
AcDbEntity
  8
DEFAULT
100
AcDbSpline
210
0.0
220
0.0
230
1.0
 70
     8
 71
     3
 72
    15
 73
    11
 74
     0
 42
0.0000000001
 43
0.0000000001
 40
0.0
 40
0.0
 40
0.0
 40
0.0
 40
1.0
 40
2.0
 40
3.0
 40
4.0
 40
5.0
 40
5.0
 40
5.0
 40
6.0
 40
6.0
 40
6.0
 40
6.0
 10
-11.1589
 20
0.5900499941988845
 30
0.0
 10
-11.16177894148968
 20
0.608647364526119
 30
0.0
 10
-11.16643741760428
 20
0.6459986565090667
 30
0.0
 10
-11.1721406214294
 20
0.702165550606271
 30
0.0
 10
-11.17656938531013
 20
0.7584481543319584
 30
0.0
 10
-11.17927190217777
 20
0.8148441307339386
 30
0.0
 10
-11.17960939295008
 20
0.852483140410737
 30
0.0
 10
-11.1797
 20
0.8712999941988845
 30
0.0
 10
-11.1797
 20
1.888501660865552
 30
0.0
 10
-11.1797
 20
2.905703327532219
 30
0.0
 10
-11.1797
 20
3.922904994198886
 30
0.0
  0
SPLINE
  5
57
330
1F
100
AcDbEntity
  8
DEFAULT
100
AcDbSpline
210
0.0
220
0.0
230
1.0
 70
     8
 71
     3
 72
    15
 73
    11
 74
     0
 42
0.0000000001
 43
0.0000000001
 40
0.0
 40
0.0
 40
0.0
 40
0.0
 40
1.000000000383427
 40
2.000000000766854
 40
3.000000001150282
 40
4.000000001533709
 40
5.0
 40
5.0
 40
5.0
 40
6.0
 40
6.0
 40
6.0
 40
6.0
 10
-12.481136
 20
0.1525499941988844
 30
0.0
 10
-12.54180201283259
 20
0.1531514478720823
 30
0.0
 10
-12.66089262281554
 20
0.1967792418438323
 30
0.0
 10
-12.77429435827325
 20
0.3440900201342608
 30
0.0
 10
-12.8430368557874
 20
0.5126089388536232
 30
0.0
 10
-12.88442833138237
 20
0.6898998155808677
 30
0.0
 10
-12.89524617671643
 20
0.8107471929317719
 30
0.0
 10
-12.8952045
 20
0.8712999941988845
 30
0.0
 10
-12.89520466666667
 20
1.954633327532218
 30
0.0
 10
-12.89520483333333
 20
3.037966660865551
 30
0.0
 10
-12.895205
 20
4.121299994198885
 30
0.0
  0
SPLINE
  5
58
330
1F
100
AcDbEntity
  8
DEFAULT
100
AcDbSpline
210
0.0
220
0.0
230
1.0
 70
     8
 71
     3
 72
    15
 73
    11
 74
     0
 42
0.0000000001
 43
0.0000000001
 40
0.0
 40
0.0
 40
0.0
 40
0.0
 40
1.0
 40
1.0
 40
1.0
 40
2.0
 40
3.0
 40
4.0
 40
5.0
 40
6.0
 40
6.0
 40
6.0
 40
6.0
 10
-12.457705
 20
3.933799994198884
 30
0.0
 10
-12.457705
 20
2.912966660865551
 30
0.0
 10
-12.457705
 20
1.892133327532218
 30
0.0
 10
-12.457705
 20
0.8712999941988845
 30
0.0
 10
-12.45760264157786
 20
0.8495250930251604
 30
0.0
 10
-12.45495787879069
 20
0.8060342468903946
 30
0.0
 10
-12.44628914693346
 20
0.741236380734102
 30
0.0
 10
-12.43130408070525
 20
0.6776079282942233
 30
0.0
 10
-12.41211286811395
 20
0.6151198291857527
 30
0.0
 10
-12.39379989666706
 20
0.5754312567249371
 30
0.0
 10
-12.382358
 20
0.5568939941988863
 30
0.0
  0
SPLINE
  5
59
330
1F
100
AcDbEntity
  8
DEFAULT
100
AcDbSpline
210
0.0
220
0.0
230
1.0
 70
     8
 71
     3
 72
    15
 73
    11
 74
     0
 42
0.0000000001
 43
0.0000000001
 40
0.0
 40
0.0
 40
0.0
 40
0.0
 40
1.000000000383427
 40
2.000000000766854
 40
3.000000001150282
 40
4.000000001533709
 40
5.0
 40
5.0
 40
5.0
 40
6.0
 40
6.0
 40
6.0
 40
6.0
 10
12.481136
 20
0.1525499941988844
 30
0.0
 10
12.54180201283259
 20
0.1531514478720823
 30
0.0
 10
12.66089262281554
 20
0.1967792418438323
 30
0.0
 10
12.77429435827325
 20
0.3440900201342608
 30
0.0
 10
12.8430368557874
 20
0.5126089388536232
 30
0.0
 10
12.88442833138237
 20
0.6898998155808677
 30
0.0
 10
12.89524617671643
 20
0.8107471929317719
 30
0.0
 10
12.8952045
 20
0.8712999941988845
 30
0.0
 10
12.89520466666667
 20
1.954633327532218
 30
0.0
 10
12.89520483333333
 20
3.037966660865551
 30
0.0
 10
12.895205
 20
4.121299994198885
 30
0.0
  0
SPLINE
  5
5A
330
1F
100
AcDbEntity
  8
DEFAULT
100
AcDbSpline
210
0.0
220
0.0
230
1.0
 70
     8
 71
     3
 72
    15
 73
    11
 74
     0
 42
0.0000000001
 43
0.0000000001
 40
0.0
 40
0.0
 40
0.0
 40
0.0
 40
1.0
 40
1.0
 40
1.0
 40
2.0
 40
3.0
 40
4.0
 40
5.0
 40
6.0
 40
6.0
 40
6.0
 40
6.0
 10
12.457705
 20
3.933799994198884
 30
0.0
 10
12.457705
 20
2.912966660865551
 30
0.0
 10
12.457705
 20
1.892133327532218
 30
0.0
 10
12.457705
 20
0.8712999941988845
 30
0.0
 10
12.45760264157786
 20
0.8495250930251604
 30
0.0
 10
12.45495787879069
 20
0.8060342468903946
 30
0.0
 10
12.44628914693346
 20
0.741236380734102
 30
0.0
 10
12.43130408070525
 20
0.6776079282942233
 30
0.0
 10
12.41211286811395
 20
0.6151198291857527
 30
0.0
 10
12.39379989666706
 20
0.5754312567249371
 30
0.0
 10
12.382358
 20
0.5568939941988863
 30
0.0
  0
SPLINE
  5
5B
330
1F
100
AcDbEntity
  8
DEFAULT
100
AcDbSpline
210
0.0
220
0.0
230
1.0
 70
     8
 71
     3
 72
    15
 73
    11
 74
     0
 42
0.0000000001
 43
0.0000000001
 40
0.0
 40
0.0
 40
0.0
 40
0.0
 40
1.0
 40
2.0
 40
3.0
 40
4.0
 40
5.0
 40
5.0
 40
5.0
 40
6.0
 40
6.0
 40
6.0
 40
6.0
 10
11.1589
 20
0.5900499941988845
 30
0.0
 10
11.16177894148968
 20
0.608647364526119
 30
0.0
 10
11.16643741760428
 20
0.6459986565090667
 30
0.0
 10
11.1721406214294
 20
0.702165550606271
 30
0.0
 10
11.17656938531013
 20
0.7584481543319584
 30
0.0
 10
11.17927190217777
 20
0.8148441307339386
 30
0.0
 10
11.17960939295008
 20
0.852483140410737
 30
0.0
 10
11.1797
 20
0.8712999941988845
 30
0.0
 10
11.1797
 20
1.888501660865552
 30
0.0
 10
11.1797
 20
2.905703327532219
 30
0.0
 10
11.1797
 20
3.922904994198886
 30
0.0
  0
SPLINE
  5
5C
330
1F
100
AcDbEntity
  8
DEFAULT
100
AcDbSpline
210
0.0
220
0.0
230
1.0
 70
     8
 71
     3
 72
    12
 73
     8
 74
     0
 42
0.0000000001
 43
0.0000000001
 40
0.0
 40
0.0
 40
0.0
 40
0.0
 40
1.0
 40
2.0
 40
3.0
 40
4.0
 40
5.0
 40
5.0
 40
5.0
 40
5.0
 10
-10.62895768258
 20
0.1525439894988867
 30
0.0
 10
-10.62682629320492
 20
0.1365232193660428
 30
0.0
 10
-10.61882768176608
 20
0.104931788786909
 30
0.0
 10
-10.5948408586396
 20
0.0622310192667104
 30
0.0
 10
-10.55946079760304
 20
0.0282521431503742
 30
0.0
 10
-10.51552841216665
 20
0.006405908130527
 30
0.0
 10
-10.48321474705608
 20
0.0012985690903047
 30
0.0
 10
-10.46704589558
 20
0.0012997415088865
 30
0.0
  0
SPLINE
  5
5D
330
1F
100
AcDbEntity
  8
DEFAULT
100
AcDbSpline
210
0.0
220
0.0
230
1.0
 70
     8
 71
     3
 72
    22
 73
    18
 74
     0
 42
0.0000000001
 43
0.0000000001
 40
0.0
 40
0.0
 40
0.0
 40
0.0
 40
1.000124002814163
 40
2.000248005628327
 40
3.00037200844249
 40
4.000496011256653
 40
5.0
 40
5.0
 40
5.0
 40
6.0
 40
6.0
 40
6.0
 40
6.999503986810346
 40
7.99962799010776
 40
8.999751993405173
 40
9.999875996702587
 40
11.0
 40
11.0
 40
11.0
 40
11.0
 10
-10.027886
 20
0.1525499941988844
 30
0.0
 10
-10.03242398699663
 20
0.1351101988674575
 30
0.0
 10
-10.04643993548702
 20
0.1015402743751916
 30
0.0
 10
-10.08045645728656
 20
0.0589108238061324
 30
0.0
 10
-10.12416704993317
 20
0.0264064123543537
 30
0.0
 10
-10.17467219184291
 20
0.0059199882360719
 30
0.0
 10
-10.21070355625455
 20
0.0014636302587003
 30
0.0
 10
-10.2287035
 20
0.0012999941988834
 30
0.0
 10
-10.4236995
 20
0.0012999941988834
 30
0.0
 10
-10.6186955
 20
0.0012999941988834
 30
0.0
 10
-10.8136915
 20
0.0012999941988834
 30
0.0
 10
-10.83169137241546
 20
0.0014636966566737
 30
0.0
 10
-10.86772282234686
 20
0.0059196594069302
 30
0.0
 10
-10.91822734290083
 20
0.0264068445372974
 30
0.0
 10
-10.96193843057906
 20
0.0589104805914313
 30
0.0
 10
-10.99595360776977
 20
0.1015407803823212
 30
0.0
 10
-11.00997056141021
 20
0.1351100049318308
 30
0.0
 10
-11.014508
 20
0.1525499941988844
 30
0.0
  0
SPLINE
  5
5E
330
1F
100
AcDbEntity
  8
DEFAULT
100
AcDbSpline
210
0.0
220
0.0
230
1.0
 70
     8
 71
     3
 72
    52
 73
    48
 74
     0
 42
0.0000000001
 43
0.0000000001
 40
0.0
 40
0.0
 40
0.0
 40
0.0
 40
1.0
 40
1.0
 40
1.0
 40
1.997410321359965
 40
2.998057741019974
 40
3.998705160679982
 40
4.999352580339991
 40
6.0
 40
6.0
 40
6.0
 40
7.0
 40
8.0
 40
9.0
 40
10.0
 40
11.0
 40
11.0
 40
11.0
 40
12.0
 40
12.0
 40
12.0
 40
12.99997445041031
 40
13.99998083780774
 40
14.99998722520516
 40
15.99999361260258
 40
17.0
 40
17.0
 40
17.0
 40
17.19162397257389
 40
17.19162397257389
 40
17.19162397257389
 40
18.19178097834581
 40
19.19193798411774
 40
20.19209498988966
 40
21.19225199566159
 40
22.19162397257389
 40
22.19162397257389
 40
22.19162397257389
 40
23.19162397257389
 40
23.19162397257389
 40
23.19162397257389
 40
24.19094022604762
 40
25.19111116267919
 40
26.19128209931076
 40
27.19145303594232
 40
28.19162397257389
 40
28.19162397257389
 40
28.19162397257389
 40
28.19162397257389
 10
-12.481089
 20
0.1525499941988844
 30
0.0
 10
-12.39901533333333
 20
0.1525369941988846
 30
0.0
 10
-12.31694166666667
 20
0.1525239941988849
 30
0.0
 10
-12.234868
 20
0.1525109941988851
 30
0.0
 10
-12.20734974373643
 20
0.1556802016300727
 30
0.0
 10
-12.15435659462003
 20
0.1757717415749239
 30
0.0
 10
-12.0936857331586
 20
0.2348525188013594
 30
0.0
 10
-12.05881273621331
 20
0.3121404401294913
 30
0.0
 10
-12.0539319454129
 20
0.3959929039188244
 30
0.0
 10
-12.05770807301194
 20
0.4512462214029588
 30
0.0
 10
-12.060569
 20
0.4788584941988858
 30
0.0
 10
-12.06128173930705
 20
0.4868400454993403
 30
0.0
 10
-12.05682091520644
 20
0.5026989509802315
 30
0.0
 10
-12.04052147350381
 20
0.5206925930361879
 30
0.0
 10
-12.01973303493801
 20
0.532755555857849
 30
0.0
 10
-11.99679819835162
 20
0.5397631978678652
 30
0.0
 10
-11.98089532520992
 20
0.5412117046244668
 30
0.0
 10
-11.97295
 20
0.5412999941988862
 30
0.0
 10
-11.7619555
 20
0.5412999941988862
 30
0.0
 10
-11.550961
 20
0.5412999941988862
 30
0.0
 10
-11.3399665
 20
0.5412999941988862
 30
0.0
 10
-11.32431628661887
 20
0.5415834716986173
 30
0.0
 10
-11.29408950184599
 20
0.5313566787366815
 30
0.0
 10
-11.25896228676229
 20
0.4999375391234196
 30
0.0
 10
-11.23267624187246
 20
0.4611692832558807
 30
0.0
 10
-11.2167984037712
 20
0.4170164575729944
 30
0.0
 10
-11.21350859215762
 20
0.3859647508796231
 30
0.0
 10
-11.213668
 20
0.3704479941988861
 30
0.0
 10
-11.21753766666667
 20
0.3066906608655522
 30
0.0
 10
-11.22140733333333
 20
0.2429333275322184
 30
0.0
 10
-11.225277
 20
0.1791759941988846
 30
0.0
 10
-11.22757649730128
 20
0.1589180513526679
 30
0.0
 10
-11.23953113053339
 20
0.1192990296342235
 30
0.0
 10
-11.27569312788357
 20
0.0691206060725217
 30
0.0
 10
-11.32409631824957
 20
0.0308704468406185
 30
0.0
 10
-11.38092423329024
 20
0.0068360303721001
 30
0.0
 10
-11.42165321279131
 20
0.0014304217693357
 30
0.0
 10
-11.442021
 20
0.0012999941988834
 30
0.0
 10
-11.72837266666667
 20
0.0012999941988834
 30
0.0
 10
-12.01472433333333
 20
0.0012999941988834
 30
0.0
 10
-12.301076
 20
0.0012999941988834
 30
0.0
 10
-12.31978199449692
 20
0.0014745686825267
 30
0.0
 10
-12.3572467970874
 20
0.0058704091840721
 30
0.0
 10
-12.41001787107446
 20
0.0263930241319244
 30
0.0
 10
-12.45632752440987
 20
0.0589397022483075
 30
0.0
 10
-12.49305156089867
 20
0.1021236049269666
 30
0.0
 10
-12.50852802473132
 20
0.136695480135003
 30
0.0
 10
-12.513246
 20
0.1548299941988869
 30
0.0
  0
SPLINE
  5
5F
330
1F
100
AcDbEntity
  8
DEFAULT
100
AcDbSpline
210
0.0
220
0.0
230
1.0
 70
     8
 71
     3
 72
    29
 73
    25
 74
     0
 42
0.0000000001
 43
0.0000000001
 40
0.0
 40
0.0
 40
0.0
 40
0.0
 40
1.0
 40
2.0
 40
3.0
 40
4.0
 40
5.0
 40
5.0
 40
5.0
 40
6.0
 40
7.0
 40
8.0
 40
9.0
 40
10.0
 40
10.0
 40
10.0
 40
11.0000010912971
 40
12.00000218259421
 40
13.00000327389131
 40
14.00000436518842
 40
15.0
 40
15.0
 40
15.0
 40
16.01945143075546
 40
16.01945143075546
 40
16.01945143075546
 40
16.01945143075546
 10
-12.07652078292
 20
0.0012997415088865
 30
0.0
 10
-12.05903702630035
 20
0.0012949454310407
 30
0.0
 10
-12.02420323357909
 20
0.009154350047328
 30
0.0
 10
-11.98094208119981
 20
0.0405429794053914
 30
0.0
 10
-11.95247831488268
 20
0.0855162046807249
 30
0.0
 10
-11.93934091033266
 20
0.1367576389210229
 30
0.0
 10
-11.93880661652421
 20
0.1718878942212705
 30
0.0
 10
-11.94017787182
 20
0.1893009859888852
 30
0.0
 10
-11.94207814165729
 20
0.2013263687712458
 30
0.0
 10
-11.94499348029903
 20
0.2255094425821512
 30
0.0
 10
-11.94758025810877
 20
0.261945197816315
 30
0.0
 10
-11.94941975913659
 20
0.2984190819343573
 30
0.0
 10
-11.95126970695283
 20
0.3348989946804266
 30
0.0
 10
-11.95374332287788
 20
0.3591321659361209
 30
0.0
 10
-11.95422445925
 20
0.3712996282888834
 30
0.0
 10
-11.95449817660384
 20
0.3812128400374759
 30
0.0
 10
-11.9551852713298
 20
0.4010445340236901
 30
0.0
 10
-11.95650791967355
 20
0.4307452419661707
 30
0.0
 10
-11.95781679288266
 20
0.4605580323468969
 30
0.0
 10
-11.95785410806051
 20
0.4900077519259249
 30
0.0
 10
-11.95498535334259
 20
0.510548624971142
 30
0.0
 10
-11.94737584516
 20
0.5175260753988862
 30
0.0
 10
-11.72483440788338
 20
0.5175260478057343
 30
0.0
 10
-11.50229297060676
 20
0.5175260202125823
 30
0.0
 10
-11.27975153333014
 20
0.5175259926194304
 30
0.0
  0
SPLINE
  5
60
330
1F
100
AcDbEntity
  8
DEFAULT
100
AcDbSpline
210
0.0
220
0.0
230
1.0
 70
     8
 71
     3
 72
    52
 73
    48
 74
     0
 42
0.0000000001
 43
0.0000000001
 40
0.0
 40
0.0
 40
0.0
 40
0.0
 40
1.0
 40
1.0
 40
1.0
 40
1.997410321359965
 40
2.998057741019974
 40
3.998705160679982
 40
4.999352580339991
 40
6.0
 40
6.0
 40
6.0
 40
7.0
 40
8.0
 40
9.0
 40
10.0
 40
11.0
 40
11.0
 40
11.0
 40
12.0
 40
12.0
 40
12.0
 40
12.99997445041031
 40
13.99998083780774
 40
14.99998722520516
 40
15.99999361260258
 40
17.0
 40
17.0
 40
17.0
 40
17.19162397257389
 40
17.19162397257389
 40
17.19162397257389
 40
18.19178097834581
 40
19.19193798411774
 40
20.19209498988966
 40
21.19225199566159
 40
22.19162397257389
 40
22.19162397257389
 40
22.19162397257389
 40
23.19162397257389
 40
23.19162397257389
 40
23.19162397257389
 40
24.19094022604762
 40
25.19111116267919
 40
26.19128209931076
 40
27.19145303594232
 40
28.19162397257389
 40
28.19162397257389
 40
28.19162397257389
 40
28.19162397257389
 10
12.481089
 20
0.1525499941988844
 30
0.0
 10
12.39901533333333
 20
0.1525369941988846
 30
0.0
 10
12.31694166666667
 20
0.1525239941988849
 30
0.0
 10
12.234868
 20
0.1525109941988851
 30
0.0
 10
12.20734974373643
 20
0.1556802016300727
 30
0.0
 10
12.15435659462003
 20
0.1757717415749239
 30
0.0
 10
12.0936857331586
 20
0.2348525188013594
 30
0.0
 10
12.05881273621331
 20
0.3121404401294913
 30
0.0
 10
12.0539319454129
 20
0.3959929039188244
 30
0.0
 10
12.05770807301194
 20
0.4512462214029588
 30
0.0
 10
12.060569
 20
0.4788584941988858
 30
0.0
 10
12.06128173930705
 20
0.4868400454993403
 30
0.0
 10
12.05682091520644
 20
0.5026989509802315
 30
0.0
 10
12.04052147350381
 20
0.5206925930361879
 30
0.0
 10
12.01973303493801
 20
0.532755555857849
 30
0.0
 10
11.99679819835162
 20
0.5397631978678652
 30
0.0
 10
11.98089532520992
 20
0.5412117046244668
 30
0.0
 10
11.97295
 20
0.5412999941988862
 30
0.0
 10
11.7619555
 20
0.5412999941988862
 30
0.0
 10
11.550961
 20
0.5412999941988862
 30
0.0
 10
11.3399665
 20
0.5412999941988862
 30
0.0
 10
11.32431628661887
 20
0.5415834716986173
 30
0.0
 10
11.29408950184599
 20
0.5313566787366815
 30
0.0
 10
11.25896228676229
 20
0.4999375391234196
 30
0.0
 10
11.23267624187246
 20
0.4611692832558807
 30
0.0
 10
11.2167984037712
 20
0.4170164575729944
 30
0.0
 10
11.21350859215762
 20
0.3859647508796231
 30
0.0
 10
11.213668
 20
0.3704479941988861
 30
0.0
 10
11.21753766666667
 20
0.3066906608655522
 30
0.0
 10
11.22140733333333
 20
0.2429333275322184
 30
0.0
 10
11.225277
 20
0.1791759941988846
 30
0.0
 10
11.22757649730128
 20
0.1589180513526679
 30
0.0
 10
11.23953113053339
 20
0.1192990296342235
 30
0.0
 10
11.27569312788357
 20
0.0691206060725217
 30
0.0
 10
11.32409631824957
 20
0.0308704468406185
 30
0.0
 10
11.38092423329024
 20
0.0068360303721001
 30
0.0
 10
11.42165321279131
 20
0.0014304217693357
 30
0.0
 10
11.442021
 20
0.0012999941988834
 30
0.0
 10
11.72837266666667
 20
0.0012999941988834
 30
0.0
 10
12.01472433333333
 20
0.0012999941988834
 30
0.0
 10
12.301076
 20
0.0012999941988834
 30
0.0
 10
12.31978199449692
 20
0.0014745686825267
 30
0.0
 10
12.3572467970874
 20
0.0058704091840721
 30
0.0
 10
12.41001787107446
 20
0.0263930241319244
 30
0.0
 10
12.45632752440987
 20
0.0589397022483075
 30
0.0
 10
12.49305156089867
 20
0.1021236049269666
 30
0.0
 10
12.50852802473132
 20
0.136695480135003
 30
0.0
 10
12.513246
 20
0.1548299941988869
 30
0.0
  0
SPLINE
  5
61
330
1F
100
AcDbEntity
  8
DEFAULT
100
AcDbSpline
210
0.0
220
0.0
230
1.0
 70
     8
 71
     3
 72
    29
 73
    25
 74
     0
 42
0.0000000001
 43
0.0000000001
 40
0.0
 40
0.0
 40
0.0
 40
0.0
 40
1.0
 40
2.0
 40
3.0
 40
4.0
 40
5.0
 40
5.0
 40
5.0
 40
6.0
 40
7.0
 40
8.0
 40
9.0
 40
10.0
 40
10.0
 40
10.0
 40
11.0000010912971
 40
12.00000218259421
 40
13.00000327389131
 40
14.00000436518842
 40
15.0
 40
15.0
 40
15.0
 40
16.01945143075546
 40
16.01945143075546
 40
16.01945143075546
 40
16.01945143075546
 10
12.07652078292
 20
0.0012997415088865
 30
0.0
 10
12.05903702630035
 20
0.0012949454310407
 30
0.0
 10
12.02420323357909
 20
0.009154350047328
 30
0.0
 10
11.98094208119981
 20
0.0405429794053914
 30
0.0
 10
11.95247831488268
 20
0.0855162046807249
 30
0.0
 10
11.93934091033266
 20
0.1367576389210229
 30
0.0
 10
11.93880661652421
 20
0.1718878942212705
 30
0.0
 10
11.94017787182
 20
0.1893009859888852
 30
0.0
 10
11.94207814165729
 20
0.2013263687712458
 30
0.0
 10
11.94499348029903
 20
0.2255094425821512
 30
0.0
 10
11.94758025810877
 20
0.261945197816315
 30
0.0
 10
11.94941975913659
 20
0.2984190819343573
 30
0.0
 10
11.95126970695283
 20
0.3348989946804266
 30
0.0
 10
11.95374332287788
 20
0.3591321659361209
 30
0.0
 10
11.95422445925
 20
0.3712996282888834
 30
0.0
 10
11.95449817660384
 20
0.3812128400374759
 30
0.0
 10
11.9551852713298
 20
0.4010445340236901
 30
0.0
 10
11.95650791967355
 20
0.4307452419661707
 30
0.0
 10
11.95781679288266
 20
0.4605580323468969
 30
0.0
 10
11.95785410806051
 20
0.4900077519259249
 30
0.0
 10
11.95498535334259
 20
0.510548624971142
 30
0.0
 10
11.94737584516
 20
0.5175260753988862
 30
0.0
 10
11.72483440788338
 20
0.5175260478057343
 30
0.0
 10
11.50229297060676
 20
0.5175260202125823
 30
0.0
 10
11.27975153333014
 20
0.5175259926194304
 30
0.0
  0
SPLINE
  5
62
330
1F
100
AcDbEntity
  8
DEFAULT
100
AcDbSpline
210
0.0
220
0.0
230
1.0
 70
     8
 71
     3
 72
    12
 73
     8
 74
     0
 42
0.0000000001
 43
0.0000000001
 40
0.0
 40
0.0
 40
0.0
 40
0.0
 40
1.0
 40
2.0
 40
3.0
 40
4.0
 40
5.0
 40
5.0
 40
5.0
 40
5.0
 10
-8.8019623756
 20
0.1525497415088839
 30
0.0
 10
-8.75781239255836
 20
0.1523382536683347
 30
0.0
 10
-8.670861046387675
 20
0.1857930989144629
 30
0.0
 10
-8.597523271817936
 20
0.3028067262015972
 30
0.0
 10
-8.59752326939234
 20
0.4397927488352779
 30
0.0
 10
-8.670861040644306
 20
0.5568063786384666
 30
0.0
 10
-8.757812384527085
 20
0.5902612284563873
 30
0.0
 10
-8.8019623756
 20
0.590049741508884
 30
0.0
  0
SPLINE
  5
63
330
1F
100
AcDbEntity
  8
DEFAULT
100
AcDbSpline
210
0.0
220
0.0
230
1.0
 70
     8
 71
     3
 72
    12
 73
     8
 74
     0
 42
0.0000000001
 43
0.0000000001
 40
0.0
 40
0.0
 40
0.0
 40
0.0
 40
1.0
 40
2.0
 40
3.0
 40
4.0
 40
5.0
 40
5.0
 40
5.0
 40
5.0
 10
8.802542477849999
 20
0.1525497415088839
 30
0.0
 10
8.758416869126183
 20
0.1523320393904753
 30
0.0
 10
8.671420277167378
 20
0.1857983388224738
 30
0.0
 10
8.598103662344531
 20
0.302827412789242
 30
0.0
 10
8.598103661183885
 20
0.4397720592407617
 30
0.0
 10
8.671420263489143
 20
0.5568011393364102
 30
0.0
 10
8.75841688425995
 20
0.5902674478310698
 30
0.0
 10
8.802542477849999
 20
0.590049741508884
 30
0.0
  0
SPLINE
  5
64
330
1F
100
AcDbEntity
  8
DEFAULT
100
AcDbSpline
210
0.0
220
0.0
230
1.0
 70
    24
 71
     2
 72
     6
 73
     3
 74
     0
 42
0.0000000001
 43
0.0000000001
 40
0.0
 40
0.0
 40
0.0
 40
1.0
 40
1.0
 40
1.0
 10
12.399974
 20
0.5900499941988845
 30
0.0
 10
0.0002864999999996
 20
0.5900499941988845
 30
0.0
 10
-12.399401
 20
0.5900499941988845
 30
0.0
  0
SPLINE
  5
65
330
1F
100
AcDbEntity
  8
DEFAULT
100
AcDbSpline
210
0.0
220
0.0
230
1.0
 70
    24
 71
     2
 72
     6
 73
     3
 74
     0
 42
0.0000000001
 43
0.0000000001
 40
0.0
 40
0.0
 40
0.0
 40
1.0
 40
1.0
 40
1.0
 10
11.230423
 20
0.1525499941988844
 30
0.0
 10
0.0002019999999998
 20
0.1525499941988844
 30
0.0
 10
-11.230019
 20
0.1525499941988844
 30
0.0
  0
SPLINE
  5
66
330
1F
100
AcDbEntity
  8
DEFAULT
100
AcDbSpline
210
0.0
220
0.0
230
1.0
 70
     8
 71
     3
 72
    22
 73
    18
 74
     0
 42
0.0000000001
 43
0.0000000001
 40
0.0
 40
0.0
 40
0.0
 40
0.0
 40
1.000124002814163
 40
2.000248005628327
 40
3.00037200844249
 40
4.000496011256653
 40
5.0
 40
5.0
 40
5.0
 40
6.0
 40
6.0
 40
6.0
 40
6.999503986810346
 40
7.99962799010776
 40
8.999751993405173
 40
9.999875996702587
 40
11.0
 40
11.0
 40
11.0
 40
11.0
 10
10.027886
 20
0.1525499941988844
 30
0.0
 10
10.03242398699663
 20
0.1351101988674575
 30
0.0
 10
10.04643993548702
 20
0.1015402743751916
 30
0.0
 10
10.08045645728656
 20
0.0589108238061324
 30
0.0
 10
10.12416704993317
 20
0.0264064123543537
 30
0.0
 10
10.17467219184291
 20
0.0059199882360719
 30
0.0
 10
10.21070355625455
 20
0.0014636302587003
 30
0.0
 10
10.2287035
 20
0.0012999941988834
 30
0.0
 10
10.4236995
 20
0.0012999941988834
 30
0.0
 10
10.6186955
 20
0.0012999941988834
 30
0.0
 10
10.8136915
 20
0.0012999941988834
 30
0.0
 10
10.83169137241546
 20
0.0014636966566737
 30
0.0
 10
10.86772282234686
 20
0.0059196594069302
 30
0.0
 10
10.91822734290083
 20
0.0264068445372974
 30
0.0
 10
10.96193843057906
 20
0.0589104805914313
 30
0.0
 10
10.99595360776977
 20
0.1015407803823212
 30
0.0
 10
11.00997056141021
 20
0.1351100049318308
 30
0.0
 10
11.014508
 20
0.1525499941988844
 30
0.0
  0
SPLINE
  5
67
330
1F
100
AcDbEntity
  8
DEFAULT
100
AcDbSpline
210
0.0
220
0.0
230
1.0
 70
     8
 71
     3
 72
    12
 73
     8
 74
     0
 42
0.0000000001
 43
0.0000000001
 40
0.0
 40
0.0
 40
0.0
 40
0.0
 40
1.0
 40
2.0
 40
3.0
 40
4.0
 40
5.0
 40
5.0
 40
5.0
 40
5.0
 10
10.62895768258
 20
0.1525439894988867
 30
0.0
 10
10.62682629320492
 20
0.1365232193660428
 30
0.0
 10
10.61882768176608
 20
0.104931788786909
 30
0.0
 10
10.5948408586396
 20
0.0622310192667104
 30
0.0
 10
10.55946079760304
 20
0.0282521431503742
 30
0.0
 10
10.51552841216665
 20
0.006405908130527
 30
0.0
 10
10.48321474705608
 20
0.0012985690903047
 30
0.0
 10
10.46704589558
 20
0.0012997415088865
 30
0.0
  0
SPLINE
  5
68
330
1F
100
AcDbEntity
  8
DEFAULT
100
AcDbSpline
210
0.0
220
0.0
230
1.0
 70
     8
 71
     2
 72
    46
 73
    43
 74
     0
 42
0.0000000001
 43
0.0000000001
 40
0.0
 40
0.0
 40
0.0
 40
1.0
 40
1.0
 40
2.0
 40
2.0
 40
3.0
 40
3.0
 40
4.0
 40
4.0
 40
5.0
 40
5.0
 40
6.0
 40
6.0
 40
7.0
 40
7.0
 40
8.0
 40
8.0
 40
9.0
 40
9.0
 40
10.0
 40
10.0
 40
11.0
 40
11.0
 40
12.0
 40
12.0
 40
13.0
 40
13.0
 40
14.0
 40
14.0
 40
15.0
 40
15.0
 40
16.0
 40
16.0
 40
17.0
 40
17.0
 40
18.0
 40
18.0
 40
19.0
 40
19.0
 40
20.0
 40
20.0
 40
21.0
 40
21.0
 40
21.0
 10
10.7422
 20
3.933799994198884
 30
0.0
 10
10.742193
 20
2.400138994198884
 30
0.0
 10
10.742186
 20
0.8664779941988837
 30
0.0
 10
10.742091
 20
0.8592449941988843
 30
0.0
 10
10.741996
 20
0.852011994198885
 30
0.0
 10
10.7418115
 20
0.8447124941988847
 30
0.0
 10
10.741627
 20
0.8374129941988845
 30
0.0
 10
10.7413705
 20
0.8300479941988844
 30
0.0
 10
10.741114
 20
0.8226829941988844
 30
0.0
 10
10.740797
 20
0.815278994198885
 30
0.0
 10
10.74048
 20
0.8078749941988858
 30
0.0
 10
10.7401065
 20
0.800439494198886
 30
0.0
 10
10.739733
 20
0.7930039941988863
 30
0.0
 10
10.7393025
 20
0.785557494198886
 30
0.0
 10
10.738872
 20
0.7781109941988856
 30
0.0
 10
10.7383825
 20
0.7706989941988852
 30
0.0
 10
10.737893
 20
0.7632869941988848
 30
0.0
 10
10.737339
 20
0.7559499941988851
 30
0.0
 10
10.736785
 20
0.7486129941988854
 30
0.0
 10
10.7361565
 20
0.7413544941988847
 30
0.0
 10
10.735528
 20
0.7340959941988839
 30
0.0
 10
10.734812
 20
0.7269024941988843
 30
0.0
 10
10.734096
 20
0.7197089941988847
 30
0.0
 10
10.7333005
 20
0.7125849941988854
 30
0.0
 10
10.732505
 20
0.7054609941988862
 30
0.0
 10
10.731648
 20
0.6984234941988853
 30
0.0
 10
10.730791
 20
0.6913859941988844
 30
0.0
 10
10.7298845
 20
0.6844279941988852
 30
0.0
 10
10.728978
 20
0.6774699941988861
 30
0.0
 10
10.7280285
 20
0.6705884941988857
 30
0.0
 10
10.727079
 20
0.6637069941988852
 30
0.0
 10
10.726094
 20
0.6569254941988846
 30
0.0
 10
10.725109
 20
0.6501439941988839
 30
0.0
 10
10.724095
 20
0.6435049941988841
 30
0.0
 10
10.723081
 20
0.6368659941988842
 30
0.0
 10
10.722041
 20
0.6303974941988856
 30
0.0
 10
10.721001
 20
0.6239289941988869
 30
0.0
 10
10.719932
 20
0.617641494198886
 30
0.0
 10
10.718863
 20
0.6113539941988851
 30
0.0
 10
10.7177625
 20
0.6052799941988852
 30
0.0
 10
10.716662
 20
0.5992059941988853
 30
0.0
 10
10.71577
 20
0.5946279941988849
 30
0.0
 10
10.714878
 20
0.5900499941988845
 30
0.0
  0
ENDSEC
  0
SECTION
  2
OBJECTS
  0
DICTIONARY
  5
C
330
0
100
AcDbDictionary
281
     1
  3
ACAD_GROUP
350
D
  3
ACAD_LAYOUT
350
1A
  3
ACAD_MLEADERSTYLE
350
6B
  3
ACAD_MLINESTYLE
350
17
  3
ACAD_PLOTSETTINGS
350
19
  3
ACAD_PLOTSTYLENAME
350
E
  3
ACAD_VISUALSTYLE
350
2A
  3
AcDbVariableDictionary
350
69
  0
DICTIONARY
  5
D
102
{ACAD_REACTORS
330
C
102
}
330
C
100
AcDbDictionary
281
     1
  0
DICTIONARY
  5
1A
102
{ACAD_REACTORS
330
C
102
}
330
C
100
AcDbDictionary
281
     1
  3
Layout1
350
1E
  3
Layout2
350
26
  3
Model
350
22
  0
DICTIONARY
  5
6B
102
{ACAD_REACTORS
330
C
102
}
330
C
100
AcDbDictionary
281
     1
  0
DICTIONARY
  5
17
102
{ACAD_REACTORS
330
C
102
}
330
C
100
AcDbDictionary
281
     1
  3
Standard
350
18
  0
DICTIONARY
  5
19
102
{ACAD_REACTORS
330
C
102
}
330
C
100
AcDbDictionary
281
     1
  0
ACDBDICTIONARYWDFLT
  5
E
102
{ACAD_REACTORS
330
C
102
}
330
C
100
AcDbDictionary
281
     1
  3
Normal
350
F
100
AcDbDictionaryWithDefault
340
F
  0
DICTIONARY
  5
2A
102
{ACAD_REACTORS
330
C
102
}
330
C
100
AcDbDictionary
281
     1
  3
2dWireframe
350
2F
  3
3D Hidden
350
31
  3
3dWireframe
350
30
  3
Basic
350
32
  3
Brighten
350
36
  3
ColorChange
350
3A
  3
Conceptual
350
34
  3
Dim
350
35
  3
Facepattern
350
39
  3
Flat
350
2B
  3
FlatWithEdges
350
2C
  3
Gouraud
350
2D
  3
GouraudWithEdges
350
2E
  3
Linepattern
350
38
  3
Realistic
350
33
  3
Thicken
350
37
  0
DICTIONARY
  5
69
102
{ACAD_REACTORS
330
C
102
}
330
C
100
AcDbDictionary
281
     1
  0
LAYOUT
  5
1E
102
{ACAD_REACTORS
330
1A
102
}
330
1A
100
AcDbPlotSettings
  1

  2
none_device
  4

  6

 40
0.0
 41
0.0
 42
0.0
 43
0.0
 44
0.0
 45
0.0
 46
0.0
 47
0.0
 48
0.0
 49
0.0
140
0.0
141
0.0
142
1.0
143
1.0
 70
   688
 72
     0
 73
     0
 74
     5
  7

 75
    16
147
1.0
148
0.0
149
0.0
100
AcDbLayout
  1
Layout1
 70
     1
 71
     1
 10
0.0
 20
0.0
 11
12.0
 21
9.0
 12
0.0
 22
0.0
 32
0.0
 14
1.000000000000000E+20
 24
1.000000000000000E+20
 34
1.000000000000000E+20
 15
-1.000000000000000E+20
 25
-1.000000000000000E+20
 35
-1.000000000000000E+20
146
0.0
 13
0.0
 23
0.0
 33
0.0
 16
1.0
 26
0.0
 36
0.0
 17
0.0
 27
1.0
 37
0.0
 76
     0
330
1B
  0
LAYOUT
  5
26
102
{ACAD_REACTORS
330
1A
102
}
330
1A
100
AcDbPlotSettings
  1

  2
none_device
  4

  6

 40
0.0
 41
0.0
 42
0.0
 43
0.0
 44
0.0
 45
0.0
 46
0.0
 47
0.0
 48
0.0
 49
0.0
140
0.0
141
0.0
142
1.0
143
1.0
 70
   688
 72
     0
 73
     0
 74
     5
  7

 75
    16
147
1.0
148
0.0
149
0.0
100
AcDbLayout
  1
Layout2
 70
     1
 71
     2
 10
0.0
 20
0.0
 11
0.0
 21
0.0
 12
0.0
 22
0.0
 32
0.0
 14
0.0
 24
0.0
 34
0.0
 15
0.0
 25
0.0
 35
0.0
146
0.0
 13
0.0
 23
0.0
 33
0.0
 16
1.0
 26
0.0
 36
0.0
 17
0.0
 27
1.0
 37
0.0
 76
     0
330
23
  0
LAYOUT
  5
22
102
{ACAD_REACTORS
330
1A
102
}
330
1A
100
AcDbPlotSettings
  1

  2
none_device
  4

  6

 40
0.0
 41
0.0
 42
0.0
 43
0.0
 44
0.0
 45
0.0
 46
0.0
 47
0.0
 48
0.0
 49
0.0
140
0.0
141
0.0
142
1.0
143
1.0
 70
  1712
 72
     0
 73
     0
 74
     0
  7

 75
     0
147
1.0
148
0.0
149
0.0
100
AcDbLayout
  1
Model
 70
     1
 71
     0
 10
0.0
 20
0.0
 11
12.0
 21
9.0
 12
0.0
 22
0.0
 32
0.0
 14
-13.32071000000023
 24
0.0012997415088861
 34
0.0
 15
51.45660424214414
 25
65.7544359598084
 35
0.0
146
0.0
 13
0.0
 23
0.0
 33
0.0
 16
1.0
 26
0.0
 36
0.0
 17
0.0
 27
1.0
 37
0.0
 76
     0
330
1F
331
29
  0
MLINESTYLE
  5
18
102
{ACAD_REACTORS
330
17
102
}
330
17
100
AcDbMlineStyle
  2
Standard
 70
     0
  3

 62
   256
 51
90.0
 52
90.0
 71
     2
 49
0.5
 62
   256
  6
BYLAYER
 49
-0.5
 62
   256
  6
BYLAYER
  0
ACDBPLACEHOLDER
  5
F
102
{ACAD_REACTORS
330
E
102
}
330
E
  0
VISUALSTYLE
  5
2F
102
{ACAD_REACTORS
330
2A
102
}
330
2A
100
AcDbVisualStyle
  2
2dWireframe
 70
     4
 71
     0
 72
     2
 73
     0
 90
        0
 40
-0.6
 41
-30.0
 62
     5
 63
     7
 74
     1
 91
        4
 64
     7
 65
   257
 75
     1
175
     1
 42
1.0
 92
        0
 66
   257
 43
1.0
 76
     1
 77
     6
 78
     2
 67
     7
 79
     5
170
     0
171
     0
290
     0
174
     0
 93
        1
 44
0.0
173
     0
291
     0
 45
0.0
1001
ACAD
1000
AcDbSavedByObjectVersion
1070
     0
  0
VISUALSTYLE
  5
31
102
{ACAD_REACTORS
330
2A
102
}
330
2A
100
AcDbVisualStyle
  2
3D Hidden
 70
     6
 71
     1
 72
     2
 73
     2
 90
        0
 40
-0.6
 41
-30.0
 62
     5
 63
     7
 74
     2
 91
        2
 64
     7
 65
   257
 75
     2
175
     1
 42
40.0
 92
        0
 66
   257
 43
1.0
 76
     1
 77
     6
 78
     2
 67
     7
 79
     3
170
     0
171
     0
290
     0
174
     0
 93
        1
 44
0.0
173
     0
291
     0
 45
0.0
1001
ACAD
1000
AcDbSavedByObjectVersion
1070
     0
  0
VISUALSTYLE
  5
30
102
{ACAD_REACTORS
330
2A
102
}
330
2A
100
AcDbVisualStyle
  2
3dWireframe
 70
     5
 71
     0
 72
     2
 73
     0
 90
        0
 40
-0.6
 41
-30.0
 62
     5
 63
     7
 74
     1
 91
        4
 64
     7
 65
   257
 75
     1
175
     1
 42
1.0
 92
        0
 66
   257
 43
1.0
 76
     1
 77
     6
 78
     2
 67
     7
 79
     5
170
     0
171
     0
290
     0
174
     0
 93
        1
 44
0.0
173
     0
291
     0
 45
0.0
1001
ACAD
1000
AcDbSavedByObjectVersion
1070
     0
  0
VISUALSTYLE
  5
32
102
{ACAD_REACTORS
330
2A
102
}
330
2A
100
AcDbVisualStyle
  2
Basic
 70
     7
 71
     1
 72
     0
 73
     1
 90
        0
 40
-0.6
 41
-30.0
 62
     5
 63
     7
 74
     0
 91
        4
 64
     7
 65
   257
 75
     1
175
     1
 42
1.0
 92
        8
 66
     7
 43
1.0
 76
     1
 77
     6
 78
     2
 67
     7
 79
     5
170
     0
171
     0
290
     0
174
     0
 93
        1
 44
0.0
173
     0
291
     1
 45
0.0
1001
ACAD
1000
AcDbSavedByObjectVersion
1070
     0
  0
VISUALSTYLE
  5
36
102
{ACAD_REACTORS
330
2A
102
}
330
2A
100
AcDbVisualStyle
  2
Brighten
 70
    12
 71
     2
 72
     2
 73
     0
 90
        0
 40
-0.6
 41
-30.0
 62
     5
 63
     7
 74
     1
 91
        4
 64
     7
 65
   257
 75
     1
175
     1
 42
1.0
 92
        8
 66
     7
 43
1.0
 76
     1
 77
     6
 78
     2
 67
     7
 79
     5
170
     0
171
     0
290
     0
174
     0
 93
        1
 44
50.0
173
     0
291
     1
 45
0.0
1001
ACAD
1000
AcDbSavedByObjectVersion
1070
     0
  0
VISUALSTYLE
  5
3A
102
{ACAD_REACTORS
330
2A
102
}
330
2A
100
AcDbVisualStyle
  2
ColorChange
 70
    16
 71
     2
 72
     2
 73
     3
 90
        0
 40
-0.6
 41
-30.0
 62
     5
 63
     8
 74
     1
 91
        4
 64
     7
 65
   257
 75
     1
175
     1
 42
1.0
 92
        8
 66
     8
 43
1.0
 76
     1
 77
     6
 78
     2
 67
     7
 79
     5
170
     0
171
     0
290
     0
174
     0
 93
        1
 44
0.0
173
     0
291
     1
 45
0.0
1001
ACAD
1000
AcDbSavedByObjectVersion
1070
     0
  0
VISUALSTYLE
  5
34
102
{ACAD_REACTORS
330
2A
102
}
330
2A
100
AcDbVisualStyle
  2
Conceptual
 70
     9
 71
     3
 72
     2
 73
     0
 90
        0
 40
-0.6
 41
-30.0
 62
     5
 63
     7
 74
     2
 91
        2
 64
     7
 65
   257
 75
     1
175
     1
 42
40.0
 92
        8
 66
     7
 43
1.0
 76
     1
 77
     6
 78
     2
 67
     7
 79
     3
170
     0
171
     0
290
     0
174
     0
 93
        1
 44
0.0
173
     0
291
     0
 45
0.0
1001
ACAD
1000
AcDbSavedByObjectVersion
1070
     0
  0
VISUALSTYLE
  5
35
102
{ACAD_REACTORS
330
2A
102
}
330
2A
100
AcDbVisualStyle
  2
Dim
 70
    11
 71
     2
 72
     2
 73
     0
 90
        0
 40
-0.6
 41
-30.0
 62
     5
 63
     7
 74
     1
 91
        4
 64
     7
 65
   257
 75
     1
175
     1
 42
1.0
 92
        8
 66
     7
 43
1.0
 76
     1
 77
     6
 78
     2
 67
     7
 79
     5
170
     0
171
     0
290
     0
174
     0
 93
        1
 44
-50.0
173
     0
291
     1
 45
0.0
1001
ACAD
1000
AcDbSavedByObjectVersion
1070
     0
  0
VISUALSTYLE
  5
39
102
{ACAD_REACTORS
330
2A
102
}
330
2A
100
AcDbVisualStyle
  2
Facepattern
 70
    15
 71
     2
 72
     2
 73
     0
 90
        0
 40
-0.6
 41
-30.0
 62
     5
 63
     7
 74
     1
 91
        4
 64
     7
 65
   257
 75
     1
175
     1
 42
1.0
 92
        8
 66
     7
 43
1.0
 76
     1
 77
     6
 78
     2
 67
     7
 79
     5
170
     0
171
     0
290
     0
174
     0
 93
        1
 44
0.0
173
     0
291
     1
 45
0.0
1001
ACAD
1000
AcDbSavedByObjectVersion
1070
     0
  0
VISUALSTYLE
  5
2B
102
{ACAD_REACTORS
330
2A
102
}
330
2A
100
AcDbVisualStyle
  2
Flat
 70
     0
 71
     2
 72
     1
 73
     1
 90
        2
 40
-0.6
 41
30.0
 62
     5
 63
     7
 74
     0
 91
        4
 64
     7
 65
   257
 75
     1
175
     1
 42
1.0
 92
        8
 66
     7
 43
1.0
 76
     1
 77
     6
 78
     2
 67
     7
 79
     5
170
     0
171
     0
290
     0
174
     0
 93
       13
 44
0.0
173
     0
291
     1
 45
0.0
1001
ACAD
1000
AcDbSavedByObjectVersion
1070
     0
  0
VISUALSTYLE
  5
2C
102
{ACAD_REACTORS
330
2A
102
}
330
2A
100
AcDbVisualStyle
  2
FlatWithEdges
 70
     1
 71
     2
 72
     1
 73
     1
 90
        2
 40
-0.6
 41
30.0
 62
     5
 63
     7
 74
     1
 91
        4
 64
     7
 65
   257
 75
     1
175
     1
 42
1.0
 92
        0
 66
   257
 43
1.0
 76
     1
 77
     6
 78
     2
 67
     7
 79
     5
170
     0
171
     0
290
     0
174
     0
 93
       13
 44
0.0
173
     0
291
     1
 45
0.0
1001
ACAD
1000
AcDbSavedByObjectVersion
1070
     0
  0
VISUALSTYLE
  5
2D
102
{ACAD_REACTORS
330
2A
102
}
330
2A
100
AcDbVisualStyle
  2
Gouraud
 70
     2
 71
     2
 72
     2
 73
     1
 90
        2
 40
-0.6
 41
30.0
 62
     5
 63
     7
 74
     0
 91
        4
 64
     7
 65
   257
 75
     1
175
     1
 42
1.0
 92
        0
 66
     7
 43
1.0
 76
     1
 77
     6
 78
     2
 67
     7
 79
     5
170
     0
171
     0
290
     0
174
     0
 93
       13
 44
0.0
173
     0
291
     1
 45
0.0
1001
ACAD
1000
AcDbSavedByObjectVersion
1070
     0
  0
VISUALSTYLE
  5
2E
102
{ACAD_REACTORS
330
2A
102
}
330
2A
100
AcDbVisualStyle
  2
GouraudWithEdges
 70
     3
 71
     2
 72
     2
 73
     1
 90
        2
 40
-0.6
 41
30.0
 62
     5
 63
     7
 74
     1
 91
        4
 64
     7
 65
   257
 75
     1
175
     1
 42
1.0
 92
        0
 66
   257
 43
1.0
 76
     1
 77
     6
 78
     2
 67
     7
 79
     5
170
     0
171
     0
290
     0
174
     0
 93
       13
 44
0.0
173
     0
291
     1
 45
0.0
1001
ACAD
1000
AcDbSavedByObjectVersion
1070
     0
  0
VISUALSTYLE
  5
38
102
{ACAD_REACTORS
330
2A
102
}
330
2A
100
AcDbVisualStyle
  2
Linepattern
 70
    14
 71
     2
 72
     2
 73
     0
 90
        0
 40
-0.6
 41
-30.0
 62
     5
 63
     7
 74
     1
 91
        4
 64
     7
 65
   257
 75
     7
175
     7
 42
1.0
 92
        8
 66
     7
 43
1.0
 76
     1
 77
     6
 78
     2
 67
     7
 79
     5
170
     0
171
     0
290
     0
174
     0
 93
        1
 44
0.0
173
     0
291
     1
 45
0.0
1001
ACAD
1000
AcDbSavedByObjectVersion
1070
     0
  0
VISUALSTYLE
  5
33
102
{ACAD_REACTORS
330
2A
102
}
330
2A
100
AcDbVisualStyle
  2
Realistic
 70
     8
 71
     2
 72
     2
 73
     0
 90
        0
 40
-0.6
 41
-30.0
 62
     5
 63
     7
 74
     1
 91
        0
 64
     7
 65
   257
 75
     1
175
     1
 42
1.0
 92
        8
 66
     8
 43
1.0
 76
     1
 77
     6
 78
     2
 67
     7
 79
     5
170
     0
171
     0
290
     0
174
     0
 93
       13
 44
0.0
173
     0
291
     0
 45
0.0
1001
ACAD
1000
AcDbSavedByObjectVersion
1070
     0
  0
VISUALSTYLE
  5
37
102
{ACAD_REACTORS
330
2A
102
}
330
2A
100
AcDbVisualStyle
  2
Thicken
 70
    13
 71
     2
 72
     2
 73
     0
 90
        0
 40
-0.6
 41
-30.0
 62
     5
 63
     7
 74
     1
 91
        4
 64
     7
 65
   257
 75
     1
175
     1
 42
1.0
 92
       12
 66
     7
 43
1.0
 76
     1
 77
     6
 78
     2
 67
     7
 79
     5
170
     0
171
     0
290
     0
174
     0
 93
        1
 44
0.0
173
     0
291
     1
 45
0.0
1001
ACAD
1000
AcDbSavedByObjectVersion
1070
     0
  0
ENDSEC
  0
EOF
