  0
SECTION
  2
HEADER
  9
$ACADVER
  1
AC1015
  9
$ACADMAINTVER
 70
     6
  9
$DWGCODEPAGE
  3
ANSI_1252
  9
$INSBASE
 10
0.0
 20
0.0
 30
0.0
  9
$EXTMIN
 10
-15.020322596525
 20
0.0031206264408364
 30
0.0
  9
$EXTMAX
 10
52.29704822486916
 20
70.21430702555001
 30
0.0
  9
$LIMMIN
 10
0.0
 20
0.0
  9
$LIMMAX
 10
12.0
 20
9.0
  9
$ORTHOMODE
 70
     0
  9
$REGENMODE
 70
     1
  9
$FILLMODE
 70
     1
  9
$QTEXTMODE
 70
     0
  9
$MIRRTEXT
 70
     1
  9
$LTSCALE
 40
0.0393700787401575
  9
$ATTMODE
 70
     1
  9
$TEXTSIZE
 40
0.2
  9
$TRACEWID
 40
0.05
  9
$TEXTSTYLE
  7
Standard
  9
$CLAYER
  8
DEFAULT
  9
$CELTYPE
  6
ByLayer
  9
$CECOLOR
 62
   256
  9
$CELTSCALE
 40
1.0
  9
$DISPSILH
 70
     0
  9
$DIMSCALE
 40
1.0
  9
$DIMASZ
 40
0.18
  9
$DIMEXO
 40
0.0625
  9
$DIMDLI
 40
0.38
  9
$DIMRND
 40
0.0
  9
$DIMDLE
 40
0.0
  9
$DIMEXE
 40
0.18
  9
$DIMTP
 40
0.0
  9
$DIMTM
 40
0.0
  9
$DIMTXT
 40
0.18
  9
$DIMCEN
 40
0.09
  9
$DIMTSZ
 40
0.0
  9
$DIMTOL
 70
     0
  9
$DIMLIM
 70
     0
  9
$DIMTIH
 70
     1
  9
$DIMTOH
 70
     1
  9
$DIMSE1
 70
     0
  9
$DIMSE2
 70
     0
  9
$DIMTAD
 70
     0
  9
$DIMZIN
 70
     0
  9
$DIMBLK
  1

  9
$DIMASO
 70
     1
  9
$DIMSHO
 70
     1
  9
$DIMPOST
  1

  9
$DIMAPOST
  1

  9
$DIMALT
 70
     0
  9
$DIMALTD
 70
     2
  9
$DIMALTF
 40
25.4
  9
$DIMLFAC
 40
1.0
  9
$DIMTOFL
 70
     0
  9
$DIMTVP
 40
0.0
  9
$DIMTIX
 70
     0
  9
$DIMSOXD
 70
     0
  9
$DIMSAH
 70
     0
  9
$DIMBLK1
  1

  9
$DIMBLK2
  1

  9
$DIMSTYLE
  2
Standard
  9
$DIMCLRD
 70
     0
  9
$DIMCLRE
 70
     0
  9
$DIMCLRT
 70
     0
  9
$DIMTFAC
 40
1.0
  9
$DIMGAP
 40
0.09
  9
$DIMJUST
 70
     0
  9
$DIMSD1
 70
     0
  9
$DIMSD2
 70
     0
  9
$DIMTOLJ
 70
     1
  9
$DIMTZIN
 70
     0
  9
$DIMALTZ
 70
     0
  9
$DIMALTTZ
 70
     0
  9
$DIMUPT
 70
     0
  9
$DIMDEC
 70
     4
  9
$DIMTDEC
 70
     4
  9
$DIMALTU
 70
     2
  9
$DIMALTTD
 70
     2
  9
$DIMTXSTY
  7
Standard
  9
$DIMAUNIT
 70
     0
  9
$DIMADEC
 70
     0
  9
$DIMALTRND
 40
0.0
  9
$DIMAZIN
 70
     0
  9
$DIMDSEP
 70
    46
  9
$DIMATFIT
 70
     3
  9
$DIMFRAC
 70
     0
  9
$DIMLDRBLK
  1

  9
$DIMLUNIT
 70
     2
  9
$DIMLWD
 70
    -2
  9
$DIMLWE
 70
    -2
  9
$DIMTMOVE
 70
     2
  9
$LUNITS
 70
     2
  9
$LUPREC
 70
     3
  9
$SKETCHINC
 40
0.1
  9
$FILLETRAD
 40
0.5
  9
$AUNITS
 70
     0
  9
$AUPREC
 70
     0
  9
$MENU
  1
.
  9
$ELEVATION
 40
0.0
  9
$PELEVATION
 40
0.0
  9
$THICKNESS
 40
0.0
  9
$LIMCHECK
 70
     0
  9
$CHAMFERA
 40
0.5
  9
$CHAMFERB
 40
0.5
  9
$CHAMFERC
 40
1.0
  9
$CHAMFERD
 40
0.0
  9
$SKPOLY
 70
     0
  9
$TDCREATE
 40
2455350.46632316
  9
$TDUCREATE
 40
2455350.632989827
  9
$TDUPDATE
 40
2455350.466323171
  9
$TDUUPDATE
 40
2455350.632989838
  9
$TDINDWG
 40
0.0000000116
  9
$TDUSRTIMER
 40
0.0000000116
  9
$USRTIMER
 70
     1
  9
$ANGBASE
 50
0.0
  9
$ANGDIR
 70
     0
  9
$PDMODE
 70
     0
  9
$PDSIZE
 40
0.0
  9
$PLINEWID
 40
0.0
  9
$SPLFRAME
 70
     0
  9
$SPLINETYPE
 70
     6
  9
$SPLINESEGS
 70
     8
  9
$HANDSEED
  5
C0
  9
$SURFTAB1
 70
     6
  9
$SURFTAB2
 70
     6
  9
$SURFTYPE
 70
     6
  9
$SURFU
 70
     6
  9
$SURFV
 70
     6
  9
$UCSBASE
  2

  9
$UCSNAME
  2

  9
$UCSORG
 10
0.0
 20
0.0
 30
0.0
  9
$UCSXDIR
 10
1.0
 20
0.0
 30
0.0
  9
$UCSYDIR
 10
0.0
 20
1.0
 30
0.0
  9
$UCSORTHOREF
  2

  9
$UCSORTHOVIEW
 70
     0
  9
$UCSORGTOP
 10
0.0
 20
0.0
 30
0.0
  9
$UCSORGBOTTOM
 10
0.0
 20
0.0
 30
0.0
  9
$UCSORGLEFT
 10
0.0
 20
0.0
 30
0.0
  9
$UCSORGRIGHT
 10
0.0
 20
0.0
 30
0.0
  9
$UCSORGFRONT
 10
0.0
 20
0.0
 30
0.0
  9
$UCSORGBACK
 10
0.0
 20
0.0
 30
0.0
  9
$PUCSBASE
  2

  9
$PUCSNAME
  2

  9
$PUCSORG
 10
0.0
 20
0.0
 30
0.0
  9
$PUCSXDIR
 10
1.0
 20
0.0
 30
0.0
  9
$PUCSYDIR
 10
0.0
 20
1.0
 30
0.0
  9
$PUCSORTHOREF
  2

  9
$PUCSORTHOVIEW
 70
     0
  9
$PUCSORGTOP
 10
0.0
 20
0.0
 30
0.0
  9
$PUCSORGBOTTOM
 10
0.0
 20
0.0
 30
0.0
  9
$PUCSORGLEFT
 10
0.0
 20
0.0
 30
0.0
  9
$PUCSORGRIGHT
 10
0.0
 20
0.0
 30
0.0
  9
$PUCSORGFRONT
 10
0.0
 20
0.0
 30
0.0
  9
$PUCSORGBACK
 10
0.0
 20
0.0
 30
0.0
  9
$USERI1
 70
     0
  9
$USERI2
 70
     0
  9
$USERI3
 70
     0
  9
$USERI4
 70
     0
  9
$USERI5
 70
     0
  9
$USERR1
 40
0.0
  9
$USERR2
 40
0.0
  9
$USERR3
 40
0.0
  9
$USERR4
 40
0.0
  9
$USERR5
 40
0.0
  9
$WORLDVIEW
 70
     1
  9
$SHADEDGE
 70
     3
  9
$SHADEDIF
 70
    70
  9
$TILEMODE
 70
     0
  9
$MAXACTVP
 70
    64
  9
$PINSBASE
 10
0.0
 20
0.0
 30
0.0
  9
$PLIMCHECK
 70
     0
  9
$PEXTMIN
 10
0.0
 20
0.0
 30
0.0
  9
$PEXTMAX
 10
0.0
 20
0.0
 30
0.0
  9
$PLIMMIN
 10
0.0
 20
0.0
  9
$PLIMMAX
 10
12.0
 20
9.0
  9
$UNITMODE
 70
     0
  9
$VISRETAIN
 70
     1
  9
$PLINEGEN
 70
     0
  9
$PSLTSCALE
 70
     1
  9
$TREEDEPTH
 70
  3020
  9
$CMLSTYLE
  2
Standard
  9
$CMLJUST
 70
     0
  9
$CMLSCALE
 40
1.0
  9
$PROXYGRAPHICS
 70
     1
  9
$MEASUREMENT
 70
     0
  9
$CELWEIGHT
370
    -1
  9
$ENDCAPS
280
     0
  9
$JOINSTYLE
280
     0
  9
$LWDISPLAY
290
     0
  9
$INSUNITS
 70
     1
  9
$HYPERLINKBASE
  1

  9
$STYLESHEET
  1

  9
$XEDIT
290
     1
  9
$CEPSNTYPE
380
     0
  9
$PSTYLEMODE
290
     1
  9
$FINGERPRINTGUID
  2
{69F71CB8-EBD6-476E-8F29-8AEE8E8D3B86}
  9
$VERSIONGUID
  2
{FAEB1C32-E019-11D5-929B-00C0DF256EC4}
  9
$EXTNAMES
290
     1
  9
$PSVPSCALE
 40
0.0
  9
$OLESTARTUP
290
     0
  0
ENDSEC
  0
SECTION
  2
CLASSES
  0
CLASS
  1
ACDBDICTIONARYWDFLT
  2
AcDbDictionaryWithDefault
  3
ObjectDBX Classes
 90
        0
280
     0
281
     0
  0
CLASS
  1
VISUALSTYLE
  2
AcDbVisualStyle
  3
ObjectDBX Classes
 90
     4095
280
     0
281
     0
  0
CLASS
  1
SCALE
  2
AcDbScale
  3
ObjectDBX Classes
 90
     1153
280
     0
281
     0
  0
CLASS
  1
DICTIONARYVAR
  2
AcDbDictionaryVar
  3
ObjectDBX Classes
 90
        0
280
     0
281
     0
  0
CLASS
  1
ACDBPLACEHOLDER
  2
AcDbPlaceHolder
  3
ObjectDBX Classes
 90
        0
280
     0
281
     0
  0
CLASS
  1
LAYOUT
  2
AcDbLayout
  3
ObjectDBX Classes
 90
        0
280
     0
281
     0
  0
ENDSEC
  0
SECTION
  2
TABLES
  0
TABLE
  2
VPORT
  5
8
330
0
100
AcDbSymbolTable
 70
     1
  0
VPORT
  5
29
330
8
100
AcDbSymbolTableRecord
100
AcDbViewportTableRecord
  2
*Active
 70
     0
 10
0.0
 20
0.0
 11
1.0
 21
1.0
 12
18.63836281417208
 22
35.10871382599542
 13
0.0
 23
0.0
 14
0.5
 24
0.5
 15
0.5
 25
0.5
 16
0.0
 26
0.0
 36
1.0
 17
0.0
 27
0.0
 37
0.0
 40
71.61541012709137
 41
0.9587841236399939
 42
50.0
 43
0.0
 44
0.0
 50
0.0
 51
0.0
 71
     0
 72
   100
 73
     1
 74
     3
 75
     0
 76
     0
 77
     0
 78
     0
281
     0
 65
     1
110
0.0
120
0.0
130
0.0
111
1.0
121
0.0
131
0.0
112
0.0
122
1.0
132
0.0
 79
     0
146
0.0
  0
ENDTAB
  0
TABLE
  2
LTYPE
  5
5
330
0
100
AcDbSymbolTable
 70
     1
  0
LTYPE
  5
14
330
5
100
AcDbSymbolTableRecord
100
AcDbLinetypeTableRecord
  2
ByBlock
 70
     0
  3

 72
    65
 73
     0
 40
0.0
  0
LTYPE
  5
15
330
5
100
AcDbSymbolTableRecord
100
AcDbLinetypeTableRecord
  2
ByLayer
 70
     0
  3

 72
    65
 73
     0
 40
0.0
  0
LTYPE
  5
16
330
5
100
AcDbSymbolTableRecord
100
AcDbLinetypeTableRecord
  2
Continuous
 70
     0
  3
Solid line
 72
    65
 73
     0
 40
0.0
  0
ENDTAB
  0
TABLE
  2
LAYER
  5
2
330
0
100
AcDbSymbolTable
 70
     2
  0
LAYER
  5
10
330
2
100
AcDbSymbolTableRecord
100
AcDbLayerTableRecord
  2
0
 70
     0
 62
     7
  6
Continuous
370
    -3
390
F
  0
LAYER
  5
3B
330
2
100
AcDbSymbolTableRecord
100
AcDbLayerTableRecord
  2
DEFAULT
 70
     0
 62
     7
  6
Continuous
370
    -3
390
F
  0
ENDTAB
  0
TABLE
  2
STYLE
  5
3
330
0
100
AcDbSymbolTable
 70
     1
  0
STYLE
  5
11
330
3
100
AcDbSymbolTableRecord
100
AcDbTextStyleTableRecord
  2
Standard
 70
     0
 40
0.0
 41
1.0
 50
0.0
 71
     0
 42
0.2
  3
txt
  4

  0
ENDTAB
  0
TABLE
  2
VIEW
  5
6
330
0
100
AcDbSymbolTable
 70
     0
  0
ENDTAB
  0
TABLE
  2
UCS
  5
7
330
0
100
AcDbSymbolTable
 70
     0
  0
ENDTAB
  0
TABLE
  2
APPID
  5
9
330
0
100
AcDbSymbolTable
 70
     1
  0
APPID
  5
12
330
9
100
AcDbSymbolTableRecord
100
AcDbRegAppTableRecord
  2
ACAD
 70
     0
  0
ENDTAB
  0
TABLE
  2
DIMSTYLE
  5
A
330
0
100
AcDbSymbolTable
 70
     1
100
AcDbDimStyleTable
  0
DIMSTYLE
105
27
330
A
100
AcDbSymbolTableRecord
100
AcDbDimStyleTableRecord
  2
Standard
 70
     0
340
11
  0
ENDTAB
  0
TABLE
  2
BLOCK_RECORD
  5
1
330
0
100
AcDbSymbolTable
 70
     3
  0
BLOCK_RECORD
  5
1F
330
1
100
AcDbSymbolTableRecord
100
AcDbBlockTableRecord
  2
*Model_Space
340
22
  0
BLOCK_RECORD
  5
95
330
1
100
AcDbSymbolTableRecord
100
AcDbBlockTableRecord
  2
*Paper_Space
340
96
  0
BLOCK_RECORD
  5
23
330
1
100
AcDbSymbolTableRecord
100
AcDbBlockTableRecord
  2
*Paper_Space0
340
26
  0
BLOCK_RECORD
  5
1B
330
1
100
AcDbSymbolTableRecord
100
AcDbBlockTableRecord
  2
*Paper_Space1
340
1E
  0
BLOCK_RECORD
  5
90
330
1
100
AcDbSymbolTableRecord
100
AcDbBlockTableRecord
  2
*Paper_Space2
340
91
  0
ENDTAB
  0
ENDSEC
  0
SECTION
  2
BLOCKS
  0
BLOCK
  5
20
330
1F
100
AcDbEntity
  8
0
100
AcDbBlockBegin
  2
*Model_Space
 70
     0
 10
0.0
 20
0.0
 30
0.0
  3
*Model_Space
  1

  0
ENDBLK
  5
21
330
1F
100
AcDbEntity
  8
0
100
AcDbBlockEnd
  0
BLOCK
  5
97
330
95
100
AcDbEntity
 67
     1
  8
0
100
AcDbBlockBegin
  2
*Paper_Space
 70
     0
 10
0.0
 20
0.0
 30
0.0
  3
*Paper_Space
  1

  0
ENDBLK
  5
98
330
95
100
AcDbEntity
 67
     1
  8
0
100
AcDbBlockEnd
  0
BLOCK
  5
24
330
23
100
AcDbEntity
  8
0
100
AcDbBlockBegin
  2
*Paper_Space0
 70
     0
 10
0.0
 20
0.0
 30
0.0
  3
*Paper_Space0
  1

  0
ENDBLK
  5
25
330
23
100
AcDbEntity
  8
0
100
AcDbBlockEnd
  0
BLOCK
  5
1C
330
1B
100
AcDbEntity
  8
0
100
AcDbBlockBegin
  2
*Paper_Space1
 70
     0
 10
0.0
 20
0.0
 30
0.0
  3
*Paper_Space1
  1

  0
ENDBLK
  5
1D
330
1B
100
AcDbEntity
  8
0
100
AcDbBlockEnd
  0
BLOCK
  5
92
330
90
100
AcDbEntity
  8
0
100
AcDbBlockBegin
  2
*Paper_Space2
 70
     0
 10
0.0
 20
0.0
 30
0.0
  3
*Paper_Space2
  1

  0
VIEWPORT
  5
94
330
90
100
AcDbEntity
  8
0
100
AcDbViewport
 10
6.0
 20
4.5
 30
0.0
 40
12.696
 41
9.522
 68
     1
 69
     1
 12
6.0
 22
4.5
 13
0.0
 23
0.0
 14
0.5
 24
0.5
 15
0.5
 25
0.5
 16
0.0
 26
0.0
 36
1.0
 17
0.0
 27
0.0
 37
0.0
 42
50.0
 43
0.0
 44
0.0
 45
9.522
 50
0.0
 51
0.0
 72
   100
 90
   557152
  1

281
     0
 71
     1
 74
     0
110
0.0
120
0.0
130
0.0
111
1.0
121
0.0
131
0.0
112
0.0
122
1.0
132
0.0
 79
     0
146
0.0
  0
ENDBLK
  5
93
330
90
100
AcDbEntity
  8
0
100
AcDbBlockEnd
  0
ENDSEC
  0
SECTION
  2
ENTITIES
  0
SPLINE
  5
3C
330
1F
100
AcDbEntity
  8
DEFAULT
100
AcDbSpline
210
0.0
220
0.0
230
1.0
 70
    24
 71
     2
 72
     6
 73
     3
 74
     0
 42
0.0000000001
 43
0.0000000001
 40
0.0
 40
0.0
 40
0.0
 40
1.0
 40
1.0
 40
1.0
 10
33.72086049999999
 20
12.16782489616998
 30
0.0
 10
40.05626799999999
 20
12.88965339616998
 30
0.0
 10
46.39167549999999
 20
13.61148189616998
 30
0.0
  0
SPLINE
  5
3D
330
1F
100
AcDbEntity
  8
DEFAULT
100
AcDbSpline
210
0.0
220
0.0
230
1.0
 70
    24
 71
     2
 72
     6
 73
     3
 74
     0
 42
0.0000000001
 43
0.0000000001
 40
0.0
 40
0.0
 40
0.0
 40
1.0
 40
1.0
 40
1.0
 10
47.5397675
 20
0.5193468961699796
 30
0.0
 10
48.2703485
 20
0.5193468961699796
 30
0.0
 10
49.0009295
 20
0.5193468961699796
 30
0.0
  0
SPLINE
  5
3E
330
1F
100
AcDbEntity
  8
DEFAULT
100
AcDbSpline
210
0.0
220
0.0
230
1.0
 70
    24
 71
     2
 72
     6
 73
     3
 74
     0
 42
0.0000000001
 43
0.0000000001
 40
0.0
 40
0.0
 40
0.0
 40
1.0
 40
1.0
 40
1.0
 10
33.72295749999999
 20
12.16806389616998
 30
0.0
 10
33.78798149999999
 20
12.17547289616998
 30
0.0
 10
33.85300549999999
 20
12.18288189616998
 30
0.0
  0
SPLINE
  5
3F
330
1F
100
AcDbEntity
  8
DEFAULT
100
AcDbSpline
210
0.0
220
0.0
230
1.0
 70
     8
 71
     3
 72
    29
 73
    25
 74
     0
 42
0.0000000001
 43
0.0000000001
 40
0.0
 40
0.0
 40
0.0
 40
0.0
 40
1.000000395348449
 40
2.000000790696898
 40
3.000001186045347
 40
4.000001581393796
 40
5.0
 40
5.0
 40
5.0
 40
6.0
 40
6.0
 40
6.0
 40
7.0
 40
8.0
 40
9.0
 40
10.0
 40
11.0
 40
11.0
 40
11.0
 40
12.0
 40
13.0
 40
14.0
 40
15.0
 40
16.0
 40
16.0
 40
16.0
 40
16.0
 10
32.81004360066999
 20
18.44318129585998
 30
0.0
 10
32.882555457865
 20
18.70532013957174
 30
0.0
 10
33.01238121438531
 20
19.23335474262219
 30
0.0
 10
33.17783124278714
 20
20.03303406698979
 30
0.0
 10
33.20921898207205
 20
20.85469154231142
 30
0.0
 10
32.95247446640214
 20
21.64117071896455
 30
0.0
 10
32.67541509444739
 20
22.11064365251949
 30
0.0
 10
32.513028320515
 20
22.32914497608498
 30
0.0
 10
30.32103779310834
 20
25.28096535315331
 30
0.0
 10
28.12904726570167
 20
28.23278573022165
 30
0.0
 10
25.937056738295
 20
31.18460610728998
 30
0.0
 10
25.84859755784676
 20
31.30369234480752
 30
0.0
 10
25.66222647580982
 20
31.53488836732465
 30
0.0
 10
25.35503324264761
 20
31.85739080047401
 30
0.0
 10
25.01877491538134
 20
32.15020749893564
 30
0.0
 10
24.64987972806836
 20
32.39964728554896
 30
0.0
 10
24.37090173984858
 20
32.51453546796038
 30
0.0
 10
24.22109403125499
 20
32.52030535030498
 30
0.0
 10
24.12303603164665
 20
32.52158134937726
 30
0.0
 10
23.92696730425168
 20
32.52195255261549
 30
0.0
 10
23.63292279863995
 20
32.51600865248182
 30
0.0
 10
23.33908876786928
 20
32.50327827891891
 30
0.0
 10
23.04568751089553
 20
32.48289813646043
 30
0.0
 10
22.85054555187912
 20
32.46359098541788
 30
0.0
 10
22.75332553433999
 20
32.45098438295997
 30
0.0
  0
SPLINE
  5
40
330
1F
100
AcDbEntity
  8
DEFAULT
100
AcDbSpline
210
0.0
220
0.0
230
1.0
 70
    24
 71
     2
 72
     6
 73
     3
 74
     0
 42
0.0000000001
 43
0.0000000001
 40
0.0
 40
0.0
 40
0.0
 40
1.0
 40
1.0
 40
1.0
 10
33.9137535
 20
12.00108989616998
 30
0.0
 10
40.0785425
 20
12.70347889616998
 30
0.0
 10
46.2433315
 20
13.40586789616998
 30
0.0
  0
SPLINE
  5
41
330
1F
100
AcDbEntity
  8
DEFAULT
100
AcDbSpline
210
0.0
220
0.0
230
1.0
 70
     8
 71
     3
 72
    36
 73
    32
 74
     0
 42
0.0000000001
 43
0.0000000001
 40
-5.0
 40
-5.0
 40
-5.0
 40
-5.0
 40
-3.999997710827808
 40
-2.999995421655615
 40
-1.999993132483423
 40
-0.9999908433112303
 40
0.0
 40
0.0
 40
0.0
 40
0.9999901151344148
 40
1.999992771804049
 40
2.999995428473684
 40
3.999998085143319
 40
5.0
 40
5.0
 40
5.0
 40
6.0
 40
6.0
 40
6.0
 40
7.0
 40
8.0
 40
9.0
 40
10.0
 40
11.0
 40
11.0
 40
11.0
 40
12.0
 40
13.0
 40
14.0
 40
15.0
 40
16.0
 40
16.0
 40
16.0
 40
16.0
 10
52.29704430794
 20
14.28431421894998
 30
0.0
 10
52.24821231555482
 20
14.55519755629292
 30
0.0
 10
52.01110239836711
 20
15.05011863201953
 30
0.0
 10
51.63463416863794
 20
15.77654052729713
 30
0.0
 10
51.26390283410585
 20
16.50732311062718
 30
0.0
 10
50.89155702562749
 20
17.23688978906274
 30
0.0
 10
50.64382640441464
 20
17.72360233880882
 30
0.0
 10
50.51961468890499
 20
17.96676400669498
 30
0.0
 10
50.40454315680677
 20
18.19006141915236
 30
0.0
 10
50.13982905711977
 20
18.62461900687151
 30
0.0
 10
49.54431260069947
 20
19.11099482266474
 30
0.0
 10
48.81561511327676
 20
19.34172371494477
 30
0.0
 10
48.06478325334126
 20
19.4294498403666
 30
0.0
 10
47.56129948026572
 20
19.44788729802616
 30
0.0
 10
47.30962934496999
 20
19.45326180853998
 30
0.0
 10
44.19969034798999
 20
19.52226681036331
 30
0.0
 10
41.08975135100999
 20
19.59127181218664
 30
0.0
 10
37.97981235402999
 20
19.66027681400998
 30
0.0
 10
37.82473093812143
 20
19.66356205066151
 30
0.0
 10
37.51404684437963
 20
19.63682050264258
 30
0.0
 10
37.06549460536303
 20
19.50505707973073
 30
0.0
 10
36.65153619878053
 20
19.28691975123341
 30
0.0
 10
36.29820677647314
 20
18.97814855292894
 30
0.0
 10
36.13190370461613
 20
18.71135184187466
 30
0.0
 10
36.07643746140999
 20
18.56631575714998
 30
0.0
 10
35.9120942192943
 20
18.13854326225371
 30
0.0
 10
35.57160884091437
 20
17.28760644965614
 30
0.0
 10
35.06942529150957
 20
16.00787761397521
 30
0.0
 10
34.56748046949077
 20
14.72794052521848
 30
0.0
 10
34.05761829927478
 20
13.45154514267155
 30
0.0
 10
33.74411338937884
 20
12.58924187766711
 30
0.0
 10
33.60404949583999
 20
12.15451645976498
 30
0.0
  0
POLYLINE
  5
42
330
1F
100
AcDbEntity
  8
DEFAULT
100
AcDb2dPolyline
 66
     1
 10
0.0
 20
0.0
 30
0.0
  0
VERTEX
  5
43
330
42
100
AcDbEntity
  8
DEFAULT
100
AcDbVertex
100
AcDb2dVertex
 10
24.2646435
 20
33.23456489616997
 30
0.0
  0
VERTEX
  5
44
330
42
100
AcDbEntity
  8
DEFAULT
100
AcDbVertex
100
AcDb2dVertex
 10
22.75332553433999
 20
32.45098438295997
 30
0.0
  0
SEQEND
  5
45
330
42
100
AcDbEntity
  8
DEFAULT
  0
SPLINE
  5
46
330
1F
100
AcDbEntity
  8
DEFAULT
100
AcDbSpline
210
0.0
220
0.0
230
1.0
 70
    12
 71
     3
 72
    34
 73
    30
 74
     0
 42
0.0000000001
 43
0.0000000001
 40
0.0
 40
0.0
 40
0.0
 40
0.0
 40
1.0
 40
1.0
 40
1.0
 40
2.0
 40
3.0
 40
4.0
 40
5.0
 40
6.0
 40
6.0
 40
6.0
 40
7.0
 40
7.0
 40
7.0
 40
7.343607475587276
 40
7.343607475587276
 40
7.343607475587276
 40
7.687214951174551
 40
7.687214951174551
 40
7.687214951174551
 40
8.68721495117455
 40
8.68721495117455
 40
8.68721495117455
 40
9.687049778468735
 40
10.68709107164519
 40
11.68713236482164
 40
12.6871736579981
 40
13.68721495117455
 40
13.68721495117455
 40
13.68721495117455
 40
13.68721495117455
 10
29.5446015
 20
0.1543708961699792
 30
0.0
 41
1.0
 10
29.3720045
 20
0.1543708961699792
 30
0.0
 41
1.0
 10
29.19940749999999
 20
0.1543708961699792
 30
0.0
 41
1.0
 10
29.02681049999998
 20
0.1543708961699792
 30
0.0
 41
1.0
 10
28.93748615387813
 20
0.1550064209059347
 30
0.0
 41
1.0
 10
28.76425856283433
 20
0.2160212664946167
 30
0.0
 41
1.0
 10
28.57478252426266
 20
0.4100718327136729
 30
0.0
 41
1.0
 10
28.44861908612113
 20
0.6467670286209221
 30
0.0
 41
1.0
 10
28.38697001156561
 20
0.9093723789950038
 30
0.0
 41
1.0
 10
28.41379956398921
 20
1.089416181275897
 30
0.0
 41
1.0
 10
28.4512545
 20
1.17040989616998
 30
0.0
 41
1.0
 10
30.06751750000001
 20
4.64917089616998
 30
0.0
 41
1.0
 10
31.68378049999998
 20
8.127931896169981
 30
0.0
 41
1.0
 10
33.50213060315809
 20
12.04164784883849
 30
0.0
 41
1.0
 10
33.55612055534169
 20
12.1578577295287
 30
0.0
 41
0.8047381121162376
 10
33.6764699872452
 20
12.20185392876592
 30
0.0
 41
0.8047381121162376
 10
33.79267992703095
 20
12.14786410378186
 30
0.0
 41
1.0
 10
33.90888986681671
 20
12.0938742787978
 30
0.0
 41
0.8047381121162376
 10
33.95288619778444
 20
11.97352489505116
 30
0.0
 41
0.8047381121162376
 10
33.89889649999999
 20
11.85731489616998
 30
0.0
 41
1.0
 10
31.98115466666667
 20
7.729660229503313
 30
0.0
 41
1.0
 10
30.41460283333333
 20
4.357896562836647
 30
0.0
 41
1.0
 10
28.848051
 20
0.9861328961699796
 30
0.0
 41
1.0
 10
28.8373866517712
 20
0.9559959207760855
 30
0.0
 41
1.0
 10
28.84144985004176
 20
0.8913348780475234
 30
0.0
 41
1.0
 10
28.8666794035647
 20
0.8003368171130284
 30
0.0
 41
1.0
 10
28.91113413176423
 20
0.7134029064077158
 30
0.0
 41
1.0
 10
28.9569708456446
 20
0.6406552059260778
 30
0.0
 41
1.0
 10
29.03040035191079
 20
0.5878419691067239
 30
0.0
 41
1.0
 10
29.01639349999999
 20
0.5983718961699793
 30
0.0
 41
1.0
  0
POLYLINE
  5
47
330
1F
100
AcDbEntity
  8
DEFAULT
100
AcDb2dPolyline
 66
     1
 10
0.0
 20
0.0
 30
0.0
  0
VERTEX
  5
48
330
47
100
AcDbEntity
  8
DEFAULT
100
AcDbVertex
100
AcDb2dVertex
 10
33.60404949583999
 20
12.15451645976498
 30
0.0
  0
VERTEX
  5
49
330
47
100
AcDbEntity
  8
DEFAULT
100
AcDbVertex
100
AcDb2dVertex
 10
31.3420225
 20
13.49104489616998
 30
0.0
  0
SEQEND
  5
4A
330
47
100
AcDbEntity
  8
DEFAULT
  0
LINE
  5
4B
330
1F
100
AcDbEntity
  8
DEFAULT
100
AcDbLine
 10
46.4818435
 20
13.62175589616998
 30
0.0
 11
52.29704437217791
 21
14.2843136551402
 31
0.0
  0
POLYLINE
  5
4C
330
1F
100
AcDbEntity
  8
DEFAULT
100
AcDb2dPolyline
 66
     1
 10
0.0
 20
0.0
 30
0.0
  0
VERTEX
  5
4D
330
4C
100
AcDbEntity
  8
DEFAULT
100
AcDbVertex
100
AcDb2dVertex
 10
31.34427855258001
 20
13.49222165249998
 30
0.0
  0
VERTEX
  5
4E
330
4C
100
AcDbEntity
  8
DEFAULT
100
AcDbVertex
100
AcDb2dVertex
 10
22.75332553433999
 20
32.45098438295997
 30
0.0
  0
SEQEND
  5
4F
330
4C
100
AcDbEntity
  8
DEFAULT
  0
SPLINE
  5
50
330
1F
100
AcDbEntity
  8
DEFAULT
100
AcDbSpline
210
0.0
220
0.0
230
1.0
 70
     8
 71
     3
 72
    19
 73
    15
 74
     0
 42
0.0000000001
 43
0.0000000001
 40
-5.0
 40
-5.0
 40
-5.0
 40
-5.0
 40
-3.99999455155733
 40
-2.99998910311466
 40
-1.99998365467199
 40
-0.9999782062293207
 40
0.0
 40
0.0
 40
0.0
 40
0.9999864580401633
 40
1.999989843530122
 40
2.999993229020082
 40
3.999996614510041
 40
5.0
 40
5.0
 40
5.0
 40
5.0
 10
24.26480439479999
 20
33.23456958577998
 30
0.0
 10
24.35805505131219
 20
33.23567721520432
 30
0.0
 10
24.54440934821871
 20
33.24353173554607
 30
0.0
 10
24.8238613754113
 20
33.25641234173302
 30
0.0
 10
25.10338325179318
 20
33.2679204136624
 30
0.0
 10
25.38300733982071
 20
33.27655428779635
 30
0.0
 10
25.56948756759336
 20
33.27966865914762
 30
0.0
 10
25.66273279166747
 20
33.28051755500362
 30
0.0
 10
25.81428419451395
 20
33.28071893601709
 30
0.0
 10
26.10905995688994
 20
33.19851763204819
 30
0.0
 10
26.50124425216379
 20
32.96946716732923
 30
0.0
 10
26.85101196227158
 20
32.68116157991033
 30
0.0
 10
27.16471331566831
 20
32.35464760228002
 30
0.0
 10
27.35340103753492
 20
32.11917758442511
 30
0.0
 10
27.44333225441999
 20
31.99820528155998
 30
0.0
  0
SPLINE
  5
51
330
1F
100
AcDbEntity
  8
DEFAULT
100
AcDbSpline
210
0.0
220
0.0
230
1.0
 70
    24
 71
     2
 72
     6
 73
     3
 74
     0
 42
0.0000000001
 43
0.0000000001
 40
0.0
 40
0.0
 40
0.0
 40
1.0
 40
1.0
 40
1.0
 10
31.26949749999999
 20
0.5193468961699796
 30
0.0
 10
30.53891649999999
 20
0.5193468961699796
 30
0.0
 10
29.8083355
 20
0.5193468961699796
 30
0.0
  0
SPLINE
  5
52
330
1F
100
AcDbEntity
  8
DEFAULT
100
AcDbSpline
210
0.0
220
0.0
230
1.0
 70
     8
 71
     3
 72
    12
 73
     8
 74
     0
 42
0.0000000001
 43
0.0000000001
 40
0.0
 40
0.0
 40
0.0
 40
0.0
 40
1.0
 40
2.0
 40
3.0
 40
4.0
 40
5.0
 40
5.0
 40
5.0
 40
5.0
 10
29.80833579436
 20
0.5193470415349797
 30
0.0
 10
29.77050968528575
 20
0.5095115012124358
 30
0.0
 10
29.72728991067994
 20
0.4381190903652485
 30
0.0
 10
29.74295692673311
 20
0.3264035020676297
 30
0.0
 10
29.75938161683339
 20
0.2152824198359844
 30
0.0
 10
29.78163658346914
 20
0.1086842935479348
 30
0.0
 10
29.78745989724859
 20
0.0267716416756012
 30
0.0
 10
29.75688331639
 20
0.00312062644098
 30
0.0
  0
SPLINE
  5
53
330
1F
100
AcDbEntity
  8
DEFAULT
100
AcDbSpline
210
0.0
220
0.0
230
1.0
 70
     8
 71
     3
 72
    61
 73
    57
 74
     0
 42
0.0000000001
 43
0.0000000001
 40
-0.0174972309097842
 40
-0.0174972309097842
 40
-0.0174972309097842
 40
-0.0174972309097842
 40
1.0
 40
1.0
 40
1.0
 40
2.0
 40
2.0
 40
2.0
 40
3.0
 40
3.0
 40
3.0
 40
3.999999999999999
 40
3.999999999999999
 40
3.999999999999999
 40
5.0
 40
5.0
 40
5.0
 40
5.992647405878349
 40
6.994485554408762
 40
7.996323702939175
 40
8.998161851469588
 40
10.0
 40
10.0
 40
10.0
 40
11.0
 40
11.0
 40
11.0
 40
12.0
 40
12.0
 40
12.0
 40
13.0
 40
13.0
 40
13.0
 40
14.0
 40
14.0
 40
14.0
 40
15.0
 40
15.0
 40
15.0
 40
16.00003220136293
 40
16.00003220136293
 40
16.00003220136293
 40
17.00006440272585
 40
17.00006440272585
 40
17.00006440272585
 40
18.0
 40
18.0
 40
18.0
 40
19.00000169622724
 40
20.00002842576832
 40
21.0000551553094
 40
22.00008188485047
 40
23.0
 40
23.0
 40
23.0
 40
24.01128225666757
 40
24.01128225666757
 40
24.01128225666757
 40
24.01128225666757
 10
29.61048775642296
 20
0.00312089616998
 30
0.0
 10
30.13120817094865
 20
0.00312089616998
 30
0.0
 10
30.65192858547432
 20
0.00312089616998
 30
0.0
 10
31.17264899999999
 20
0.00312089616998
 30
0.0
 10
31.17641433333333
 20
0.0032092295033133
 30
0.0
 10
31.18017966666667
 20
0.0032975628366465
 30
0.0
 10
31.18394499999999
 20
0.0033858961699798
 30
0.0
 10
31.18869383333334
 20
0.0037527295033133
 30
0.0
 10
31.19344266666666
 20
0.0041195628366468
 30
0.0
 10
31.19819149999999
 20
0.0044863961699804
 30
0.0
 10
31.20290249999999
 20
0.0051397295033138
 30
0.0
 10
31.20761350000001
 20
0.0057930628366473
 30
0.0
 10
31.21232450000001
 20
0.0064463961699808
 30
0.0
 10
31.21695666666667
 20
0.0073782295033136
 30
0.0
 10
31.22158883333333
 20
0.0083100628366465
 30
0.0
 10
31.226221
 20
0.0092418961699794
 30
0.0
 10
31.24243614787049
 20
0.0131161658614632
 30
0.0
 10
31.27421550429307
 20
0.0242613512857179
 30
0.0
 10
31.31738600687719
 20
0.0506287768451564
 30
0.0
 10
31.35411840144196
 20
0.0857333335425543
 30
0.0
 10
31.38139244388837
 20
0.1287114421872559
 30
0.0
 10
31.3913112368155
 20
0.1612147773851823
 30
0.0
 10
31.393711
 20
0.1778828961699794
 30
0.0
 10
31.39444983333333
 20
0.1835618961699795
 30
0.0
 10
31.39518866666666
 20
0.1892408961699795
 30
0.0
 10
31.39592749999999
 20
0.1949198961699796
 30
0.0
 10
31.39665116666666
 20
0.2017978961699794
 30
0.0
 10
31.39737483333332
 20
0.2086758961699792
 30
0.0
 10
31.3980985
 20
0.215553896169979
 30
0.0
 10
31.39865683333333
 20
0.2223502295033128
 30
0.0
 10
31.39921516666666
 20
0.2291465628366467
 30
0.0
 10
31.3997735
 20
0.2359428961699805
 30
0.0
 10
31.40020416666667
 20
0.2426332295033138
 30
0.0
 10
31.40063483333333
 20
0.249323562836647
 30
0.0
 10
31.40106549999999
 20
0.2560138961699803
 30
0.0
 10
31.40141316666666
 20
0.2625852295033131
 30
0.0
 10
31.40176083333333
 20
0.2691565628366461
 30
0.0
 10
31.4021085
 20
0.2757278961699789
 30
0.0
 10
31.40273416666667
 20
0.2885112295033127
 30
0.0
 10
31.40335983333333
 20
0.3012945628366464
 30
0.0
 10
31.4039855
 20
0.3140778961699802
 30
0.0
 10
31.40435016666665
 20
0.3202902295033135
 30
0.0
 10
31.40471483333332
 20
0.3265025628366469
 30
0.0
 10
31.40507949999999
 20
0.3327148961699802
 30
0.0
 10
31.40545416666666
 20
0.3378630628366466
 30
0.0
 10
31.40582883333332
 20
0.343011229503313
 30
0.0
 10
31.4062035
 20
0.3481593961699794
 30
0.0
 10
31.40799592406653
 20
0.3679706712093619
 30
0.0
 10
31.40580461899147
 20
0.4083949662239053
 30
0.0
 10
31.38045396290248
 20
0.4636034902097305
 30
0.0
 10
31.3383687091718
 20
0.5070443403113334
 30
0.0
 10
31.28524419508238
 20
0.5358361079360215
 30
0.0
 10
31.24556492598114
 20
0.5432331167406795
 30
0.0
 10
31.22561899999999
 20
0.5431208961699809
 30
0.0
 10
30.74954489955144
 20
0.5431208961699809
 30
0.0
 10
30.27347079910289
 20
0.5431208961699809
 30
0.0
 10
29.79739669865434
 20
0.5431208961699809
 30
0.0
  0
SPLINE
  5
54
330
1F
100
AcDbEntity
  8
DEFAULT
100
AcDbSpline
210
0.0
220
0.0
230
1.0
 70
    12
 71
     2
 72
     8
 73
     5
 74
     0
 42
0.0000000001
 43
0.0000000001
 40
0.0
 40
0.0
 40
0.0
 40
5.0
 40
5.0
 40
5.588817251956081
 40
5.588817251956081
 40
5.588817251956081
 10
49.3879465
 20
0.1543708961699789
 30
0.0
 41
1.0
 10
49.34639526000458
 20
0.0369772375441573
 30
0.0
 41
0.8763434810657698
 10
49.2250165
 20
0.0091388961699784
 30
0.0
 41
1.0
 10
49.2118968717885
 20
0.0061298961699789
 30
0.0
 41
1.0
 10
49.19877724357701
 20
0.0031208961699786
 30
0.0
 41
1.0
  0
SPLINE
  5
55
330
1F
100
AcDbEntity
  8
DEFAULT
100
AcDbSpline
210
0.0
220
0.0
230
1.0
 70
     8
 71
     3
 72
    61
 73
    57
 74
     0
 42
0.0000000001
 43
0.0000000001
 40
-0.0174972309097842
 40
-0.0174972309097842
 40
-0.0174972309097842
 40
-0.0174972309097842
 40
1.0
 40
1.0
 40
1.0
 40
2.0
 40
2.0
 40
2.0
 40
3.0
 40
3.0
 40
3.0
 40
3.999999999999999
 40
3.999999999999999
 40
3.999999999999999
 40
5.0
 40
5.0
 40
5.0
 40
5.992647405878349
 40
6.994485554408762
 40
7.996323702939175
 40
8.998161851469588
 40
10.0
 40
10.0
 40
10.0
 40
11.0
 40
11.0
 40
11.0
 40
12.0
 40
12.0
 40
12.0
 40
13.0
 40
13.0
 40
13.0
 40
14.0
 40
14.0
 40
14.0
 40
15.0
 40
15.0
 40
15.0
 40
16.00003220136293
 40
16.00003220136293
 40
16.00003220136293
 40
17.00006440272585
 40
17.00006440272585
 40
17.00006440272585
 40
18.0
 40
18.0
 40
18.0
 40
19.00000169622724
 40
20.00002842576832
 40
21.0000551553094
 40
22.00008188485047
 40
23.0
 40
23.0
 40
23.0
 40
24.01128225666757
 40
24.01128225666757
 40
24.01128225666757
 40
24.01128225666757
 10
49.19877724357701
 20
0.00312089616998
 30
0.0
 10
48.67805682905134
 20
0.00312089616998
 30
0.0
 10
48.15733641452567
 20
0.00312089616998
 30
0.0
 10
47.636616
 20
0.00312089616998
 30
0.0
 10
47.63285066666666
 20
0.0032092295033133
 30
0.0
 10
47.62908533333332
 20
0.0032975628366465
 30
0.0
 10
47.62531999999999
 20
0.0033858961699798
 30
0.0
 10
47.62057116666666
 20
0.0037527295033133
 30
0.0
 10
47.61582233333333
 20
0.0041195628366468
 30
0.0
 10
47.6110735
 20
0.0044863961699804
 30
0.0
 10
47.6063625
 20
0.0051397295033138
 30
0.0
 10
47.6016515
 20
0.0057930628366473
 30
0.0
 10
47.5969405
 20
0.0064463961699808
 30
0.0
 10
47.59230833333332
 20
0.0073782295033136
 30
0.0
 10
47.58767616666667
 20
0.0083100628366465
 30
0.0
 10
47.58304399999999
 20
0.0092418961699794
 30
0.0
 10
47.5668288521295
 20
0.0131161658614632
 30
0.0
 10
47.53504949570693
 20
0.0242613512857179
 30
0.0
 10
47.49187899312278
 20
0.0506287768451564
 30
0.0
 10
47.45514659855803
 20
0.0857333335425543
 30
0.0
 10
47.42787255611162
 20
0.1287114421872559
 30
0.0
 10
47.41795376318449
 20
0.1612147773851823
 30
0.0
 10
47.415554
 20
0.1778828961699794
 30
0.0
 10
47.41481516666666
 20
0.1835618961699795
 30
0.0
 10
47.41407633333333
 20
0.1892408961699795
 30
0.0
 10
47.4133375
 20
0.1949198961699796
 30
0.0
 10
47.41261383333332
 20
0.2017978961699794
 30
0.0
 10
47.41189016666667
 20
0.2086758961699792
 30
0.0
 10
47.41116649999999
 20
0.215553896169979
 30
0.0
 10
47.41060816666666
 20
0.2223502295033128
 30
0.0
 10
47.41004983333332
 20
0.2291465628366467
 30
0.0
 10
47.40949149999999
 20
0.2359428961699805
 30
0.0
 10
47.40906083333333
 20
0.2426332295033138
 30
0.0
 10
47.40863016666667
 20
0.249323562836647
 30
0.0
 10
47.40819949999999
 20
0.2560138961699803
 30
0.0
 10
47.40785183333332
 20
0.2625852295033131
 30
0.0
 10
47.40750416666666
 20
0.2691565628366461
 30
0.0
 10
47.4071565
 20
0.2757278961699789
 30
0.0
 10
47.40653083333332
 20
0.2885112295033127
 30
0.0
 10
47.40590516666666
 20
0.3012945628366464
 30
0.0
 10
47.40527949999999
 20
0.3140778961699802
 30
0.0
 10
47.40491483333332
 20
0.3202902295033135
 30
0.0
 10
47.40455016666667
 20
0.3265025628366469
 30
0.0
 10
47.4041855
 20
0.3327148961699802
 30
0.0
 10
47.40381083333332
 20
0.3378630628366466
 30
0.0
 10
47.40343616666667
 20
0.343011229503313
 30
0.0
 10
47.40306149999999
 20
0.3481593961699794
 30
0.0
 10
47.40126907593347
 20
0.3679706712093619
 30
0.0
 10
47.40346038100853
 20
0.4083949662239053
 30
0.0
 10
47.42881103709752
 20
0.4636034902097305
 30
0.0
 10
47.47089629082819
 20
0.5070443403113334
 30
0.0
 10
47.52402080491761
 20
0.5358361079360215
 30
0.0
 10
47.56370007401885
 20
0.5432331167406795
 30
0.0
 10
47.58364599999999
 20
0.5431208961699809
 30
0.0
 10
48.05972010044854
 20
0.5431208961699809
 30
0.0
 10
48.5357942008971
 20
0.5431208961699809
 30
0.0
 10
49.01186830134564
 20
0.5431208961699809
 30
0.0
  0
SPLINE
  5
56
330
1F
100
AcDbEntity
  8
DEFAULT
100
AcDbSpline
210
0.0
220
0.0
230
1.0
 70
     8
 71
     3
 72
    15
 73
    11
 74
     0
 42
0.0000000001
 43
0.0000000001
 40
-0.13877609773166
 40
-0.13877609773166
 40
-0.13877609773166
 40
-0.13877609773166
 40
0.0
 40
0.0
 40
0.0
 40
1.0
 40
2.0
 40
3.0
 40
4.0
 40
5.0
 40
5.0
 40
5.0
 40
5.0
 10
49.01186830134566
 20
0.5431208961699827
 30
0.0
 10
49.01618136756377
 20
0.5424922295033152
 30
0.0
 10
49.02049443378188
 20
0.5418635628366477
 30
0.0
 10
49.02480749999999
 20
0.5412348961699802
 30
0.0
 10
49.05588681616908
 20
0.5367048173095479
 30
0.0
 10
49.1239448207545
 20
0.5158208801979072
 30
0.0
 10
49.16206302935188
 20
0.419919818328729
 30
0.0
 10
49.16426714550181
 20
0.3234854739342023
 30
0.0
 10
49.18489180374279
 20
0.2286877344956181
 30
0.0
 10
49.21883408363173
 20
0.1702136287627234
 30
0.0
 10
49.2481705
 20
0.1553068961699804
 30
0.0
  0
SPLINE
  5
57
330
1F
100
AcDbEntity
  8
DEFAULT
100
AcDbSpline
210
0.0
220
0.0
230
1.0
 70
     8
 71
     3
 72
    15
 73
    11
 74
     0
 42
0.0000000001
 43
0.0000000001
 40
-0.13877609773166
 40
-0.13877609773166
 40
-0.13877609773166
 40
-0.13877609773166
 40
0.0
 40
0.0
 40
0.0
 40
1.0
 40
2.0
 40
3.0
 40
4.0
 40
5.0
 40
5.0
 40
5.0
 40
5.0
 10
29.79739669865434
 20
0.5431208961699827
 30
0.0
 10
29.79308363243621
 20
0.5424922295033152
 30
0.0
 10
29.78877056621811
 20
0.5418635628366477
 30
0.0
 10
29.78445749999999
 20
0.5412348961699802
 30
0.0
 10
29.75337818383092
 20
0.5367048173095479
 30
0.0
 10
29.68532017924547
 20
0.5158208801979072
 30
0.0
 10
29.6472019706481
 20
0.419919818328729
 30
0.0
 10
29.64499785449818
 20
0.3234854739342023
 30
0.0
 10
29.6243731962572
 20
0.2286877344956181
 30
0.0
 10
29.59043091636826
 20
0.1702136287627234
 30
0.0
 10
29.5610945
 20
0.1553068961699804
 30
0.0
  0
SPLINE
  5
58
330
1F
100
AcDbEntity
  8
DEFAULT
100
AcDbSpline
210
0.0
220
0.0
230
1.0
 70
     8
 71
     3
 72
    12
 73
     8
 74
     0
 42
0.0000000001
 43
0.0000000001
 40
0.0
 40
0.0
 40
0.0
 40
0.0
 40
1.0
 40
2.0
 40
3.0
 40
4.0
 40
5.0
 40
5.0
 40
5.0
 40
5.0
 10
49.00092920563999
 20
0.5193470415349797
 30
0.0
 10
49.03875531471424
 20
0.5095115012124358
 30
0.0
 10
49.08197508932005
 20
0.4381190903652485
 30
0.0
 10
49.06630807326687
 20
0.3264035020676297
 30
0.0
 10
49.04988338316659
 20
0.2152824198359844
 30
0.0
 10
49.02762841653085
 20
0.1086842935479348
 30
0.0
 10
49.0218051027514
 20
0.0267716416756012
 30
0.0
 10
49.05238168360999
 20
0.00312062644098
 30
0.0
  0
SPLINE
  5
59
330
1F
100
AcDbEntity
  8
DEFAULT
100
AcDbSpline
210
0.0
220
0.0
230
1.0
 70
     8
 71
     3
 72
    43
 73
    39
 74
     0
 42
0.0000000001
 43
0.0000000001
 40
-5.0
 40
-5.0
 40
-5.0
 40
-5.0
 40
-4.0
 40
-3.0
 40
-2.0
 40
-1.0
 40
0.0
 40
0.0
 40
0.0
 40
1.0
 40
1.0
 40
1.0
 40
2.000000001728369
 40
3.000000003456738
 40
4.000000005185108
 40
5.000000006913478
 40
6.0
 40
6.0
 40
6.0
 40
6.999999977525502
 40
7.999999983144127
 40
8.99999998876275
 40
9.999999994381376
 40
11.0
 40
11.0
 40
11.0
 40
12.0000039448785
 40
13.000007889757
 40
14.0000118346355
 40
15.00001577951399
 40
16.0
 40
16.0
 40
16.0
 40
16.99996108334217
 40
17.99997081250663
 40
18.99998054167109
 40
19.99999027083554
 40
21.0
 40
21.0
 40
21.0
 40
21.0
 10
27.44333498381999
 20
31.99820716955998
 30
0.0
 10
27.88978286483943
 20
31.39766801027833
 30
0.0
 10
28.78239376563609
 20
30.19636536205307
 30
0.0
 10
30.12235378217203
 20
28.39523584897201
 30
0.0
 10
31.4590648552162
 20
26.5915343258716
 30
0.0
 10
32.80750268843568
 20
24.79712914198312
 30
0.0
 10
33.67762641924222
 20
23.57798448018877
 30
0.0
 10
34.16768226004999
 20
23.01196808967998
 30
0.0
 10
34.58482624928153
 20
22.53016516959217
 30
0.0
 10
35.11316201525768
 20
22.12307058097304
 30
0.0
 10
35.69374406760001
 20
21.86026334732998
 30
0.0
 10
36.41172636329153
 20
21.53526029190634
 30
0.0
 10
37.97564135772186
 20
21.32212553094467
 30
0.0
 10
40.31965358960529
 20
21.32650295460114
 30
0.0
 10
42.66469142751077
 20
21.25946325123846
 30
0.0
 10
45.00944315324392
 20
21.21142612680817
 30
0.0
 10
46.57267431018393
 20
21.17561069221008
 30
0.0
 10
47.35427682949999
 20
21.15844679097998
 30
0.0
 10
47.58275408170161
 20
21.15329057213915
 30
0.0
 10
48.03981178697511
 20
21.13371844450727
 30
0.0
 10
48.72108172056087
 20
21.05370832269857
 30
0.0
 10
49.39006040989381
 20
20.88501174398587
 30
0.0
 10
49.97934740532898
 20
20.5058265933305
 30
0.0
 10
50.21646082809335
 20
20.1019682662814
 30
0.0
 10
50.319257585785
 20
19.89948692805998
 30
0.0
 10
50.45010833354426
 20
19.64224688534497
 30
0.0
 10
50.71089852576036
 20
19.1274069248063
 30
0.0
 10
51.10550152172243
 20
18.35650489074358
 30
0.0
 10
51.48916835675499
 20
17.58125656420708
 30
0.0
 10
51.91243940372054
 20
16.82167543311454
 30
0.0
 10
52.05642520654389
 20
16.25745471376694
 30
0.0
 10
52.10445170576068
 20
15.97335186289936
 30
0.0
 10
52.12082439029722
 20
15.86119400781022
 30
0.0
 10
52.15219955740764
 20
15.636672391464
 30
0.0
 10
52.19500597002146
 20
15.29931980664861
 30
0.0
 10
52.23355001723908
 20
14.96144807987883
 30
0.0
 10
52.26780364203772
 20
14.62311442202613
 30
0.0
 10
52.28777768076402
 20
14.39728726676179
 30
0.0
 10
52.29704822487193
 20
14.28431487359283
 30
0.0
  0
SPLINE
  5
5A
330
1F
100
AcDbEntity
  8
DEFAULT
100
AcDbSpline
210
0.0
220
0.0
230
1.0
 70
    12
 71
     2
 72
     8
 73
     5
 74
     0
 42
0.0000000001
 43
0.0000000001
 40
0.0
 40
0.0
 40
0.0
 40
5.0
 40
5.0
 40
5.588817251956081
 40
5.588817251956081
 40
5.588817251956081
 10
29.4213185
 20
0.1543708961699795
 30
0.0
 41
1.0
 10
29.46286973999542
 20
0.0369772375441578
 30
0.0
 41
0.8763434810657698
 10
29.58424849999999
 20
0.0091388961699785
 30
0.0
 41
1.0
 10
29.59736812821149
 20
0.0061298961699789
 30
0.0
 41
1.0
 10
29.61048775642298
 20
0.0031208961699786
 30
0.0
 41
1.0
  0
SPLINE
  5
5B
330
1F
100
AcDbEntity
  8
DEFAULT
100
AcDbSpline
210
0.0
220
0.0
230
1.0
 70
    12
 71
     3
 72
    39
 73
    35
 74
     0
 42
0.0000000001
 43
0.0000000001
 40
-4.779819292117066
 40
-4.779819292117066
 40
-4.779819292117066
 40
-4.779819292117066
 40
-2.999999780870857
 40
-1.999999657752098
 40
-0.9999995346333387
 40
0.0000005884854205
 40
0.0000005884854205
 40
0.0000005884854205
 40
1.0
 40
1.0
 40
1.0
 40
1.171806904046587
 40
1.171806904046587
 40
1.171806904046587
 40
1.343613808093174
 40
1.343613808093174
 40
1.343613808093174
 40
1.51542071213976
 40
1.51542071213976
 40
1.51542071213976
 40
1.687227616186347
 40
1.687227616186347
 40
1.687227616186347
 40
2.687227616186347
 40
2.687227616186347
 40
2.687227616186347
 40
3.687227616186347
 40
4.687227616186347
 40
5.687227616186347
 40
6.687227616186347
 40
7.687227616186347
 40
7.687227616186347
 40
7.687227616186347
 40
8.687227616186348
 40
8.687227616186348
 40
8.687227616186348
 40
8.687227616186348
 10
49.76866057720508
 20
0.5922316976123998
 30
0.0
 41
1.0
 10
49.87160321994391
 20
0.6414330762323232
 30
0.0
 41
1.0
 10
49.92226966066505
 20
0.7188391553437838
 30
0.0
 41
1.0
 10
49.98828801562799
 20
0.8178010524948408
 30
0.0
 41
1.0
 10
50.02877974980144
 20
0.9301961378869226
 30
0.0
 41
1.0
 10
50.03896666609963
 20
1.011527275051552
 30
0.0
 41
1.0
 10
50.0289775
 20
1.05076939616998
 30
0.0
 41
1.0
 10
48.77032806232739
 20
5.1471603144927
 30
0.0
 41
1.0
 10
47.51167862465478
 20
9.243551232815415
 30
0.0
 41
1.0
 10
46.25302918698218
 20
13.33994215113813
 30
0.0
 41
1.0
 10
46.23576161948304
 20
13.39614104541945
 30
0.0
 41
0.9492522914690383
 10
46.24131502057283
 20
13.45467004970036
 30
0.0
 41
0.9492522914690383
 10
46.26884392311199
 20
13.50661852543132
 30
0.0
 41
1.0
 10
46.29637282565115
 20
13.55856700116227
 30
0.0
 41
0.9492522914690383
 10
46.34168614347296
 20
13.59602615002819
 30
0.0
 41
0.9492522914690383
 10
46.39788523544125
 20
13.61329307412368
 30
0.0
 41
1.0
 10
46.45408432740954
 20
13.63055999821917
 30
0.0
 41
0.9492522914690383
 10
46.51261326810757
 20
13.62500592705057
 30
0.0
 41
0.9492522914690383
 10
46.56456142866584
 20
13.59747642977233
 30
0.0
 41
1.0
 10
46.6165095892241
 20
13.5699469324941
 30
0.0
 41
0.9492522914690383
 10
46.65396821931042
 20
13.52463318581788
 30
0.0
 41
0.9492522914690383
 10
46.6712345
 20
13.46843389616998
 30
0.0
 41
1.0
 10
47.93150816666667
 20
9.366422229503314
 30
0.0
 41
1.0
 10
49.19178183333334
 20
5.264410562836647
 30
0.0
 41
1.0
 10
50.4520555
 20
1.16239889616998
 30
0.0
 41
1.0
 10
50.474980474782
 20
1.074394318493428
 30
0.0
 41
1.0
 10
50.47794079540249
 20
0.8895808768557097
 30
0.0
 41
1.0
 10
50.38925561164619
 20
0.6292891147267345
 30
0.0
 41
1.0
 10
50.24218734203588
 20
0.3983657896459582
 30
0.0
 41
1.0
 10
50.03716056633205
 20
0.2135263155669934
 30
0.0
 41
1.0
 10
49.86011623402385
 20
0.1545914913818605
 30
0.0
 41
1.0
 10
49.7688395
 20
0.1543708961699792
 30
0.0
 41
1.0
 10
49.5964565
 20
0.1543708961699792
 30
0.0
 41
1.0
 10
49.42407349999999
 20
0.1543708961699792
 30
0.0
 41
1.0
 10
49.2516905
 20
0.1543708961699792
 30
0.0
 41
1.0
  0
SPLINE
  5
5C
330
1F
100
AcDbEntity
  8
DEFAULT
100
AcDbSpline
210
0.0
220
0.0
230
1.0
 70
     8
 71
     3
 72
    12
 73
     8
 74
     0
 42
0.0000000001
 43
0.0000000001
 40
0.0
 40
0.0
 40
0.0
 40
0.0
 40
1.0
 40
2.0
 40
3.0
 40
4.0
 40
5.0
 40
5.0
 40
5.0
 40
5.0
 10
31.34427855258001
 20
13.49222165249998
 30
0.0
 10
31.44399636367331
 20
13.82042496928617
 30
0.0
 10
31.63824939184777
 20
14.47839800935664
 30
0.0
 10
31.93191471243907
 20
15.4646661439249
 30
0.0
 10
32.22403825702032
 20
16.45139909591742
 30
0.0
 10
32.51923142740623
 20
17.43720572885019
 30
0.0
 10
32.7142588682235
 20
18.09496613438245
 30
0.0
 10
32.80525494349
 20
18.42571064887998
 30
0.0
  0
SPLINE
  5
5D
330
1F
100
AcDbEntity
  8
DEFAULT
100
AcDbSpline
210
0.0
220
0.0
230
1.0
 70
    12
 71
     2
 72
    12
 73
     9
 74
     0
 42
0.0000000001
 43
0.0000000001
 40
-1.0
 40
-1.0
 40
-1.0
 40
0.0
 40
0.0
 40
1.570796326794897
 40
1.570796326794897
 40
3.141592653589793
 40
3.141592653589793
 40
4.141592653589793
 40
4.141592653589793
 40
4.141592653589793
 10
29.02703549999998
 20
0.5918708961699792
 30
0.0
 41
1.0
 10
33.38078449999998
 20
0.5918708961699792
 30
0.0
 41
1.0
 10
37.7345335
 20
0.5918708961699792
 30
0.0
 41
1.0
 10
37.9532835
 20
0.5918708961699792
 30
0.0
 41
0.7071067811865476
 10
37.9532835
 20
0.3731208961699792
 30
0.0
 41
1.0
 10
37.9532835
 20
0.1543708961699793
 30
0.0
 41
0.7071067811865476
 10
37.7345335
 20
0.1543708961699792
 30
0.0
 41
1.0
 10
34.56245049999998
 20
0.1543708961699792
 30
0.0
 41
1.0
 10
31.39036749999998
 20
0.1543708961699792
 30
0.0
 41
1.0
  0
SPLINE
  5
5E
330
1F
100
AcDbEntity
  8
DEFAULT
100
AcDbSpline
210
0.0
220
0.0
230
1.0
 70
    12
 71
     2
 72
    16
 73
    13
 74
     0
 42
0.0000000001
 43
0.0000000001
 40
0.0
 40
0.0
 40
0.0
 40
1.0
 40
1.0
 40
1.171805857674674
 40
1.171805857674674
 40
1.343611715349348
 40
1.343611715349348
 40
1.515417573024021
 40
1.515417573024021
 40
1.687223430698695
 40
1.687223430698695
 40
2.687223430698695
 40
2.687223430698695
 40
2.687223430698695
 10
49.7688335
 20
0.59186989616998
 30
0.0
 41
1.0
 10
43.9704335
 20
0.5918703961699796
 30
0.0
 41
1.0
 10
38.1720335
 20
0.5918708961699792
 30
0.0
 41
1.0
 10
38.08142427770605
 20
0.5918709039832746
 30
0.0
 41
0.9238795242615228
 10
38.01735387942153
 20
0.5278005112236015
 30
0.0
 41
1.0
 10
37.95328348113703
 20
0.463730118463928
 30
0.0
 41
0.9238795242615228
 10
37.95328348113703
 20
0.3731208961699792
 30
0.0
 41
1.0
 10
37.95328348113703
 20
0.2825116738760305
 30
0.0
 41
0.9238795242615228
 10
38.01735387942153
 20
0.2184412811163571
 30
0.0
 41
1.0
 10
38.08142427770605
 20
0.1543708883566837
 30
0.0
 41
0.9238795242615228
 10
38.1720335
 20
0.1543708961699792
 30
0.0
 41
1.0
 10
42.79638549999999
 20
0.1543708961699792
 30
0.0
 41
1.0
 10
47.42073749999999
 20
0.1543708961699792
 30
0.0
 41
1.0
  0
SPLINE
  5
5F
330
1F
100
AcDbEntity
  8
DEFAULT
100
AcDbSpline
210
0.0
220
0.0
230
1.0
 70
    12
 71
     3
 72
    67
 73
    63
 74
     0
 42
0.0000000001
 43
0.0000000001
 40
-19.07245951555935
 40
-19.07245951555935
 40
-19.07245951555935
 40
-19.07245951555935
 40
-17.0
 40
-17.0
 40
-17.0
 40
-16.0
 40
-15.0
 40
-14.0
 40
-13.0
 40
-12.0
 40
-11.0
 40
-10.0
 40
-9.0
 40
-8.0
 40
-7.0
 40
-6.0
 40
-5.0
 40
-4.0
 40
-3.0
 40
-2.0
 40
-1.0
 40
-0.0000000000000004
 40
-0.0000000000000004
 40
-0.0000000000000004
 40
0.9999999999999996
 40
2.0
 40
3.0
 40
4.0
 40
5.0
 40
6.0
 40
7.0
 40
7.0
 40
7.0
 40
8.0
 40
9.0
 40
10.0
 40
11.0
 40
12.0
 40
13.0
 40
14.0
 40
14.0
 40
14.0
 40
15.0
 40
16.0
 40
17.0
 40
18.0
 40
19.0
 40
20.0
 40
21.0
 40
22.0
 40
23.0
 40
24.0
 40
25.0
 40
26.0
 40
27.0
 40
28.0
 40
29.0
 40
30.0
 40
31.0
 40
31.0
 40
31.0
 40
33.07245951555934
 40
33.07245951555934
 40
33.07245951555934
 40
33.07245951555934
 10
7.567010956425673
 20
40.86684245554655
 30
0.0
 41
1.0
 10
7.556232808696954
 20
41.14623377336851
 30
0.0
 41
0.9999999470232502
 10
7.545343279524969
 20
41.42562077216619
 30
0.0
 41
0.9999999470232502
 10
7.534342370640388
 20
41.70500340753654
 30
0.0
 41
1.0
 10
7.521072016610737
 20
42.04202160484665
 30
0.0
 41
1.0
 10
7.494207148112586
 20
42.71604560421286
 30
0.0
 41
1.0
 10
7.453346447353807
 20
43.72705931601459
 30
0.0
 41
1.0
 10
7.412095015237401
 20
44.73805631369399
 30
0.0
 41
1.0
 10
7.370523856528292
 20
45.74904097607332
 30
0.0
 41
1.0
 10
7.328975533021297
 20
46.76002642665488
 30
0.0
 41
1.0
 10
7.287425924365889
 20
47.7710111664606
 30
0.0
 41
1.0
 10
7.245874515498049
 20
48.7819966991243
 30
0.0
 41
1.0
 10
7.204324558826427
 20
49.7929812713971
 30
0.0
 41
1.0
 10
7.162774963278779
 20
50.80396976230675
 30
0.0
 41
1.0
 10
7.12122450140764
 20
51.81494170044333
 30
0.0
 41
1.0
 10
7.079679592122424
 20
52.82597772776214
 30
0.0
 41
1.0
 10
7.038093413224682
 20
53.83677209530107
 30
0.0
 41
1.0
 10
6.996718847532087
 20
54.84847023714408
 30
0.0
 41
1.0
 10
6.95460511853493
 20
55.85679938244417
 30
0.0
 41
1.0
 10
6.916908956433877
 20
56.87776633019735
 30
0.0
 41
1.0
 10
6.448745324298334
 20
57.80314459899371
 30
0.0
 41
1.0
 10
5.94200624264004
 20
58.26234472849115
 30
0.0
 41
1.0
 10
5.652874289299998
 20
58.43719050895998
 30
0.0
 41
1.0
 10
5.431566570663064
 20
58.56997137538197
 30
0.0
 41
1.0
 10
4.949720606164438
 20
58.78274141780321
 30
0.0
 41
1.0
 10
4.171254963660925
 20
58.84032248614237
 30
0.0
 41
1.0
 10
3.395430378708796
 20
58.82476055923423
 30
0.0
 41
1.0
 10
2.618897517365968
 20
58.82838921224415
 30
0.0
 41
1.0
 10
1.842554589627274
 20
58.82724860286351
 30
0.0
 41
1.0
 10
1.066160061924024
 20
58.82729971280638
 30
0.0
 41
1.0
 10
0.5485744704645954
 20
58.82710931828302
 30
0.0
 41
1.0
 10
0.0
 20
58.82706051776998
 30
0.0
 41
1.0
 10
-0.5485744704645954
 20
58.82710931828302
 30
0.0
 41
1.0
 10
-1.066160061924024
 20
58.82729971280638
 30
0.0
 41
1.0
 10
-1.842554589627274
 20
58.82724860286351
 30
0.0
 41
1.0
 10
-2.618897517365968
 20
58.82838921224415
 30
0.0
 41
1.0
 10
-3.395430378708796
 20
58.82476055923423
 30
0.0
 41
1.0
 10
-4.171254963660925
 20
58.84032248614237
 30
0.0
 41
1.0
 10
-4.949720606164438
 20
58.78274141780321
 30
0.0
 41
1.0
 10
-5.431566570663064
 20
58.56997137538197
 30
0.0
 41
1.0
 10
-5.652874289299998
 20
58.43719050895998
 30
0.0
 41
1.0
 10
-5.94200624264004
 20
58.26234472849115
 30
0.0
 41
1.0
 10
-6.448745324298334
 20
57.80314459899371
 30
0.0
 41
1.0
 10
-6.916908956433877
 20
56.87776633019735
 30
0.0
 41
1.0
 10
-6.95460511853493
 20
55.85679938244417
 30
0.0
 41
1.0
 10
-6.996718847532087
 20
54.84847023714408
 30
0.0
 41
1.0
 10
-7.038093413224682
 20
53.83677209530107
 30
0.0
 41
1.0
 10
-7.079679592122424
 20
52.82597772776214
 30
0.0
 41
1.0
 10
-7.12122450140764
 20
51.81494170044333
 30
0.0
 41
1.0
 10
-7.162774963278779
 20
50.80396976230675
 30
0.0
 41
1.0
 10
-7.204324558826427
 20
49.7929812713971
 30
0.0
 41
1.0
 10
-7.245874515498049
 20
48.7819966991243
 30
0.0
 41
1.0
 10
-7.287425924365889
 20
47.7710111664606
 30
0.0
 41
1.0
 10
-7.328975533021297
 20
46.76002642665488
 30
0.0
 41
1.0
 10
-7.370523856528292
 20
45.74904097607332
 30
0.0
 41
1.0
 10
-7.412095015237401
 20
44.73805631369399
 30
0.0
 41
1.0
 10
-7.453346447353807
 20
43.72705931601459
 30
0.0
 41
1.0
 10
-7.494207148112586
 20
42.71604560421286
 30
0.0
 41
1.0
 10
-7.521072016610737
 20
42.04202160484665
 30
0.0
 41
1.0
 10
-7.534342370640161
 20
41.70500340753998
 30
0.0
 41
1.0
 10
-7.545343279524742
 20
41.42562077216963
 30
0.0
 41
0.9999999470232502
 10
-7.556232808696729
 20
41.14623377337195
 30
0.0
 41
0.9999999470232502
 10
-7.567010956425448
 20
40.86684245554999
 30
0.0
 41
1.0
  0
SPLINE
  5
60
330
1F
100
AcDbEntity
  8
DEFAULT
100
AcDbSpline
210
0.0
220
0.0
230
1.0
 70
     8
 71
     3
 72
    98
 73
    94
 74
     0
 42
0.0000000001
 43
0.0000000001
 40
-5.0
 40
-5.0
 40
-5.0
 40
-5.0
 40
-4.0
 40
-3.0
 40
-2.0
 40
-1.0
 40
0.0
 40
0.0
 40
0.0
 40
1.0
 40
2.0
 40
3.0
 40
4.0
 40
5.0
 40
5.0
 40
5.0
 40
6.0
 40
7.0
 40
8.0
 40
9.0
 40
10.0
 40
10.0
 40
10.0
 40
11.00000000375767
 40
12.00000000751535
 40
13.00000001127302
 40
14.00000001503069
 40
15.0
 40
15.0
 40
15.0
 40
16.00000019601454
 40
17.0000004429943
 40
18.00000068997407
 40
19.00000093695383
 40
20.0
 40
20.0
 40
20.0
 40
21.0
 40
21.0
 40
21.0
 40
22.0
 40
23.0
 40
24.0
 40
25.0
 40
26.0
 40
26.0
 40
26.0
 40
41.2588973917
 40
41.2588973917
 40
41.2588973917
 40
42.2588973917
 40
43.2588973917
 40
44.2588973917
 40
45.2588973917
 40
46.2588973917
 40
46.2588973917
 40
46.2588973917
 40
47.2588973917
 40
47.2588973917
 40
47.2588973917
 40
48.25889645474616
 40
49.25889670172593
 40
50.2588969487057
 40
51.25889719568546
 40
52.2588973917
 40
52.2588973917
 40
52.2588973917
 40
53.2588973766693
 40
54.25889738042698
 40
55.25889738418465
 40
56.25889738794233
 40
57.2588973917
 40
57.2588973917
 40
57.2588973917
 40
58.2588973917
 40
59.2588973917
 40
60.2588973917
 40
61.2588973917
 40
62.2588973917
 40
62.2588973917
 40
62.2588973917
 40
63.2588973917
 40
64.2588973917
 40
65.2588973917
 40
66.2588973917
 40
67.2588973917
 40
67.2588973917
 40
67.2588973917
 40
68.2588973917
 40
69.2588973917
 40
70.2588973917
 40
71.2588973917
 40
72.2588973917
 40
72.2588973917
 40
72.2588973917
 40
72.2588973917
 10
0.0017982346400025
 20
68.70297087139997
 30
0.0
 10
-0.5744383023042001
 20
68.70316513438722
 30
0.0
 10
-1.727036595660968
 20
68.68706758429991
 30
0.0
 10
-3.453348696369325
 20
68.58469254909699
 30
0.0
 10
-5.170247422572927
 20
68.37294037589928
 30
0.0
 10
-6.864443734530207
 20
68.02052002225804
 30
0.0
 10
-7.967478869461098
 20
67.68214285800596
 30
0.0
 10
-8.510243462641853
 20
67.4886350722152
 30
0.0
 10
-8.72570368461655
 20
67.41039046907305
 30
0.0
 10
-9.157699346088219
 20
67.25519679954351
 30
0.0
 10
-9.778141097824314
 20
66.95560302037283
 30
0.0
 10
-10.3587387832347
 20
66.58402591215687
 30
0.0
 10
-10.87669454428826
 20
66.12692320081534
 30
0.0
 10
-11.13990636523556
 20
65.7444705242313
 30
0.0
 10
-11.22269949972
 20
65.52972555180997
 30
0.0
 10
-11.47247992121777
 20
64.875138129218
 30
0.0
 10
-11.97439888688577
 20
63.5669734455437
 30
0.0
 10
-12.71844443121838
 20
61.6009529582244
 30
0.0
 10
-13.49079532877966
 20
59.64702282655634
 30
0.0
 10
-14.15867161937894
 20
57.64847088929957
 30
0.0
 10
-14.27661075559521
 20
56.2416286889019
 30
0.0
 10
-14.33899925149
 20
55.54545838191997
 30
0.0
 10
-14.39513070507995
 20
54.84343676809769
 30
0.0
 10
-14.46968730924326
 20
53.5255727878018
 30
0.0
 10
-14.59107329078935
 20
51.54944102210365
 30
0.0
 10
-14.70975529692114
 20
49.57312247702808
 30
0.0
 10
-14.82927479852971
 20
47.5968608124383
 30
0.0
 10
-14.90874706254005
 20
46.27933924403028
 30
0.0
 10
-14.948528650285
 20
45.62058157086498
 30
0.0
 10
-14.96317662570072
 20
45.37738553183083
 30
0.0
 10
-14.97724441300307
 20
44.8892278505009
 30
0.0
 10
-14.91762382948954
 20
44.16024571126201
 30
0.0
 10
-14.69090349231919
 20
43.44893602071589
 30
0.0
 10
-14.15078210051122
 20
42.92688733551412
 30
0.0
 10
-13.69387841678847
 20
42.74226859817645
 30
0.0
 10
-13.467141717225
 20
42.65488452728998
 30
0.0
 10
-12.60920560557833
 20
42.33040203075664
 30
0.0
 10
-11.75126949393166
 20
42.00591953422331
 30
0.0
 10
-10.893333382285
 20
41.68143703768998
 30
0.0
 10
-10.68200370022053
 20
41.60112461949378
 30
0.0
 10
-10.25814348005938
 20
41.44360413964415
 30
0.0
 10
-9.626996509570532
 20
41.19542789821522
 30
0.0
 10
-8.980390978427817
 20
40.98694677143138
 30
0.0
 10
-8.307583374703063
 20
40.88595824293785
 30
0.0
 10
-7.855537445300441
 20
40.86775884172722
 30
0.0
 10
-7.629448695849998
 20
40.86684245554997
 30
0.0
 10
-2.543149565283333
 20
40.86684245554997
 30
0.0
 10
2.543149565283333
 20
40.86684245554997
 30
0.0
 10
7.629448695849998
 20
40.86684245554997
 30
0.0
 10
7.855537445300441
 20
40.86775884172722
 30
0.0
 10
8.307583374703063
 20
40.88595824293785
 30
0.0
 10
8.980390978427817
 20
40.98694677143138
 30
0.0
 10
9.626996509570532
 20
41.19542789821522
 30
0.0
 10
10.25814348005938
 20
41.44360413964415
 30
0.0
 10
10.68200370022053
 20
41.60112461949378
 30
0.0
 10
10.893333382285
 20
41.68143703768998
 30
0.0
 10
11.75126949393166
 20
42.00591953422331
 30
0.0
 10
12.60920560557833
 20
42.33040203075664
 30
0.0
 10
13.467141717225
 20
42.65488452728998
 30
0.0
 10
13.69387841678847
 20
42.74226859817645
 30
0.0
 10
14.15078210051122
 20
42.92688733551412
 30
0.0
 10
14.69090349231919
 20
43.44893602071589
 30
0.0
 10
14.91762382948954
 20
44.16024571126201
 30
0.0
 10
14.97724441300307
 20
44.8892278505009
 30
0.0
 10
14.96317662570072
 20
45.37738553183083
 30
0.0
 10
14.948528650285
 20
45.62058157086498
 30
0.0
 10
14.90874706254005
 20
46.27933924403028
 30
0.0
 10
14.82927479852971
 20
47.5968608124383
 30
0.0
 10
14.70975529692114
 20
49.57312247702808
 30
0.0
 10
14.59107329078935
 20
51.54944102210365
 30
0.0
 10
14.46968730924326
 20
53.5255727878018
 30
0.0
 10
14.39513070507995
 20
54.84343676809769
 30
0.0
 10
14.33899925149
 20
55.54545838191997
 30
0.0
 10
14.27661075559521
 20
56.2416286889019
 30
0.0
 10
14.15867161937894
 20
57.64847088929957
 30
0.0
 10
13.49079532877966
 20
59.64702282655634
 30
0.0
 10
12.71844443121838
 20
61.6009529582244
 30
0.0
 10
11.97439888688577
 20
63.5669734455437
 30
0.0
 10
11.47247992121777
 20
64.875138129218
 30
0.0
 10
11.22269949972
 20
65.52972555180997
 30
0.0
 10
11.13990636523556
 20
65.7444705242313
 30
0.0
 10
10.87669454428826
 20
66.12692320081534
 30
0.0
 10
10.3587387832347
 20
66.58402591215687
 30
0.0
 10
9.778141097824314
 20
66.95560302037283
 30
0.0
 10
9.157699346088219
 20
67.25519679954351
 30
0.0
 10
8.72570368461655
 20
67.41039046907305
 30
0.0
 10
8.510243462641853
 20
67.4886350722152
 30
0.0
 10
7.967478869461098
 20
67.68214285800596
 30
0.0
 10
6.864443734530207
 20
68.02052002225804
 30
0.0
 10
5.170247422572927
 20
68.37294037589928
 30
0.0
 10
3.453348696369325
 20
68.58469254909699
 30
0.0
 10
1.727036595660968
 20
68.68706758429991
 30
0.0
 10
0.5744383023042001
 20
68.70316513438722
 30
0.0
 10
-0.0017982346400025
 20
68.70297087139997
 30
0.0
  0
SPLINE
  5
61
330
1F
100
AcDbEntity
  8
DEFAULT
100
AcDbSpline
210
0.0
220
0.0
230
1.0
 70
     8
 71
     3
 72
    98
 73
    94
 74
     0
 42
0.0000000001
 43
0.0000000001
 40
0.0
 40
0.0
 40
0.0
 40
0.0
 40
1.000000034485611
 40
2.000000068971222
 40
3.000000103456832
 40
4.000000137942443
 40
5.0
 40
5.0
 40
5.0
 40
5.999999510656764
 40
6.999999632992573
 40
7.999999755328382
 40
8.999999877664191
 40
10.0
 40
10.0
 40
10.0
 40
11.0
 40
12.0
 40
13.0
 40
14.0
 40
15.0
 40
15.0
 40
15.0
 40
16.0
 40
16.0
 40
16.0
 40
17.00000007181335
 40
18.00000014362669
 40
19.00000021544004
 40
20.00000028725338
 40
21.0
 40
21.0
 40
21.0
 40
21.9999993131086
 40
22.99999987180565
 40
24.00000043050269
 40
25.00000098919973
 40
26.0
 40
26.0
 40
26.0
 40
26.99999943418893
 40
27.9999995756417
 40
28.99999971709447
 40
29.99999985854723
 40
31.0
 40
31.0
 40
31.0
 40
46.25949141732
 40
46.25949141732
 40
46.25949141732
 40
47.25949155877277
 40
48.25949170022553
 40
49.2594918416783
 40
50.25949198313107
 40
51.25949141732
 40
51.25949141732
 40
51.25949141732
 40
52.25949042812027
 40
53.25949098681731
 40
54.25949154551435
 40
55.2594921042114
 40
56.25949141732
 40
56.25949141732
 40
56.25949141732
 40
57.25949113006662
 40
58.25949120187997
 40
59.25949127369331
 40
60.25949134550665
 40
61.25949141732
 40
61.25949141732
 40
61.25949141732
 40
62.25949141732
 40
62.25949141732
 40
62.25949141732
 40
63.25949141732
 40
64.25949141731999
 40
65.25949141731999
 40
66.25949141731999
 40
67.25949141731999
 40
67.25949141731999
 40
67.25949141731999
 40
68.2594915396558
 40
69.2594916619916
 40
70.25949178432742
 40
71.25949190666323
 40
72.25949141731999
 40
72.25949141731999
 40
72.25949141731999
 40
73.25949127937756
 40
74.25949131386317
 40
75.25949134834877
 40
76.25949138283438
 40
77.25949141731999
 40
77.25949141731999
 40
77.25949141731999
 40
77.25949141731999
 10
0.0021851776300004
 20
70.21430702554997
 30
0.0
 10
-0.6272808063371442
 20
70.21448226186806
 30
0.0
 10
-1.886315132124594
 20
70.18927403247903
 30
0.0
 10
-3.770716071003114
 20
70.05458280875956
 30
0.0
 10
-5.642599751514719
 20
69.79525768862442
 30
0.0
 10
-7.486776577341088
 20
69.37941272970039
 30
0.0
 10
-8.682644949913874
 20
68.98053502092232
 30
0.0
 10
-9.268778761779998
 20
68.75102080233998
 30
0.0
 10
-9.438049335587486
 20
68.68474814608456
 30
0.0
 10
-9.769399097699281
 20
68.53377154782743
 30
0.0
 10
-10.23782751738218
 20
68.25271778206367
 30
0.0
 10
-10.66831263932849
 20
67.91597386802043
 30
0.0
 10
-11.04527072561799
 20
67.51935202192784
 30
0.0
 10
-11.23754588109222
 20
67.20700993890176
 30
0.0
 10
-11.300690469905
 20
67.03603999273997
 30
0.0
 10
-11.55626382527121
 20
66.33027409013908
 30
0.0
 10
-12.07694176774835
 20
64.92152471511847
 30
0.0
 10
-12.82221676456363
 20
62.7979660882243
 30
0.0
 10
-13.68186527558904
 20
60.7077997702844
 30
0.0
 10
-14.11976172687094
 20
58.49449856056381
 30
0.0
 10
-14.30294263107579
 20
57.00395342078347
 30
0.0
 10
-14.3534755
 20
56.25468989616998
 30
0.0
 10
-14.36585491849861
 20
56.07113715249251
 30
0.0
 10
-14.37705637880925
 20
55.88750556841676
 30
0.0
 10
-14.3880045
 20
55.70386189616998
 30
0.0
 10
-14.43092179419776
 20
54.98396764472247
 30
0.0
 10
-14.51844851960862
 20
53.54427626594812
 30
0.0
 10
-14.64817824445315
 20
51.38465829475611
 30
0.0
 10
-14.78045423106093
 20
49.22515183294825
 30
0.0
 10
-14.9041286741527
 20
47.06528283757903
 30
0.0
 10
-15.00781824061196
 20
45.62626256712712
 30
0.0
 10
-15.020226662245
 20
44.90509367603498
 30
0.0
 10
-15.02094119713825
 20
44.69654443577154
 30
0.0
 10
-15.00948958258155
 20
44.27913879978968
 30
0.0
 10
-14.90059232365626
 20
43.65948332685955
 30
0.0
 10
-14.61045319791483
 20
43.09187725108225
 30
0.0
 10
-14.11682013202692
 20
42.68994852407619
 30
0.0
 10
-13.7295821615118
 20
42.52883123825944
 30
0.0
 10
-13.534981159145
 20
42.45455994366998
 30
0.0
 10
-13.14769001119793
 20
42.30833795318448
 30
0.0
 10
-12.37345299353248
 20
42.01551361112766
 30
0.0
 10
-11.21107027972279
 20
41.57699194675948
 30
0.0
 10
-10.05190104166296
 20
41.13637649778797
 30
0.0
 10
-8.881098590103738
 20
40.7029059431278
 30
0.0
 10
-8.041888742027549
 20
40.67906257351835
 30
0.0
 10
-7.62974570866
 20
40.67427502589997
 30
0.0
 10
-2.543248569553333
 20
40.67427502589997
 30
0.0
 10
2.543248569553333
 20
40.67427502589997
 30
0.0
 10
7.62974570866
 20
40.67427502589997
 30
0.0
 10
8.041888742027549
 20
40.67906257351835
 30
0.0
 10
8.881098590103738
 20
40.7029059431278
 30
0.0
 10
10.05190104166296
 20
41.13637649778797
 30
0.0
 10
11.21107027972279
 20
41.57699194675948
 30
0.0
 10
12.37345299353248
 20
42.01551361112766
 30
0.0
 10
13.14769001119793
 20
42.30833795318448
 30
0.0
 10
13.534981159145
 20
42.45455994366998
 30
0.0
 10
13.7295821615118
 20
42.52883123825944
 30
0.0
 10
14.11682013202692
 20
42.68994852407619
 30
0.0
 10
14.61045319791483
 20
43.09187725108225
 30
0.0
 10
14.90059232365626
 20
43.65948332685955
 30
0.0
 10
15.00948958258155
 20
44.27913879978968
 30
0.0
 10
15.02094119713825
 20
44.69654443577154
 30
0.0
 10
15.020226662245
 20
44.90509367603498
 30
0.0
 10
15.00781824061196
 20
45.62626256712712
 30
0.0
 10
14.9041286741527
 20
47.06528283757903
 30
0.0
 10
14.78045423106093
 20
49.22515183294825
 30
0.0
 10
14.64817824445315
 20
51.38465829475611
 30
0.0
 10
14.51844851960862
 20
53.54427626594812
 30
0.0
 10
14.43092179419776
 20
54.98396764472247
 30
0.0
 10
14.3880045
 20
55.70386189616998
 30
0.0
 10
14.37705637880925
 20
55.88750556841676
 30
0.0
 10
14.36585491849861
 20
56.07113715249251
 30
0.0
 10
14.3534755
 20
56.25468989616998
 30
0.0
 10
14.30294263107579
 20
57.00395342078347
 30
0.0
 10
14.11976172687094
 20
58.49449856056381
 30
0.0
 10
13.68186527558904
 20
60.7077997702844
 30
0.0
 10
12.82221676456363
 20
62.7979660882243
 30
0.0
 10
12.07694176774835
 20
64.92152471511847
 30
0.0
 10
11.55626382527121
 20
66.33027409013908
 30
0.0
 10
11.300690469905
 20
67.03603999273997
 30
0.0
 10
11.23754588109222
 20
67.20700993890176
 30
0.0
 10
11.04527072561799
 20
67.51935202192784
 30
0.0
 10
10.66831263932849
 20
67.91597386802043
 30
0.0
 10
10.23782751738218
 20
68.25271778206367
 30
0.0
 10
9.769399097699281
 20
68.53377154782743
 30
0.0
 10
9.438049335587486
 20
68.68474814608456
 30
0.0
 10
9.268778761779998
 20
68.75102080233998
 30
0.0
 10
8.682644949913874
 20
68.98053502092232
 30
0.0
 10
7.486776577341088
 20
69.37941272970039
 30
0.0
 10
5.642599751514719
 20
69.79525768862442
 30
0.0
 10
3.770716071003114
 20
70.05458280875956
 30
0.0
 10
1.886315132124594
 20
70.18927403247903
 30
0.0
 10
0.6272808063371442
 20
70.21448226186806
 30
0.0
 10
-0.0021851776300004
 20
70.21430702554997
 30
0.0
  0
SPLINE
  5
62
330
1F
100
AcDbEntity
  8
DEFAULT
100
AcDbSpline
210
0.0
220
0.0
230
1.0
 70
    12
 71
     3
 72
    61
 73
    57
 74
     0
 42
0.0000000001
 43
0.0000000001
 40
-1.16706937654664
 40
-1.16706937654664
 40
-1.16706937654664
 40
-1.16706937654664
 40
-0.0000000000000001
 40
-0.0000000000000001
 40
-0.0000000000000001
 40
0.1903675514905999
 40
0.4201232309727999
 40
0.5553323926919
 40
0.7018010131501
 40
0.8526587640106
 40
1.0
 40
1.0
 40
1.0
 40
1.002880196662538
 40
1.002880196662538
 40
1.002880196662538
 40
2.002880196662538
 40
2.002880196662538
 40
2.002880196662538
 40
3.002880196662538
 40
3.002880196662538
 40
3.002880196662538
 40
4.002880196662538
 40
4.002880196662538
 40
4.002880196662538
 40
5.002880196662538
 40
5.002880196662538
 40
5.002880196662538
 40
5.018633067050105
 40
5.034394248339885
 40
5.050096729107923
 40
5.065724097222331
 40
5.081327711204267
 40
5.096903208239825
 40
5.127954452921116
 40
5.143471909398293
 40
5.159009706486704
 40
5.190179221153291
 40
5.221444546612845
 40
5.252535213248994
 40
5.313839039375369
 40
5.344942936356241
 40
5.377692460773575
 40
5.41316359818804
 40
5.451326591585485
 40
5.492192227656828
 40
5.53593315776217
 40
5.580338076850866
 40
5.623088391003986
 40
5.700825697681429
 40
5.768105251109492
 40
5.826680481366122
 40
5.877637107020409
 40
5.921290861524199
 40
5.962015890649097
 40
6.002880196662538
 40
6.002880196662538
 40
6.002880196662538
 40
6.002880196662538
 10
6.332686428761588
 20
16.49861890073817
 30
0.0
 41
1.0
 10
6.414917336737408
 20
16.79730387051983
 30
0.0
 41
0.9999298762139867
 10
6.492807527315269
 20
17.0971500837888
 30
0.0
 41
0.9999298762139867
 10
6.566340614630004
 20
17.39809446149001
 30
0.0
 41
1.0
 10
6.596325599339995
 20
17.52081217800998
 30
0.0
 41
1.0
 10
6.660898245239995
 20
17.79203193666998
 30
0.0
 41
1.0
 10
6.741413754029995
 20
18.15166437857998
 30
0.0
 41
1.0
 10
6.811109285109996
 20
18.48382379952998
 30
0.0
 41
1.0
 10
6.866811443529997
 20
18.76540626989998
 30
0.0
 41
1.0
 10
6.919922885609996
 20
19.05567941833998
 30
0.0
 41
1.0
 10
6.952148774829997
 20
19.25093903090998
 30
0.0
 41
1.0
 10
6.966943450888884
 20
19.34758994303582
 30
0.0
 41
1.0
 10
6.969264209544229
 20
19.36278998091639
 30
0.0
 41
0.9999993087057183
 10
6.971563076251457
 20
19.37799334515492
 30
0.0
 41
0.9999993087057183
 10
6.973840046242996
 20
19.39320000422141
 30
0.0
 41
1.0
 10
6.974803613698662
 20
19.3998426607876
 30
0.0
 41
1.0
 10
6.975767181154329
 20
19.40648531735379
 30
0.0
 41
1.0
 10
6.976730748609995
 20
19.41312797391998
 30
0.0
 41
1.0
 10
6.977539248609996
 20
19.41855997391998
 30
0.0
 41
1.0
 10
6.978347748609996
 20
19.42399197391998
 30
0.0
 41
1.0
 10
6.979156248609996
 20
19.42942397391998
 30
0.0
 41
1.0
 10
6.98140858194333
 20
19.44458797391998
 30
0.0
 41
1.0
 10
6.983660915276663
 20
19.45975197391998
 30
0.0
 41
1.0
 10
6.985913248609997
 20
19.47491597391998
 30
0.0
 41
1.0
 10
6.986882316723329
 20
19.48145895567498
 30
0.0
 41
1.0
 10
6.987851384836663
 20
19.48800193742997
 30
0.0
 41
1.0
 10
6.988820452949996
 20
19.49454491918497
 30
0.0
 41
1.0
 10
6.999534204586009
 20
19.56691639622631
 30
0.0
 41
1.0
 10
7.020797984698093
 20
19.71172263795032
 30
0.0
 41
1.0
 10
7.052251888109996
 20
19.92874033376998
 30
0.0
 41
1.0
 10
7.083342891089995
 20
20.14522142678998
 30
0.0
 41
1.0
 10
7.114054993919996
 20
20.36101763220998
 30
0.0
 41
1.0
 10
7.144084619969995
 20
20.57631446645998
 30
0.0
 41
1.0
 10
7.183579167239994
 20
20.86261628215998
 30
0.0
 41
1.0
 10
7.222816983439994
 20
21.14854965750998
 30
0.0
 41
1.0
 10
7.261592776959997
 20
21.43436929107998
 30
0.0
 41
1.0
 10
7.300119019609994
 20
21.72077689127998
 30
0.0
 41
1.0
 10
7.347875560669994
 20
22.07973831253998
 30
0.0
 41
1.0
 10
7.404572373739995
 20
22.51037761139998
 30
0.0
 41
1.0
 10
7.478880263389996
 20
23.07985678053998
 30
0.0
 41
1.0
 10
7.552319832429994
 20
23.64869273234997
 30
0.0
 41
1.0
 10
7.626427158809996
 20
24.22521025840998
 30
0.0
 41
1.0
 10
7.685192501959996
 20
24.68273943497998
 30
0.0
 41
1.0
 10
7.748207826809995
 20
25.17277622928998
 30
0.0
 41
1.0
 10
7.816271802509995
 20
25.70016736550998
 30
0.0
 41
1.0
 10
7.889803836789994
 20
26.26557815184998
 30
0.0
 41
1.0
 10
7.968056425019995
 20
26.85960750930998
 30
0.0
 41
1.0
 10
8.048750539219995
 20
27.46214280334998
 30
0.0
 41
1.0
 10
8.152603041739997
 20
28.22087047752997
 30
0.0
 41
1.0
 10
8.274966182069996
 20
29.08428819235998
 30
0.0
 41
1.0
 10
8.415178123449994
 20
30.01937764417998
 30
0.0
 41
1.0
 10
8.544142999679995
 20
30.83035449251998
 30
0.0
 41
1.0
 10
8.662378485849995
 20
31.53190266958997
 30
0.0
 41
1.0
 10
8.772525241269996
 20
32.15071588920998
 30
0.0
 41
1.0
 10
8.879781032609994
 20
32.72240931511998
 30
0.0
 41
1.0
 10
8.953474569809995
 20
33.09410519943998
 30
0.0
 41
1.0
 10
8.991552499999997
 20
33.28002989616998
 30
0.0
 41
1.0
  0
SPLINE
  5
63
330
1F
100
AcDbEntity
  8
DEFAULT
100
AcDbSpline
210
0.0
220
0.0
230
1.0
 70
    12
 71
     3
 72
    61
 73
    57
 74
     0
 42
0.0000000001
 43
0.0000000001
 40
-1.16706937654664
 40
-1.16706937654664
 40
-1.16706937654664
 40
-1.16706937654664
 40
-0.0000000000000001
 40
-0.0000000000000001
 40
-0.0000000000000001
 40
0.1903675514905999
 40
0.4201232309727999
 40
0.5553323926919
 40
0.7018010131501
 40
0.8526587640106
 40
1.0
 40
1.0
 40
1.0
 40
1.002880196662538
 40
1.002880196662538
 40
1.002880196662538
 40
2.002880196662538
 40
2.002880196662538
 40
2.002880196662538
 40
3.002880196662538
 40
3.002880196662538
 40
3.002880196662538
 40
4.002880196662538
 40
4.002880196662538
 40
4.002880196662538
 40
5.002880196662538
 40
5.002880196662538
 40
5.002880196662538
 40
5.018633067050105
 40
5.034394248339885
 40
5.050096729107923
 40
5.065724097222331
 40
5.081327711204267
 40
5.096903208239825
 40
5.127954452921116
 40
5.143471909398293
 40
5.159009706486704
 40
5.190179221153291
 40
5.221444546612845
 40
5.252535213248994
 40
5.313839039375369
 40
5.344942936356241
 40
5.377692460773575
 40
5.41316359818804
 40
5.451326591585485
 40
5.492192227656828
 40
5.53593315776217
 40
5.580338076850866
 40
5.623088391003986
 40
5.700825697681429
 40
5.768105251109492
 40
5.826680481366122
 40
5.877637107020409
 40
5.921290861524199
 40
5.962015890649097
 40
6.002880196662538
 40
6.002880196662538
 40
6.002880196662538
 40
6.002880196662538
 10
-6.332686428761583
 20
16.49861890073814
 30
0.0
 41
1.0
 10
-6.414917336737404
 20
16.7973038705198
 30
0.0
 41
0.9999298762139867
 10
-6.492807527315265
 20
17.09715008378878
 30
0.0
 41
0.9999298762139867
 10
-6.566340614630001
 20
17.39809446148998
 30
0.0
 41
1.0
 10
-6.596325599339995
 20
17.52081217800998
 30
0.0
 41
1.0
 10
-6.660898245239995
 20
17.79203193666998
 30
0.0
 41
1.0
 10
-6.741413754029995
 20
18.15166437857998
 30
0.0
 41
1.0
 10
-6.811109285109996
 20
18.48382379952998
 30
0.0
 41
1.0
 10
-6.866811443529997
 20
18.76540626989998
 30
0.0
 41
1.0
 10
-6.919922885609996
 20
19.05567941833998
 30
0.0
 41
1.0
 10
-6.952148774829997
 20
19.25093903090998
 30
0.0
 41
1.0
 10
-6.966943450888884
 20
19.34758994303582
 30
0.0
 41
1.0
 10
-6.969264209544229
 20
19.36278998091639
 30
0.0
 41
0.9999993087057183
 10
-6.971563076251457
 20
19.37799334515492
 30
0.0
 41
0.9999993087057183
 10
-6.973840046242996
 20
19.39320000422141
 30
0.0
 41
1.0
 10
-6.974803613698662
 20
19.3998426607876
 30
0.0
 41
1.0
 10
-6.975767181154329
 20
19.40648531735379
 30
0.0
 41
1.0
 10
-6.976730748609995
 20
19.41312797391998
 30
0.0
 41
1.0
 10
-6.977539248609996
 20
19.41855997391998
 30
0.0
 41
1.0
 10
-6.978347748609996
 20
19.42399197391998
 30
0.0
 41
1.0
 10
-6.979156248609996
 20
19.42942397391998
 30
0.0
 41
1.0
 10
-6.98140858194333
 20
19.44458797391998
 30
0.0
 41
1.0
 10
-6.983660915276663
 20
19.45975197391998
 30
0.0
 41
1.0
 10
-6.985913248609997
 20
19.47491597391998
 30
0.0
 41
1.0
 10
-6.986882316723329
 20
19.48145895567498
 30
0.0
 41
1.0
 10
-6.987851384836663
 20
19.48800193742997
 30
0.0
 41
1.0
 10
-6.988820452949996
 20
19.49454491918497
 30
0.0
 41
1.0
 10
-6.999534204586009
 20
19.56691639622631
 30
0.0
 41
1.0
 10
-7.020797984698093
 20
19.71172263795032
 30
0.0
 41
1.0
 10
-7.052251888109996
 20
19.92874033376998
 30
0.0
 41
1.0
 10
-7.083342891089995
 20
20.14522142678998
 30
0.0
 41
1.0
 10
-7.114054993919996
 20
20.36101763220998
 30
0.0
 41
1.0
 10
-7.144084619969995
 20
20.57631446645998
 30
0.0
 41
1.0
 10
-7.183579167239994
 20
20.86261628215998
 30
0.0
 41
1.0
 10
-7.222816983439994
 20
21.14854965750998
 30
0.0
 41
1.0
 10
-7.261592776959997
 20
21.43436929107998
 30
0.0
 41
1.0
 10
-7.300119019609994
 20
21.72077689127998
 30
0.0
 41
1.0
 10
-7.347875560669994
 20
22.07973831253998
 30
0.0
 41
1.0
 10
-7.404572373739995
 20
22.51037761139998
 30
0.0
 41
1.0
 10
-7.478880263389996
 20
23.07985678053998
 30
0.0
 41
1.0
 10
-7.552319832429994
 20
23.64869273234997
 30
0.0
 41
1.0
 10
-7.626427158809996
 20
24.22521025840998
 30
0.0
 41
1.0
 10
-7.685192501959996
 20
24.68273943497998
 30
0.0
 41
1.0
 10
-7.748207826809995
 20
25.17277622928998
 30
0.0
 41
1.0
 10
-7.816271802509995
 20
25.70016736550998
 30
0.0
 41
1.0
 10
-7.889803836789994
 20
26.26557815184998
 30
0.0
 41
1.0
 10
-7.968056425019995
 20
26.85960750930998
 30
0.0
 41
1.0
 10
-8.048750539219995
 20
27.46214280334998
 30
0.0
 41
1.0
 10
-8.152603041739997
 20
28.22087047752997
 30
0.0
 41
1.0
 10
-8.274966182069996
 20
29.08428819235998
 30
0.0
 41
1.0
 10
-8.415178123449994
 20
30.01937764417998
 30
0.0
 41
1.0
 10
-8.544142999679995
 20
30.83035449251998
 30
0.0
 41
1.0
 10
-8.662378485849995
 20
31.53190266958997
 30
0.0
 41
1.0
 10
-8.772525241269996
 20
32.15071588920998
 30
0.0
 41
1.0
 10
-8.879781032609994
 20
32.72240931511998
 30
0.0
 41
1.0
 10
-8.953474569809995
 20
33.09410519943998
 30
0.0
 41
1.0
 10
-8.991552499999997
 20
33.28002989616998
 30
0.0
 41
1.0
  0
SPLINE
  5
64
330
1F
100
AcDbEntity
  8
DEFAULT
100
AcDbSpline
210
0.0
220
0.0
230
1.0
 70
     8
 71
     3
 72
    12
 73
     8
 74
     0
 42
0.0000000001
 43
0.0000000001
 40
0.0
 40
0.0
 40
0.0
 40
0.0
 40
1.0
 40
2.0
 40
3.0
 40
4.0
 40
5.0
 40
5.0
 40
5.0
 40
5.0
 10
4.47044024729
 20
0.1543818972009809
 30
0.0
 10
4.427240970173407
 20
0.1540674724241196
 30
0.0
 10
4.343386056250307
 20
0.1900752811723382
 30
0.0
 10
4.276934617576914
 20
0.3067828837402209
 30
0.0
 10
4.276914982619749
 20
0.4394572264825651
 30
0.0
 10
4.343387507568558
 20
0.556164682309417
 30
0.0
 10
4.427242954315623
 20
0.5921598507590866
 30
0.0
 10
4.470440499999999
 20
0.5918708961699792
 30
0.0
  0
SPLINE
  5
65
330
1F
100
AcDbEntity
  8
DEFAULT
100
AcDbSpline
210
0.0
220
0.0
230
1.0
 70
     8
 71
     3
 72
    12
 73
     8
 74
     0
 42
0.0000000001
 43
0.0000000001
 40
0.0
 40
0.0
 40
0.0
 40
0.0
 40
1.0
 40
2.0
 40
3.0
 40
4.0
 40
5.0
 40
5.0
 40
5.0
 40
5.0
 10
-4.47044024729
 20
0.1543818972009809
 30
0.0
 10
-4.427240970173407
 20
0.1540674724241196
 30
0.0
 10
-4.343386056250307
 20
0.1900752811723382
 30
0.0
 10
-4.276934617576914
 20
0.3067828837402209
 30
0.0
 10
-4.276914982619749
 20
0.4394572264825651
 30
0.0
 10
-4.343387507568558
 20
0.556164682309417
 30
0.0
 10
-4.427242954315623
 20
0.5921598507590866
 30
0.0
 10
-4.470440499999999
 20
0.5918708961699792
 30
0.0
  0
SPLINE
  5
66
330
1F
100
AcDbEntity
  8
DEFAULT
100
AcDbSpline
210
0.0
220
0.0
230
1.0
 70
     8
 71
     3
 72
    12
 73
     8
 74
     0
 42
0.0000000001
 43
0.0000000001
 40
0.0
 40
0.0
 40
0.0
 40
0.0
 40
1.0
 40
2.0
 40
3.0
 40
4.0
 40
5.0
 40
5.0
 40
5.0
 40
5.0
 10
7.990280129039999
 20
0.00312062644098
 30
0.0
 10
8.00469031198883
 20
0.0031167129870106
 30
0.0
 10
8.033372335142571
 20
0.0094837952316834
 30
0.0
 10
8.069532626414292
 20
0.0344280720805737
 30
0.0
 10
8.094923600967077
 20
0.0700573793898596
 30
0.0
 10
8.109032180661272
 20
0.1112397147013366
 30
0.0
 10
8.112306602815295
 20
0.1399772147007681
 30
0.0
 10
8.11277779816
 20
0.1543622257479793
 30
0.0
  0
SPLINE
  5
67
330
1F
100
AcDbEntity
  8
DEFAULT
100
AcDbSpline
210
0.0
220
0.0
230
1.0
 70
     8
 71
     3
 72
    22
 73
    18
 74
     0
 42
0.0000000001
 43
0.0000000001
 40
0.0
 40
0.0
 40
0.0
 40
0.0
 40
1.000200765503769
 40
2.000401531007538
 40
3.000602296511306
 40
4.000803062015075
 40
5.0
 40
5.0
 40
5.0
 40
6.0
 40
6.0
 40
6.0
 40
6.999196938524812
 40
7.999397703893609
 40
8.999598469262406
 40
9.999799234631203
 40
11.0
 40
11.0
 40
11.0
 40
11.0
 10
8.9731995
 20
0.1543708961699792
 30
0.0
 10
8.968023702282203
 20
0.1363167896850115
 30
0.0
 10
8.951756835261824
 20
0.1020285621513838
 30
0.0
 10
8.91409173839511
 20
0.0594890461100796
 30
0.0
 10
8.867160190868393
 20
0.027631934653155
 30
0.0
 10
8.81410069232677
 20
0.0075533459221667
 30
0.0
 10
8.776545764623561
 20
0.0033014669095777
 30
0.0
 10
8.757800999999999
 20
0.00312089616998
 30
0.0
 10
8.430304333333332
 20
0.00312089616998
 30
0.0
 10
8.102807666666665
 20
0.00312089616998
 30
0.0
 10
7.775310999999999
 20
0.00312089616998
 30
0.0
 10
7.756566224729299
 20
0.0033015764396875
 30
0.0
 10
7.719011015917641
 20
0.0075528885942454
 30
0.0
 10
7.665951773460919
 20
0.0276322685704915
 30
0.0
 10
7.619019297413439
 20
0.0594883326918133
 30
0.0
 10
7.581355374130064
 20
0.1020290272538433
 30
0.0
 10
7.565086978060156
 20
0.1363165454637284
 30
0.0
 10
7.559911499999998
 20
0.1543708961699792
 30
0.0
  0
SPLINE
  5
68
330
1F
100
AcDbEntity
  8
DEFAULT
100
AcDbSpline
210
0.0
220
0.0
230
1.0
 70
     8
 71
     3
 72
    15
 73
    11
 74
     0
 42
0.0000000001
 43
0.0000000001
 40
0.0
 40
0.0
 40
0.0
 40
0.0
 40
1.0
 40
1.0
 40
1.0
 40
2.0
 40
3.0
 40
4.0
 40
5.0
 40
6.0
 40
6.0
 40
6.0
 40
6.0
 10
9.428087499999997
 20
0.5193468961699796
 30
0.0
 10
9.701778229119997
 20
0.5193469203974796
 30
0.0
 10
9.975468958239999
 20
0.5193469446249797
 30
0.0
 10
10.24915968736
 20
0.5193469688524797
 30
0.0
 10
10.27483748889485
 20
0.488771563107925
 30
0.0
 10
10.26803060657409
 20
0.4064843573852261
 30
0.0
 10
10.26399238924181
 20
0.2911315872544594
 30
0.0
 10
10.24370869924512
 20
0.1757481115830268
 30
0.0
 10
10.25798756589902
 20
0.0545465439120673
 30
0.0
 10
10.3283633697782
 20
0.0026421162234481
 30
0.0
 10
10.3683511705
 20
0.00312062644098
 30
0.0
  0
SPLINE
  5
69
330
1F
100
AcDbEntity
  8
DEFAULT
100
AcDbSpline
210
0.0
220
0.0
230
1.0
 70
     8
 71
     3
 72
    46
 73
    42
 74
     0
 42
0.0000000001
 43
0.0000000001
 40
0.0
 40
0.0
 40
0.0
 40
0.0
 40
1.000205839541415
 40
2.000411679082829
 40
3.000617518624244
 40
4.000823358165658
 40
5.0
 40
5.0
 40
5.0
 40
6.0
 40
6.0
 40
6.0
 40
6.999243628700714
 40
7.999435039265704
 40
8.999626449830695
 40
9.999817860395686
 40
11.0
 40
11.0
 40
11.0
 40
11.99998715702564
 40
12.99999036776923
 40
13.99999357851282
 40
14.99999678925641
 40
16.0
 40
16.0
 40
16.0
 40
17.00003418115627
 40
18.00006836231253
 40
19.0001025434688
 40
20.00013672462506
 40
21.0
 40
21.0
 40
21.0
 40
22.0
 40
22.0
 40
22.0
 40
23.0
 40
24.0
 40
25.0
 40
26.0
 40
27.0
 40
27.0
 40
27.0
 40
27.0
 10
10.7969295
 20
0.1543708961699792
 30
0.0
 10
10.7917069986868
 20
0.136304302865736
 30
0.0
 10
10.77521797337226
 20
0.1020671655242257
 30
0.0
 10
10.73745205566482
 20
0.0595619801690861
 30
0.0
 10
10.69049893774905
 20
0.0276357702419438
 30
0.0
 10
10.63737264921325
 20
0.0075594279156173
 30
0.0
 10
10.59977739841035
 20
0.00329075125719
 30
0.0
 10
10.5810095
 20
0.00312089616998
 30
0.0
 10
10.24495183333333
 20
0.00312089616998
 30
0.0
 10
9.908894166666665
 20
0.00312089616998
 30
0.0
 10
9.572836499999998
 20
0.00312089616998
 30
0.0
 10
9.552454204933843
 20
0.0032479198897625
 30
0.0
 10
9.511684529305178
 20
0.0084684174522431
 30
0.0
 10
9.45456556099242
 20
0.0318669329351387
 30
0.0
 10
9.405440465301877
 20
0.0692305761107696
 30
0.0
 10
9.36797230340992
 20
0.1184674343172249
 30
0.0
 10
9.3547078878126
 20
0.157686243159788
 30
0.0
 10
9.351733999999999
 20
0.17787739616998
 30
0.0
 10
9.35015222075325
 20
0.1894610517401988
 30
0.0
 10
9.347348645362954
 20
0.2126819367878998
 30
0.0
 10
9.344786435794992
 20
0.2476697182975346
 30
0.0
 10
9.342959618275687
 20
0.2826964929075206
 30
0.0
 10
9.341365506901504
 20
0.317736677831618
 30
0.0
 10
9.33979272249164
 20
0.3410680721249457
 30
0.0
 10
9.338889499999997
 20
0.3527248961699794
 30
0.0
 10
9.337416329366276
 20
0.3700608025632884
 30
0.0
 10
9.337993254249565
 20
0.4052042173884376
 30
0.0
 10
9.35427202923573
 20
0.4554622125460118
 30
0.0
 10
9.384006041503953
 20
0.4989910181106593
 30
0.0
 10
9.424847575040246
 20
0.5326249206289927
 30
0.0
 10
9.458871551601083
 20
0.5434193767055095
 30
0.0
 10
9.476417499999998
 20
0.5431208961699809
 30
0.0
 10
9.741058999683018
 20
0.5431195503538888
 30
0.0
 10
10.00570049936604
 20
0.5431182045377967
 30
0.0
 10
10.27034199904906
 20
0.5431168587217046
 30
0.0
 10
10.30191177521962
 20
0.544307415735609
 30
0.0
 10
10.38832573011702
 20
0.5137725839344239
 30
0.0
 10
10.36319354790056
 20
0.3934078309235532
 30
0.0
 10
10.3780229125426
 20
0.2898348338327085
 30
0.0
 10
10.43490582041806
 20
0.1957890550834005
 30
0.0
 10
10.49957670889797
 20
0.1602513999683652
 30
0.0
 10
10.5348105
 20
0.1548928961699794
 30
0.0
  0
SPLINE
  5
6A
330
1F
100
AcDbEntity
  8
DEFAULT
100
AcDbSpline
210
0.0
220
0.0
230
1.0
 70
     8
 71
     3
 72
    22
 73
    18
 74
     0
 42
0.0000000001
 43
0.0000000001
 40
0.0
 40
0.0
 40
0.0
 40
0.0
 40
1.000200765503769
 40
2.000401531007538
 40
3.000602296511306
 40
4.000803062015075
 40
5.0
 40
5.0
 40
5.0
 40
6.0
 40
6.0
 40
6.0
 40
6.999196938524812
 40
7.999397703893609
 40
8.999598469262406
 40
9.999799234631203
 40
11.0
 40
11.0
 40
11.0
 40
11.0
 10
-8.9731995
 20
0.1543708961699792
 30
0.0
 10
-8.968023702282203
 20
0.1363167896850115
 30
0.0
 10
-8.951756835261824
 20
0.1020285621513838
 30
0.0
 10
-8.91409173839511
 20
0.0594890461100796
 30
0.0
 10
-8.867160190868393
 20
0.027631934653155
 30
0.0
 10
-8.81410069232677
 20
0.0075533459221667
 30
0.0
 10
-8.776545764623561
 20
0.0033014669095777
 30
0.0
 10
-8.757800999999999
 20
0.00312089616998
 30
0.0
 10
-8.430304333333332
 20
0.00312089616998
 30
0.0
 10
-8.102807666666665
 20
0.00312089616998
 30
0.0
 10
-7.775310999999999
 20
0.00312089616998
 30
0.0
 10
-7.756566224729299
 20
0.0033015764396875
 30
0.0
 10
-7.719011015917641
 20
0.0075528885942454
 30
0.0
 10
-7.665951773460919
 20
0.0276322685704915
 30
0.0
 10
-7.619019297413439
 20
0.0594883326918133
 30
0.0
 10
-7.581355374130064
 20
0.1020290272538433
 30
0.0
 10
-7.565086978060156
 20
0.1363165454637284
 30
0.0
 10
-7.559911499999998
 20
0.1543708961699792
 30
0.0
  0
SPLINE
  5
6B
330
1F
100
AcDbEntity
  8
DEFAULT
100
AcDbSpline
210
0.0
220
0.0
230
1.0
 70
     8
 71
     3
 72
    12
 73
     8
 74
     0
 42
0.0000000001
 43
0.0000000001
 40
0.0
 40
0.0
 40
0.0
 40
0.0
 40
1.0
 40
2.0
 40
3.0
 40
4.0
 40
5.0
 40
5.0
 40
5.0
 40
5.0
 10
-7.990280129039999
 20
0.00312062644098
 30
0.0
 10
-8.00469031198883
 20
0.0031167129870106
 30
0.0
 10
-8.033372335142571
 20
0.0094837952316834
 30
0.0
 10
-8.069532626414292
 20
0.0344280720805737
 30
0.0
 10
-8.094923600967077
 20
0.0700573793898596
 30
0.0
 10
-8.109032180661272
 20
0.1112397147013366
 30
0.0
 10
-8.112306602815295
 20
0.1399772147007681
 30
0.0
 10
-8.11277779816
 20
0.1543622257479793
 30
0.0
  0
SPLINE
  5
6C
330
1F
100
AcDbEntity
  8
DEFAULT
100
AcDbSpline
210
0.0
220
0.0
230
1.0
 70
     8
 71
     3
 72
    46
 73
    42
 74
     0
 42
0.0000000001
 43
0.0000000001
 40
0.0
 40
0.0
 40
0.0
 40
0.0
 40
1.000205839541415
 40
2.000411679082829
 40
3.000617518624244
 40
4.000823358165658
 40
5.0
 40
5.0
 40
5.0
 40
6.0
 40
6.0
 40
6.0
 40
6.999243628700714
 40
7.999435039265704
 40
8.999626449830695
 40
9.999817860395686
 40
11.0
 40
11.0
 40
11.0
 40
11.99998715702564
 40
12.99999036776923
 40
13.99999357851282
 40
14.99999678925641
 40
16.0
 40
16.0
 40
16.0
 40
17.00003418115627
 40
18.00006836231253
 40
19.0001025434688
 40
20.00013672462506
 40
21.0
 40
21.0
 40
21.0
 40
22.0
 40
22.0
 40
22.0
 40
23.0
 40
24.0
 40
25.0
 40
26.0
 40
27.0
 40
27.0
 40
27.0
 40
27.0
 10
-10.7969295
 20
0.1543708961699792
 30
0.0
 10
-10.7917069986868
 20
0.136304302865736
 30
0.0
 10
-10.77521797337226
 20
0.1020671655242257
 30
0.0
 10
-10.73745205566482
 20
0.0595619801690861
 30
0.0
 10
-10.69049893774905
 20
0.0276357702419438
 30
0.0
 10
-10.63737264921325
 20
0.0075594279156173
 30
0.0
 10
-10.59977739841035
 20
0.00329075125719
 30
0.0
 10
-10.5810095
 20
0.00312089616998
 30
0.0
 10
-10.24495183333333
 20
0.00312089616998
 30
0.0
 10
-9.908894166666665
 20
0.00312089616998
 30
0.0
 10
-9.572836499999998
 20
0.00312089616998
 30
0.0
 10
-9.552454204933843
 20
0.0032479198897625
 30
0.0
 10
-9.511684529305178
 20
0.0084684174522431
 30
0.0
 10
-9.45456556099242
 20
0.0318669329351387
 30
0.0
 10
-9.405440465301877
 20
0.0692305761107696
 30
0.0
 10
-9.36797230340992
 20
0.1184674343172249
 30
0.0
 10
-9.3547078878126
 20
0.157686243159788
 30
0.0
 10
-9.351733999999999
 20
0.17787739616998
 30
0.0
 10
-9.35015222075325
 20
0.1894610517401988
 30
0.0
 10
-9.347348645362954
 20
0.2126819367878998
 30
0.0
 10
-9.344786435794992
 20
0.2476697182975346
 30
0.0
 10
-9.342959618275687
 20
0.2826964929075206
 30
0.0
 10
-9.341365506901504
 20
0.317736677831618
 30
0.0
 10
-9.33979272249164
 20
0.3410680721249457
 30
0.0
 10
-9.338889499999997
 20
0.3527248961699794
 30
0.0
 10
-9.337416329366276
 20
0.3700608025632884
 30
0.0
 10
-9.337993254249565
 20
0.4052042173884376
 30
0.0
 10
-9.35427202923573
 20
0.4554622125460118
 30
0.0
 10
-9.384006041503953
 20
0.4989910181106593
 30
0.0
 10
-9.424847575040246
 20
0.5326249206289927
 30
0.0
 10
-9.458871551601083
 20
0.5434193767055095
 30
0.0
 10
-9.476417499999998
 20
0.5431208961699809
 30
0.0
 10
-9.741058999683018
 20
0.5431195503538888
 30
0.0
 10
-10.00570049936604
 20
0.5431182045377967
 30
0.0
 10
-10.27034199904906
 20
0.5431168587217046
 30
0.0
 10
-10.30191177521962
 20
0.544307415735609
 30
0.0
 10
-10.38832573011702
 20
0.5137725839344239
 30
0.0
 10
-10.36319354790056
 20
0.3934078309235532
 30
0.0
 10
-10.3780229125426
 20
0.2898348338327085
 30
0.0
 10
-10.43490582041806
 20
0.1957890550834005
 30
0.0
 10
-10.49957670889797
 20
0.1602513999683652
 30
0.0
 10
-10.5348105
 20
0.1548928961699794
 30
0.0
  0
SPLINE
  5
6D
330
1F
100
AcDbEntity
  8
DEFAULT
100
AcDbSpline
210
0.0
220
0.0
230
1.0
 70
    24
 71
     2
 72
     6
 73
     3
 74
     0
 42
0.0000000001
 43
0.0000000001
 40
0.0
 40
0.0
 40
0.0
 40
1.0
 40
1.0
 40
1.0
 10
-10.5392995
 20
0.1543708961699792
 30
0.0
 10
-10.691446
 20
0.1543708961699792
 30
0.0
 10
-10.8435925
 20
0.1543708961699792
 30
0.0
  0
SPLINE
  5
6E
330
1F
100
AcDbEntity
  8
DEFAULT
100
AcDbSpline
210
0.0
220
0.0
230
1.0
 70
     8
 71
     3
 72
    22
 73
    18
 74
     0
 42
0.0000000001
 43
0.0000000001
 40
0.0
 40
0.0
 40
0.0
 40
0.0
 40
1.0
 40
2.0
 40
3.0
 40
4.0
 40
5.0
 40
5.0
 40
5.0
 40
6.0
 40
6.0
 40
6.0
 40
6.999698923443765
 40
7.999774192582823
 40
8.999849461721883
 40
9.999924730860942
 40
11.0
 40
11.0
 40
11.0
 40
11.0
 10
-6.903243499999999
 20
13.62312089616998
 30
0.0
 10
-7.027457613156449
 20
13.62130117623749
 30
0.0
 10
-7.276562295370088
 20
13.59100839113564
 30
0.0
 10
-7.623282145372088
 20
13.44415869115472
 30
0.0
 10
-7.9211697293795
 20
13.21499564023235
 30
0.0
 10
-8.149823197085546
 20
12.91575979822202
 30
0.0
 10
-8.242716464165886
 20
12.68286136155178
 30
0.0
 10
-8.275891999999997
 20
12.56309889616998
 30
0.0
 10
-9.268337166666663
 20
8.765545062836646
 30
0.0
 10
-10.26078233333333
 20
4.967991229503313
 30
0.0
 10
-11.2532275
 20
1.17043739616998
 30
0.0
 10
-11.27297039719658
 20
1.09081641854077
 30
0.0
 10
-11.29014160425255
 20
0.9267734293533599
 30
0.0
 10
-11.26508752656119
 20
0.6808547634660819
 30
0.0
 10
-11.19999795564716
 20
0.4435053342561106
 30
0.0
 10
-11.07544047937687
 20
0.2239004056823384
 30
0.0
 10
-10.91626267526108
 20
0.1508868480027483
 30
0.0
 10
-10.83334948292947
 20
0.1547096241749729
 30
0.0
  0
SPLINE
  5
6F
330
1F
100
AcDbEntity
  8
DEFAULT
100
AcDbSpline
210
0.0
220
0.0
230
1.0
 70
    24
 71
     2
 72
     6
 73
     3
 74
     0
 42
0.0000000001
 43
0.0000000001
 40
0.0
 40
0.0
 40
0.0
 40
1.0
 40
1.0
 40
1.0
 10
10.5392995
 20
0.1543708961699792
 30
0.0
 10
10.691446
 20
0.1543708961699792
 30
0.0
 10
10.8435925
 20
0.1543708961699792
 30
0.0
  0
SPLINE
  5
70
330
1F
100
AcDbEntity
  8
DEFAULT
100
AcDbSpline
210
0.0
220
0.0
230
1.0
 70
     8
 71
     3
 72
    22
 73
    18
 74
     0
 42
0.0000000001
 43
0.0000000001
 40
0.0
 40
0.0
 40
0.0
 40
0.0
 40
1.0
 40
2.0
 40
3.0
 40
4.0
 40
5.0
 40
5.0
 40
5.0
 40
6.0
 40
6.0
 40
6.0
 40
6.999698923443765
 40
7.999774192582823
 40
8.999849461721883
 40
9.999924730860942
 40
11.0
 40
11.0
 40
11.0
 40
11.0
 10
6.903243499999999
 20
13.62312089616998
 30
0.0
 10
7.027457613156449
 20
13.62130117623749
 30
0.0
 10
7.276562295370088
 20
13.59100839113564
 30
0.0
 10
7.623282145372088
 20
13.44415869115472
 30
0.0
 10
7.9211697293795
 20
13.21499564023235
 30
0.0
 10
8.149823197085546
 20
12.91575979822202
 30
0.0
 10
8.242716464165886
 20
12.68286136155178
 30
0.0
 10
8.275891999999997
 20
12.56309889616998
 30
0.0
 10
9.268337166666663
 20
8.765545062836646
 30
0.0
 10
10.26078233333333
 20
4.967991229503313
 30
0.0
 10
11.2532275
 20
1.17043739616998
 30
0.0
 10
11.27297039719658
 20
1.09081641854077
 30
0.0
 10
11.29014160425255
 20
0.9267734293533599
 30
0.0
 10
11.26508752656119
 20
0.6808547634660819
 30
0.0
 10
11.19999795564716
 20
0.4435053342561106
 30
0.0
 10
11.07544047937687
 20
0.2239004056823384
 30
0.0
 10
10.91626267526108
 20
0.1508868480027483
 30
0.0
 10
10.83334948292947
 20
0.1547096241749729
 30
0.0
  0
SPLINE
  5
71
330
1F
100
AcDbEntity
  8
DEFAULT
100
AcDbSpline
210
0.0
220
0.0
230
1.0
 70
     8
 71
     3
 72
    15
 73
    11
 74
     0
 42
0.0000000001
 43
0.0000000001
 40
0.0
 40
0.0
 40
0.0
 40
0.0
 40
1.0
 40
1.0
 40
1.0
 40
2.0
 40
3.0
 40
4.0
 40
5.0
 40
6.0
 40
6.0
 40
6.0
 40
6.0
 10
-9.428087499999997
 20
0.5193468961699796
 30
0.0
 10
-9.701778229119997
 20
0.5193469203974796
 30
0.0
 10
-9.975468958239999
 20
0.5193469446249797
 30
0.0
 10
-10.24915968736
 20
0.5193469688524797
 30
0.0
 10
-10.27483748889485
 20
0.488771563107925
 30
0.0
 10
-10.26803060657409
 20
0.4064843573852261
 30
0.0
 10
-10.26399238924181
 20
0.2911315872544594
 30
0.0
 10
-10.24370869924512
 20
0.1757481115830268
 30
0.0
 10
-10.25798756589902
 20
0.0545465439120673
 30
0.0
 10
-10.3283633697782
 20
0.0026421162234481
 30
0.0
 10
-10.3683511705
 20
0.00312062644098
 30
0.0
  0
SPLINE
  5
72
330
1F
100
AcDbEntity
  8
DEFAULT
100
AcDbSpline
210
0.0
220
0.0
230
1.0
 70
     8
 71
     3
 72
    12
 73
     8
 74
     0
 42
0.0000000001
 43
0.0000000001
 40
0.0
 40
0.0
 40
0.0
 40
0.0
 40
1.0
 40
2.0
 40
3.0
 40
4.0
 40
5.0
 40
5.0
 40
5.0
 40
5.0
 10
-7.940119882129999
 20
16.75572466555998
 30
0.0
 10
-8.234602263760998
 20
17.24312979051587
 30
0.0
 10
-8.810972624025194
 20
18.22703558143944
 30
0.0
 10
-9.735265116023168
 20
19.66124782405209
 30
0.0
 10
-10.85123219461541
 20
20.98232021266605
 30
0.0
 10
-12.40796583454179
 20
21.76929166315029
 30
0.0
 10
-13.56038827971685
 20
21.8587180461669
 30
0.0
 10
-14.12648744718
 20
21.89360956991998
 30
0.0
  0
SPLINE
  5
73
330
1F
100
AcDbEntity
  8
DEFAULT
100
AcDbSpline
210
0.0
220
0.0
230
1.0
 70
     8
 71
     3
 72
    61
 73
    57
 74
     0
 42
0.0000000001
 43
0.0000000001
 40
-5.0
 40
-5.0
 40
-5.0
 40
-5.0
 40
-4.0
 40
-3.0
 40
-2.0
 40
-1.0
 40
0.0
 40
0.0
 40
0.0
 40
1.0
 40
2.0
 40
3.0
 40
4.0
 40
5.0
 40
5.0
 40
5.0
 40
6.0
 40
7.0
 40
8.0
 40
9.0
 40
10.0
 40
10.0
 40
10.0
 40
11.0
 40
12.0
 40
13.0
 40
14.0
 40
15.0
 40
15.0
 40
15.0
 40
16.0
 40
17.0
 40
18.0
 40
19.0
 40
20.0
 40
20.0
 40
20.0
 40
21.00000009248719
 40
22.00000018497438
 40
23.00000027746158
 40
24.00000036994877
 40
25.0
 40
25.0
 40
25.0
 40
25.99999957729138
 40
27.00000091066535
 40
28.00000224403931
 40
29.00000357741327
 40
30.0
 40
30.0
 40
30.0
 40
30.99999878549053
 40
31.9999990891179
 40
32.99999939274527
 40
33.99999969637263
 40
35.0
 40
35.0
 40
35.0
 40
35.0
 10
-8.046608598709998
 20
13.04282139217998
 30
0.0
 10
-8.406803301566931
 20
13.26074675125233
 30
0.0
 10
-9.038051608703023
 20
13.81814376172927
 30
0.0
 10
-9.874691759119964
 20
14.75919590206594
 30
0.0
 10
-10.74771758856793
 20
15.66596189063278
 30
0.0
 10
-11.66413065613303
 20
16.52939719730413
 30
0.0
 10
-12.31425941722184
 20
17.06072547393602
 30
0.0
 10
-12.65060160545
 20
17.31148917030498
 30
0.0
 10
-12.82189052003173
 20
17.43797590822788
 30
0.0
 10
-13.16360238146408
 20
17.69241567171595
 30
0.0
 10
-13.6784300314219
 20
18.06990753279148
 30
0.0
 10
-14.18832646447636
 20
18.45762534467951
 30
0.0
 10
-14.6396382498187
 20
18.90662077310733
 30
0.0
 10
-14.94033550334563
 20
19.21811513311253
 30
0.0
 10
-15.020322596525
 20
19.41512933672498
 30
0.0
 10
-15.02013981149585
 20
19.52998390802102
 30
0.0
 10
-15.01883705207109
 20
19.75966691577683
 30
0.0
 10
-15.01375344382055
 20
20.10416518492919
 30
0.0
 10
-15.00329328107204
 20
20.44854618687012
 30
0.0
 10
-14.98794112583766
 20
20.79273821551705
 30
0.0
 10
-14.97391284959184
 20
21.02200304390847
 30
0.0
 10
-14.966130544615
 20
21.13658208698998
 30
0.0
 10
-14.96587757777608
 20
21.14172995987188
 30
0.0
 10
-14.9614180736949
 20
21.15205627194045
 30
0.0
 10
-14.94674442136452
 20
21.15850126994279
 30
0.0
 10
-14.93217443272292
 20
21.16357829740953
 30
0.0
 10
-14.91757629852
 20
21.1690262106851
 30
0.0
 10
-14.90784985152785
 20
21.17258028546864
 30
0.0
 10
-14.902985375705
 20
21.17437269872498
 30
0.0
 10
-14.833837103893
 20
21.19896311192146
 30
0.0
 10
-14.69740080275785
 20
21.25400421806041
 30
0.0
 10
-14.48607938496581
 20
21.31538141537409
 30
0.0
 10
-14.29606034294966
 20
21.44265299827727
 30
0.0
 10
-14.21972846443968
 20
21.65634139184054
 30
0.0
 10
-14.16294885079126
 20
21.78980956199198
 30
0.0
 10
-14.13873770599
 20
21.85948452158998
 30
0.0
 10
-13.90858090693616
 20
22.52428060240026
 30
0.0
 10
-13.52996869453739
 20
23.87944641457345
 30
0.0
 10
-12.95135364731371
 20
25.90833128942282
 30
0.0
 10
-12.37557922678938
 20
27.93824449758463
 30
0.0
 10
-11.79903412513693
 20
29.96787818599735
 30
0.0
 10
-11.41483287443741
 20
31.32102611191356
 30
0.0
 10
-11.22269949972
 20
31.99758794133497
 30
0.0
 10
-11.17239267004164
 20
32.17583731464723
 30
0.0
 10
-11.0142487268589
 20
32.51855141201465
 30
0.0
 10
-10.60444703468275
 20
32.90839367560561
 30
0.0
 10
-10.09467143309478
 20
33.14448796569131
 30
0.0
 10
-9.548260270942972
 20
33.26071162301024
 30
0.0
 10
-9.17698231559702
 20
33.28065553282116
 30
0.0
 10
-8.991545735762603
 20
33.28002247943682
 30
0.0
 10
-8.391979199319186
 20
33.27791638646568
 30
0.0
 10
-7.192902435576301
 20
33.26572272228564
 30
0.0
 10
-5.394293724083515
 20
33.24709837525504
 30
0.0
 10
-3.595610710341605
 20
33.23715590450757
 30
0.0
 10
-1.796906472518735
 20
33.23441826793615
 30
0.0
 10
-0.5977698853125176
 20
33.23456539555052
 30
0.0
 10
0.0017985000000031
 20
33.23456689616998
 30
0.0
  0
SPLINE
  5
74
330
1F
100
AcDbEntity
  8
DEFAULT
100
AcDbSpline
210
0.0
220
0.0
230
1.0
 70
     8
 71
     3
 72
    61
 73
    57
 74
     0
 42
0.0000000001
 43
0.0000000001
 40
-5.0
 40
-5.0
 40
-5.0
 40
-5.0
 40
-4.0
 40
-3.0
 40
-2.0
 40
-1.0
 40
0.0
 40
0.0
 40
0.0
 40
1.0
 40
2.0
 40
3.0
 40
4.0
 40
5.0
 40
5.0
 40
5.0
 40
6.0
 40
7.0
 40
8.0
 40
9.0
 40
10.0
 40
10.0
 40
10.0
 40
11.0
 40
12.0
 40
13.0
 40
14.0
 40
15.0
 40
15.0
 40
15.0
 40
16.0
 40
17.0
 40
18.0
 40
19.0
 40
20.0
 40
20.0
 40
20.0
 40
21.00000009248719
 40
22.00000018497438
 40
23.00000027746158
 40
24.00000036994877
 40
25.0
 40
25.0
 40
25.0
 40
25.99999957729138
 40
27.00000091066535
 40
28.00000224403931
 40
29.00000357741327
 40
30.0
 40
30.0
 40
30.0
 40
30.99999878549053
 40
31.9999990891179
 40
32.99999939274527
 40
33.99999969637263
 40
35.0
 40
35.0
 40
35.0
 40
35.0
 10
8.046608598709998
 20
13.04282139217998
 30
0.0
 10
8.406803301566931
 20
13.26074675125233
 30
0.0
 10
9.038051608703023
 20
13.81814376172927
 30
0.0
 10
9.874691759119964
 20
14.75919590206594
 30
0.0
 10
10.74771758856793
 20
15.66596189063278
 30
0.0
 10
11.66413065613303
 20
16.52939719730413
 30
0.0
 10
12.31425941722184
 20
17.06072547393602
 30
0.0
 10
12.65060160545
 20
17.31148917030498
 30
0.0
 10
12.82189052003173
 20
17.43797590822788
 30
0.0
 10
13.16360238146408
 20
17.69241567171595
 30
0.0
 10
13.6784300314219
 20
18.06990753279148
 30
0.0
 10
14.18832646447636
 20
18.45762534467951
 30
0.0
 10
14.6396382498187
 20
18.90662077310733
 30
0.0
 10
14.94033550334563
 20
19.21811513311253
 30
0.0
 10
15.020322596525
 20
19.41512933672498
 30
0.0
 10
15.02013981149585
 20
19.52998390802102
 30
0.0
 10
15.01883705207109
 20
19.75966691577683
 30
0.0
 10
15.01375344382055
 20
20.10416518492919
 30
0.0
 10
15.00329328107204
 20
20.44854618687012
 30
0.0
 10
14.98794112583766
 20
20.79273821551705
 30
0.0
 10
14.97391284959184
 20
21.02200304390847
 30
0.0
 10
14.966130544615
 20
21.13658208698998
 30
0.0
 10
14.96587757777608
 20
21.14172995987188
 30
0.0
 10
14.9614180736949
 20
21.15205627194045
 30
0.0
 10
14.94674442136452
 20
21.15850126994279
 30
0.0
 10
14.93217443272292
 20
21.16357829740953
 30
0.0
 10
14.91757629852
 20
21.1690262106851
 30
0.0
 10
14.90784985152785
 20
21.17258028546864
 30
0.0
 10
14.902985375705
 20
21.17437269872498
 30
0.0
 10
14.833837103893
 20
21.19896311192146
 30
0.0
 10
14.69740080275785
 20
21.25400421806041
 30
0.0
 10
14.48607938496581
 20
21.31538141537409
 30
0.0
 10
14.29606034294966
 20
21.44265299827727
 30
0.0
 10
14.21972846443968
 20
21.65634139184054
 30
0.0
 10
14.16294885079126
 20
21.78980956199198
 30
0.0
 10
14.13873770599
 20
21.85948452158998
 30
0.0
 10
13.90858090693616
 20
22.52428060240026
 30
0.0
 10
13.52996869453739
 20
23.87944641457345
 30
0.0
 10
12.95135364731371
 20
25.90833128942282
 30
0.0
 10
12.37557922678938
 20
27.93824449758463
 30
0.0
 10
11.79903412513693
 20
29.96787818599735
 30
0.0
 10
11.41483287443741
 20
31.32102611191356
 30
0.0
 10
11.22269949972
 20
31.99758794133497
 30
0.0
 10
11.17239267004164
 20
32.17583731464723
 30
0.0
 10
11.0142487268589
 20
32.51855141201465
 30
0.0
 10
10.60444703468275
 20
32.90839367560561
 30
0.0
 10
10.09467143309478
 20
33.14448796569131
 30
0.0
 10
9.548260270942972
 20
33.26071162301024
 30
0.0
 10
9.17698231559702
 20
33.28065553282116
 30
0.0
 10
8.991545735762603
 20
33.28002247943682
 30
0.0
 10
8.391979199319186
 20
33.27791638646568
 30
0.0
 10
7.192902435576301
 20
33.26572272228564
 30
0.0
 10
5.394293724083515
 20
33.24709837525504
 30
0.0
 10
3.595610710341605
 20
33.23715590450757
 30
0.0
 10
1.796906472518735
 20
33.23441826793615
 30
0.0
 10
0.5977698853125176
 20
33.23456539555052
 30
0.0
 10
-0.0017985000000031
 20
33.23456689616998
 30
0.0
  0
SPLINE
  5
75
330
1F
100
AcDbEntity
  8
DEFAULT
100
AcDbSpline
210
0.0
220
0.0
230
1.0
 70
     8
 71
     3
 72
    12
 73
     8
 74
     0
 42
0.0000000001
 43
0.0000000001
 40
0.0
 40
0.0
 40
0.0
 40
0.0
 40
1.0
 40
2.0
 40
3.0
 40
4.0
 40
5.0
 40
5.0
 40
5.0
 40
5.0
 10
7.940119882129999
 20
16.75572466555998
 30
0.0
 10
8.234602263760998
 20
17.24312979051587
 30
0.0
 10
8.810972624025194
 20
18.22703558143944
 30
0.0
 10
9.735265116023168
 20
19.66124782405209
 30
0.0
 10
10.85123219461541
 20
20.98232021266605
 30
0.0
 10
12.40796583454179
 20
21.76929166315029
 30
0.0
 10
13.56038827971685
 20
21.8587180461669
 30
0.0
 10
14.12648744718
 20
21.89360956991998
 30
0.0
  0
SPLINE
  5
76
330
1F
100
AcDbEntity
  8
DEFAULT
100
AcDbSpline
210
0.0
220
0.0
230
1.0
 70
     8
 71
     3
 72
    12
 73
     8
 74
     0
 42
0.0000000001
 43
0.0000000001
 40
0.0
 40
0.0
 40
0.0
 40
0.0
 40
1.0
 40
2.0
 40
3.0
 40
4.0
 40
5.0
 40
5.0
 40
5.0
 40
5.0
 10
-7.664012972299997
 20
12.82358319465998
 30
0.0
 10
-7.52285384477589
 20
12.74984875363076
 30
0.0
 10
-7.234455857824687
 20
12.61404249988003
 30
0.0
 10
-6.7870031953549
 20
12.44553017763575
 30
0.0
 10
-6.327826108625858
 20
12.31222606048786
 30
0.0
 10
-5.859361823815628
 20
12.21633574058715
 30
0.0
 10
-5.542720081391565
 20
12.17919486523688
 30
0.0
 10
-5.383874534979999
 20
12.16774318902498
 30
0.0
  0
SPLINE
  5
77
330
1F
100
AcDbEntity
  8
DEFAULT
100
AcDbSpline
210
0.0
220
0.0
230
1.0
 70
     8
 71
     3
 72
    15
 73
    11
 74
     0
 42
0.0000000001
 43
0.0000000001
 40
0.0
 40
0.0
 40
0.0
 40
0.0
 40
1.000000005451414
 40
2.000000010902828
 40
3.000000016354241
 40
4.000000021805655
 40
5.0
 40
5.0
 40
5.0
 40
6.00830950513456
 40
6.00830950513456
 40
6.00830950513456
 40
6.00830950513456
 10
-12.6506017109
 20
17.31148944443998
 30
0.0
 10
-12.33205276280329
 20
17.07613545825665
 30
0.0
 10
-11.69646676009899
 20
16.60342802233963
 30
0.0
 10
-10.73849092469447
 20
15.90041783302097
 30
0.0
 10
-9.79451745226153
 20
15.17899832348064
 30
0.0
 10
-8.800368331721668
 20
14.52349657802742
 30
0.0
 10
-8.02752652863479
 20
14.28901339378102
 30
0.0
 10
-7.629745708727673
 20
14.28389668672521
 30
0.0
 10
-5.087982639151782
 20
14.28396575654013
 30
0.0
 10
-2.546219569575891
 20
14.28403482635505
 30
0.0
 10
-0.0044564999999999
 20
14.28410389616998
 30
0.0
  0
SPLINE
  5
78
330
1F
100
AcDbEntity
  8
DEFAULT
100
AcDbSpline
210
0.0
220
0.0
230
1.0
 70
     8
 71
     3
 72
    15
 73
    11
 74
     0
 42
0.0000000001
 43
0.0000000001
 40
0.0
 40
0.0
 40
0.0
 40
0.0
 40
1.000000005451414
 40
2.000000010902828
 40
3.000000016354241
 40
4.000000021805655
 40
5.0
 40
5.0
 40
5.0
 40
6.00830950513456
 40
6.00830950513456
 40
6.00830950513456
 40
6.00830950513456
 10
12.6506017109
 20
17.31148944443998
 30
0.0
 10
12.33205276280329
 20
17.07613545825665
 30
0.0
 10
11.69646676009899
 20
16.60342802233963
 30
0.0
 10
10.73849092469447
 20
15.90041783302097
 30
0.0
 10
9.79451745226153
 20
15.17899832348064
 30
0.0
 10
8.800368331721668
 20
14.52349657802742
 30
0.0
 10
8.02752652863479
 20
14.28901339378102
 30
0.0
 10
7.629745708727673
 20
14.28389668672521
 30
0.0
 10
5.087982639151782
 20
14.28396575654013
 30
0.0
 10
2.546219569575891
 20
14.28403482635505
 30
0.0
 10
0.0044564999999999
 20
14.28410389616998
 30
0.0
  0
SPLINE
  5
79
330
1F
100
AcDbEntity
  8
DEFAULT
100
AcDbSpline
210
0.0
220
0.0
230
1.0
 70
    24
 71
     2
 72
     6
 73
     3
 74
     0
 42
0.0000000001
 43
0.0000000001
 40
0.0
 40
0.0
 40
0.0
 40
1.0
 40
1.0
 40
1.0
 10
6.5396915
 20
13.39287489616998
 30
0.0
 10
7.042070499999999
 20
13.80363289616998
 30
0.0
 10
7.544449499999999
 20
14.21439089616998
 30
0.0
  0
SPLINE
  5
7A
330
1F
100
AcDbEntity
  8
DEFAULT
100
AcDbSpline
210
0.0
220
0.0
230
1.0
 70
     8
 71
     2
 72
    10
 73
     7
 74
     0
 42
0.0000000001
 43
0.0000000001
 40
-1.0
 40
-1.0
 40
-1.0
 40
0.0
 40
0.0
 40
1.0
 40
1.0
 40
2.0
 40
2.0
 40
2.0
 10
5.511371499999999
 20
13.18562089616998
 30
0.0
 10
4.809571999999999
 20
12.59335539616998
 30
0.0
 10
4.107772499999999
 20
12.00108989616998
 30
0.0
 10
4.486130999999999
 20
12.00108989616998
 30
0.0
 10
4.864489499999998
 20
12.00108989616998
 30
0.0
 10
5.566288999999998
 20
12.59335539616998
 30
0.0
 10
6.268088499999998
 20
13.18562089616998
 30
0.0
  0
SPLINE
  5
7B
330
1F
100
AcDbEntity
  8
DEFAULT
100
AcDbSpline
210
0.0
220
0.0
230
1.0
 70
     8
 71
     3
 72
    15
 73
    11
 74
     0
 42
0.0000000001
 43
0.0000000001
 40
-1.0
 40
-1.0
 40
-1.0
 40
-1.0
 40
0.0
 40
0.0
 40
0.0
 40
0.999993557866536
 40
1.999995168399902
 40
2.999996778933268
 40
3.999998389466634
 40
5.0
 40
5.0
 40
5.0
 40
5.0
 10
5.290623499999999
 20
13.18562089616998
 30
0.0
 10
4.888708783161666
 20
12.84643530817581
 30
0.0
 10
4.486794066323331
 20
12.50724972018165
 30
0.0
 10
4.084879349484998
 20
12.16806413218748
 30
0.0
 10
4.092278161305047
 20
12.15927846811425
 30
0.0
 10
4.097125075036425
 20
12.13654317092042
 30
0.0
 10
4.102216254782972
 20
12.10309349465339
 30
0.0
 10
4.105111903000022
 20
12.06910220652122
 30
0.0
 10
4.106957776838019
 20
12.03512698283282
 30
0.0
 10
4.107584045062027
 20
12.01243418643576
 30
0.0
 10
4.107772265649999
 20
12.00108965294898
 30
0.0
  0
SPLINE
  5
7C
330
1F
100
AcDbEntity
  8
DEFAULT
100
AcDbSpline
210
0.0
220
0.0
230
1.0
 70
     8
 71
     3
 72
    15
 73
    11
 74
     0
 42
0.0000000001
 43
0.0000000001
 40
-1.0
 40
-1.0
 40
-1.0
 40
-1.0
 40
0.0
 40
0.0
 40
0.0
 40
0.999993557866536
 40
1.999995168399902
 40
2.999996778933268
 40
3.999998389466634
 40
5.0
 40
5.0
 40
5.0
 40
5.0
 10
-5.290623499999999
 20
13.18562089616998
 30
0.0
 10
-4.888708783161666
 20
12.84643530817581
 30
0.0
 10
-4.486794066323331
 20
12.50724972018165
 30
0.0
 10
-4.084879349484998
 20
12.16806413218748
 30
0.0
 10
-4.092278161305047
 20
12.15927846811425
 30
0.0
 10
-4.097125075036425
 20
12.13654317092042
 30
0.0
 10
-4.102216254782972
 20
12.10309349465339
 30
0.0
 10
-4.105111903000022
 20
12.06910220652122
 30
0.0
 10
-4.106957776838019
 20
12.03512698283282
 30
0.0
 10
-4.107584045062027
 20
12.01243418643576
 30
0.0
 10
-4.107772265649999
 20
12.00108965294898
 30
0.0
  0
SPLINE
  5
7D
330
1F
100
AcDbEntity
  8
DEFAULT
100
AcDbSpline
210
0.0
220
0.0
230
1.0
 70
     8
 71
     2
 72
    10
 73
     7
 74
     0
 42
0.0000000001
 43
0.0000000001
 40
-1.0
 40
-1.0
 40
-1.0
 40
0.0
 40
0.0
 40
1.0
 40
1.0
 40
2.0
 40
2.0
 40
2.0
 10
-5.511371499999999
 20
13.18562089616998
 30
0.0
 10
-4.809571999999999
 20
12.59335539616998
 30
0.0
 10
-4.107772499999999
 20
12.00108989616998
 30
0.0
 10
-4.486130999999999
 20
12.00108989616998
 30
0.0
 10
-4.864489499999998
 20
12.00108989616998
 30
0.0
 10
-5.566288999999998
 20
12.59335539616998
 30
0.0
 10
-6.268088499999998
 20
13.18562089616998
 30
0.0
  0
SPLINE
  5
7E
330
1F
100
AcDbEntity
  8
DEFAULT
100
AcDbSpline
210
0.0
220
0.0
230
1.0
 70
     8
 71
     3
 72
    42
 73
    38
 74
     0
 42
0.0000000001
 43
0.0000000001
 40
0.0
 40
0.0
 40
0.0
 40
0.0
 40
1.0
 40
2.0
 40
3.0
 40
4.0
 40
5.0
 40
5.0
 40
5.0
 40
6.0
 40
6.0
 40
6.0
 40
6.999990163677035
 40
7.999992622757777
 40
8.999995081838517
 40
9.999997540919258
 40
11.0
 40
11.0
 40
11.0
 40
12.0
 40
12.0
 40
12.0
 40
13.00000245908074
 40
14.00000491816148
 40
15.00000737724222
 40
16.00000983632297
 40
17.0
 40
17.0
 40
17.0
 40
18.0
 40
18.0
 40
18.0
 40
19.0
 40
20.0
 40
21.0
 40
22.0
 40
23.0
 40
23.0
 40
23.0
 40
23.0
 10
8.925431499999998
 20
0.5918708961699792
 30
0.0
 10
8.93752599600919
 20
0.6185858781490454
 30
0.0
 10
8.956871560282835
 20
0.6740461344211437
 30
0.0
 10
8.977202962669312
 20
0.759683815761102
 30
0.0
 10
8.989998975421832
 20
0.8467789837051097
 30
0.0
 10
8.994390056673012
 20
0.934694238091209
 30
0.0
 10
8.989601695571215
 20
0.993392094165938
 30
0.0
 10
8.982487999999998
 20
1.02188789616998
 30
0.0
 10
8.094709166666666
 20
4.349056896169979
 30
0.0
 10
7.206930333333332
 20
7.676225896169979
 30
0.0
 10
6.319151499999998
 20
11.00339489616998
 30
0.0
 10
6.295767439267101
 20
11.08578287884533
 30
0.0
 10
6.230480988157209
 20
11.2454953192142
 30
0.0
 10
6.07333654816749
 20
11.45187767835261
 30
0.0
 10
5.867270425503223
 20
11.60907645318774
 30
0.0
 10
5.628055185947301
 20
11.70871565131553
 30
0.0
 10
5.456746084045258
 20
11.73120178039894
 30
0.0
 10
5.3710705
 20
11.73167389616998
 30
0.0
 10
1.790356833333334
 20
11.73167389616998
 30
0.0
 10
-1.790356833333332
 20
11.73167389616998
 30
0.0
 10
-5.371070499999998
 20
11.73167389616998
 30
0.0
 10
-5.456746084045258
 20
11.73120178039894
 30
0.0
 10
-5.628055185947301
 20
11.70871565131553
 30
0.0
 10
-5.867270425503223
 20
11.60907645318774
 30
0.0
 10
-6.07333654816749
 20
11.45187767835261
 30
0.0
 10
-6.230480988157209
 20
11.2454953192142
 30
0.0
 10
-6.295767439267101
 20
11.08578287884533
 30
0.0
 10
-6.319151499999998
 20
11.00339489616998
 30
0.0
 10
-7.206930333333332
 20
7.676225896169979
 30
0.0
 10
-8.094709166666666
 20
4.349056896169979
 30
0.0
 10
-8.982487999999998
 20
1.02188789616998
 30
0.0
 10
-8.989601695571215
 20
0.993392094165938
 30
0.0
 10
-8.994390056673012
 20
0.934694238091209
 30
0.0
 10
-8.989998975421832
 20
0.8467789837051097
 30
0.0
 10
-8.977202962669312
 20
0.759683815761102
 30
0.0
 10
-8.956871560282835
 20
0.6740461344211437
 30
0.0
 10
-8.93752599600919
 20
0.6185858781490454
 30
0.0
 10
-8.925431499999998
 20
0.5918708961699792
 30
0.0
  0
SPLINE
  5
7F
330
1F
100
AcDbEntity
  8
DEFAULT
100
AcDbSpline
210
0.0
220
0.0
230
1.0
 70
     8
 71
     3
 72
    22
 73
    18
 74
     0
 42
0.0000000001
 43
0.0000000001
 40
0.0
 40
0.0
 40
0.0
 40
0.0
 40
1.0
 40
2.0
 40
3.0
 40
4.0
 40
5.0
 40
5.0
 40
5.0
 40
6.0
 40
6.0
 40
6.0
 40
7.0
 40
8.0
 40
9.0
 40
10.0
 40
11.0
 40
11.0
 40
11.0
 40
11.0
 10
5.371070499999998
 20
12.16917389616998
 30
0.0
 10
5.494867413193824
 20
12.16795337566421
 30
0.0
 10
5.742855704234428
 20
12.13683070067752
 30
0.0
 10
6.088330063156979
 20
11.9914770414073
 30
0.0
 10
6.386352840049013
 20
11.7646083161237
 30
0.0
 10
6.614066220881488
 20
11.46648668764781
 30
0.0
 10
6.708168037947773
 20
11.23534634770592
 30
0.0
 10
6.741859999999999
 20
11.11619339616998
 30
0.0
 10
7.629639499999999
 20
7.789022562836647
 30
0.0
 10
8.517418999999999
 20
4.461851729503313
 30
0.0
 10
9.406456499999997
 20
1.12494489616998
 30
0.0
 10
9.40935554256081
 20
1.120177209728868
 30
0.0
 10
9.427943342233853
 20
1.03002994132509
 30
0.0
 10
9.4313713226483
 20
0.9248788256398092
 30
0.0
 10
9.426143635340571
 20
0.8113571151733278
 30
0.0
 10
9.411353989551483
 20
0.7009510202974433
 30
0.0
 10
9.39552366071985
 20
0.627932305584318
 30
0.0
 10
9.386252499999998
 20
0.5918708961699792
 30
0.0
  0
SPLINE
  5
80
330
1F
100
AcDbEntity
  8
DEFAULT
100
AcDbSpline
210
0.0
220
0.0
230
1.0
 70
     8
 71
     3
 72
    22
 73
    18
 74
     0
 42
0.0000000001
 43
0.0000000001
 40
0.0
 40
0.0
 40
0.0
 40
0.0
 40
1.0
 40
2.0
 40
3.0
 40
4.0
 40
5.0
 40
5.0
 40
5.0
 40
6.0
 40
6.0
 40
6.0
 40
6.999991700105671
 40
7.999993775079253
 40
8.999995850052835
 40
9.999997925026417
 40
11.0
 40
11.0
 40
11.0
 40
11.0
 10
10.7583165
 20
0.5621818961699798
 30
0.0
 10
10.77792322423212
 20
0.5903180597573688
 30
0.0
 10
10.80353017923597
 20
0.6542836962783322
 30
0.0
 10
10.82873838765038
 20
0.7537568707808363
 30
0.0
 10
10.84303410444438
 20
0.8555260703524854
 30
0.0
 10
10.84592132098047
 20
0.9582182604679188
 30
0.0
 10
10.83850946168279
 20
1.026473737005089
 30
0.0
 10
10.8299885
 20
1.059645896169981
 30
0.0
 10
9.837528833333332
 20
4.857255062836647
 30
0.0
 10
8.845069166666667
 20
8.654864229503314
 30
0.0
 10
7.852609499999998
 20
12.45247339616998
 30
0.0
 10
7.829817872726626
 20
12.53536244238517
 30
0.0
 10
7.765470781683506
 20
12.69641986971845
 30
0.0
 10
7.607345382534199
 20
12.90341485813672
 30
0.0
 10
7.401199116221339
 20
13.06183663170878
 30
0.0
 10
7.161361255390786
 20
13.16300193616479
 30
0.0
 10
6.989215138679817
 20
13.18486796766004
 30
0.0
 10
6.903243499999999
 20
13.18562089616998
 30
0.0
  0
SPLINE
  5
81
330
1F
100
AcDbEntity
  8
DEFAULT
100
AcDbSpline
210
0.0
220
0.0
230
1.0
 70
     8
 71
     3
 72
    22
 73
    18
 74
     0
 42
0.0000000001
 43
0.0000000001
 40
0.0
 40
0.0
 40
0.0
 40
0.0
 40
1.0
 40
2.0
 40
3.0
 40
4.0
 40
5.0
 40
5.0
 40
5.0
 40
6.0
 40
6.0
 40
6.0
 40
7.0
 40
8.0
 40
9.0
 40
10.0
 40
11.0
 40
11.0
 40
11.0
 40
11.0
 10
-5.371070499999998
 20
12.16917389616998
 30
0.0
 10
-5.494867413193824
 20
12.16795337566421
 30
0.0
 10
-5.742855704234428
 20
12.13683070067752
 30
0.0
 10
-6.088330063156979
 20
11.9914770414073
 30
0.0
 10
-6.386352840049013
 20
11.7646083161237
 30
0.0
 10
-6.614066220881488
 20
11.46648668764781
 30
0.0
 10
-6.708168037947773
 20
11.23534634770592
 30
0.0
 10
-6.741859999999999
 20
11.11619339616998
 30
0.0
 10
-7.629639499999999
 20
7.789022562836647
 30
0.0
 10
-8.517418999999999
 20
4.461851729503313
 30
0.0
 10
-9.406456499999997
 20
1.12494489616998
 30
0.0
 10
-9.40935554256081
 20
1.120177209728868
 30
0.0
 10
-9.427943342233853
 20
1.03002994132509
 30
0.0
 10
-9.4313713226483
 20
0.9248788256398092
 30
0.0
 10
-9.426143635340571
 20
0.8113571151733278
 30
0.0
 10
-9.411353989551483
 20
0.7009510202974433
 30
0.0
 10
-9.39552366071985
 20
0.627932305584318
 30
0.0
 10
-9.386252499999998
 20
0.5918708961699792
 30
0.0
  0
SPLINE
  5
82
330
1F
100
AcDbEntity
  8
DEFAULT
100
AcDbSpline
210
0.0
220
0.0
230
1.0
 70
     8
 71
     3
 72
    22
 73
    18
 74
     0
 42
0.0000000001
 43
0.0000000001
 40
0.0
 40
0.0
 40
0.0
 40
0.0
 40
1.0
 40
2.0
 40
3.0
 40
4.0
 40
5.0
 40
5.0
 40
5.0
 40
6.0
 40
6.0
 40
6.0
 40
6.999991700105671
 40
7.999993775079253
 40
8.999995850052835
 40
9.999997925026417
 40
11.0
 40
11.0
 40
11.0
 40
11.0
 10
-10.7583165
 20
0.5621818961699798
 30
0.0
 10
-10.77792322423212
 20
0.5903180597573688
 30
0.0
 10
-10.80353017923597
 20
0.6542836962783322
 30
0.0
 10
-10.82873838765038
 20
0.7537568707808363
 30
0.0
 10
-10.84303410444438
 20
0.8555260703524854
 30
0.0
 10
-10.84592132098047
 20
0.9582182604679188
 30
0.0
 10
-10.83850946168279
 20
1.026473737005089
 30
0.0
 10
-10.8299885
 20
1.059645896169981
 30
0.0
 10
-9.837528833333332
 20
4.857255062836647
 30
0.0
 10
-8.845069166666667
 20
8.654864229503314
 30
0.0
 10
-7.852609499999998
 20
12.45247339616998
 30
0.0
 10
-7.829817872726626
 20
12.53536244238517
 30
0.0
 10
-7.765470781683506
 20
12.69641986971845
 30
0.0
 10
-7.607345382534199
 20
12.90341485813672
 30
0.0
 10
-7.401199116221339
 20
13.06183663170878
 30
0.0
 10
-7.161361255390786
 20
13.16300193616479
 30
0.0
 10
-6.989215138679817
 20
13.18486796766004
 30
0.0
 10
-6.903243499999999
 20
13.18562089616998
 30
0.0
  0
SPLINE
  5
83
330
1F
100
AcDbEntity
  8
DEFAULT
100
AcDbSpline
210
0.0
220
0.0
230
1.0
 70
    24
 71
     2
 72
     6
 73
     3
 74
     0
 42
0.0000000001
 43
0.0000000001
 40
0.0
 40
0.0
 40
0.0
 40
1.0
 40
1.0
 40
1.0
 10
9.356741499999998
 20
0.1543708961699792
 30
0.0
 10
-0.0000874999999994
 20
0.1543708961699792
 30
0.0
 10
-9.356916499999997
 20
0.1543708961699792
 30
0.0
  0
SPLINE
  5
84
330
1F
100
AcDbEntity
  8
DEFAULT
100
AcDbSpline
210
0.0
220
0.0
230
1.0
 70
    24
 71
     2
 72
     6
 73
     3
 74
     0
 42
0.0000000001
 43
0.0000000001
 40
0.0
 40
0.0
 40
0.0
 40
1.0
 40
1.0
 40
1.0
 10
10.7760525
 20
0.5918708961699792
 30
0.0
 10
0.000016500000001
 20
0.5918708961699792
 30
0.0
 10
-10.7760195
 20
0.5918708961699792
 30
0.0
  0
SPLINE
  5
85
330
1F
100
AcDbEntity
  8
DEFAULT
100
AcDbSpline
210
0.0
220
0.0
230
1.0
 70
     8
 71
     3
 72
    43
 73
    39
 74
     0
 42
0.0000000001
 43
0.0000000001
 40
-1.0
 40
-1.0
 40
-1.0
 40
-1.0
 40
-0.9944475131755
 40
-0.9911962982665
 40
-0.9875821773356
 40
-0.9791783526608
 40
-0.9691081463891
 40
-0.9573107679168
 40
-0.9437561218237
 40
-0.9284310160481
 40
-0.9113321735848
 40
-0.8924624606625
 40
-0.8718287298255
 40
-0.825310364949
 40
-0.7718713339702
 40
-0.711624334838
 40
-0.6446913736079
 40
-0.5712000714598
 40
-0.4912816028908
 40
-0.4050694709992
 40
-0.2143058065949
 40
0.0
 40
0.0
 40
0.0
 40
1.0
 40
1.0
 40
1.0
 40
2.0
 40
3.0
 40
4.0
 40
5.0
 40
5.997485643077425
 40
5.997485643077425
 40
5.997485643077425
 40
6.006016283543046
 40
6.006016283543046
 40
6.006016283543046
 40
7.006016283543046
 40
7.006016283543046
 40
7.006016283543046
 40
7.006016283543046
 10
-14.96613058923
 20
21.13658227780998
 30
0.0
 10
-14.96639159292
 20
21.13297438391998
 30
0.0
 10
-14.96571621496
 20
21.12717337871998
 30
0.0
 10
-14.96348562262
 20
21.11939900647998
 30
0.0
 10
-14.95985983423
 20
21.11011827648998
 30
0.0
 10
-14.95308918265
 20
21.09737594045998
 30
0.0
 10
-14.94217613526
 20
21.08092753937998
 30
0.0
 10
-14.92810387822
 20
21.06261985095998
 30
0.0
 10
-14.91089668728
 20
21.04245529178998
 30
0.0
 10
-14.89057635127
 20
21.02043977179998
 30
0.0
 10
-14.86717147887
 20
20.99658280863998
 30
0.0
 10
-14.84071265785
 20
20.97089381062998
 30
0.0
 10
-14.79973489723
 20
20.93266062730998
 30
0.0
 10
-14.74095429684
 20
20.88051941967998
 30
0.0
 10
-14.66133149556
 20
20.81303350887998
 30
0.0
 10
-14.57030822248
 20
20.73845578781998
 30
0.0
 10
-14.46815418998
 20
20.65686976064998
 30
0.0
 10
-14.35513752621
 20
20.56836064979998
 30
0.0
 10
-14.23153114791
 20
20.47301068582998
 30
0.0
 10
-14.04662982618
 20
20.33204173963998
 30
0.0
 10
-13.79083095974
 20
20.13967091757998
 30
0.0
 10
-13.57919233236
 20
19.98203479970998
 30
0.0
 10
-13.467141717225
 20
19.89874510923498
 30
0.0
 10
-12.60920560557833
 20
19.26104179888665
 30
0.0
 10
-11.75126949393166
 20
18.62333848853831
 30
0.0
 10
-10.893333382285
 20
17.98563517818998
 30
0.0
 10
-10.68542902768788
 20
17.83128412298229
 30
0.0
 10
-10.27032748888089
 20
17.5217877878338
 30
0.0
 10
-9.645158670719104
 20
17.06037898232917
 30
0.0
 10
-9.027851911726595
 20
16.59015325473732
 30
0.0
 10
-8.393848685675582
 20
16.13709716486196
 30
0.0
 10
-7.891263451492736
 20
15.97600127994609
 30
0.0
 10
-7.631413869322138
 20
15.97294043589076
 30
0.0
 10
-7.609909710928091
 20
15.97292066456384
 30
0.0
 10
-7.588405552534044
 20
15.97290089323691
 30
0.0
 10
-7.566901394139997
 20
15.97288112190998
 30
0.0
 10
-5.046086291733331
 20
15.97294008411331
 30
0.0
 10
-2.525271189326664
 20
15.97299904631665
 30
0.0
 10
-0.0044560869199977
 20
15.97305800851998
 30
0.0
  0
SPLINE
  5
86
330
1F
100
AcDbEntity
  8
DEFAULT
100
AcDbSpline
210
0.0
220
0.0
230
1.0
 70
     8
 71
     3
 72
    43
 73
    39
 74
     0
 42
0.0000000001
 43
0.0000000001
 40
-1.0
 40
-1.0
 40
-1.0
 40
-1.0
 40
-0.9944475131755
 40
-0.9911962982665
 40
-0.9875821773356
 40
-0.9791783526608
 40
-0.9691081463891
 40
-0.9573107679168
 40
-0.9437561218237
 40
-0.9284310160481
 40
-0.9113321735848
 40
-0.8924624606625
 40
-0.8718287298255
 40
-0.825310364949
 40
-0.7718713339702
 40
-0.711624334838
 40
-0.6446913736079
 40
-0.5712000714598
 40
-0.4912816028908
 40
-0.4050694709992
 40
-0.2143058065949
 40
0.0
 40
0.0
 40
0.0
 40
1.0
 40
1.0
 40
1.0
 40
2.0
 40
3.0
 40
4.0
 40
5.0
 40
5.997485643077425
 40
5.997485643077425
 40
5.997485643077425
 40
6.006016283543046
 40
6.006016283543046
 40
6.006016283543046
 40
7.006016283543046
 40
7.006016283543046
 40
7.006016283543046
 40
7.006016283543046
 10
14.96613058923
 20
21.13658227780998
 30
0.0
 10
14.96639159292
 20
21.13297438391998
 30
0.0
 10
14.96571621496
 20
21.12717337871998
 30
0.0
 10
14.96348562262
 20
21.11939900647998
 30
0.0
 10
14.95985983423
 20
21.11011827648998
 30
0.0
 10
14.95308918265
 20
21.09737594045998
 30
0.0
 10
14.94217613526
 20
21.08092753937998
 30
0.0
 10
14.92810387822
 20
21.06261985095998
 30
0.0
 10
14.91089668728
 20
21.04245529178998
 30
0.0
 10
14.89057635127
 20
21.02043977179998
 30
0.0
 10
14.86717147887
 20
20.99658280863998
 30
0.0
 10
14.84071265785
 20
20.97089381062998
 30
0.0
 10
14.79973489723
 20
20.93266062730998
 30
0.0
 10
14.74095429684
 20
20.88051941967998
 30
0.0
 10
14.66133149556
 20
20.81303350887998
 30
0.0
 10
14.57030822248
 20
20.73845578781998
 30
0.0
 10
14.46815418998
 20
20.65686976064998
 30
0.0
 10
14.35513752621
 20
20.56836064979998
 30
0.0
 10
14.23153114791
 20
20.47301068582998
 30
0.0
 10
14.04662982618
 20
20.33204173963998
 30
0.0
 10
13.79083095974
 20
20.13967091757998
 30
0.0
 10
13.57919233236
 20
19.98203479970998
 30
0.0
 10
13.467141717225
 20
19.89874510923498
 30
0.0
 10
12.60920560557833
 20
19.26104179888665
 30
0.0
 10
11.75126949393166
 20
18.62333848853831
 30
0.0
 10
10.893333382285
 20
17.98563517818998
 30
0.0
 10
10.68542902768788
 20
17.83128412298229
 30
0.0
 10
10.27032748888089
 20
17.5217877878338
 30
0.0
 10
9.645158670719104
 20
17.06037898232917
 30
0.0
 10
9.027851911726595
 20
16.59015325473732
 30
0.0
 10
8.393848685675582
 20
16.13709716486196
 30
0.0
 10
7.891263451492736
 20
15.97600127994609
 30
0.0
 10
7.631413869322138
 20
15.97294043589076
 30
0.0
 10
7.609909710928091
 20
15.97292066456384
 30
0.0
 10
7.588405552534044
 20
15.97290089323691
 30
0.0
 10
7.566901394139997
 20
15.97288112190998
 30
0.0
 10
5.046086291733331
 20
15.97294008411331
 30
0.0
 10
2.525271189326664
 20
15.97299904631665
 30
0.0
 10
0.0044560869199977
 20
15.97305800851998
 30
0.0
  0
SPLINE
  5
87
330
1F
100
AcDbEntity
  8
DEFAULT
100
AcDbSpline
210
0.0
220
0.0
230
1.0
 70
     8
 71
     3
 72
    22
 73
    18
 74
     0
 42
0.0000000001
 43
0.0000000001
 40
-5.0
 40
-5.0
 40
-5.0
 40
-5.0
 40
-4.0
 40
-3.0
 40
-2.0
 40
-1.0
 40
-0.0199653596929093
 40
-0.0199653596929093
 40
-0.0199653596929093
 40
0.9883404577042142
 40
0.9883404577042142
 40
0.9883404577042142
 40
1.971212409549149
 40
2.97121240954915
 40
3.97121240954915
 40
4.97121240954915
 40
5.97121240954915
 40
5.97121240954915
 40
5.97121240954915
 40
5.97121240954915
 10
8.792392499999998
 20
17.49221289616998
 30
0.0
 10
8.715889656847992
 20
17.41492591252732
 30
0.0
 10
8.559519317155353
 20
17.26383672591903
 30
0.0
 10
8.320199353512958
 20
17.04190179165176
 30
0.0
 10
8.063071057658767
 20
16.84077596683237
 30
0.0
 10
7.797416193573191
 20
16.6550282528678
 30
0.0
 10
7.611026155789046
 20
16.54673187823155
 30
0.0
 10
7.515728530257682
 20
16.49900071926658
 30
0.0
 10
2.505518766368196
 20
16.49886258136958
 30
0.0
 10
-2.504690997521291
 20
16.49872444347258
 30
0.0
 10
-7.514900761410777
 20
16.49858630557559
 30
0.0
 10
-7.610491956357438
 20
16.54642154041357
 30
0.0
 10
-7.797163261744561
 20
16.65485140118802
 30
0.0
 10
-8.063071057658767
 20
16.84077596683237
 30
0.0
 10
-8.320199353512958
 20
17.04190179165176
 30
0.0
 10
-8.559519317155353
 20
17.26383672591903
 30
0.0
 10
-8.715889656847992
 20
17.41492591252732
 30
0.0
 10
-8.792392499999998
 20
17.49221289616998
 30
0.0
  0
SPLINE
  5
88
330
1F
100
AcDbEntity
  8
DEFAULT
100
AcDbSpline
210
0.0
220
0.0
230
1.0
 70
    24
 71
     2
 72
     6
 73
     3
 74
     0
 42
0.0000000001
 43
0.0000000001
 40
0.0
 40
0.0
 40
0.0
 40
1.0
 40
1.0
 40
1.0
 10
-5.0636595
 20
12.16917389616998
 30
0.0
 10
-5.217364999999999
 20
12.16917389616998
 30
0.0
 10
-5.371070499999998
 20
12.16917389616998
 30
0.0
  0
SPLINE
  5
89
330
1F
100
AcDbEntity
  8
DEFAULT
100
AcDbSpline
210
0.0
220
0.0
230
1.0
 70
    24
 71
     2
 72
     6
 73
     3
 74
     0
 42
0.0000000001
 43
0.0000000001
 40
0.0
 40
0.0
 40
0.0
 40
1.0
 40
1.0
 40
1.0
 10
-4.102140499999997
 20
12.18263189616998
 30
0.0
 10
0.0001340000000027
 20
12.18274489616998
 30
0.0
 10
4.102408500000003
 20
12.18285789616998
 30
0.0
  0
SPLINE
  5
8A
330
1F
100
AcDbEntity
  8
DEFAULT
100
AcDbSpline
210
0.0
220
0.0
230
1.0
 70
    24
 71
     2
 72
     6
 73
     3
 74
     0
 42
0.0000000001
 43
0.0000000001
 40
0.0
 40
0.0
 40
0.0
 40
1.0
 40
1.0
 40
1.0
 10
-6.5396915
 20
13.39287489616998
 30
0.0
 10
-7.042070499999999
 20
13.80363289616998
 30
0.0
 10
-7.544449499999999
 20
14.21439089616998
 30
0.0
  0
SPLINE
  5
8B
330
1F
100
AcDbEntity
  8
DEFAULT
100
AcDbSpline
210
0.0
220
0.0
230
1.0
 70
    24
 71
     2
 72
     6
 73
     3
 74
     0
 42
0.0000000001
 43
0.0000000001
 40
0.0
 40
0.0
 40
0.0
 40
1.0
 40
1.0
 40
1.0
 10
-6.903243499999999
 20
13.18562089616998
 30
0.0
 10
0.0000000000000018
 20
13.18562089616998
 30
0.0
 10
6.903243500000002
 20
13.18562089616998
 30
0.0
  0
SPLINE
  5
8C
330
1F
100
AcDbEntity
  8
DEFAULT
100
AcDbSpline
210
0.0
220
0.0
230
1.0
 70
     8
 71
     3
 72
    12
 73
     8
 74
     0
 42
0.0000000001
 43
0.0000000001
 40
0.0
 40
0.0
 40
0.0
 40
0.0
 40
1.0
 40
2.0
 40
3.0
 40
4.0
 40
5.0
 40
5.0
 40
5.0
 40
5.0
 10
-8.991545735762603
 20
67.30958250626239
 30
0.0
 10
-8.770434476884786
 20
66.71101177031625
 30
0.0
 10
-8.347052329676744
 20
65.50658571969228
 30
0.0
 10
-7.796343303695592
 20
63.67286699676973
 30
0.0
 10
-7.295330720469017
 20
61.8245814548718
 30
0.0
 10
-6.699262262808266
 20
60.00559392949286
 30
0.0
 10
-6.18406411050293
 20
58.83538999492082
 30
0.0
 10
-5.911992768261951
 20
58.25853650530546
 30
0.0
  0
SPLINE
  5
8D
330
1F
100
AcDbEntity
  8
DEFAULT
100
AcDbSpline
210
0.0
220
0.0
230
1.0
 70
     8
 71
     3
 72
    12
 73
     8
 74
     0
 42
0.0000000001
 43
0.0000000001
 40
0.0
 40
0.0
 40
0.0
 40
0.0
 40
1.0
 40
2.0
 40
3.0
 40
4.0
 40
5.0
 40
5.0
 40
5.0
 40
5.0
 10
8.991545735762603
 20
67.30958250626239
 30
0.0
 10
8.770434476884786
 20
66.71101177031625
 30
0.0
 10
8.347052329676744
 20
65.50658571969228
 30
0.0
 10
7.796343303695592
 20
63.67286699676973
 30
0.0
 10
7.295330720469017
 20
61.8245814548718
 30
0.0
 10
6.699262262808266
 20
60.00559392949286
 30
0.0
 10
6.18406411050293
 20
58.83538999492082
 30
0.0
 10
5.911992768261951
 20
58.25853650530546
 30
0.0
  0
SPLINE
  5
8E
330
1F
100
AcDbEntity
  8
DEFAULT
100
AcDbSpline
210
0.0
220
0.0
230
1.0
 70
     8
 71
     3
 72
    12
 73
     8
 74
     0
 42
0.0000000001
 43
0.0000000001
 40
0.0
 40
0.0
 40
0.0
 40
0.0
 40
1.0
 40
2.0
 40
3.0
 40
4.0
 40
5.0
 40
5.0
 40
5.0
 40
5.0
 10
6.970474147129998
 20
56.57803199308998
 30
0.0
 10
7.442328400325915
 20
56.67179750489081
 30
0.0
 10
8.387324515516651
 20
56.85187914590799
 30
0.0
 10
9.805786003389473
 20
57.12001931149334
 30
0.0
 10
11.24081398019243
 20
57.28399988609463
 30
0.0
 10
12.68340063273478
 20
57.34122269920333
 30
0.0
 10
13.64543213587773
 20
57.35127186667265
 30
0.0
 10
14.12648744718
 20
57.35441418806998
 30
0.0
  0
SPLINE
  5
8F
330
1F
100
AcDbEntity
  8
DEFAULT
100
AcDbSpline
210
0.0
220
0.0
230
1.0
 70
     8
 71
     3
 72
    12
 73
     8
 74
     0
 42
0.0000000001
 43
0.0000000001
 40
0.0
 40
0.0
 40
0.0
 40
0.0
 40
1.0
 40
2.0
 40
3.0
 40
4.0
 40
5.0
 40
5.0
 40
5.0
 40
5.0
 10
-6.970474147129998
 20
56.57803199308998
 30
0.0
 10
-7.442328400325915
 20
56.67179750489081
 30
0.0
 10
-8.387324515516651
 20
56.85187914590799
 30
0.0
 10
-9.805786003389473
 20
57.12001931149334
 30
0.0
 10
-11.24081398019243
 20
57.28399988609463
 30
0.0
 10
-12.68340063273478
 20
57.34122269920333
 30
0.0
 10
-13.64543213587773
 20
57.35127186667265
 30
0.0
 10
-14.12648744718
 20
57.35441418806998
 30
0.0
  0
VIEWPORT
  5
99
330
95
100
AcDbEntity
 67
     1
  8
0
100
AcDbViewport
 10
6.0
 20
4.5
 30
0.0
 40
12.696
 41
9.522
 68
     1
 69
     1
 12
6.0
 22
4.5
 13
0.0
 23
0.0
 14
0.5
 24
0.5
 15
0.5
 25
0.5
 16
0.0
 26
0.0
 36
1.0
 17
0.0
 27
0.0
 37
0.0
 42
50.0
 43
0.0
 44
0.0
 45
9.522
 50
0.0
 51
0.0
 72
   100
 90
   557152
  1

281
     0
 71
     1
 74
     0
110
0.0
120
0.0
130
0.0
111
1.0
121
0.0
131
0.0
112
0.0
122
1.0
132
0.0
 79
     0
146
0.0
  0
ENDSEC
  0
SECTION
  2
OBJECTS
  0
DICTIONARY
  5
C
330
0
100
AcDbDictionary
281
     1
  3
ACAD_GROUP
350
D
  3
ACAD_LAYOUT
350
1A
  3
ACAD_MLEADERSTYLE
350
9C
  3
ACAD_MLINESTYLE
350
17
  3
ACAD_PLOTSETTINGS
350
19
  3
ACAD_PLOTSTYLENAME
350
E
  3
ACAD_SCALELIST
350
9D
  3
ACAD_VISUALSTYLE
350
2A
  3
AcDbVariableDictionary
350
9A
  0
DICTIONARY
  5
D
102
{ACAD_REACTORS
330
C
102
}
330
C
100
AcDbDictionary
281
     1
  0
DICTIONARY
  5
1A
102
{ACAD_REACTORS
330
C
102
}
330
C
100
AcDbDictionary
281
     1
  3
LAYOUT1
350
91
  3
LAYOUT2
350
96
  3
Model
350
22
  0
DICTIONARY
  5
9C
102
{ACAD_REACTORS
330
C
102
}
330
C
100
AcDbDictionary
281
     1
  0
DICTIONARY
  5
17
102
{ACAD_REACTORS
330
C
102
}
330
C
100
AcDbDictionary
281
     1
  3
Standard
350
18
  0
DICTIONARY
  5
19
102
{ACAD_REACTORS
330
C
102
}
330
C
100
AcDbDictionary
281
     1
  0
ACDBDICTIONARYWDFLT
  5
E
102
{ACAD_REACTORS
330
C
102
}
330
C
100
AcDbDictionary
281
     1
  3
Normal
350
F
100
AcDbDictionaryWithDefault
340
F
  0
DICTIONARY
  5
9D
102
{ACAD_REACTORS
330
C
102
}
330
C
100
AcDbDictionary
281
     1
  3
A0
350
9E
  3
A1
350
9F
  3
A2
350
A0
  3
A3
350
A1
  3
A4
350
A2
  3
A5
350
A3
  3
A6
350
A4
  3
A7
350
A5
  3
A8
350
A6
  3
A9
350
A7
  3
B0
350
A8
  3
B1
350
A9
  3
B2
350
AA
  3
B3
350
AB
  3
B4
350
AC
  3
B5
350
AD
  3
B6
350
AE
  3
B7
350
AF
  3
B8
350
B0
  3
B9
350
B1
  3
C0
350
B2
  3
C1
350
B3
  3
C2
350
B4
  3
C3
350
B5
  3
C4
350
B6
  3
C5
350
B7
  3
C6
350
B8
  3
C7
350
B9
  3
C8
350
BA
  3
C9
350
BB
  3
D0
350
BC
  3
D1
350
BD
  3
D2
350
BE
  0
DICTIONARY
  5
2A
102
{ACAD_REACTORS
330
C
102
}
330
C
100
AcDbDictionary
281
     1
  3
2dWireframe
350
2F
  3
3D Hidden
350
31
  3
3dWireframe
350
30
  3
Basic
350
32
  3
Brighten
350
36
  3
ColorChange
350
3A
  3
Conceptual
350
34
  3
Dim
350
35
  3
Facepattern
350
39
  3
Flat
350
2B
  3
FlatWithEdges
350
2C
  3
Gouraud
350
2D
  3
GouraudWithEdges
350
2E
  3
Linepattern
350
38
  3
Realistic
350
33
  3
Thicken
350
37
  0
DICTIONARY
  5
9A
102
{ACAD_REACTORS
330
C
102
}
330
C
100
AcDbDictionary
281
     1
  3
CANNOSCALE
350
BF
  0
LAYOUT
  5
91
102
{ACAD_REACTORS
330
1A
102
}
330
1A
100
AcDbPlotSettings
  1

  2
none_device
  4
Letter_(8.50_x_11.00_Inches)
  6

 40
6.35
 41
6.35
 42
6.35000508
 43
6.35000508
 44
215.9
 45
279.4
 46
0.0
 47
0.0
 48
0.0
 49
0.0
140
0.0
141
0.0
142
1.0
143
1.0
 70
   688
 72
     0
 73
     1
 74
     5
  7

 75
    16
147
1.0
148
0.0
149
0.0
100
AcDbLayout
  1
LAYOUT1
 70
     1
 71
     1
 10
0.0
 20
0.0
 11
0.0
 21
0.0
 12
0.0
 22
0.0
 32
0.0
 14
0.0
 24
0.0
 34
0.0
 15
0.0
 25
0.0
 35
0.0
146
0.0
 13
0.0
 23
0.0
 33
0.0
 16
1.0
 26
0.0
 36
0.0
 17
0.0
 27
1.0
 37
0.0
 76
     0
330
90
331
94
  0
LAYOUT
  5
96
102
{ACAD_REACTORS
330
1A
102
}
330
1A
100
AcDbPlotSettings
  1

  2
none_device
  4
Letter_(8.50_x_11.00_Inches)
  6

 40
6.35
 41
6.35
 42
6.35000508
 43
6.35000508
 44
215.9
 45
279.4
 46
0.0
 47
0.0
 48
0.0
 49
0.0
140
0.0
141
0.0
142
1.0
143
1.0
 70
   688
 72
     0
 73
     1
 74
     5
  7

 75
    16
147
1.0
148
0.0
149
0.0
100
AcDbLayout
  1
LAYOUT2
 70
     1
 71
     2
 10
0.0
 20
0.0
 11
0.0
 21
0.0
 12
0.0
 22
0.0
 32
0.0
 14
0.0
 24
0.0
 34
0.0
 15
0.0
 25
0.0
 35
0.0
146
0.0
 13
0.0
 23
0.0
 33
0.0
 16
1.0
 26
0.0
 36
0.0
 17
0.0
 27
1.0
 37
0.0
 76
     0
330
95
331
99
  0
LAYOUT
  5
22
102
{ACAD_REACTORS
330
1A
102
}
330
1A
100
AcDbPlotSettings
  1

  2
none_device
  4

  6

 40
0.0
 41
0.0
 42
0.0
 43
0.0
 44
0.0
 45
0.0
 46
0.0
 47
0.0
 48
0.0
 49
0.0
140
0.0
141
0.0
142
1.0
143
1.0
 70
  1712
 72
     0
 73
     0
 74
     0
  7

 75
     0
147
1.0
148
0.0
149
0.0
100
AcDbLayout
  1
Model
 70
     1
 71
     0
 10
0.0
 20
0.0
 11
12.0
 21
9.0
 12
0.0
 22
0.0
 32
0.0
 14
-15.020322596525
 24
0.0031206264408364
 34
0.0
 15
52.29704822486916
 25
70.21430702555001
 35
0.0
146
0.0
 13
0.0
 23
0.0
 33
0.0
 16
1.0
 26
0.0
 36
0.0
 17
0.0
 27
1.0
 37
0.0
 76
     0
330
1F
331
29
  0
MLINESTYLE
  5
18
102
{ACAD_REACTORS
330
17
102
}
330
17
100
AcDbMlineStyle
  2
Standard
 70
     0
  3

 62
   256
 51
90.0
 52
90.0
 71
     2
 49
0.5
 62
   256
  6
BYLAYER
 49
-0.5
 62
   256
  6
BYLAYER
  0
ACDBPLACEHOLDER
  5
F
102
{ACAD_REACTORS
330
E
102
}
330
E
  0
SCALE
  5
9E
102
{ACAD_REACTORS
330
9D
102
}
330
9D
100
AcDbScale
 70
     0
300
1:1
140
1.0
141
1.0
290
     1
  0
SCALE
  5
9F
102
{ACAD_REACTORS
330
9D
102
}
330
9D
100
AcDbScale
 70
     0
300
1:2
140
1.0
141
2.0
290
     0
  0
SCALE
  5
A0
102
{ACAD_REACTORS
330
9D
102
}
330
9D
100
AcDbScale
 70
     0
300
1:4
140
1.0
141
4.0
290
     0
  0
SCALE
  5
A1
102
{ACAD_REACTORS
330
9D
102
}
330
9D
100
AcDbScale
 70
     0
300
1:5
140
1.0
141
5.0
290
     0
  0
SCALE
  5
A2
102
{ACAD_REACTORS
330
9D
102
}
330
9D
100
AcDbScale
 70
     0
300
1:8
140
1.0
141
8.0
290
     0
  0
SCALE
  5
A3
102
{ACAD_REACTORS
330
9D
102
}
330
9D
100
AcDbScale
 70
     0
300
1:10
140
1.0
141
10.0
290
     0
  0
SCALE
  5
A4
102
{ACAD_REACTORS
330
9D
102
}
330
9D
100
AcDbScale
 70
     0
300
1:16
140
1.0
141
16.0
290
     0
  0
SCALE
  5
A5
102
{ACAD_REACTORS
330
9D
102
}
330
9D
100
AcDbScale
 70
     0
300
1:20
140
1.0
141
20.0
290
     0
  0
SCALE
  5
A6
102
{ACAD_REACTORS
330
9D
102
}
330
9D
100
AcDbScale
 70
     0
300
1:30
140
1.0
141
30.0
290
     0
  0
SCALE
  5
A7
102
{ACAD_REACTORS
330
9D
102
}
330
9D
100
AcDbScale
 70
     0
300
1:40
140
1.0
141
40.0
290
     0
  0
SCALE
  5
A8
102
{ACAD_REACTORS
330
9D
102
}
330
9D
100
AcDbScale
 70
     0
300
1:50
140
1.0
141
50.0
290
     0
  0
SCALE
  5
A9
102
{ACAD_REACTORS
330
9D
102
}
330
9D
100
AcDbScale
 70
     0
300
1:100
140
1.0
141
100.0
290
     0
  0
SCALE
  5
AA
102
{ACAD_REACTORS
330
9D
102
}
330
9D
100
AcDbScale
 70
     0
300
2:1
140
2.0
141
1.0
290
     0
  0
SCALE
  5
AB
102
{ACAD_REACTORS
330
9D
102
}
330
9D
100
AcDbScale
 70
     0
300
4:1
140
4.0
141
1.0
290
     0
  0
SCALE
  5
AC
102
{ACAD_REACTORS
330
9D
102
}
330
9D
100
AcDbScale
 70
     0
300
8:1
140
8.0
141
1.0
290
     0
  0
SCALE
  5
AD
102
{ACAD_REACTORS
330
9D
102
}
330
9D
100
AcDbScale
 70
     0
300
10:1
140
10.0
141
1.0
290
     0
  0
SCALE
  5
AE
102
{ACAD_REACTORS
330
9D
102
}
330
9D
100
AcDbScale
 70
     0
300
100:1
140
100.0
141
1.0
290
     0
  0
SCALE
  5
AF
102
{ACAD_REACTORS
330
9D
102
}
330
9D
100
AcDbScale
 70
     0
300
1/128" = 1'-0"
140
0.0078125
141
12.0
290
     0
  0
SCALE
  5
B0
102
{ACAD_REACTORS
330
9D
102
}
330
9D
100
AcDbScale
 70
     0
300
1/64" = 1'-0"
140
0.015625
141
12.0
290
     0
  0
SCALE
  5
B1
102
{ACAD_REACTORS
330
9D
102
}
330
9D
100
AcDbScale
 70
     0
300
1/32" = 1'-0"
140
0.03125
141
12.0
290
     0
  0
SCALE
  5
B2
102
{ACAD_REACTORS
330
9D
102
}
330
9D
100
AcDbScale
 70
     0
300
1/16" = 1'-0"
140
0.0625
141
12.0
290
     0
  0
SCALE
  5
B3
102
{ACAD_REACTORS
330
9D
102
}
330
9D
100
AcDbScale
 70
     0
300
3/32" = 1'-0"
140
0.09375
141
12.0
290
     0
  0
SCALE
  5
B4
102
{ACAD_REACTORS
330
9D
102
}
330
9D
100
AcDbScale
 70
     0
300
1/8" = 1'-0"
140
0.125
141
12.0
290
     0
  0
SCALE
  5
B5
102
{ACAD_REACTORS
330
9D
102
}
330
9D
100
AcDbScale
 70
     0
300
3/16" = 1'-0"
140
0.1875
141
12.0
290
     0
  0
SCALE
  5
B6
102
{ACAD_REACTORS
330
9D
102
}
330
9D
100
AcDbScale
 70
     0
300
1/4" = 1'-0"
140
0.25
141
12.0
290
     0
  0
SCALE
  5
B7
102
{ACAD_REACTORS
330
9D
102
}
330
9D
100
AcDbScale
 70
     0
300
3/8" = 1'-0"
140
0.375
141
12.0
290
     0
  0
SCALE
  5
B8
102
{ACAD_REACTORS
330
9D
102
}
330
9D
100
AcDbScale
 70
     0
300
1/2" = 1'-0"
140
0.5
141
12.0
290
     0
  0
SCALE
  5
B9
102
{ACAD_REACTORS
330
9D
102
}
330
9D
100
AcDbScale
 70
     0
300
3/4" = 1'-0"
140
0.75
141
12.0
290
     0
  0
SCALE
  5
BA
102
{ACAD_REACTORS
330
9D
102
}
330
9D
100
AcDbScale
 70
     0
300
1" = 1'-0"
140
1.0
141
12.0
290
     0
  0
SCALE
  5
BB
102
{ACAD_REACTORS
330
9D
102
}
330
9D
100
AcDbScale
 70
     0
300
1-1/2" = 1'-0"
140
1.5
141
12.0
290
     0
  0
SCALE
  5
BC
102
{ACAD_REACTORS
330
9D
102
}
330
9D
100
AcDbScale
 70
     0
300
3" = 1'-0"
140
3.0
141
12.0
290
     0
  0
SCALE
  5
BD
102
{ACAD_REACTORS
330
9D
102
}
330
9D
100
AcDbScale
 70
     0
300
6" = 1'-0"
140
6.0
141
12.0
290
     0
  0
SCALE
  5
BE
102
{ACAD_REACTORS
330
9D
102
}
330
9D
100
AcDbScale
 70
     0
300
1'-0" = 1'-0"
140
12.0
141
12.0
290
     0
  0
VISUALSTYLE
  5
2F
102
{ACAD_REACTORS
330
2A
102
}
330
2A
100
AcDbVisualStyle
  2
2dWireframe
 70
     4
 71
     0
 72
     2
 73
     0
 90
        0
 40
-0.6
 41
-30.0
 62
     5
 63
     7
 74
     1
 91
        4
 64
     7
 65
   257
 75
     1
175
     1
 42
1.0
 92
        0
 66
   257
 43
1.0
 76
     1
 77
     6
 78
     2
 67
     7
 79
     5
170
     0
171
     0
290
     0
174
     0
 93
        1
 44
0.0
173
     0
291
     0
 45
0.0
1001
ACAD
1000
AcDbSavedByObjectVersion
1070
     0
  0
VISUALSTYLE
  5
31
102
{ACAD_REACTORS
330
2A
102
}
330
2A
100
AcDbVisualStyle
  2
3D Hidden
 70
     6
 71
     1
 72
     2
 73
     2
 90
        0
 40
-0.6
 41
-30.0
 62
     5
 63
     7
 74
     2
 91
        2
 64
     7
 65
   257
 75
     2
175
     1
 42
40.0
 92
        0
 66
   257
 43
1.0
 76
     1
 77
     6
 78
     2
 67
     7
 79
     3
170
     0
171
     0
290
     0
174
     0
 93
        1
 44
0.0
173
     0
291
     0
 45
0.0
1001
ACAD
1000
AcDbSavedByObjectVersion
1070
     0
  0
VISUALSTYLE
  5
30
102
{ACAD_REACTORS
330
2A
102
}
330
2A
100
AcDbVisualStyle
  2
3dWireframe
 70
     5
 71
     0
 72
     2
 73
     0
 90
        0
 40
-0.6
 41
-30.0
 62
     5
 63
     7
 74
     1
 91
        4
 64
     7
 65
   257
 75
     1
175
     1
 42
1.0
 92
        0
 66
   257
 43
1.0
 76
     1
 77
     6
 78
     2
 67
     7
 79
     5
170
     0
171
     0
290
     0
174
     0
 93
        1
 44
0.0
173
     0
291
     0
 45
0.0
1001
ACAD
1000
AcDbSavedByObjectVersion
1070
     0
  0
VISUALSTYLE
  5
32
102
{ACAD_REACTORS
330
2A
102
}
330
2A
100
AcDbVisualStyle
  2
Basic
 70
     7
 71
     1
 72
     0
 73
     1
 90
        0
 40
-0.6
 41
-30.0
 62
     5
 63
     7
 74
     0
 91
        4
 64
     7
 65
   257
 75
     1
175
     1
 42
1.0
 92
        8
 66
     7
 43
1.0
 76
     1
 77
     6
 78
     2
 67
     7
 79
     5
170
     0
171
     0
290
     0
174
     0
 93
        1
 44
0.0
173
     0
291
     1
 45
0.0
1001
ACAD
1000
AcDbSavedByObjectVersion
1070
     0
  0
VISUALSTYLE
  5
36
102
{ACAD_REACTORS
330
2A
102
}
330
2A
100
AcDbVisualStyle
  2
Brighten
 70
    12
 71
     2
 72
     2
 73
     0
 90
        0
 40
-0.6
 41
-30.0
 62
     5
 63
     7
 74
     1
 91
        4
 64
     7
 65
   257
 75
     1
175
     1
 42
1.0
 92
        8
 66
     7
 43
1.0
 76
     1
 77
     6
 78
     2
 67
     7
 79
     5
170
     0
171
     0
290
     0
174
     0
 93
        1
 44
50.0
173
     0
291
     1
 45
0.0
1001
ACAD
1000
AcDbSavedByObjectVersion
1070
     0
  0
VISUALSTYLE
  5
3A
102
{ACAD_REACTORS
330
2A
102
}
330
2A
100
AcDbVisualStyle
  2
ColorChange
 70
    16
 71
     2
 72
     2
 73
     3
 90
        0
 40
-0.6
 41
-30.0
 62
     5
 63
     8
 74
     1
 91
        4
 64
     7
 65
   257
 75
     1
175
     1
 42
1.0
 92
        8
 66
     8
 43
1.0
 76
     1
 77
     6
 78
     2
 67
     7
 79
     5
170
     0
171
     0
290
     0
174
     0
 93
        1
 44
0.0
173
     0
291
     1
 45
0.0
1001
ACAD
1000
AcDbSavedByObjectVersion
1070
     0
  0
VISUALSTYLE
  5
34
102
{ACAD_REACTORS
330
2A
102
}
330
2A
100
AcDbVisualStyle
  2
Conceptual
 70
     9
 71
     3
 72
     2
 73
     0
 90
        0
 40
-0.6
 41
-30.0
 62
     5
 63
     7
 74
     2
 91
        2
 64
     7
 65
   257
 75
     1
175
     1
 42
40.0
 92
        8
 66
     7
 43
1.0
 76
     1
 77
     6
 78
     2
 67
     7
 79
     3
170
     0
171
     0
290
     0
174
     0
 93
        1
 44
0.0
173
     0
291
     0
 45
0.0
1001
ACAD
1000
AcDbSavedByObjectVersion
1070
     0
  0
VISUALSTYLE
  5
35
102
{ACAD_REACTORS
330
2A
102
}
330
2A
100
AcDbVisualStyle
  2
Dim
 70
    11
 71
     2
 72
     2
 73
     0
 90
        0
 40
-0.6
 41
-30.0
 62
     5
 63
     7
 74
     1
 91
        4
 64
     7
 65
   257
 75
     1
175
     1
 42
1.0
 92
        8
 66
     7
 43
1.0
 76
     1
 77
     6
 78
     2
 67
     7
 79
     5
170
     0
171
     0
290
     0
174
     0
 93
        1
 44
-50.0
173
     0
291
     1
 45
0.0
1001
ACAD
1000
AcDbSavedByObjectVersion
1070
     0
  0
VISUALSTYLE
  5
39
102
{ACAD_REACTORS
330
2A
102
}
330
2A
100
AcDbVisualStyle
  2
Facepattern
 70
    15
 71
     2
 72
     2
 73
     0
 90
        0
 40
-0.6
 41
-30.0
 62
     5
 63
     7
 74
     1
 91
        4
 64
     7
 65
   257
 75
     1
175
     1
 42
1.0
 92
        8
 66
     7
 43
1.0
 76
     1
 77
     6
 78
     2
 67
     7
 79
     5
170
     0
171
     0
290
     0
174
     0
 93
        1
 44
0.0
173
     0
291
     1
 45
0.0
1001
ACAD
1000
AcDbSavedByObjectVersion
1070
     0
  0
VISUALSTYLE
  5
2B
102
{ACAD_REACTORS
330
2A
102
}
330
2A
100
AcDbVisualStyle
  2
Flat
 70
     0
 71
     2
 72
     1
 73
     1
 90
        2
 40
-0.6
 41
30.0
 62
     5
 63
     7
 74
     0
 91
        4
 64
     7
 65
   257
 75
     1
175
     1
 42
1.0
 92
        8
 66
     7
 43
1.0
 76
     1
 77
     6
 78
     2
 67
     7
 79
     5
170
     0
171
     0
290
     0
174
     0
 93
       13
 44
0.0
173
     0
291
     1
 45
0.0
1001
ACAD
1000
AcDbSavedByObjectVersion
1070
     0
  0
VISUALSTYLE
  5
2C
102
{ACAD_REACTORS
330
2A
102
}
330
2A
100
AcDbVisualStyle
  2
FlatWithEdges
 70
     1
 71
     2
 72
     1
 73
     1
 90
        2
 40
-0.6
 41
30.0
 62
     5
 63
     7
 74
     1
 91
        4
 64
     7
 65
   257
 75
     1
175
     1
 42
1.0
 92
        0
 66
   257
 43
1.0
 76
     1
 77
     6
 78
     2
 67
     7
 79
     5
170
     0
171
     0
290
     0
174
     0
 93
       13
 44
0.0
173
     0
291
     1
 45
0.0
1001
ACAD
1000
AcDbSavedByObjectVersion
1070
     0
  0
VISUALSTYLE
  5
2D
102
{ACAD_REACTORS
330
2A
102
}
330
2A
100
AcDbVisualStyle
  2
Gouraud
 70
     2
 71
     2
 72
     2
 73
     1
 90
        2
 40
-0.6
 41
30.0
 62
     5
 63
     7
 74
     0
 91
        4
 64
     7
 65
   257
 75
     1
175
     1
 42
1.0
 92
        0
 66
     7
 43
1.0
 76
     1
 77
     6
 78
     2
 67
     7
 79
     5
170
     0
171
     0
290
     0
174
     0
 93
       13
 44
0.0
173
     0
291
     1
 45
0.0
1001
ACAD
1000
AcDbSavedByObjectVersion
1070
     0
  0
VISUALSTYLE
  5
2E
102
{ACAD_REACTORS
330
2A
102
}
330
2A
100
AcDbVisualStyle
  2
GouraudWithEdges
 70
     3
 71
     2
 72
     2
 73
     1
 90
        2
 40
-0.6
 41
30.0
 62
     5
 63
     7
 74
     1
 91
        4
 64
     7
 65
   257
 75
     1
175
     1
 42
1.0
 92
        0
 66
   257
 43
1.0
 76
     1
 77
     6
 78
     2
 67
     7
 79
     5
170
     0
171
     0
290
     0
174
     0
 93
       13
 44
0.0
173
     0
291
     1
 45
0.0
1001
ACAD
1000
AcDbSavedByObjectVersion
1070
     0
  0
VISUALSTYLE
  5
38
102
{ACAD_REACTORS
330
2A
102
}
330
2A
100
AcDbVisualStyle
  2
Linepattern
 70
    14
 71
     2
 72
     2
 73
     0
 90
        0
 40
-0.6
 41
-30.0
 62
     5
 63
     7
 74
     1
 91
        4
 64
     7
 65
   257
 75
     7
175
     7
 42
1.0
 92
        8
 66
     7
 43
1.0
 76
     1
 77
     6
 78
     2
 67
     7
 79
     5
170
     0
171
     0
290
     0
174
     0
 93
        1
 44
0.0
173
     0
291
     1
 45
0.0
1001
ACAD
1000
AcDbSavedByObjectVersion
1070
     0
  0
VISUALSTYLE
  5
33
102
{ACAD_REACTORS
330
2A
102
}
330
2A
100
AcDbVisualStyle
  2
Realistic
 70
     8
 71
     2
 72
     2
 73
     0
 90
        0
 40
-0.6
 41
-30.0
 62
     5
 63
     7
 74
     1
 91
        0
 64
     7
 65
   257
 75
     1
175
     1
 42
1.0
 92
        8
 66
     8
 43
1.0
 76
     1
 77
     6
 78
     2
 67
     7
 79
     5
170
     0
171
     0
290
     0
174
     0
 93
       13
 44
0.0
173
     0
291
     0
 45
0.0
1001
ACAD
1000
AcDbSavedByObjectVersion
1070
     0
  0
VISUALSTYLE
  5
37
102
{ACAD_REACTORS
330
2A
102
}
330
2A
100
AcDbVisualStyle
  2
Thicken
 70
    13
 71
     2
 72
     2
 73
     0
 90
        0
 40
-0.6
 41
-30.0
 62
     5
 63
     7
 74
     1
 91
        4
 64
     7
 65
   257
 75
     1
175
     1
 42
1.0
 92
       12
 66
     7
 43
1.0
 76
     1
 77
     6
 78
     2
 67
     7
 79
     5
170
     0
171
     0
290
     0
174
     0
 93
        1
 44
0.0
173
     0
291
     1
 45
0.0
1001
ACAD
1000
AcDbSavedByObjectVersion
1070
     0
  0
DICTIONARYVAR
  5
BF
102
{ACAD_REACTORS
330
9A
102
}
330
9A
100
DictionaryVariables
280
     0
  1
1:1
  0
ENDSEC
  0
EOF
