  0
SECTION
  2
HEADER
  9
$ACADVER
  1
AC1014
  9
$ACADMAINTVER
 70
     9
  9
$DWGCODEPAGE
  3
ANSI_1252
  9
$INSBASE
 10
0.0
 20
0.0
 30
0.0
  9
$EXTMIN
 10
-15.020322596525
 20
-0.0000515385634472
 30
0.0
  9
$EXTMAX
 10
53.42644744610088
 20
70.21430702554997
 30
0.0
  9
$LIMMIN
 10
0.0
 20
0.0
  9
$LIMMAX
 10
12.0
 20
9.0
  9
$ORTHOMODE
 70
     0
  9
$REGENMODE
 70
     1
  9
$FILLMODE
 70
     1
  9
$QTEXTMODE
 70
     0
  9
$MIRRTEXT
 70
     1
  9
$DRAGMODE
 70
     2
  9
$LTSCALE
 40
0.0393700787401575
  9
$OSMODE
 70
    37
  9
$ATTMODE
 70
     1
  9
$TEXTSIZE
 40
0.2
  9
$TRACEWID
 40
0.05
  9
$TEXTSTYLE
  7
STANDARD
  9
$CLAYER
  8
DEFAULT
  9
$CELTYPE
  6
BYLAYER
  9
$CECOLOR
 62
   256
  9
$CELTSCALE
 40
1.0
  9
$DELOBJ
 70
     1
  9
$DISPSILH
 70
     0
  9
$DIMSCALE
 40
1.0
  9
$DIMASZ
 40
0.18
  9
$DIMEXO
 40
0.0625
  9
$DIMDLI
 40
0.38
  9
$DIMRND
 40
0.0
  9
$DIMDLE
 40
0.0
  9
$DIMEXE
 40
0.18
  9
$DIMTP
 40
0.0
  9
$DIMTM
 40
0.0
  9
$DIMTXT
 40
0.18
  9
$DIMCEN
 40
0.09
  9
$DIMTSZ
 40
0.0
  9
$DIMTOL
 70
     0
  9
$DIMLIM
 70
     0
  9
$DIMTIH
 70
     1
  9
$DIMTOH
 70
     1
  9
$DIMSE1
 70
     0
  9
$DIMSE2
 70
     0
  9
$DIMTAD
 70
     0
  9
$DIMZIN
 70
     0
  9
$DIMBLK
  1

  9
$DIMASO
 70
     1
  9
$DIMSHO
 70
     1
  9
$DIMPOST
  1

  9
$DIMAPOST
  1

  9
$DIMALT
 70
     0
  9
$DIMALTD
 70
     2
  9
$DIMALTF
 40
25.4
  9
$DIMLFAC
 40
1.0
  9
$DIMTOFL
 70
     0
  9
$DIMTVP
 40
0.0
  9
$DIMTIX
 70
     0
  9
$DIMSOXD
 70
     0
  9
$DIMSAH
 70
     0
  9
$DIMBLK1
  1

  9
$DIMBLK2
  1

  9
$DIMSTYLE
  2
STANDARD
  9
$DIMCLRD
 70
     0
  9
$DIMCLRE
 70
     0
  9
$DIMCLRT
 70
     0
  9
$DIMTFAC
 40
1.0
  9
$DIMGAP
 40
0.09
  9
$DIMJUST
 70
     0
  9
$DIMSD1
 70
     0
  9
$DIMSD2
 70
     0
  9
$DIMTOLJ
 70
     1
  9
$DIMTZIN
 70
     0
  9
$DIMALTZ
 70
     0
  9
$DIMALTTZ
 70
     0
  9
$DIMFIT
 70
     5
  9
$DIMUPT
 70
     0
  9
$DIMUNIT
 70
     2
  9
$DIMDEC
 70
     4
  9
$DIMTDEC
 70
     4
  9
$DIMALTU
 70
     2
  9
$DIMALTTD
 70
     2
  9
$DIMTXSTY
  7
STANDARD
  9
$DIMAUNIT
 70
     0
  9
$LUNITS
 70
     2
  9
$LUPREC
 70
     3
  9
$SKETCHINC
 40
0.1
  9
$FILLETRAD
 40
0.5
  9
$AUNITS
 70
     0
  9
$AUPREC
 70
     0
  9
$MENU
  1
.
  9
$ELEVATION
 40
0.0
  9
$PELEVATION
 40
0.0
  9
$THICKNESS
 40
0.0
  9
$LIMCHECK
 70
     0
  9
$CHAMFERA
 40
0.5
  9
$CHAMFERB
 40
0.5
  9
$CHAMFERC
 40
1.0
  9
$CHAMFERD
 40
0.0
  9
$SKPOLY
 70
     0
  9
$TDCREATE
 40
2455413.383896018
  9
$TDUPDATE
 40
2455413.38389603
  9
$TDINDWG
 40
0.0000000116
  9
$TDUSRTIMER
 40
0.0000000116
  9
$USRTIMER
 70
     1
  9
$ANGBASE
 50
0.0
  9
$ANGDIR
 70
     0
  9
$PDMODE
 70
     0
  9
$PDSIZE
 40
0.0
  9
$PLINEWID
 40
0.0
  9
$COORDS
 70
     1
  9
$SPLFRAME
 70
     0
  9
$SPLINETYPE
 70
     6
  9
$SPLINESEGS
 70
     8
  9
$ATTDIA
 70
     0
  9
$ATTREQ
 70
     1
  9
$HANDLING
 70
     1
  9
$HANDSEED
  5
7F0
  9
$SURFTAB1
 70
     6
  9
$SURFTAB2
 70
     6
  9
$SURFTYPE
 70
     6
  9
$SURFU
 70
     6
  9
$SURFV
 70
     6
  9
$UCSNAME
  2

  9
$UCSORG
 10
0.0
 20
0.0
 30
0.0
  9
$UCSXDIR
 10
1.0
 20
0.0
 30
0.0
  9
$UCSYDIR
 10
0.0
 20
1.0
 30
0.0
  9
$PUCSNAME
  2

  9
$PUCSORG
 10
0.0
 20
0.0
 30
0.0
  9
$PUCSXDIR
 10
1.0
 20
0.0
 30
0.0
  9
$PUCSYDIR
 10
0.0
 20
1.0
 30
0.0
  9
$USERI1
 70
     0
  9
$USERI2
 70
     0
  9
$USERI3
 70
     0
  9
$USERI4
 70
     0
  9
$USERI5
 70
     0
  9
$USERR1
 40
0.0
  9
$USERR2
 40
0.0
  9
$USERR3
 40
0.0
  9
$USERR4
 40
0.0
  9
$USERR5
 40
0.0
  9
$WORLDVIEW
 70
     1
  9
$SHADEDGE
 70
     3
  9
$SHADEDIF
 70
    70
  9
$TILEMODE
 70
     1
  9
$MAXACTVP
 70
    64
  9
$PINSBASE
 10
0.0
 20
0.0
 30
0.0
  9
$PLIMCHECK
 70
     0
  9
$PEXTMIN
 10
1.000000000000000E+20
 20
1.000000000000000E+20
 30
1.000000000000000E+20
  9
$PEXTMAX
 10
-1.000000000000000E+20
 20
-1.000000000000000E+20
 30
-1.000000000000000E+20
  9
$PLIMMIN
 10
0.0
 20
0.0
  9
$PLIMMAX
 10
12.0
 20
9.0
  9
$UNITMODE
 70
     0
  9
$VISRETAIN
 70
     1
  9
$PLINEGEN
 70
     0
  9
$PSLTSCALE
 70
     1
  9
$TREEDEPTH
 70
  3020
  9
$PICKSTYLE
 70
     1
  9
$CMLSTYLE
  2
STANDARD
  9
$CMLJUST
 70
     0
  9
$CMLSCALE
 40
1.0
  9
$PROXYGRAPHICS
 70
     1
  9
$MEASUREMENT
 70
     0
  0
ENDSEC
  0
SECTION
  2
CLASSES
  0
CLASS
  1
ACDBDICTIONARYWDFLT
  2
AcDbDictionaryWithDefault
  3
ObjectDBX Classes
 90
        0
280
     0
281
     0
  0
CLASS
  1
VISUALSTYLE
  2
AcDbVisualStyle
  3
ObjectDBX Classes
 90
     4095
280
     0
281
     0
  0
CLASS
  1
XRECORD
  2
AcDbXrecord
  3
AutoCAD 2000
 90
        0
280
     0
281
     0
  0
CLASS
  1
LWPOLYLINE
  2
AcDbPolyline
  3
AutoCAD 2000
 90
        0
280
     0
281
     1
  0
CLASS
  1
HATCH
  2
AcDbHatch
  3
AutoCAD 2000
 90
        0
280
     0
281
     1
  0
CLASS
  1
ACDBPLACEHOLDER
  2
AcDbPlaceHolder
  3
ObjectDBX Classes
 90
        0
280
     0
281
     0
  0
CLASS
  1
LAYOUT
  2
AcDbLayout
  3
ObjectDBX Classes
 90
        0
280
     0
281
     0
  0
ENDSEC
  0
SECTION
  2
TABLES
  0
TABLE
  2
VPORT
  5
8
330
0
100
AcDbSymbolTable
 70
     1
  0
VPORT
  5
29
330
8
100
AcDbSymbolTableRecord
100
AcDbViewportTableRecord
  2
*ACTIVE
 70
     0
 10
0.0
 20
0.0
 11
1.0
 21
1.0
 12
19.20306242478794
 22
35.10712774349327
 13
0.0
 23
0.0
 14
0.5
 24
0.5
 15
0.5
 25
0.5
 16
0.0
 26
0.0
 36
1.0
 17
0.0
 27
0.0
 37
0.0
 40
71.61864573539569
 41
0.9748258254061593
 42
50.0
 43
0.0
 44
0.0
 50
0.0
 51
0.0
 71
     0
 72
   100
 73
     1
 74
     3
 75
     0
 76
     0
 77
     0
 78
     0
  0
ENDTAB
  0
TABLE
  2
LTYPE
  5
5
330
0
100
AcDbSymbolTable
 70
     1
  0
LTYPE
  5
14
330
5
100
AcDbSymbolTableRecord
100
AcDbLinetypeTableRecord
  2
BYBLOCK
 70
     0
  3

 72
    65
 73
     0
 40
0.0
  0
LTYPE
  5
15
330
5
100
AcDbSymbolTableRecord
100
AcDbLinetypeTableRecord
  2
BYLAYER
 70
     0
  3

 72
    65
 73
     0
 40
0.0
  0
LTYPE
  5
16
330
5
100
AcDbSymbolTableRecord
100
AcDbLinetypeTableRecord
  2
CONTINUOUS
 70
     0
  3
Solid line
 72
    65
 73
     0
 40
0.0
  0
ENDTAB
  0
TABLE
  2
LAYER
  5
2
330
0
100
AcDbSymbolTable
 70
     2
  0
LAYER
  5
10
330
2
100
AcDbSymbolTableRecord
100
AcDbLayerTableRecord
  2
0
 70
     0
 62
     7
  6
CONTINUOUS
  0
LAYER
  5
3B
330
2
100
AcDbSymbolTableRecord
100
AcDbLayerTableRecord
  2
DEFAULT
 70
     0
 62
     7
  6
CONTINUOUS
  0
ENDTAB
  0
TABLE
  2
STYLE
  5
3
330
0
100
AcDbSymbolTable
 70
     1
  0
STYLE
  5
11
330
3
100
AcDbSymbolTableRecord
100
AcDbTextStyleTableRecord
  2
STANDARD
 70
     0
 40
0.0
 41
1.0
 50
0.0
 71
     0
 42
0.2
  3
txt
  4

  0
ENDTAB
  0
TABLE
  2
VIEW
  5
6
330
0
100
AcDbSymbolTable
 70
     0
  0
ENDTAB
  0
TABLE
  2
UCS
  5
7
330
0
100
AcDbSymbolTable
 70
     0
  0
ENDTAB
  0
TABLE
  2
APPID
  5
9
330
0
100
AcDbSymbolTable
 70
     1
  0
APPID
  5
12
330
9
100
AcDbSymbolTableRecord
100
AcDbRegAppTableRecord
  2
ACAD
 70
     0
  0
ENDTAB
  0
TABLE
  2
DIMSTYLE
  5
A
330
0
100
AcDbSymbolTable
 70
     1
  0
DIMSTYLE
105
27
330
A
100
AcDbSymbolTableRecord
100
AcDbDimStyleTableRecord
  2
STANDARD
 70
     0
  3

  4

  5

  6

  7

 40
1.0
 41
0.18
 42
0.0625
 43
0.38
 44
0.18
 45
0.0
 46
0.0
 47
0.0
 48
0.0
140
0.18
141
0.09
142
0.0
143
25.4
144
1.0
145
0.0
146
1.0
147
0.09
 71
     0
 72
     0
 73
     1
 74
     1
 75
     0
 76
     0
 77
     0
 78
     0
170
     0
171
     2
172
     0
173
     0
174
     0
175
     0
176
     0
177
     0
178
     0
270
     2
271
     4
272
     4
273
     2
274
     2
340
11
275
     0
280
     0
281
     0
282
     0
283
     1
284
     0
285
     0
286
     0
287
     3
288
     0
  0
ENDTAB
  0
TABLE
  2
BLOCK_RECORD
  5
1
330
0
100
AcDbSymbolTable
 70
     1
  0
BLOCK_RECORD
  5
1F
330
1
100
AcDbSymbolTableRecord
100
AcDbBlockTableRecord
  2
*MODEL_SPACE
  0
BLOCK_RECORD
  5
1B
330
1
100
AcDbSymbolTableRecord
100
AcDbBlockTableRecord
  2
*PAPER_SPACE
  0
ENDTAB
  0
ENDSEC
  0
SECTION
  2
BLOCKS
  0
BLOCK
  5
20
330
1F
100
AcDbEntity
  8
0
100
AcDbBlockBegin
  2
*MODEL_SPACE
 70
     0
 10
0.0
 20
0.0
 30
0.0
  3
*MODEL_SPACE
  1

  0
ENDBLK
  5
21
330
1F
100
AcDbEntity
  8
0
100
AcDbBlockEnd
  0
BLOCK
  5
1C
330
1B
100
AcDbEntity
 67
     1
  8
0
100
AcDbBlockBegin
  2
*PAPER_SPACE
 70
     0
 10
0.0
 20
0.0
 30
0.0
  3
*PAPER_SPACE
  1

  0
ENDBLK
  5
1D
330
1B
100
AcDbEntity
 67
     1
  8
0
100
AcDbBlockEnd
  0
ENDSEC
  0
SECTION
  2
ENTITIES
  0
POLYLINE
  5
3C
330
1F
100
AcDbEntity
  8
DEFAULT
100
AcDb2dPolyline
 66
     1
 10
0.0
 20
0.0
 30
0.0
  0
VERTEX
  5
3D
330
3C
100
AcDbEntity
  8
DEFAULT
100
AcDbVertex
100
AcDb2dVertex
 10
-0.7874009999999991
 20
2.677166
 30
0.0
  0
VERTEX
  5
3E
330
3C
100
AcDbEntity
  8
DEFAULT
100
AcDbVertex
100
AcDb2dVertex
 10
-0.7874009999999991
 20
12.77862346563333
 30
0.0
  0
VERTEX
  5
3F
330
3C
100
AcDbEntity
  8
DEFAULT
100
AcDbVertex
100
AcDb2dVertex
 10
-0.7371902047848633
 20
12.80475106880619
 30
0.0
  0
VERTEX
  5
40
330
3C
100
AcDbEntity
  8
DEFAULT
100
AcDbVertex
100
AcDb2dVertex
 10
-0.686113636515775
 20
12.82914286614766
 30
0.0
  0
VERTEX
  5
41
330
3C
100
AcDbEntity
  8
DEFAULT
100
AcDbVertex
100
AcDb2dVertex
 10
-0.6342312806431863
 20
12.85177021139195
 30
0.0
  0
VERTEX
  5
42
330
3C
100
AcDbEntity
  8
DEFAULT
100
AcDbVertex
100
AcDb2dVertex
 10
-0.5816040689523174
 20
12.8726065304848
 30
0.0
  0
VERTEX
  5
43
330
3C
100
AcDbEntity
  8
DEFAULT
100
AcDbVertex
100
AcDb2dVertex
 10
-0.5282938080035209
 20
12.89162735279262
 30
0.0
  0
VERTEX
  5
44
330
3C
100
AcDbEntity
  8
DEFAULT
100
AcDbVertex
100
AcDb2dVertex
 10
-0.4743631065452913
 20
12.90881033984137
 30
0.0
  0
VERTEX
  5
45
330
3C
100
AcDbEntity
  8
DEFAULT
100
AcDbVertex
100
AcDb2dVertex
 10
-0.4198753019851681
 20
12.92413531155137
 30
0.0
  0
VERTEX
  5
46
330
3C
100
AcDbEntity
  8
DEFAULT
100
AcDbVertex
100
AcDb2dVertex
 10
-0.3648943860048847
 20
12.93758426993719
 30
0.0
  0
VERTEX
  5
47
330
3C
100
AcDbEntity
  8
DEFAULT
100
AcDbVertex
100
AcDb2dVertex
 10
-0.3094849294071224
 20
12.9491414202449
 30
0.0
  0
VERTEX
  5
48
330
3C
100
AcDbEntity
  8
DEFAULT
100
AcDbVertex
100
AcDb2dVertex
 10
-0.253712006282134
 20
12.95879318950181
 30
0.0
  0
VERTEX
  5
49
330
3C
100
AcDbEntity
  8
DEFAULT
100
AcDbVertex
100
AcDb2dVertex
 10
-0.1976411175832933
 20
12.9665282424568
 30
0.0
  0
VERTEX
  5
4A
330
3C
100
AcDbEntity
  8
DEFAULT
100
AcDbVertex
100
AcDb2dVertex
 10
-0.1413381142013284
 20
12.97233749489278
 30
0.0
  0
VERTEX
  5
4B
330
3C
100
AcDbEntity
  8
DEFAULT
100
AcDbVertex
100
AcDb2dVertex
 10
-0.0848691196275805
 20
12.97621412429529
 30
0.0
  0
VERTEX
  5
4C
330
3C
100
AcDbEntity
  8
DEFAULT
100
AcDbVertex
100
AcDb2dVertex
 10
-0.0283004522971148
 20
12.97815357786511
 30
0.0
  0
VERTEX
  5
4D
330
3C
100
AcDbEntity
  8
DEFAULT
100
AcDbVertex
100
AcDb2dVertex
 10
0.0283014522971161
 20
12.97815357786511
 30
0.0
  0
VERTEX
  5
4E
330
3C
100
AcDbEntity
  8
DEFAULT
100
AcDbVertex
100
AcDb2dVertex
 10
0.0848701196275817
 20
12.97621412429529
 30
0.0
  0
VERTEX
  5
4F
330
3C
100
AcDbEntity
  8
DEFAULT
100
AcDbVertex
100
AcDb2dVertex
 10
0.1413391142013296
 20
12.97233749489278
 30
0.0
  0
VERTEX
  5
50
330
3C
100
AcDbEntity
  8
DEFAULT
100
AcDbVertex
100
AcDb2dVertex
 10
0.1976421175832943
 20
12.96652824245681
 30
0.0
  0
VERTEX
  5
51
330
3C
100
AcDbEntity
  8
DEFAULT
100
AcDbVertex
100
AcDb2dVertex
 10
0.2537130062821353
 20
12.95879318950181
 30
0.0
  0
VERTEX
  5
52
330
3C
100
AcDbEntity
  8
DEFAULT
100
AcDbVertex
100
AcDb2dVertex
 10
0.3094859294071237
 20
12.9491414202449
 30
0.0
  0
VERTEX
  5
53
330
3C
100
AcDbEntity
  8
DEFAULT
100
AcDbVertex
100
AcDb2dVertex
 10
0.3648953860048858
 20
12.93758426993719
 30
0.0
  0
VERTEX
  5
54
330
3C
100
AcDbEntity
  8
DEFAULT
100
AcDbVertex
100
AcDb2dVertex
 10
0.4198763019851693
 20
12.92413531155137
 30
0.0
  0
VERTEX
  5
55
330
3C
100
AcDbEntity
  8
DEFAULT
100
AcDbVertex
100
AcDb2dVertex
 10
0.4743641065452924
 20
12.90881033984137
 30
0.0
  0
VERTEX
  5
56
330
3C
100
AcDbEntity
  8
DEFAULT
100
AcDbVertex
100
AcDb2dVertex
 10
0.5282948080035219
 20
12.89162735279262
 30
0.0
  0
VERTEX
  5
57
330
3C
100
AcDbEntity
  8
DEFAULT
100
AcDbVertex
100
AcDb2dVertex
 10
0.5816050689523187
 20
12.8726065304848
 30
0.0
  0
VERTEX
  5
58
330
3C
100
AcDbEntity
  8
DEFAULT
100
AcDbVertex
100
AcDb2dVertex
 10
0.6342322806431875
 20
12.85177021139195
 30
0.0
  0
VERTEX
  5
59
330
3C
100
AcDbEntity
  8
DEFAULT
100
AcDbVertex
100
AcDb2dVertex
 10
0.6861146365157761
 20
12.82914286614766
 30
0.0
  0
VERTEX
  5
5A
330
3C
100
AcDbEntity
  8
DEFAULT
100
AcDbVertex
100
AcDb2dVertex
 10
0.7371912047848646
 20
12.80475106880619
 30
0.0
  0
VERTEX
  5
5B
330
3C
100
AcDbEntity
  8
DEFAULT
100
AcDbVertex
100
AcDb2dVertex
 10
0.7874020000000003
 20
12.77862346563333
 30
0.0
  0
VERTEX
  5
5C
330
3C
100
AcDbEntity
  8
DEFAULT
100
AcDbVertex
100
AcDb2dVertex
 10
0.7874020000000002
 20
2.677166
 30
0.0
  0
SEQEND
  5
5D
330
3C
100
AcDbEntity
  8
DEFAULT
  0
LINE
  5
5E
330
1F
100
AcDbEntity
  8
DEFAULT
100
AcDbLine
 10
0.7874020000000003
 20
12.18276658201377
 30
0.0
 11
4.102408500000003
 21
12.18285789616998
 31
0.0
  0
LINE
  5
5F
330
1F
100
AcDbEntity
  8
DEFAULT
100
AcDbLine
 10
-4.102140499999997
 20
12.18263189616998
 30
0.0
 11
-0.7874009999999991
 21
12.18272320297149
 31
0.0
  0
LINE
  5
60
330
1F
100
AcDbEntity
  8
DEFAULT
100
AcDbLine
 10
40.83514083512088
 20
2.677114461436553
 30
0.0
 11
40.83514083512088
 21
12.97839606295887
 31
0.0
  0
LINE
  5
61
330
1F
100
AcDbEntity
  8
DEFAULT
100
AcDbLine
 10
39.26033783512088
 20
2.677114461436553
 30
0.0
 11
39.26033783512088
 21
12.79897011200134
 31
0.0
  0
ARC
  5
62
330
1F
100
AcDbEntity
  8
DEFAULT
100
AcDbCircle
 10
4.497941111572857
 20
19.84158892849088
 30
0.0
 40
7.669177331830269
100
AcDbArc
 50
267.0416926420858
 51
297.5626438136358
  0
ARC
  5
63
330
1F
100
AcDbEntity
  8
DEFAULT
100
AcDbCircle
 10
-4.497941111572857
 20
19.84158892849088
 30
0.0
 40
7.669177331830269
100
AcDbArc
 50
242.4373561863642
 51
272.9583073579142
  0
LINE
  5
64
330
1F
100
AcDbEntity
  8
DEFAULT
100
AcDbLine
 10
33.60404930794775
 20
12.15451810887574
 30
0.0
 11
52.29704437217791
 21
14.2843136551402
 31
0.0
  0
LINE
  5
65
330
1F
100
AcDbEntity
  8
DEFAULT
100
AcDbLine
 10
41.3622328091787
 20
2.16849510246584
 30
0.0
 11
53.37759583512087
 21
1.096574461436553
 31
0.0
  0
LINE
  5
66
330
1F
100
AcDbEntity
  8
DEFAULT
100
AcDbLine
 10
27.50048883512087
 20
-0.0000515385634472
 30
0.0
 11
27.10679883512087
 21
-0.0000515385634472
 31
0.0
  0
LINE
  5
67
330
1F
100
AcDbEntity
  8
DEFAULT
100
AcDbLine
 10
40.66049083512087
 20
0.3526834614365524
 30
0.0
 11
40.68019783512088
 21
0.7772204614365527
 31
0.0
  0
ARC
  5
68
330
1F
100
AcDbEntity
  8
DEFAULT
100
AcDbCircle
 10
39.48193038594673
 20
0.3548625802321464
 30
0.0
 40
0.0469941009368616
100
AcDbArc
 50
182.6577611687757
 51
238.2304977948599
  0
LINE
  5
69
330
1F
100
AcDbEntity
  8
DEFAULT
100
AcDbLine
 10
39.43498683512087
 20
0.3526834614365524
 30
0.0
 11
39.41527983512087
 21
0.7772204614365527
 31
0.0
  0
POLYLINE
  5
6A
330
1F
100
AcDbEntity
  8
DEFAULT
100
AcDb2dPolyline
 66
     1
 10
0.0
 20
0.0
 30
0.0
  0
VERTEX
  5
6B
330
6A
100
AcDbEntity
  8
DEFAULT
100
AcDbVertex
100
AcDb2dVertex
 10
40.89475383512087
 20
1.929714461436553
 30
0.0
  0
VERTEX
  5
6C
330
6A
100
AcDbEntity
  8
DEFAULT
100
AcDbVertex
100
AcDb2dVertex
 10
41.00722763257155
 20
1.937625448007691
 30
0.0
  0
VERTEX
  5
6D
330
6A
100
AcDbEntity
  8
DEFAULT
100
AcDbVertex
100
AcDb2dVertex
 10
41.11994134503632
 20
1.94327615270136
 30
0.0
  0
VERTEX
  5
6E
330
6A
100
AcDbEntity
  8
DEFAULT
100
AcDbVertex
100
AcDb2dVertex
 10
41.23289497251519
 20
1.946666575517562
 30
0.0
  0
VERTEX
  5
6F
330
6A
100
AcDbEntity
  8
DEFAULT
100
AcDbVertex
100
AcDb2dVertex
 10
41.34608851500815
 20
1.947796716456295
 30
0.0
  0
VERTEX
  5
70
330
6A
100
AcDbEntity
  8
DEFAULT
100
AcDbVertex
100
AcDb2dVertex
 10
41.4595219725152
 20
1.946666575517562
 30
0.0
  0
VERTEX
  5
71
330
6A
100
AcDbEntity
  8
DEFAULT
100
AcDbVertex
100
AcDb2dVertex
 10
41.57319534503633
 20
1.94327615270136
 30
0.0
  0
VERTEX
  5
72
330
6A
100
AcDbEntity
  8
DEFAULT
100
AcDbVertex
100
AcDb2dVertex
 10
41.68710863257156
 20
1.937625448007691
 30
0.0
  0
VERTEX
  5
73
330
6A
100
AcDbEntity
  8
DEFAULT
100
AcDbVertex
100
AcDb2dVertex
 10
53.42644744610088
 20
1.009953510424553
 30
0.0
  0
SEQEND
  5
74
330
6A
100
AcDbEntity
  8
DEFAULT
  0
LINE
  5
75
330
1F
100
AcDbEntity
  8
DEFAULT
100
AcDbLine
 10
53.37759583512087
 20
1.096574461436553
 30
0.0
 11
53.40457783512088
 21
0.3529054614365528
 31
0.0
  0
ARC
  5
76
330
1F
100
AcDbEntity
  8
DEFAULT
100
AcDbCircle
 10
40.61354728429503
 20
0.3548625802321465
 30
0.0
 40
0.0469941009368616
100
AcDbArc
 50
301.7695022051402
 51
357.3422388312244
  0
LINE
  5
77
330
1F
100
AcDbEntity
  8
DEFAULT
100
AcDbLine
 10
39.41181783512087
 20
1.004384461436552
 30
0.0
 11
39.41041052128188
 21
1.059334844725553
 31
0.0
  0
LINE
  5
78
330
1F
100
AcDbEntity
  8
DEFAULT
100
AcDbLine
 10
39.45718783512087
 20
0.2361694614365528
 30
0.0
 11
40.63828983512087
 21
0.2361694614365528
 31
0.0
  0
LINE
  5
79
330
1F
100
AcDbEntity
  8
DEFAULT
100
AcDbLine
 10
40.68365983512088
 20
1.004384461436552
 30
0.0
 11
40.68506714895987
 21
1.059334844725553
 31
0.0
  0
LINE
  5
7A
330
1F
100
AcDbEntity
  8
DEFAULT
100
AcDbLine
 10
40.68019783512088
 20
0.7772204614365527
 30
0.0
 11
40.68365983512088
 21
1.004384461436552
 31
0.0
  0
LINE
  5
7B
330
1F
100
AcDbEntity
  8
DEFAULT
100
AcDbLine
 10
40.89475383512087
 20
1.929714461436553
 30
0.0
 11
40.68506714895987
 21
1.059334844725553
 31
0.0
  0
LINE
  5
7C
330
1F
100
AcDbEntity
  8
DEFAULT
100
AcDbLine
 10
39.20072383512088
 20
1.929714461436553
 30
0.0
 11
39.41041052128188
 21
1.059334844725553
 31
0.0
  0
LINE
  5
7D
330
1F
100
AcDbEntity
  8
DEFAULT
100
AcDbLine
 10
51.97962583512088
 20
0.3149094614365526
 30
0.0
 11
40.67960083512088
 21
0.7487334614365525
 31
0.0
  0
LINE
  5
7E
330
1F
100
AcDbEntity
  8
DEFAULT
100
AcDbLine
 10
39.85089383512087
 20
-0.0000515385634472
 30
0.0
 11
40.24458383512088
 21
-0.0000515385634472
 31
0.0
  0
LINE
  5
7F
330
1F
100
AcDbEntity
  8
DEFAULT
100
AcDbLine
 10
26.71788183512088
 20
1.096574461436553
 30
0.0
 11
26.69089983512087
 21
0.3529054614365528
 31
0.0
  0
LINE
  5
80
330
1F
100
AcDbEntity
  8
DEFAULT
100
AcDbLine
 10
39.41527983512087
 20
0.7772204614365527
 30
0.0
 11
39.41181783512087
 21
1.004384461436552
 31
0.0
  0
LINE
  5
81
330
1F
100
AcDbEntity
  8
DEFAULT
100
AcDbLine
 10
52.59498883512087
 20
-0.0000515385634472
 30
0.0
 11
52.98867883512088
 21
-0.0000515385634472
 31
0.0
  0
POLYLINE
  5
82
330
1F
100
AcDbEntity
  8
DEFAULT
100
AcDb2dPolyline
 66
     1
 10
0.0
 20
0.0
 30
0.0
  0
VERTEX
  5
83
330
82
100
AcDbEntity
  8
DEFAULT
100
AcDbVertex
100
AcDb2dVertex
 10
39.20072383512088
 20
1.929714461436553
 30
0.0
  0
VERTEX
  5
84
330
82
100
AcDbEntity
  8
DEFAULT
100
AcDbVertex
100
AcDb2dVertex
 10
39.0882500376702
 20
1.937625448007691
 30
0.0
  0
VERTEX
  5
85
330
82
100
AcDbEntity
  8
DEFAULT
100
AcDbVertex
100
AcDb2dVertex
 10
38.97553632520543
 20
1.94327615270136
 30
0.0
  0
VERTEX
  5
86
330
82
100
AcDbEntity
  8
DEFAULT
100
AcDbVertex
100
AcDb2dVertex
 10
38.86258269772656
 20
1.946666575517562
 30
0.0
  0
VERTEX
  5
87
330
82
100
AcDbEntity
  8
DEFAULT
100
AcDbVertex
100
AcDb2dVertex
 10
38.74938915523361
 20
1.947796716456295
 30
0.0
  0
VERTEX
  5
88
330
82
100
AcDbEntity
  8
DEFAULT
100
AcDbVertex
100
AcDb2dVertex
 10
38.63595569772657
 20
1.946666575517562
 30
0.0
  0
VERTEX
  5
89
330
82
100
AcDbEntity
  8
DEFAULT
100
AcDbVertex
100
AcDb2dVertex
 10
38.52228232520542
 20
1.94327615270136
 30
0.0
  0
VERTEX
  5
8A
330
82
100
AcDbEntity
  8
DEFAULT
100
AcDbVertex
100
AcDb2dVertex
 10
38.40836903767019
 20
1.937625448007691
 30
0.0
  0
VERTEX
  5
8B
330
82
100
AcDbEntity
  8
DEFAULT
100
AcDbVertex
100
AcDb2dVertex
 10
26.66903022414088
 20
1.009953510424553
 30
0.0
  0
SEQEND
  5
8C
330
82
100
AcDbEntity
  8
DEFAULT
  0
LINE
  5
8D
330
1F
100
AcDbEntity
  8
DEFAULT
100
AcDbLine
 10
39.41041052128188
 20
1.059334844725553
 30
0.0
 11
40.68506770357787
 21
1.059334844725553
 31
0.0
  0
ARC
  5
8E
330
1F
100
AcDbEntity
  8
DEFAULT
100
AcDbCircle
 10
27.10679383512088
 20
0.4461434614365527
 30
0.0
 40
0.44619476470589
100
AcDbArc
 50
208.0725020428954
 51
269.9999999999995
  0
LINE
  5
8F
330
1F
100
AcDbEntity
  8
DEFAULT
100
AcDbLine
 10
26.71309283512088
 20
0.2361694614365528
 30
0.0
 11
26.71309283512088
 21
0.3149094614365526
 31
0.0
  0
ARC
  5
90
330
1F
100
AcDbEntity
  8
DEFAULT
100
AcDbCircle
 10
52.98868383512088
 20
0.4461434614365527
 30
0.0
 40
0.44619476470589
100
AcDbArc
 50
270.0
 51
331.9274979571043
  0
ARC
  5
91
330
1F
100
AcDbEntity
  8
DEFAULT
100
AcDbCircle
 10
39.14087683512088
 20
2.637744461436552
 30
0.0
 40
0.0393699916941817
100
AcDbArc
 50
90.0
 51
177.999989232016
  0
ARC
  5
92
330
1F
100
AcDbEntity
  8
DEFAULT
100
AcDbCircle
 10
40.24458983512087
 20
0.4461434614365527
 30
0.0
 40
0.4461943235296055
100
AcDbArc
 50
270.0
 51
331.9274375287829
  0
ARC
  5
93
330
1F
100
AcDbEntity
  8
DEFAULT
100
AcDbCircle
 10
38.70486783512088
 20
2.561171461436552
 30
0.0
 40
0.3937004024297452
100
AcDbArc
 50
274.1333335196274
 51
358.0001397536329
  0
ARC
  5
94
330
1F
100
AcDbEntity
  8
DEFAULT
100
AcDbCircle
 10
53.36523183512088
 20
0.3542794614365525
 30
0.0
 40
0.0393699916941807
100
AcDbArc
 50
270.0
 51
357.9999892320167
  0
LINE
  5
95
330
1F
100
AcDbEntity
  8
DEFAULT
100
AcDbLine
 10
39.14087683512088
 20
2.677114461436553
 30
0.0
 11
40.95460183512088
 21
2.677114461436553
 31
0.0
  0
LINE
  5
96
330
1F
100
AcDbEntity
  8
DEFAULT
100
AcDbLine
 10
51.97962583512088
 20
0.3149094614365526
 30
0.0
 11
53.38238483512087
 21
0.3149094614365526
 31
0.0
  0
LINE
  5
97
330
1F
100
AcDbEntity
  8
DEFAULT
100
AcDbLine
 10
40.99714983512088
 20
2.547432461436552
 30
0.0
 11
40.99394783512088
 21
2.639118461436552
 31
0.0
  0
LINE
  5
98
330
1F
100
AcDbEntity
  8
DEFAULT
100
AcDbLine
 10
39.45718783512087
 20
0.2361694614365528
 30
0.0
 11
39.45718783512087
 21
0.3149094614365526
 31
0.0
  0
LINE
  5
99
330
1F
100
AcDbEntity
  8
DEFAULT
100
AcDbLine
 10
27.89419483512087
 20
0.2361694614365528
 30
0.0
 11
27.89419483512087
 21
0.3149094614365526
 31
0.0
  0
LINE
  5
9A
330
1F
100
AcDbEntity
  8
DEFAULT
100
AcDbLine
 10
27.89419483512087
 20
0.2361694614365528
 30
0.0
 11
26.71309283512088
 21
0.2361694614365528
 31
0.0
  0
LINE
  5
9B
330
1F
100
AcDbEntity
  8
DEFAULT
100
AcDbLine
 10
38.73324486106305
 20
2.16849510246584
 30
0.0
 11
26.71788183512088
 21
1.096574461436553
 31
0.0
  0
LINE
  5
9C
330
1F
100
AcDbEntity
  8
DEFAULT
100
AcDbLine
 10
28.11585183512087
 20
0.3149094614365526
 30
0.0
 11
26.71309283512088
 21
0.3149094614365526
 31
0.0
  0
ARC
  5
9D
330
1F
100
AcDbEntity
  8
DEFAULT
100
AcDbCircle
 10
39.85088883512087
 20
0.4461434614365527
 30
0.0
 40
0.44619476470589
100
AcDbArc
 50
208.0725020428954
 51
269.9999999999991
  0
ARC
  5
9E
330
1F
100
AcDbEntity
  8
DEFAULT
100
AcDbCircle
 10
40.95460183512088
 20
2.637744461436552
 30
0.0
 40
0.0393699916941817
100
AcDbArc
 50
2.00001076798396
 51
90.0
  0
LINE
  5
9F
330
1F
100
AcDbEntity
  8
DEFAULT
100
AcDbLine
 10
39.09832883512088
 20
2.547432461436552
 30
0.0
 11
39.10153083512088
 21
2.639118461436552
 31
0.0
  0
LINE
  5
A0
330
1F
100
AcDbEntity
  8
DEFAULT
100
AcDbLine
 10
28.11585183512087
 20
0.3149094614365526
 30
0.0
 11
39.41587683512087
 21
0.7487334614365525
 31
0.0
  0
ARC
  5
A1
330
1F
100
AcDbEntity
  8
DEFAULT
100
AcDbCircle
 10
26.73024583512088
 20
0.3542794614365525
 30
0.0
 40
0.0393699916941807
100
AcDbArc
 50
182.0000107679835
 51
270.0
  0
ARC
  5
A2
330
1F
100
AcDbEntity
  8
DEFAULT
100
AcDbCircle
 10
27.50049483512088
 20
0.4461434614365527
 30
0.0
 40
0.4461943235296068
100
AcDbArc
 50
270.0
 51
331.9274375287829
  0
ARC
  5
A3
330
1F
100
AcDbEntity
  8
DEFAULT
100
AcDbCircle
 10
41.39061083512087
 20
2.561171461436552
 30
0.0
 40
0.3937004384692384
100
AcDbArc
 50
181.9998602463671
 51
265.8665213273548
  0
LINE
  5
A4
330
1F
100
AcDbEntity
  8
DEFAULT
100
AcDbLine
 10
52.20128283512089
 20
0.2361694614365528
 30
0.0
 11
52.20128283512089
 21
0.3149094614365526
 31
0.0
  0
LINE
  5
A5
330
1F
100
AcDbEntity
  8
DEFAULT
100
AcDbLine
 10
40.63828983512087
 20
0.3149094614365526
 30
0.0
 11
39.45718783512087
 21
0.3149094614365526
 31
0.0
  0
LINE
  5
A6
330
1F
100
AcDbEntity
  8
DEFAULT
100
AcDbLine
 10
40.63828983512087
 20
0.2361694614365528
 30
0.0
 11
40.63828983512087
 21
0.3149094614365526
 31
0.0
  0
ARC
  5
A7
330
1F
100
AcDbEntity
  8
DEFAULT
100
AcDbCircle
 10
52.59498283512087
 20
0.4461434614365527
 30
0.0
 40
0.4461943235296068
100
AcDbArc
 50
208.0725624712171
 51
270.0
  0
LINE
  5
A8
330
1F
100
AcDbEntity
  8
DEFAULT
100
AcDbLine
 10
53.38238483512087
 20
0.2361694614365528
 30
0.0
 11
53.38238483512087
 21
0.3149094614365526
 31
0.0
  0
LINE
  5
A9
330
1F
100
AcDbEntity
  8
DEFAULT
100
AcDbLine
 10
52.20128283512089
 20
0.2361694614365528
 30
0.0
 11
53.38238483512087
 21
0.2361694614365528
 31
0.0
  0
LINE
  5
AA
330
1F
100
AcDbEntity
  8
DEFAULT
100
AcDbLine
 10
11.931887
 20
0.3149609999999998
 30
0.0
 11
13.334646
 21
0.3149609999999998
 31
0.0
  0
LINE
  5
AB
330
1F
100
AcDbEntity
  8
DEFAULT
100
AcDbLine
 10
-13.334646
 20
0.236221
 30
0.0
 11
-13.334646
 21
0.3149609999999998
 31
0.0
  0
ARC
  5
AC
330
1F
100
AcDbEntity
  8
DEFAULT
100
AcDbCircle
 10
12.940945
 20
0.4461949999999999
 30
0.0
 40
0.44619476470589
100
AcDbArc
 50
270.0
 51
331.9274979571039
  0
LINE
  5
AD
330
1F
100
AcDbEntity
  8
DEFAULT
100
AcDbLine
 10
0.5905509999999996
 20
0.3149609999999998
 30
0.0
 11
-0.5905509999999996
 21
0.3149609999999998
 31
0.0
  0
LINE
  5
AE
330
1F
100
AcDbEntity
  8
DEFAULT
100
AcDbLine
 10
12.54725
 20
0.0
 30
0.0
 11
12.94094
 21
0.0
 31
0.0
  0
LINE
  5
AF
330
1F
100
AcDbEntity
  8
DEFAULT
100
AcDbLine
 10
12.153544
 20
0.236221
 30
0.0
 11
12.153544
 21
0.3149609999999998
 31
0.0
  0
LINE
  5
B0
330
1F
100
AcDbEntity
  8
DEFAULT
100
AcDbLine
 10
-0.5905509999999996
 20
0.236221
 30
0.0
 11
0.5905509999999996
 21
0.236221
 31
0.0
  0
ARC
  5
B1
330
1F
100
AcDbEntity
  8
DEFAULT
100
AcDbCircle
 10
-12.547244
 20
0.4461949999999999
 30
0.0
 40
0.4461943235296068
100
AcDbArc
 50
270.0
 51
331.9274375287827
  0
LINE
  5
B2
330
1F
100
AcDbEntity
  8
DEFAULT
100
AcDbLine
 10
-1.31449397405782
 20
2.168546641029288
 30
0.0
 11
-13.329857
 21
1.096626
 31
0.0
  0
LINE
  5
B3
330
1F
100
AcDbEntity
  8
DEFAULT
100
AcDbLine
 10
-13.329857
 20
1.096626
 30
0.0
 11
-13.356839
 21
0.352957
 31
0.0
  0
POLYLINE
  5
B4
330
1F
100
AcDbEntity
  8
DEFAULT
100
AcDb2dPolyline
 66
     1
 10
0.0
 20
0.0
 30
0.0
  0
VERTEX
  5
B5
330
B4
100
AcDbEntity
  8
DEFAULT
100
AcDbVertex
100
AcDb2dVertex
 10
0.8470150000000005
 20
1.929766
 30
0.0
  0
VERTEX
  5
B6
330
B4
100
AcDbEntity
  8
DEFAULT
100
AcDbVertex
100
AcDb2dVertex
 10
0.959488797450679
 20
1.937676986571137
 30
0.0
  0
VERTEX
  5
B7
330
B4
100
AcDbEntity
  8
DEFAULT
100
AcDbVertex
100
AcDb2dVertex
 10
1.072202509915449
 20
1.943327691264807
 30
0.0
  0
VERTEX
  5
B8
330
B4
100
AcDbEntity
  8
DEFAULT
100
AcDbVertex
100
AcDb2dVertex
 10
1.185156137394312
 20
1.946718114081008
 30
0.0
  0
VERTEX
  5
B9
330
B4
100
AcDbEntity
  8
DEFAULT
100
AcDbVertex
100
AcDb2dVertex
 10
1.298349679887266
 20
1.947848255019742
 30
0.0
  0
VERTEX
  5
BA
330
B4
100
AcDbEntity
  8
DEFAULT
100
AcDbVertex
100
AcDb2dVertex
 10
1.411783137394312
 20
1.946718114081008
 30
0.0
  0
VERTEX
  5
BB
330
B4
100
AcDbEntity
  8
DEFAULT
100
AcDbVertex
100
AcDb2dVertex
 10
1.52545650991545
 20
1.943327691264807
 30
0.0
  0
VERTEX
  5
BC
330
B4
100
AcDbEntity
  8
DEFAULT
100
AcDbVertex
100
AcDb2dVertex
 10
1.639369797450679
 20
1.937676986571137
 30
0.0
  0
VERTEX
  5
BD
330
B4
100
AcDbEntity
  8
DEFAULT
100
AcDbVertex
100
AcDb2dVertex
 10
13.37870861098
 20
1.010005048988
 30
0.0
  0
SEQEND
  5
BE
330
B4
100
AcDbEntity
  8
DEFAULT
  0
POLYLINE
  5
BF
330
1F
100
AcDbEntity
  8
DEFAULT
100
AcDb2dPolyline
 66
     1
 10
0.0
 20
0.0
 30
0.0
  0
VERTEX
  5
C0
330
BF
100
AcDbEntity
  8
DEFAULT
100
AcDbVertex
100
AcDb2dVertex
 10
-0.847014999999999
 20
1.929766
 30
0.0
  0
VERTEX
  5
C1
330
BF
100
AcDbEntity
  8
DEFAULT
100
AcDbVertex
100
AcDb2dVertex
 10
-0.9594887974506775
 20
1.937676986571137
 30
0.0
  0
VERTEX
  5
C2
330
BF
100
AcDbEntity
  8
DEFAULT
100
AcDbVertex
100
AcDb2dVertex
 10
-1.072202509915448
 20
1.943327691264807
 30
0.0
  0
VERTEX
  5
C3
330
BF
100
AcDbEntity
  8
DEFAULT
100
AcDbVertex
100
AcDb2dVertex
 10
-1.18515613739431
 20
1.946718114081008
 30
0.0
  0
VERTEX
  5
C4
330
BF
100
AcDbEntity
  8
DEFAULT
100
AcDbVertex
100
AcDb2dVertex
 10
-1.298349679887264
 20
1.947848255019742
 30
0.0
  0
VERTEX
  5
C5
330
BF
100
AcDbEntity
  8
DEFAULT
100
AcDbVertex
100
AcDb2dVertex
 10
-1.41178313739431
 20
1.946718114081008
 30
0.0
  0
VERTEX
  5
C6
330
BF
100
AcDbEntity
  8
DEFAULT
100
AcDbVertex
100
AcDb2dVertex
 10
-1.525456509915448
 20
1.943327691264807
 30
0.0
  0
VERTEX
  5
C7
330
BF
100
AcDbEntity
  8
DEFAULT
100
AcDbVertex
100
AcDb2dVertex
 10
-1.639369797450678
 20
1.937676986571137
 30
0.0
  0
VERTEX
  5
C8
330
BF
100
AcDbEntity
  8
DEFAULT
100
AcDbVertex
100
AcDb2dVertex
 10
-13.37870861098
 20
1.010005048988
 30
0.0
  0
SEQEND
  5
C9
330
BF
100
AcDbEntity
  8
DEFAULT
  0
LINE
  5
CA
330
1F
100
AcDbEntity
  8
DEFAULT
100
AcDbLine
 10
1.31449397405782
 20
2.168546641029288
 30
0.0
 11
13.329857
 21
1.096626
 31
0.0
  0
LINE
  5
CB
330
1F
100
AcDbEntity
  8
DEFAULT
100
AcDbLine
 10
13.329857
 20
1.096626
 30
0.0
 11
13.356839
 21
0.352957
 31
0.0
  0
LINE
  5
CC
330
1F
100
AcDbEntity
  8
DEFAULT
100
AcDbLine
 10
-11.931887
 20
0.3149609999999998
 30
0.0
 11
-13.334646
 21
0.3149609999999998
 31
0.0
  0
LINE
  5
CD
330
1F
100
AcDbEntity
  8
DEFAULT
100
AcDbLine
 10
-11.931887
 20
0.3149609999999998
 30
0.0
 11
-0.6318619999999999
 21
0.7487849999999997
 31
0.0
  0
ARC
  5
CE
330
1F
100
AcDbEntity
  8
DEFAULT
100
AcDbCircle
 10
-0.1968499999999995
 20
0.4461949999999999
 30
0.0
 40
0.44619476470589
100
AcDbArc
 50
208.0725020428958
 51
269.9999999999999
  0
ARC
  5
CF
330
1F
100
AcDbEntity
  8
DEFAULT
100
AcDbCircle
 10
-0.9068620000000003
 20
2.637795999999999
 30
0.0
 40
0.0393699916941817
100
AcDbArc
 50
90.0
 51
177.9999892320159
  0
ARC
  5
D0
330
1F
100
AcDbEntity
  8
DEFAULT
100
AcDbCircle
 10
0.9068630000000011
 20
2.637795999999999
 30
0.0
 40
0.0393699916941817
100
AcDbArc
 50
2.000010767984079
 51
90.0
  0
ARC
  5
D1
330
1F
100
AcDbEntity
  8
DEFAULT
100
AcDbCircle
 10
13.317493
 20
0.3543309999999997
 30
0.0
 40
0.0393699916941807
100
AcDbArc
 50
270.0
 51
357.9999892320163
  0
ARC
  5
D2
330
1F
100
AcDbEntity
  8
DEFAULT
100
AcDbCircle
 10
-1.342870999999999
 20
2.561222999999999
 30
0.0
 40
0.3937004024297452
100
AcDbArc
 50
274.1333335196277
 51
358.0001397536329
  0
ARC
  5
D3
330
1F
100
AcDbEntity
  8
DEFAULT
100
AcDbCircle
 10
1.342872
 20
2.561222999999999
 30
0.0
 40
0.3937004384692384
100
AcDbArc
 50
181.9998602463671
 51
265.8665213273553
  0
LINE
  5
D4
330
1F
100
AcDbEntity
  8
DEFAULT
100
AcDbLine
 10
0.6324590000000008
 20
0.7772719999999999
 30
0.0
 11
0.6359209999999997
 21
1.004435999999999
 31
0.0
  0
LINE
  5
D5
330
1F
100
AcDbEntity
  8
DEFAULT
100
AcDbLine
 10
0.6359209999999997
 20
1.004435999999999
 30
0.0
 11
0.6373283138390011
 21
1.059386383289
 31
0.0
  0
ARC
  5
D6
330
1F
100
AcDbEntity
  8
DEFAULT
100
AcDbCircle
 10
-12.940945
 20
0.4461949999999999
 30
0.0
 40
0.44619476470589
100
AcDbArc
 50
208.072502042896
 51
270.0
  0
LINE
  5
D7
330
1F
100
AcDbEntity
  8
DEFAULT
100
AcDbLine
 10
-12.153544
 20
0.236221
 30
0.0
 11
-13.334646
 21
0.236221
 31
0.0
  0
LINE
  5
D8
330
1F
100
AcDbEntity
  8
DEFAULT
100
AcDbLine
 10
-0.6373283138389993
 20
1.059386383289
 30
0.0
 11
0.6373288684570007
 21
1.059386383289
 31
0.0
  0
LINE
  5
D9
330
1F
100
AcDbEntity
  8
DEFAULT
100
AcDbLine
 10
-0.847014999999999
 20
1.929766
 30
0.0
 11
-0.6373283138389993
 21
1.059386383289
 31
0.0
  0
LINE
  5
DA
330
1F
100
AcDbEntity
  8
DEFAULT
100
AcDbLine
 10
11.931887
 20
0.3149609999999998
 30
0.0
 11
0.6318619999999999
 21
0.7487849999999997
 31
0.0
  0
LINE
  5
DB
330
1F
100
AcDbEntity
  8
DEFAULT
100
AcDbLine
 10
-0.1968449999999997
 20
0.0
 30
0.0
 11
0.1968449999999997
 21
0.0
 31
0.0
  0
ARC
  5
DC
330
1F
100
AcDbEntity
  8
DEFAULT
100
AcDbCircle
 10
0.1968510000000006
 20
0.4461949999999999
 30
0.0
 40
0.4461943235296055
100
AcDbArc
 50
270.0
 51
331.9274375287827
  0
LINE
  5
DD
330
1F
100
AcDbEntity
  8
DEFAULT
100
AcDbLine
 10
-12.54725
 20
0.0
 30
0.0
 11
-12.94094
 21
0.0
 31
0.0
  0
ARC
  5
DE
330
1F
100
AcDbEntity
  8
DEFAULT
100
AcDbCircle
 10
12.547244
 20
0.4461949999999999
 30
0.0
 40
0.4461943235296068
100
AcDbArc
 50
208.0725624712171
 51
270.0
  0
LINE
  5
DF
330
1F
100
AcDbEntity
  8
DEFAULT
100
AcDbLine
 10
0.5905509999999996
 20
0.236221
 30
0.0
 11
0.5905509999999996
 21
0.3149609999999998
 31
0.0
  0
LINE
  5
E0
330
1F
100
AcDbEntity
  8
DEFAULT
100
AcDbLine
 10
0.9494109999999993
 20
2.547483999999999
 30
0.0
 11
0.9462089999999994
 21
2.63917
 31
0.0
  0
LINE
  5
E1
330
1F
100
AcDbEntity
  8
DEFAULT
100
AcDbLine
 10
-0.5905509999999996
 20
0.236221
 30
0.0
 11
-0.5905509999999996
 21
0.3149609999999998
 31
0.0
  0
LINE
  5
E2
330
1F
100
AcDbEntity
  8
DEFAULT
100
AcDbLine
 10
0.8470150000000005
 20
1.929766
 30
0.0
 11
0.6373283138390011
 21
1.059386383289
 31
0.0
  0
LINE
  5
E3
330
1F
100
AcDbEntity
  8
DEFAULT
100
AcDbLine
 10
13.334646
 20
0.236221
 30
0.0
 11
13.334646
 21
0.3149609999999998
 31
0.0
  0
LINE
  5
E4
330
1F
100
AcDbEntity
  8
DEFAULT
100
AcDbLine
 10
-0.9494100000000003
 20
2.547483999999999
 30
0.0
 11
-0.9462080000000004
 21
2.63917
 31
0.0
  0
LINE
  5
E5
330
1F
100
AcDbEntity
  8
DEFAULT
100
AcDbLine
 10
12.153544
 20
0.236221
 30
0.0
 11
13.334646
 21
0.236221
 31
0.0
  0
LINE
  5
E6
330
1F
100
AcDbEntity
  8
DEFAULT
100
AcDbLine
 10
-0.9068620000000003
 20
2.677166
 30
0.0
 11
0.9068630000000011
 21
2.677166
 31
0.0
  0
LINE
  5
E7
330
1F
100
AcDbEntity
  8
DEFAULT
100
AcDbLine
 10
-0.6359209999999997
 20
1.004435999999999
 30
0.0
 11
-0.6373283138389993
 21
1.059386383289
 31
0.0
  0
LINE
  5
E8
330
1F
100
AcDbEntity
  8
DEFAULT
100
AcDbLine
 10
-0.6127520000000004
 20
0.3527349999999996
 30
0.0
 11
-0.632458999999999
 21
0.7772719999999999
 31
0.0
  0
LINE
  5
E9
330
1F
100
AcDbEntity
  8
DEFAULT
100
AcDbLine
 10
-12.153544
 20
0.236221
 30
0.0
 11
-12.153544
 21
0.3149609999999998
 31
0.0
  0
ARC
  5
EA
330
1F
100
AcDbEntity
  8
DEFAULT
100
AcDbCircle
 10
-0.5658084491741491
 20
0.3549141187955935
 30
0.0
 40
0.0469941009368686
100
AcDbArc
 50
182.6577611687751
 51
238.2304977948548
  0
ARC
  5
EB
330
1F
100
AcDbEntity
  8
DEFAULT
100
AcDbCircle
 10
0.5658084491741509
 20
0.3549141187955937
 30
0.0
 40
0.0469941009368722
100
AcDbArc
 50
301.7695022051527
 51
357.3422388312248
  0
LINE
  5
EC
330
1F
100
AcDbEntity
  8
DEFAULT
100
AcDbLine
 10
0.6127520000000004
 20
0.3527349999999996
 30
0.0
 11
0.6324590000000008
 21
0.7772719999999999
 31
0.0
  0
LINE
  5
ED
330
1F
100
AcDbEntity
  8
DEFAULT
100
AcDbLine
 10
-0.632458999999999
 20
0.7772719999999999
 30
0.0
 11
-0.6359209999999997
 21
1.004435999999999
 31
0.0
  0
ARC
  5
EE
330
1F
100
AcDbEntity
  8
DEFAULT
100
AcDbCircle
 10
-13.317493
 20
0.3543309999999997
 30
0.0
 40
0.0393699916941807
100
AcDbArc
 50
182.0000107679837
 51
270.0
  0
ARC
  5
EF
330
1F
100
AcDbEntity
  8
DEFAULT
100
AcDbCircle
 10
-13.53781186945652
 20
29.41317891986269
 30
0.0
 40
27.94743579023161
100
AcDbArc
 50
76.40903041793294
 51
91.20694867918051
  0
ARC
  5
F0
330
1F
100
AcDbEntity
  8
DEFAULT
100
AcDbCircle
 10
13.53781186945652
 20
29.41317891986269
 30
0.0
 40
27.94743579023161
100
AcDbArc
 50
88.79305132081949
 51
103.5909695820671
  0
POLYLINE
  5
F1
330
1F
100
AcDbEntity
  8
DEFAULT
100
AcDb2dPolyline
 66
     1
 10
0.0
 20
0.0
 30
0.0
  0
VERTEX
  5
F2
330
F1
100
AcDbEntity
  8
DEFAULT
100
AcDbVertex
100
AcDb2dVertex
 10
8.991545735762603
 20
67.30958250626239
 30
0.0
  0
VERTEX
  5
F3
330
F1
100
AcDbEntity
  8
DEFAULT
100
AcDbVertex
100
AcDb2dVertex
 10
8.66752405063431
 20
66.4088858121773
 30
0.0
  0
VERTEX
  5
F4
330
F1
100
AcDbEntity
  8
DEFAULT
100
AcDbVertex
100
AcDb2dVertex
 10
8.361113028815229
 20
65.50207244519451
 30
0.0
  0
VERTEX
  5
F5
330
F1
100
AcDbEntity
  8
DEFAULT
100
AcDbVertex
100
AcDb2dVertex
 10
8.074490746635865
 20
64.58885872352346
 30
0.0
  0
VERTEX
  5
F6
330
F1
100
AcDbEntity
  8
DEFAULT
100
AcDbVertex
100
AcDb2dVertex
 10
7.279488074729987
 20
61.82946445762497
 30
0.0
  0
VERTEX
  5
F7
330
F1
100
AcDbEntity
  8
DEFAULT
100
AcDbVertex
100
AcDb2dVertex
 10
6.991634311529653
 20
60.91702476801649
 30
0.0
  0
VERTEX
  5
F8
330
F1
100
AcDbEntity
  8
DEFAULT
100
AcDbVertex
100
AcDb2dVertex
 10
6.835605594187099
 20
60.46489472190943
 30
0.0
  0
VERTEX
  5
F9
330
F1
100
AcDbEntity
  8
DEFAULT
100
AcDbVertex
100
AcDb2dVertex
 10
6.66980746767539
 20
60.01620753341301
 30
0.0
  0
VERTEX
  5
FA
330
F1
100
AcDbEntity
  8
DEFAULT
100
AcDbVertex
100
AcDb2dVertex
 10
6.493410584839453
 20
59.57137395064576
 30
0.0
  0
VERTEX
  5
FB
330
F1
100
AcDbEntity
  8
DEFAULT
100
AcDbVertex
100
AcDb2dVertex
 10
6.307372765926615
 20
59.13029873876268
 30
0.0
  0
VERTEX
  5
FC
330
F1
100
AcDbEntity
  8
DEFAULT
100
AcDbVertex
100
AcDb2dVertex
 10
5.911992768261951
 20
58.25853650530546
 30
0.0
  0
SEQEND
  5
FD
330
F1
100
AcDbEntity
  8
DEFAULT
  0
POLYLINE
  5
FE
330
1F
100
AcDbEntity
  8
DEFAULT
100
AcDb2dPolyline
 66
     1
 10
0.0
 20
0.0
 30
0.0
  0
VERTEX
  5
FF
330
FE
100
AcDbEntity
  8
DEFAULT
100
AcDbVertex
100
AcDb2dVertex
 10
-8.991545735762603
 20
67.30958250626239
 30
0.0
  0
VERTEX
  5
100
330
FE
100
AcDbEntity
  8
DEFAULT
100
AcDbVertex
100
AcDb2dVertex
 10
-8.66752405063431
 20
66.4088858121773
 30
0.0
  0
VERTEX
  5
101
330
FE
100
AcDbEntity
  8
DEFAULT
100
AcDbVertex
100
AcDb2dVertex
 10
-8.361113028815229
 20
65.50207244519451
 30
0.0
  0
VERTEX
  5
102
330
FE
100
AcDbEntity
  8
DEFAULT
100
AcDbVertex
100
AcDb2dVertex
 10
-8.074490746635865
 20
64.58885872352346
 30
0.0
  0
VERTEX
  5
103
330
FE
100
AcDbEntity
  8
DEFAULT
100
AcDbVertex
100
AcDb2dVertex
 10
-7.279488074729987
 20
61.82946445762497
 30
0.0
  0
VERTEX
  5
104
330
FE
100
AcDbEntity
  8
DEFAULT
100
AcDbVertex
100
AcDb2dVertex
 10
-6.991634311529653
 20
60.91702476801649
 30
0.0
  0
VERTEX
  5
105
330
FE
100
AcDbEntity
  8
DEFAULT
100
AcDbVertex
100
AcDb2dVertex
 10
-6.835605594187099
 20
60.46489472190943
 30
0.0
  0
VERTEX
  5
106
330
FE
100
AcDbEntity
  8
DEFAULT
100
AcDbVertex
100
AcDb2dVertex
 10
-6.66980746767539
 20
60.01620753341301
 30
0.0
  0
VERTEX
  5
107
330
FE
100
AcDbEntity
  8
DEFAULT
100
AcDbVertex
100
AcDb2dVertex
 10
-6.493410584839453
 20
59.57137395064576
 30
0.0
  0
VERTEX
  5
108
330
FE
100
AcDbEntity
  8
DEFAULT
100
AcDbVertex
100
AcDb2dVertex
 10
-6.307372765926615
 20
59.13029873876268
 30
0.0
  0
VERTEX
  5
109
330
FE
100
AcDbEntity
  8
DEFAULT
100
AcDbVertex
100
AcDb2dVertex
 10
-5.911992768261951
 20
58.25853650530546
 30
0.0
  0
SEQEND
  5
10A
330
FE
100
AcDbEntity
  8
DEFAULT
  0
POLYLINE
  5
10B
330
1F
100
AcDbEntity
  8
DEFAULT
100
AcDb2dPolyline
 66
     1
 10
0.0
 20
0.0
 30
0.0
  0
VERTEX
  5
10C
330
10B
100
AcDbEntity
  8
DEFAULT
100
AcDbVertex
100
AcDb2dVertex
 10
8.792392499999998
 20
17.49221289616998
 30
0.0
  0
VERTEX
  5
10D
330
10B
100
AcDbEntity
  8
DEFAULT
100
AcDbVertex
100
AcDb2dVertex
 10
8.558725241471446
 20
17.26461986685989
 30
0.0
  0
VERTEX
  5
10E
330
10B
100
AcDbEntity
  8
DEFAULT
100
AcDbVertex
100
AcDb2dVertex
 10
8.439389068952588
 20
17.1534006745165
 30
0.0
  0
VERTEX
  5
10F
330
10B
100
AcDbEntity
  8
DEFAULT
100
AcDbVertex
100
AcDb2dVertex
 10
8.317231298144325
 20
17.04536997655974
 30
0.0
  0
VERTEX
  5
110
330
10B
100
AcDbEntity
  8
DEFAULT
100
AcDbVertex
100
AcDb2dVertex
 10
8.254638291664595
 20
16.99312028234962
 30
0.0
  0
VERTEX
  5
111
330
10B
100
AcDbEntity
  8
DEFAULT
100
AcDbVertex
100
AcDb2dVertex
 10
8.191049482455387
 20
16.94206685351282
 30
0.0
  0
VERTEX
  5
112
330
10B
100
AcDbEntity
  8
DEFAULT
100
AcDbVertex
100
AcDb2dVertex
 10
8.0613533279836
 20
16.84313157609044
 30
0.0
  0
VERTEX
  5
113
330
10B
100
AcDbEntity
  8
DEFAULT
100
AcDbVertex
100
AcDb2dVertex
 10
7.928823994571005
 20
16.74805642979769
 30
0.0
  0
VERTEX
  5
114
330
10B
100
AcDbEntity
  8
DEFAULT
100
AcDbVertex
100
AcDb2dVertex
 10
7.861405054204228
 20
16.70219572177077
 30
0.0
  0
VERTEX
  5
115
330
10B
100
AcDbEntity
  8
DEFAULT
100
AcDbVertex
100
AcDb2dVertex
 10
7.793116304347427
 20
16.65764056910978
 30
0.0
  0
VERTEX
  5
116
330
10B
100
AcDbEntity
  8
DEFAULT
100
AcDbVertex
100
AcDb2dVertex
 10
7.725276617328374
 20
16.61538910792933
 30
0.0
  0
VERTEX
  5
117
330
10B
100
AcDbEntity
  8
DEFAULT
100
AcDbVertex
100
AcDb2dVertex
 10
7.656470959403147
 20
16.57472989202502
 30
0.0
  0
VERTEX
  5
118
330
10B
100
AcDbEntity
  8
DEFAULT
100
AcDbVertex
100
AcDb2dVertex
 10
7.586641030427623
 20
16.53586605220229
 30
0.0
  0
VERTEX
  5
119
330
10B
100
AcDbEntity
  8
DEFAULT
100
AcDbVertex
100
AcDb2dVertex
 10
7.515728530257682
 20
16.49900071926658
 30
0.0
  0
VERTEX
  5
11A
330
10B
100
AcDbEntity
  8
DEFAULT
100
AcDbVertex
100
AcDb2dVertex
 10
-7.514900761410777
 20
16.49858630557559
 30
0.0
  0
VERTEX
  5
11B
330
10B
100
AcDbEntity
  8
DEFAULT
100
AcDbVertex
100
AcDb2dVertex
 10
-7.586029876017765
 20
16.535536966732
 30
0.0
  0
VERTEX
  5
11C
330
10B
100
AcDbEntity
  8
DEFAULT
100
AcDbVertex
100
AcDb2dVertex
 10
-7.656069632730803
 20
16.57449949782539
 30
0.0
  0
VERTEX
  5
11D
330
10B
100
AcDbEntity
  8
DEFAULT
100
AcDbVertex
100
AcDb2dVertex
 10
-7.725078839517991
 20
16.61526899867742
 30
0.0
  0
VERTEX
  5
11E
330
10B
100
AcDbEntity
  8
DEFAULT
100
AcDbVertex
100
AcDb2dVertex
 10
-7.793116304347427
 20
16.65764056910978
 30
0.0
  0
VERTEX
  5
11F
330
10B
100
AcDbEntity
  8
DEFAULT
100
AcDbVertex
100
AcDb2dVertex
 10
-7.861405054204228
 20
16.70219572177077
 30
0.0
  0
VERTEX
  5
120
330
10B
100
AcDbEntity
  8
DEFAULT
100
AcDbVertex
100
AcDb2dVertex
 10
-7.928823994571005
 20
16.74805642979769
 30
0.0
  0
VERTEX
  5
121
330
10B
100
AcDbEntity
  8
DEFAULT
100
AcDbVertex
100
AcDb2dVertex
 10
-8.0613533279836
 20
16.84313157609044
 30
0.0
  0
VERTEX
  5
122
330
10B
100
AcDbEntity
  8
DEFAULT
100
AcDbVertex
100
AcDb2dVertex
 10
-8.191049482455389
 20
16.94206685351282
 30
0.0
  0
VERTEX
  5
123
330
10B
100
AcDbEntity
  8
DEFAULT
100
AcDbVertex
100
AcDb2dVertex
 10
-8.254638291664596
 20
16.99312028234962
 30
0.0
  0
VERTEX
  5
124
330
10B
100
AcDbEntity
  8
DEFAULT
100
AcDbVertex
100
AcDb2dVertex
 10
-8.317231298144327
 20
17.04536997655974
 30
0.0
  0
VERTEX
  5
125
330
10B
100
AcDbEntity
  8
DEFAULT
100
AcDbVertex
100
AcDb2dVertex
 10
-8.439389068952588
 20
17.1534006745165
 30
0.0
  0
VERTEX
  5
126
330
10B
100
AcDbEntity
  8
DEFAULT
100
AcDbVertex
100
AcDb2dVertex
 10
-8.558725241471446
 20
17.26461986685989
 30
0.0
  0
VERTEX
  5
127
330
10B
100
AcDbEntity
  8
DEFAULT
100
AcDbVertex
100
AcDb2dVertex
 10
-8.792392499999998
 20
17.49221289616998
 30
0.0
  0
SEQEND
  5
128
330
10B
100
AcDbEntity
  8
DEFAULT
  0
POLYLINE
  5
129
330
1F
100
AcDbEntity
  8
DEFAULT
100
AcDb2dPolyline
 66
     1
 10
0.0
 20
0.0
 30
0.0
  0
VERTEX
  5
12A
330
129
100
AcDbEntity
  8
DEFAULT
100
AcDbVertex
100
AcDb2dVertex
 10
14.96613058923
 20
21.13658227780998
 30
0.0
  0
VERTEX
  5
12B
330
129
100
AcDbEntity
  8
DEFAULT
100
AcDbVertex
100
AcDb2dVertex
 10
14.96617155679133
 20
21.13590524295005
 30
0.0
  0
VERTEX
  5
12C
330
129
100
AcDbEntity
  8
DEFAULT
100
AcDbVertex
100
AcDb2dVertex
 10
14.96619690200534
 20
21.1352272605683
 30
0.0
  0
VERTEX
  5
12D
330
129
100
AcDbEntity
  8
DEFAULT
100
AcDbVertex
100
AcDb2dVertex
 10
14.96620710324266
 20
21.13454857364863
 30
0.0
  0
VERTEX
  5
12E
330
129
100
AcDbEntity
  8
DEFAULT
100
AcDbVertex
100
AcDb2dVertex
 10
14.96620263887394
 20
21.13386942517494
 30
0.0
  0
VERTEX
  5
12F
330
129
100
AcDbEntity
  8
DEFAULT
100
AcDbVertex
100
AcDb2dVertex
 10
14.9661839872698
 20
21.13319005813113
 30
0.0
  0
VERTEX
  5
130
330
129
100
AcDbEntity
  8
DEFAULT
100
AcDbVertex
100
AcDb2dVertex
 10
14.9661516268009
 20
21.13251071550112
 30
0.0
  0
VERTEX
  5
131
330
129
100
AcDbEntity
  8
DEFAULT
100
AcDbVertex
100
AcDb2dVertex
 10
14.96610603583787
 20
21.1318316402688
 30
0.0
  0
VERTEX
  5
132
330
129
100
AcDbEntity
  8
DEFAULT
100
AcDbVertex
100
AcDb2dVertex
 10
14.96604769275135
 20
21.13115307541808
 30
0.0
  0
VERTEX
  5
133
330
129
100
AcDbEntity
  8
DEFAULT
100
AcDbVertex
100
AcDb2dVertex
 10
14.96589466369039
 20
21.12979844879707
 30
0.0
  0
VERTEX
  5
134
330
129
100
AcDbEntity
  8
DEFAULT
100
AcDbVertex
100
AcDb2dVertex
 10
14.96569636658313
 20
21.12844877950931
 30
0.0
  0
VERTEX
  5
135
330
129
100
AcDbEntity
  8
DEFAULT
100
AcDbVertex
100
AcDb2dVertex
 10
14.9654566283947
 20
21.12710601142605
 30
0.0
  0
VERTEX
  5
136
330
129
100
AcDbEntity
  8
DEFAULT
100
AcDbVertex
100
AcDb2dVertex
 10
14.96517927609021
 20
21.12577208841853
 30
0.0
  0
VERTEX
  5
137
330
129
100
AcDbEntity
  8
DEFAULT
100
AcDbVertex
100
AcDb2dVertex
 10
14.96481131339747
 20
21.12422311106799
 30
0.0
  0
VERTEX
  5
138
330
129
100
AcDbEntity
  8
DEFAULT
100
AcDbVertex
100
AcDb2dVertex
 10
14.96440025051045
 20
21.1226878662799
 30
0.0
  0
VERTEX
  5
139
330
129
100
AcDbEntity
  8
DEFAULT
100
AcDbVertex
100
AcDb2dVertex
 10
14.96394932422769
 20
21.12116529024161
 30
0.0
  0
VERTEX
  5
13A
330
129
100
AcDbEntity
  8
DEFAULT
100
AcDbVertex
100
AcDb2dVertex
 10
14.96346177134776
 20
21.11965431914047
 30
0.0
  0
VERTEX
  5
13B
330
129
100
AcDbEntity
  8
DEFAULT
100
AcDbVertex
100
AcDb2dVertex
 10
14.96288055516717
 20
21.1179872421497
 30
0.0
  0
VERTEX
  5
13C
330
129
100
AcDbEntity
  8
DEFAULT
100
AcDbVertex
100
AcDb2dVertex
 10
14.96226135626491
 20
21.11633308530606
 30
0.0
  0
VERTEX
  5
13D
330
129
100
AcDbEntity
  8
DEFAULT
100
AcDbVertex
100
AcDb2dVertex
 10
14.96160745178448
 20
21.11469174306038
 30
0.0
  0
VERTEX
  5
13E
330
129
100
AcDbEntity
  8
DEFAULT
100
AcDbVertex
100
AcDb2dVertex
 10
14.96092211886939
 20
21.11306310986346
 30
0.0
  0
VERTEX
  5
13F
330
129
100
AcDbEntity
  8
DEFAULT
100
AcDbVertex
100
AcDb2dVertex
 10
14.96008968858456
 20
21.11118536062341
 30
0.0
  0
VERTEX
  5
140
330
129
100
AcDbEntity
  8
DEFAULT
100
AcDbVertex
100
AcDb2dVertex
 10
14.95922154388183
 20
21.1093240200405
 30
0.0
  0
VERTEX
  5
141
330
129
100
AcDbEntity
  8
DEFAULT
100
AcDbVertex
100
AcDb2dVertex
 10
14.95738746486138
 20
21.10564805357052
 30
0.0
  0
VERTEX
  5
142
330
129
100
AcDbEntity
  8
DEFAULT
100
AcDbVertex
100
AcDb2dVertex
 10
14.95543858908542
 20
21.10203018790229
 30
0.0
  0
VERTEX
  5
143
330
129
100
AcDbEntity
  8
DEFAULT
100
AcDbVertex
100
AcDb2dVertex
 10
14.95339362383134
 20
21.09846540048459
 30
0.0
  0
VERTEX
  5
144
330
129
100
AcDbEntity
  8
DEFAULT
100
AcDbVertex
100
AcDb2dVertex
 10
14.95083947565309
 20
21.09425710033123
 30
0.0
  0
VERTEX
  5
145
330
129
100
AcDbEntity
  8
DEFAULT
100
AcDbVertex
100
AcDb2dVertex
 10
14.94818600899219
 20
21.09011208323373
 30
0.0
  0
VERTEX
  5
146
330
129
100
AcDbEntity
  8
DEFAULT
100
AcDbVertex
100
AcDb2dVertex
 10
14.94544501810235
 20
21.0860246292964
 30
0.0
  0
VERTEX
  5
147
330
129
100
AcDbEntity
  8
DEFAULT
100
AcDbVertex
100
AcDb2dVertex
 10
14.94262829723732
 20
21.08198901862356
 30
0.0
  0
VERTEX
  5
148
330
129
100
AcDbEntity
  8
DEFAULT
100
AcDbVertex
100
AcDb2dVertex
 10
14.93578522414122
 20
21.07270974054618
 30
0.0
  0
VERTEX
  5
149
330
129
100
AcDbEntity
  8
DEFAULT
100
AcDbVertex
100
AcDb2dVertex
 10
14.92866064534012
 20
21.06364402261044
 30
0.0
  0
VERTEX
  5
14A
330
129
100
AcDbEntity
  8
DEFAULT
100
AcDbVertex
100
AcDb2dVertex
 10
14.92020805014609
 20
21.05344453006727
 30
0.0
  0
VERTEX
  5
14B
330
129
100
AcDbEntity
  8
DEFAULT
100
AcDbVertex
100
AcDb2dVertex
 10
14.91152517439716
 20
21.04344047077476
 30
0.0
  0
VERTEX
  5
14C
330
129
100
AcDbEntity
  8
DEFAULT
100
AcDbVertex
100
AcDb2dVertex
 10
14.90148747196552
 20
21.03232564884912
 30
0.0
  0
VERTEX
  5
14D
330
129
100
AcDbEntity
  8
DEFAULT
100
AcDbVertex
100
AcDb2dVertex
 10
14.89125639066288
 20
21.02138842149456
 30
0.0
  0
VERTEX
  5
14E
330
129
100
AcDbEntity
  8
DEFAULT
100
AcDbVertex
100
AcDb2dVertex
 10
14.86788880040076
 20
20.99749793317964
 30
0.0
  0
VERTEX
  5
14F
330
129
100
AcDbEntity
  8
DEFAULT
100
AcDbVertex
100
AcDb2dVertex
 10
14.84145690985884
 20
20.97177906425384
 30
0.0
  0
VERTEX
  5
150
330
129
100
AcDbEntity
  8
DEFAULT
100
AcDbVertex
100
AcDb2dVertex
 10
14.81199522529683
 20
20.94424187315234
 30
0.0
  0
VERTEX
  5
151
330
129
100
AcDbEntity
  8
DEFAULT
100
AcDbVertex
100
AcDb2dVertex
 10
14.74412049911518
 20
20.88375275810946
 30
0.0
  0
VERTEX
  5
152
330
129
100
AcDbEntity
  8
DEFAULT
100
AcDbVertex
100
AcDb2dVertex
 10
14.57353179365966
 20
20.74139723252609
 30
0.0
  0
VERTEX
  5
153
330
129
100
AcDbEntity
  8
DEFAULT
100
AcDbVertex
100
AcDb2dVertex
 10
14.1007267710085
 20
20.37343007610696
 30
0.0
  0
VERTEX
  5
154
330
129
100
AcDbEntity
  8
DEFAULT
100
AcDbVertex
100
AcDb2dVertex
 10
8.867693133492226
 20
16.47852618655224
 30
0.0
  0
VERTEX
  5
155
330
129
100
AcDbEntity
  8
DEFAULT
100
AcDbVertex
100
AcDb2dVertex
 10
8.707716235295788
 20
16.3681965252028
 30
0.0
  0
VERTEX
  5
156
330
129
100
AcDbEntity
  8
DEFAULT
100
AcDbVertex
100
AcDb2dVertex
 10
8.626215244540138
 20
16.31551954859445
 30
0.0
  0
VERTEX
  5
157
330
129
100
AcDbEntity
  8
DEFAULT
100
AcDbVertex
100
AcDb2dVertex
 10
8.54343710388521
 20
16.265008862022
 30
0.0
  0
VERTEX
  5
158
330
129
100
AcDbEntity
  8
DEFAULT
100
AcDbVertex
100
AcDb2dVertex
 10
8.45918022173527
 20
16.21704525597922
 30
0.0
  0
VERTEX
  5
159
330
129
100
AcDbEntity
  8
DEFAULT
100
AcDbVertex
100
AcDb2dVertex
 10
8.416434255226003
 20
16.19413760518575
 30
0.0
  0
VERTEX
  5
15A
330
129
100
AcDbEntity
  8
DEFAULT
100
AcDbVertex
100
AcDb2dVertex
 10
8.373243006494578
 20
16.17200952095985
 30
0.0
  0
VERTEX
  5
15B
330
129
100
AcDbEntity
  8
DEFAULT
100
AcDbVertex
100
AcDb2dVertex
 10
8.32969854692388
 20
16.15076352972111
 30
0.0
  0
VERTEX
  5
15C
330
129
100
AcDbEntity
  8
DEFAULT
100
AcDbVertex
100
AcDb2dVertex
 10
8.285702228539506
 20
16.13040246929399
 30
0.0
  0
VERTEX
  5
15D
330
129
100
AcDbEntity
  8
DEFAULT
100
AcDbVertex
100
AcDb2dVertex
 10
8.241270310758598
 20
16.11098825945949
 30
0.0
  0
VERTEX
  5
15E
330
129
100
AcDbEntity
  8
DEFAULT
100
AcDbVertex
100
AcDb2dVertex
 10
8.196419052998296
 20
16.0925828199986
 30
0.0
  0
VERTEX
  5
15F
330
129
100
AcDbEntity
  8
DEFAULT
100
AcDbVertex
100
AcDb2dVertex
 10
8.151164714675748
 20
16.0752480706923
 30
0.0
  0
VERTEX
  5
160
330
129
100
AcDbEntity
  8
DEFAULT
100
AcDbVertex
100
AcDb2dVertex
 10
8.105523555208093
 20
16.0590459313216
 30
0.0
  0
VERTEX
  5
161
330
129
100
AcDbEntity
  8
DEFAULT
100
AcDbVertex
100
AcDb2dVertex
 10
8.059511834012476
 20
16.04403832166749
 30
0.0
  0
VERTEX
  5
162
330
129
100
AcDbEntity
  8
DEFAULT
100
AcDbVertex
100
AcDb2dVertex
 10
8.013145810506039
 20
16.03028716151095
 30
0.0
  0
VERTEX
  5
163
330
129
100
AcDbEntity
  8
DEFAULT
100
AcDbVertex
100
AcDb2dVertex
 10
7.966441744105924
 20
16.01785437063299
 30
0.0
  0
VERTEX
  5
164
330
129
100
AcDbEntity
  8
DEFAULT
100
AcDbVertex
100
AcDb2dVertex
 10
7.919415894229275
 20
16.0068018688146
 30
0.0
  0
VERTEX
  5
165
330
129
100
AcDbEntity
  8
DEFAULT
100
AcDbVertex
100
AcDb2dVertex
 10
7.872084520293234
 20
15.99719157583677
 30
0.0
  0
VERTEX
  5
166
330
129
100
AcDbEntity
  8
DEFAULT
100
AcDbVertex
100
AcDb2dVertex
 10
7.824463881714943
 20
15.98908541148048
 30
0.0
  0
VERTEX
  5
167
330
129
100
AcDbEntity
  8
DEFAULT
100
AcDbVertex
100
AcDb2dVertex
 10
7.776570237911546
 20
15.98254529552675
 30
0.0
  0
VERTEX
  5
168
330
129
100
AcDbEntity
  8
DEFAULT
100
AcDbVertex
100
AcDb2dVertex
 10
7.728419848300184
 20
15.97763314775656
 30
0.0
  0
VERTEX
  5
169
330
129
100
AcDbEntity
  8
DEFAULT
100
AcDbVertex
100
AcDb2dVertex
 10
7.704253454884373
 20
15.97580691187185
 30
0.0
  0
VERTEX
  5
16A
330
129
100
AcDbEntity
  8
DEFAULT
100
AcDbVertex
100
AcDb2dVertex
 10
7.680028972298
 20
15.97441088795089
 30
0.0
  0
VERTEX
  5
16B
330
129
100
AcDbEntity
  8
DEFAULT
100
AcDbVertex
100
AcDb2dVertex
 10
7.655748432968208
 20
15.97345281596632
 30
0.0
  0
VERTEX
  5
16C
330
129
100
AcDbEntity
  8
DEFAULT
100
AcDbVertex
100
AcDb2dVertex
 10
0.0044560869199977
 20
15.97305800851998
 30
0.0
  0
SEQEND
  5
16D
330
129
100
AcDbEntity
  8
DEFAULT
  0
POLYLINE
  5
16E
330
1F
100
AcDbEntity
  8
DEFAULT
100
AcDb2dPolyline
 66
     1
 10
0.0
 20
0.0
 30
0.0
  0
VERTEX
  5
16F
330
16E
100
AcDbEntity
  8
DEFAULT
100
AcDbVertex
100
AcDb2dVertex
 10
-14.96613058923
 20
21.13658227780998
 30
0.0
  0
VERTEX
  5
170
330
16E
100
AcDbEntity
  8
DEFAULT
100
AcDbVertex
100
AcDb2dVertex
 10
-14.96617155679133
 20
21.13590524295005
 30
0.0
  0
VERTEX
  5
171
330
16E
100
AcDbEntity
  8
DEFAULT
100
AcDbVertex
100
AcDb2dVertex
 10
-14.96619690200534
 20
21.1352272605683
 30
0.0
  0
VERTEX
  5
172
330
16E
100
AcDbEntity
  8
DEFAULT
100
AcDbVertex
100
AcDb2dVertex
 10
-14.96620710324266
 20
21.13454857364863
 30
0.0
  0
VERTEX
  5
173
330
16E
100
AcDbEntity
  8
DEFAULT
100
AcDbVertex
100
AcDb2dVertex
 10
-14.96620263887394
 20
21.13386942517494
 30
0.0
  0
VERTEX
  5
174
330
16E
100
AcDbEntity
  8
DEFAULT
100
AcDbVertex
100
AcDb2dVertex
 10
-14.9661839872698
 20
21.13319005813113
 30
0.0
  0
VERTEX
  5
175
330
16E
100
AcDbEntity
  8
DEFAULT
100
AcDbVertex
100
AcDb2dVertex
 10
-14.9661516268009
 20
21.13251071550112
 30
0.0
  0
VERTEX
  5
176
330
16E
100
AcDbEntity
  8
DEFAULT
100
AcDbVertex
100
AcDb2dVertex
 10
-14.96610603583787
 20
21.1318316402688
 30
0.0
  0
VERTEX
  5
177
330
16E
100
AcDbEntity
  8
DEFAULT
100
AcDbVertex
100
AcDb2dVertex
 10
-14.96604769275135
 20
21.13115307541808
 30
0.0
  0
VERTEX
  5
178
330
16E
100
AcDbEntity
  8
DEFAULT
100
AcDbVertex
100
AcDb2dVertex
 10
-14.96589466369039
 20
21.12979844879707
 30
0.0
  0
VERTEX
  5
179
330
16E
100
AcDbEntity
  8
DEFAULT
100
AcDbVertex
100
AcDb2dVertex
 10
-14.96569636658313
 20
21.12844877950931
 30
0.0
  0
VERTEX
  5
17A
330
16E
100
AcDbEntity
  8
DEFAULT
100
AcDbVertex
100
AcDb2dVertex
 10
-14.9654566283947
 20
21.12710601142605
 30
0.0
  0
VERTEX
  5
17B
330
16E
100
AcDbEntity
  8
DEFAULT
100
AcDbVertex
100
AcDb2dVertex
 10
-14.96517927609021
 20
21.12577208841853
 30
0.0
  0
VERTEX
  5
17C
330
16E
100
AcDbEntity
  8
DEFAULT
100
AcDbVertex
100
AcDb2dVertex
 10
-14.96481131339747
 20
21.12422311106799
 30
0.0
  0
VERTEX
  5
17D
330
16E
100
AcDbEntity
  8
DEFAULT
100
AcDbVertex
100
AcDb2dVertex
 10
-14.96440025051045
 20
21.1226878662799
 30
0.0
  0
VERTEX
  5
17E
330
16E
100
AcDbEntity
  8
DEFAULT
100
AcDbVertex
100
AcDb2dVertex
 10
-14.96394932422769
 20
21.12116529024161
 30
0.0
  0
VERTEX
  5
17F
330
16E
100
AcDbEntity
  8
DEFAULT
100
AcDbVertex
100
AcDb2dVertex
 10
-14.96346177134776
 20
21.11965431914047
 30
0.0
  0
VERTEX
  5
180
330
16E
100
AcDbEntity
  8
DEFAULT
100
AcDbVertex
100
AcDb2dVertex
 10
-14.96288055516717
 20
21.1179872421497
 30
0.0
  0
VERTEX
  5
181
330
16E
100
AcDbEntity
  8
DEFAULT
100
AcDbVertex
100
AcDb2dVertex
 10
-14.96226135626491
 20
21.11633308530606
 30
0.0
  0
VERTEX
  5
182
330
16E
100
AcDbEntity
  8
DEFAULT
100
AcDbVertex
100
AcDb2dVertex
 10
-14.96160745178448
 20
21.11469174306038
 30
0.0
  0
VERTEX
  5
183
330
16E
100
AcDbEntity
  8
DEFAULT
100
AcDbVertex
100
AcDb2dVertex
 10
-14.96092211886939
 20
21.11306310986346
 30
0.0
  0
VERTEX
  5
184
330
16E
100
AcDbEntity
  8
DEFAULT
100
AcDbVertex
100
AcDb2dVertex
 10
-14.96008968858456
 20
21.11118536062341
 30
0.0
  0
VERTEX
  5
185
330
16E
100
AcDbEntity
  8
DEFAULT
100
AcDbVertex
100
AcDb2dVertex
 10
-14.95922154388183
 20
21.1093240200405
 30
0.0
  0
VERTEX
  5
186
330
16E
100
AcDbEntity
  8
DEFAULT
100
AcDbVertex
100
AcDb2dVertex
 10
-14.95738746486138
 20
21.10564805357052
 30
0.0
  0
VERTEX
  5
187
330
16E
100
AcDbEntity
  8
DEFAULT
100
AcDbVertex
100
AcDb2dVertex
 10
-14.95543858908542
 20
21.10203018790229
 30
0.0
  0
VERTEX
  5
188
330
16E
100
AcDbEntity
  8
DEFAULT
100
AcDbVertex
100
AcDb2dVertex
 10
-14.95339362383134
 20
21.09846540048459
 30
0.0
  0
VERTEX
  5
189
330
16E
100
AcDbEntity
  8
DEFAULT
100
AcDbVertex
100
AcDb2dVertex
 10
-14.95083947565309
 20
21.09425710033123
 30
0.0
  0
VERTEX
  5
18A
330
16E
100
AcDbEntity
  8
DEFAULT
100
AcDbVertex
100
AcDb2dVertex
 10
-14.94818600899219
 20
21.09011208323373
 30
0.0
  0
VERTEX
  5
18B
330
16E
100
AcDbEntity
  8
DEFAULT
100
AcDbVertex
100
AcDb2dVertex
 10
-14.94544501810235
 20
21.0860246292964
 30
0.0
  0
VERTEX
  5
18C
330
16E
100
AcDbEntity
  8
DEFAULT
100
AcDbVertex
100
AcDb2dVertex
 10
-14.94262829723732
 20
21.08198901862356
 30
0.0
  0
VERTEX
  5
18D
330
16E
100
AcDbEntity
  8
DEFAULT
100
AcDbVertex
100
AcDb2dVertex
 10
-14.93578522414122
 20
21.07270974054618
 30
0.0
  0
VERTEX
  5
18E
330
16E
100
AcDbEntity
  8
DEFAULT
100
AcDbVertex
100
AcDb2dVertex
 10
-14.92866064534012
 20
21.06364402261044
 30
0.0
  0
VERTEX
  5
18F
330
16E
100
AcDbEntity
  8
DEFAULT
100
AcDbVertex
100
AcDb2dVertex
 10
-14.92020805014609
 20
21.05344453006727
 30
0.0
  0
VERTEX
  5
190
330
16E
100
AcDbEntity
  8
DEFAULT
100
AcDbVertex
100
AcDb2dVertex
 10
-14.91152517439716
 20
21.04344047077476
 30
0.0
  0
VERTEX
  5
191
330
16E
100
AcDbEntity
  8
DEFAULT
100
AcDbVertex
100
AcDb2dVertex
 10
-14.90148747196552
 20
21.03232564884912
 30
0.0
  0
VERTEX
  5
192
330
16E
100
AcDbEntity
  8
DEFAULT
100
AcDbVertex
100
AcDb2dVertex
 10
-14.89125639066288
 20
21.02138842149456
 30
0.0
  0
VERTEX
  5
193
330
16E
100
AcDbEntity
  8
DEFAULT
100
AcDbVertex
100
AcDb2dVertex
 10
-14.86788880040076
 20
20.99749793317964
 30
0.0
  0
VERTEX
  5
194
330
16E
100
AcDbEntity
  8
DEFAULT
100
AcDbVertex
100
AcDb2dVertex
 10
-14.84145690985884
 20
20.97177906425384
 30
0.0
  0
VERTEX
  5
195
330
16E
100
AcDbEntity
  8
DEFAULT
100
AcDbVertex
100
AcDb2dVertex
 10
-14.81199522529683
 20
20.94424187315234
 30
0.0
  0
VERTEX
  5
196
330
16E
100
AcDbEntity
  8
DEFAULT
100
AcDbVertex
100
AcDb2dVertex
 10
-14.74412049911518
 20
20.88375275810946
 30
0.0
  0
VERTEX
  5
197
330
16E
100
AcDbEntity
  8
DEFAULT
100
AcDbVertex
100
AcDb2dVertex
 10
-14.57353179365966
 20
20.74139723252609
 30
0.0
  0
VERTEX
  5
198
330
16E
100
AcDbEntity
  8
DEFAULT
100
AcDbVertex
100
AcDb2dVertex
 10
-14.1007267710085
 20
20.37343007610696
 30
0.0
  0
VERTEX
  5
199
330
16E
100
AcDbEntity
  8
DEFAULT
100
AcDbVertex
100
AcDb2dVertex
 10
-8.867693133492226
 20
16.47852618655224
 30
0.0
  0
VERTEX
  5
19A
330
16E
100
AcDbEntity
  8
DEFAULT
100
AcDbVertex
100
AcDb2dVertex
 10
-8.707716235295788
 20
16.3681965252028
 30
0.0
  0
VERTEX
  5
19B
330
16E
100
AcDbEntity
  8
DEFAULT
100
AcDbVertex
100
AcDb2dVertex
 10
-8.626215244540138
 20
16.31551954859445
 30
0.0
  0
VERTEX
  5
19C
330
16E
100
AcDbEntity
  8
DEFAULT
100
AcDbVertex
100
AcDb2dVertex
 10
-8.54343710388521
 20
16.265008862022
 30
0.0
  0
VERTEX
  5
19D
330
16E
100
AcDbEntity
  8
DEFAULT
100
AcDbVertex
100
AcDb2dVertex
 10
-8.45918022173527
 20
16.21704525597922
 30
0.0
  0
VERTEX
  5
19E
330
16E
100
AcDbEntity
  8
DEFAULT
100
AcDbVertex
100
AcDb2dVertex
 10
-8.416434255226003
 20
16.19413760518575
 30
0.0
  0
VERTEX
  5
19F
330
16E
100
AcDbEntity
  8
DEFAULT
100
AcDbVertex
100
AcDb2dVertex
 10
-8.373243006494578
 20
16.17200952095985
 30
0.0
  0
VERTEX
  5
1A0
330
16E
100
AcDbEntity
  8
DEFAULT
100
AcDbVertex
100
AcDb2dVertex
 10
-8.32969854692388
 20
16.15076352972111
 30
0.0
  0
VERTEX
  5
1A1
330
16E
100
AcDbEntity
  8
DEFAULT
100
AcDbVertex
100
AcDb2dVertex
 10
-8.285702228539506
 20
16.13040246929399
 30
0.0
  0
VERTEX
  5
1A2
330
16E
100
AcDbEntity
  8
DEFAULT
100
AcDbVertex
100
AcDb2dVertex
 10
-8.241270310758598
 20
16.11098825945949
 30
0.0
  0
VERTEX
  5
1A3
330
16E
100
AcDbEntity
  8
DEFAULT
100
AcDbVertex
100
AcDb2dVertex
 10
-8.196419052998296
 20
16.0925828199986
 30
0.0
  0
VERTEX
  5
1A4
330
16E
100
AcDbEntity
  8
DEFAULT
100
AcDbVertex
100
AcDb2dVertex
 10
-8.151164714675748
 20
16.0752480706923
 30
0.0
  0
VERTEX
  5
1A5
330
16E
100
AcDbEntity
  8
DEFAULT
100
AcDbVertex
100
AcDb2dVertex
 10
-8.105523555208093
 20
16.0590459313216
 30
0.0
  0
VERTEX
  5
1A6
330
16E
100
AcDbEntity
  8
DEFAULT
100
AcDbVertex
100
AcDb2dVertex
 10
-8.059511834012476
 20
16.04403832166749
 30
0.0
  0
VERTEX
  5
1A7
330
16E
100
AcDbEntity
  8
DEFAULT
100
AcDbVertex
100
AcDb2dVertex
 10
-8.013145810506039
 20
16.03028716151095
 30
0.0
  0
VERTEX
  5
1A8
330
16E
100
AcDbEntity
  8
DEFAULT
100
AcDbVertex
100
AcDb2dVertex
 10
-7.966441744105924
 20
16.01785437063299
 30
0.0
  0
VERTEX
  5
1A9
330
16E
100
AcDbEntity
  8
DEFAULT
100
AcDbVertex
100
AcDb2dVertex
 10
-7.919415894229275
 20
16.0068018688146
 30
0.0
  0
VERTEX
  5
1AA
330
16E
100
AcDbEntity
  8
DEFAULT
100
AcDbVertex
100
AcDb2dVertex
 10
-7.872084520293234
 20
15.99719157583677
 30
0.0
  0
VERTEX
  5
1AB
330
16E
100
AcDbEntity
  8
DEFAULT
100
AcDbVertex
100
AcDb2dVertex
 10
-7.824463881714943
 20
15.98908541148048
 30
0.0
  0
VERTEX
  5
1AC
330
16E
100
AcDbEntity
  8
DEFAULT
100
AcDbVertex
100
AcDb2dVertex
 10
-7.776570237911546
 20
15.98254529552675
 30
0.0
  0
VERTEX
  5
1AD
330
16E
100
AcDbEntity
  8
DEFAULT
100
AcDbVertex
100
AcDb2dVertex
 10
-7.728419848300184
 20
15.97763314775656
 30
0.0
  0
VERTEX
  5
1AE
330
16E
100
AcDbEntity
  8
DEFAULT
100
AcDbVertex
100
AcDb2dVertex
 10
-7.704253454884373
 20
15.97580691187185
 30
0.0
  0
VERTEX
  5
1AF
330
16E
100
AcDbEntity
  8
DEFAULT
100
AcDbVertex
100
AcDb2dVertex
 10
-7.680028972298
 20
15.97441088795089
 30
0.0
  0
VERTEX
  5
1B0
330
16E
100
AcDbEntity
  8
DEFAULT
100
AcDbVertex
100
AcDb2dVertex
 10
-7.655748432968208
 20
15.97345281596632
 30
0.0
  0
VERTEX
  5
1B1
330
16E
100
AcDbEntity
  8
DEFAULT
100
AcDbVertex
100
AcDb2dVertex
 10
-0.0044560869199977
 20
15.97305800851998
 30
0.0
  0
SEQEND
  5
1B2
330
16E
100
AcDbEntity
  8
DEFAULT
  0
POLYLINE
  5
1B3
330
1F
100
AcDbEntity
  8
DEFAULT
100
AcDb2dPolyline
 66
     1
 10
0.0
 20
0.0
 30
0.0
  0
VERTEX
  5
1B4
330
1B3
100
AcDbEntity
  8
DEFAULT
100
AcDbVertex
100
AcDb2dVertex
 10
12.6506017109
 20
17.31148944443998
 30
0.0
  0
VERTEX
  5
1B5
330
1B3
100
AcDbEntity
  8
DEFAULT
100
AcDbVertex
100
AcDb2dVertex
 10
9.78615484273829
 20
15.18998461650254
 30
0.0
  0
VERTEX
  5
1B6
330
1B3
100
AcDbEntity
  8
DEFAULT
100
AcDbVertex
100
AcDb2dVertex
 10
9.54202221066043
 20
15.02054881386782
 30
0.0
  0
VERTEX
  5
1B7
330
1B3
100
AcDbEntity
  8
DEFAULT
100
AcDbVertex
100
AcDb2dVertex
 10
9.41821868226683
 20
14.93853728196104
 30
0.0
  0
VERTEX
  5
1B8
330
1B3
100
AcDbEntity
  8
DEFAULT
100
AcDbVertex
100
AcDb2dVertex
 10
9.292957694761862
 20
14.8589494213703
 30
0.0
  0
VERTEX
  5
1B9
330
1B3
100
AcDbEntity
  8
DEFAULT
100
AcDbVertex
100
AcDb2dVertex
 10
9.166014759989341
 20
14.78224980087735
 30
0.0
  0
VERTEX
  5
1BA
330
1B3
100
AcDbEntity
  8
DEFAULT
100
AcDbVertex
100
AcDb2dVertex
 10
9.037165389793081
 20
14.70890298926393
 30
0.0
  0
VERTEX
  5
1BB
330
1B3
100
AcDbEntity
  8
DEFAULT
100
AcDbVertex
100
AcDb2dVertex
 10
8.906185096016896
 20
14.6393735553118
 30
0.0
  0
VERTEX
  5
1BC
330
1B3
100
AcDbEntity
  8
DEFAULT
100
AcDbVertex
100
AcDb2dVertex
 10
8.772849390504598
 20
14.57412606780271
 30
0.0
  0
VERTEX
  5
1BD
330
1B3
100
AcDbEntity
  8
DEFAULT
100
AcDbVertex
100
AcDb2dVertex
 10
8.705236729557088
 20
14.54325856754097
 30
0.0
  0
VERTEX
  5
1BE
330
1B3
100
AcDbEntity
  8
DEFAULT
100
AcDbVertex
100
AcDb2dVertex
 10
8.637002764092152
 20
14.51366777715917
 30
0.0
  0
VERTEX
  5
1BF
330
1B3
100
AcDbEntity
  8
DEFAULT
100
AcDbVertex
100
AcDb2dVertex
 10
8.56817116453028
 20
14.48544377779572
 30
0.0
  0
VERTEX
  5
1C0
330
1B3
100
AcDbEntity
  8
DEFAULT
100
AcDbVertex
100
AcDb2dVertex
 10
8.498765601291964
 20
14.45867665058906
 30
0.0
  0
VERTEX
  5
1C1
330
1B3
100
AcDbEntity
  8
DEFAULT
100
AcDbVertex
100
AcDb2dVertex
 10
8.428809744797693
 20
14.43345647667761
 30
0.0
  0
VERTEX
  5
1C2
330
1B3
100
AcDbEntity
  8
DEFAULT
100
AcDbVertex
100
AcDb2dVertex
 10
8.358327265467953
 20
14.4098733371998
 30
0.0
  0
VERTEX
  5
1C3
330
1B3
100
AcDbEntity
  8
DEFAULT
100
AcDbVertex
100
AcDb2dVertex
 10
8.287341833723238
 20
14.38801731329404
 30
0.0
  0
VERTEX
  5
1C4
330
1B3
100
AcDbEntity
  8
DEFAULT
100
AcDbVertex
100
AcDb2dVertex
 10
8.215877119984036
 20
14.36797848609877
 30
0.0
  0
VERTEX
  5
1C5
330
1B3
100
AcDbEntity
  8
DEFAULT
100
AcDbVertex
100
AcDb2dVertex
 10
8.143956794670837
 20
14.34984693675241
 30
0.0
  0
VERTEX
  5
1C6
330
1B3
100
AcDbEntity
  8
DEFAULT
100
AcDbVertex
100
AcDb2dVertex
 10
8.07160452820413
 20
14.33371274639339
 30
0.0
  0
VERTEX
  5
1C7
330
1B3
100
AcDbEntity
  8
DEFAULT
100
AcDbVertex
100
AcDb2dVertex
 10
7.998843991004406
 20
14.31966599616014
 30
0.0
  0
VERTEX
  5
1C8
330
1B3
100
AcDbEntity
  8
DEFAULT
100
AcDbVertex
100
AcDb2dVertex
 10
7.925698853492157
 20
14.30779676719107
 30
0.0
  0
VERTEX
  5
1C9
330
1B3
100
AcDbEntity
  8
DEFAULT
100
AcDbVertex
100
AcDb2dVertex
 10
7.852192786087867
 20
14.29819514062462
 30
0.0
  0
VERTEX
  5
1CA
330
1B3
100
AcDbEntity
  8
DEFAULT
100
AcDbVertex
100
AcDb2dVertex
 10
7.778349459212031
 20
14.29095119759921
 30
0.0
  0
VERTEX
  5
1CB
330
1B3
100
AcDbEntity
  8
DEFAULT
100
AcDbVertex
100
AcDb2dVertex
 10
7.704192543285136
 20
14.28615501925326
 30
0.0
  0
VERTEX
  5
1CC
330
1B3
100
AcDbEntity
  8
DEFAULT
100
AcDbVertex
100
AcDb2dVertex
 10
7.629745708727673
 20
14.28389668672521
 30
0.0
  0
VERTEX
  5
1CD
330
1B3
100
AcDbEntity
  8
DEFAULT
100
AcDbVertex
100
AcDb2dVertex
 10
0.0044564999999999
 20
14.28410389616998
 30
0.0
  0
SEQEND
  5
1CE
330
1B3
100
AcDbEntity
  8
DEFAULT
  0
POLYLINE
  5
1CF
330
1F
100
AcDbEntity
  8
DEFAULT
100
AcDb2dPolyline
 66
     1
 10
0.0
 20
0.0
 30
0.0
  0
VERTEX
  5
1D0
330
1CF
100
AcDbEntity
  8
DEFAULT
100
AcDbVertex
100
AcDb2dVertex
 10
-12.6506017109
 20
17.31148944443998
 30
0.0
  0
VERTEX
  5
1D1
330
1CF
100
AcDbEntity
  8
DEFAULT
100
AcDbVertex
100
AcDb2dVertex
 10
-9.78615484273829
 20
15.18998461650254
 30
0.0
  0
VERTEX
  5
1D2
330
1CF
100
AcDbEntity
  8
DEFAULT
100
AcDbVertex
100
AcDb2dVertex
 10
-9.54202221066043
 20
15.02054881386782
 30
0.0
  0
VERTEX
  5
1D3
330
1CF
100
AcDbEntity
  8
DEFAULT
100
AcDbVertex
100
AcDb2dVertex
 10
-9.41821868226683
 20
14.93853728196104
 30
0.0
  0
VERTEX
  5
1D4
330
1CF
100
AcDbEntity
  8
DEFAULT
100
AcDbVertex
100
AcDb2dVertex
 10
-9.292957694761862
 20
14.8589494213703
 30
0.0
  0
VERTEX
  5
1D5
330
1CF
100
AcDbEntity
  8
DEFAULT
100
AcDbVertex
100
AcDb2dVertex
 10
-9.166014759989341
 20
14.78224980087735
 30
0.0
  0
VERTEX
  5
1D6
330
1CF
100
AcDbEntity
  8
DEFAULT
100
AcDbVertex
100
AcDb2dVertex
 10
-9.037165389793081
 20
14.70890298926393
 30
0.0
  0
VERTEX
  5
1D7
330
1CF
100
AcDbEntity
  8
DEFAULT
100
AcDbVertex
100
AcDb2dVertex
 10
-8.906185096016896
 20
14.6393735553118
 30
0.0
  0
VERTEX
  5
1D8
330
1CF
100
AcDbEntity
  8
DEFAULT
100
AcDbVertex
100
AcDb2dVertex
 10
-8.772849390504598
 20
14.57412606780271
 30
0.0
  0
VERTEX
  5
1D9
330
1CF
100
AcDbEntity
  8
DEFAULT
100
AcDbVertex
100
AcDb2dVertex
 10
-8.705236729557088
 20
14.54325856754097
 30
0.0
  0
VERTEX
  5
1DA
330
1CF
100
AcDbEntity
  8
DEFAULT
100
AcDbVertex
100
AcDb2dVertex
 10
-8.637002764092152
 20
14.51366777715917
 30
0.0
  0
VERTEX
  5
1DB
330
1CF
100
AcDbEntity
  8
DEFAULT
100
AcDbVertex
100
AcDb2dVertex
 10
-8.56817116453028
 20
14.48544377779572
 30
0.0
  0
VERTEX
  5
1DC
330
1CF
100
AcDbEntity
  8
DEFAULT
100
AcDbVertex
100
AcDb2dVertex
 10
-8.498765601291964
 20
14.45867665058906
 30
0.0
  0
VERTEX
  5
1DD
330
1CF
100
AcDbEntity
  8
DEFAULT
100
AcDbVertex
100
AcDb2dVertex
 10
-8.428809744797693
 20
14.43345647667761
 30
0.0
  0
VERTEX
  5
1DE
330
1CF
100
AcDbEntity
  8
DEFAULT
100
AcDbVertex
100
AcDb2dVertex
 10
-8.358327265467953
 20
14.4098733371998
 30
0.0
  0
VERTEX
  5
1DF
330
1CF
100
AcDbEntity
  8
DEFAULT
100
AcDbVertex
100
AcDb2dVertex
 10
-8.287341833723238
 20
14.38801731329404
 30
0.0
  0
VERTEX
  5
1E0
330
1CF
100
AcDbEntity
  8
DEFAULT
100
AcDbVertex
100
AcDb2dVertex
 10
-8.215877119984036
 20
14.36797848609877
 30
0.0
  0
VERTEX
  5
1E1
330
1CF
100
AcDbEntity
  8
DEFAULT
100
AcDbVertex
100
AcDb2dVertex
 10
-8.143956794670837
 20
14.34984693675241
 30
0.0
  0
VERTEX
  5
1E2
330
1CF
100
AcDbEntity
  8
DEFAULT
100
AcDbVertex
100
AcDb2dVertex
 10
-8.07160452820413
 20
14.33371274639339
 30
0.0
  0
VERTEX
  5
1E3
330
1CF
100
AcDbEntity
  8
DEFAULT
100
AcDbVertex
100
AcDb2dVertex
 10
-7.998843991004406
 20
14.31966599616014
 30
0.0
  0
VERTEX
  5
1E4
330
1CF
100
AcDbEntity
  8
DEFAULT
100
AcDbVertex
100
AcDb2dVertex
 10
-7.925698853492157
 20
14.30779676719107
 30
0.0
  0
VERTEX
  5
1E5
330
1CF
100
AcDbEntity
  8
DEFAULT
100
AcDbVertex
100
AcDb2dVertex
 10
-7.852192786087867
 20
14.29819514062462
 30
0.0
  0
VERTEX
  5
1E6
330
1CF
100
AcDbEntity
  8
DEFAULT
100
AcDbVertex
100
AcDb2dVertex
 10
-7.778349459212031
 20
14.29095119759921
 30
0.0
  0
VERTEX
  5
1E7
330
1CF
100
AcDbEntity
  8
DEFAULT
100
AcDbVertex
100
AcDb2dVertex
 10
-7.704192543285136
 20
14.28615501925326
 30
0.0
  0
VERTEX
  5
1E8
330
1CF
100
AcDbEntity
  8
DEFAULT
100
AcDbVertex
100
AcDb2dVertex
 10
-7.629745708727673
 20
14.28389668672521
 30
0.0
  0
VERTEX
  5
1E9
330
1CF
100
AcDbEntity
  8
DEFAULT
100
AcDbVertex
100
AcDb2dVertex
 10
-0.0044564999999999
 20
14.28410389616998
 30
0.0
  0
SEQEND
  5
1EA
330
1CF
100
AcDbEntity
  8
DEFAULT
  0
POLYLINE
  5
1EB
330
1F
100
AcDbEntity
  8
DEFAULT
100
AcDb2dPolyline
 66
     1
 10
0.0
 20
0.0
 30
0.0
  0
VERTEX
  5
1EC
330
1EB
100
AcDbEntity
  8
DEFAULT
100
AcDbVertex
100
AcDb2dVertex
 10
7.940119882129999
 20
16.75572466555998
 30
0.0
  0
VERTEX
  5
1ED
330
1EB
100
AcDbEntity
  8
DEFAULT
100
AcDbVertex
100
AcDb2dVertex
 10
8.820928782625474
 20
18.22009450747732
 30
0.0
  0
VERTEX
  5
1EE
330
1EB
100
AcDbEntity
  8
DEFAULT
100
AcDbVertex
100
AcDb2dVertex
 10
9.278356610403264
 20
18.94091698820886
 30
0.0
  0
VERTEX
  5
1EF
330
1EB
100
AcDbEntity
  8
DEFAULT
100
AcDbVertex
100
AcDb2dVertex
 10
9.517824677371713
 20
19.29463116313399
 30
0.0
  0
VERTEX
  5
1F0
330
1EB
100
AcDbEntity
  8
DEFAULT
100
AcDbVertex
100
AcDb2dVertex
 10
9.767210880455547
 20
19.64239118171897
 30
0.0
  0
VERTEX
  5
1F1
330
1EB
100
AcDbEntity
  8
DEFAULT
100
AcDbVertex
100
AcDb2dVertex
 10
9.896305645952395
 20
19.81357553445836
 30
0.0
  0
VERTEX
  5
1F2
330
1EB
100
AcDbEntity
  8
DEFAULT
100
AcDbVertex
100
AcDb2dVertex
 10
10.02888183462795
 20
19.98216988736158
 30
0.0
  0
VERTEX
  5
1F3
330
1EB
100
AcDbEntity
  8
DEFAULT
100
AcDbVertex
100
AcDb2dVertex
 10
10.16542595424536
 20
20.14735205081118
 30
0.0
  0
VERTEX
  5
1F4
330
1EB
100
AcDbEntity
  8
DEFAULT
100
AcDbVertex
100
AcDb2dVertex
 10
10.3064245125678
 20
20.30829983518973
 30
0.0
  0
VERTEX
  5
1F5
330
1EB
100
AcDbEntity
  8
DEFAULT
100
AcDbVertex
100
AcDb2dVertex
 10
10.37874623991939
 20
20.3869289009719
 30
0.0
  0
VERTEX
  5
1F6
330
1EB
100
AcDbEntity
  8
DEFAULT
100
AcDbVertex
100
AcDb2dVertex
 10
10.45236401735843
 20
20.46419105087977
 30
0.0
  0
VERTEX
  5
1F7
330
1EB
100
AcDbEntity
  8
DEFAULT
100
AcDbVertex
100
AcDb2dVertex
 10
10.5273386583553
 20
20.53998351121115
 30
0.0
  0
VERTEX
  5
1F8
330
1EB
100
AcDbEntity
  8
DEFAULT
100
AcDbVertex
100
AcDb2dVertex
 10
10.60373097638041
 20
20.61420350826386
 30
0.0
  0
VERTEX
  5
1F9
330
1EB
100
AcDbEntity
  8
DEFAULT
100
AcDbVertex
100
AcDb2dVertex
 10
10.68160178490415
 20
20.68674826833572
 30
0.0
  0
VERTEX
  5
1FA
330
1EB
100
AcDbEntity
  8
DEFAULT
100
AcDbVertex
100
AcDb2dVertex
 10
10.76101189739691
 20
20.75751501772456
 30
0.0
  0
VERTEX
  5
1FB
330
1EB
100
AcDbEntity
  8
DEFAULT
100
AcDbVertex
100
AcDb2dVertex
 10
10.8420221273291
 20
20.82640098272819
 30
0.0
  0
VERTEX
  5
1FC
330
1EB
100
AcDbEntity
  8
DEFAULT
100
AcDbVertex
100
AcDb2dVertex
 10
10.9246932881711
 20
20.89330338964443
 30
0.0
  0
VERTEX
  5
1FD
330
1EB
100
AcDbEntity
  8
DEFAULT
100
AcDbVertex
100
AcDb2dVertex
 10
11.00906511760766
 20
20.95813176254724
 30
0.0
  0
VERTEX
  5
1FE
330
1EB
100
AcDbEntity
  8
DEFAULT
100
AcDbVertex
100
AcDb2dVertex
 10
11.0950930501809
 20
21.0208448166151
 30
0.0
  0
VERTEX
  5
1FF
330
1EB
100
AcDbEntity
  8
DEFAULT
100
AcDbVertex
100
AcDb2dVertex
 10
11.18271144464729
 20
21.08141356480267
 30
0.0
  0
VERTEX
  5
200
330
1EB
100
AcDbEntity
  8
DEFAULT
100
AcDbVertex
100
AcDb2dVertex
 10
11.2718546597633
 20
21.13980902006455
 30
0.0
  0
VERTEX
  5
201
330
1EB
100
AcDbEntity
  8
DEFAULT
100
AcDbVertex
100
AcDb2dVertex
 10
11.36245705428541
 20
21.1960021953554
 30
0.0
  0
VERTEX
  5
202
330
1EB
100
AcDbEntity
  8
DEFAULT
100
AcDbVertex
100
AcDb2dVertex
 10
11.45445298697008
 20
21.24996410362983
 30
0.0
  0
VERTEX
  5
203
330
1EB
100
AcDbEntity
  8
DEFAULT
100
AcDbVertex
100
AcDb2dVertex
 10
11.54777681657378
 20
21.30166575784248
 30
0.0
  0
VERTEX
  5
204
330
1EB
100
AcDbEntity
  8
DEFAULT
100
AcDbVertex
100
AcDb2dVertex
 10
11.64236290185298
 20
21.35107817094798
 30
0.0
  0
VERTEX
  5
205
330
1EB
100
AcDbEntity
  8
DEFAULT
100
AcDbVertex
100
AcDb2dVertex
 10
11.73814560156416
 20
21.39817235590097
 30
0.0
  0
VERTEX
  5
206
330
1EB
100
AcDbEntity
  8
DEFAULT
100
AcDbVertex
100
AcDb2dVertex
 10
11.83505927446378
 20
21.44291932565606
 30
0.0
  0
VERTEX
  5
207
330
1EB
100
AcDbEntity
  8
DEFAULT
100
AcDbVertex
100
AcDb2dVertex
 10
11.93303827930832
 20
21.48529009316791
 30
0.0
  0
VERTEX
  5
208
330
1EB
100
AcDbEntity
  8
DEFAULT
100
AcDbVertex
100
AcDb2dVertex
 10
12.03201697485424
 20
21.52525567139113
 30
0.0
  0
VERTEX
  5
209
330
1EB
100
AcDbEntity
  8
DEFAULT
100
AcDbVertex
100
AcDb2dVertex
 10
12.13192971985801
 20
21.56278707328035
 30
0.0
  0
VERTEX
  5
20A
330
1EB
100
AcDbEntity
  8
DEFAULT
100
AcDbVertex
100
AcDb2dVertex
 10
12.23271087307611
 20
21.59785531179022
 30
0.0
  0
VERTEX
  5
20B
330
1EB
100
AcDbEntity
  8
DEFAULT
100
AcDbVertex
100
AcDb2dVertex
 10
12.334294793265
 20
21.63043139987536
 30
0.0
  0
VERTEX
  5
20C
330
1EB
100
AcDbEntity
  8
DEFAULT
100
AcDbVertex
100
AcDb2dVertex
 10
12.43661583918116
 20
21.6604863504904
 30
0.0
  0
VERTEX
  5
20D
330
1EB
100
AcDbEntity
  8
DEFAULT
100
AcDbVertex
100
AcDb2dVertex
 10
12.53960984639481
 20
21.68802017369313
 30
0.0
  0
VERTEX
  5
20E
330
1EB
100
AcDbEntity
  8
DEFAULT
100
AcDbVertex
100
AcDb2dVertex
 10
12.64321855773121
 20
21.71314886795399
 30
0.0
  0
VERTEX
  5
20F
330
1EB
100
AcDbEntity
  8
DEFAULT
100
AcDbVertex
100
AcDb2dVertex
 10
12.74738519282939
 20
21.73601742884657
 30
0.0
  0
VERTEX
  5
210
330
1EB
100
AcDbEntity
  8
DEFAULT
100
AcDbVertex
100
AcDb2dVertex
 10
12.85205297132835
 20
21.75677085194445
 30
0.0
  0
VERTEX
  5
211
330
1EB
100
AcDbEntity
  8
DEFAULT
100
AcDbVertex
100
AcDb2dVertex
 10
12.95716511286712
 20
21.77555413282123
 30
0.0
  0
VERTEX
  5
212
330
1EB
100
AcDbEntity
  8
DEFAULT
100
AcDbVertex
100
AcDb2dVertex
 10
13.06266483708472
 20
21.7925122670505
 30
0.0
  0
VERTEX
  5
213
330
1EB
100
AcDbEntity
  8
DEFAULT
100
AcDbVertex
100
AcDb2dVertex
 10
13.27459991211246
 20
21.82153307786086
 30
0.0
  0
VERTEX
  5
214
330
1EB
100
AcDbEntity
  8
DEFAULT
100
AcDbVertex
100
AcDb2dVertex
 10
13.48740395352371
 20
21.84499324896426
 30
0.0
  0
VERTEX
  5
215
330
1EB
100
AcDbEntity
  8
DEFAULT
100
AcDbVertex
100
AcDb2dVertex
 10
13.70062271843063
 20
21.86405274494943
 30
0.0
  0
VERTEX
  5
216
330
1EB
100
AcDbEntity
  8
DEFAULT
100
AcDbVertex
100
AcDb2dVertex
 10
14.12648744718
 20
21.89360956991998
 30
0.0
  0
SEQEND
  5
217
330
1EB
100
AcDbEntity
  8
DEFAULT
  0
POLYLINE
  5
218
330
1F
100
AcDbEntity
  8
DEFAULT
100
AcDb2dPolyline
 66
     1
 10
0.0
 20
0.0
 30
0.0
  0
VERTEX
  5
219
330
218
100
AcDbEntity
  8
DEFAULT
100
AcDbVertex
100
AcDb2dVertex
 10
8.046608598709998
 20
13.04282139217998
 30
0.0
  0
VERTEX
  5
21A
330
218
100
AcDbEntity
  8
DEFAULT
100
AcDbVertex
100
AcDb2dVertex
 10
8.113629190488766
 20
13.08438401581478
 30
0.0
  0
VERTEX
  5
21B
330
218
100
AcDbEntity
  8
DEFAULT
100
AcDbVertex
100
AcDb2dVertex
 10
8.179643536724006
 20
13.12730761107545
 30
0.0
  0
VERTEX
  5
21C
330
218
100
AcDbEntity
  8
DEFAULT
100
AcDbVertex
100
AcDb2dVertex
 10
8.24469001412115
 20
13.1715287789746
 30
0.0
  0
VERTEX
  5
21D
330
218
100
AcDbEntity
  8
DEFAULT
100
AcDbVertex
100
AcDb2dVertex
 10
8.30880699938563
 20
13.21698412052483
 30
0.0
  0
VERTEX
  5
21E
330
218
100
AcDbEntity
  8
DEFAULT
100
AcDbVertex
100
AcDb2dVertex
 10
8.372032869222878
 20
13.26361023673874
 30
0.0
  0
VERTEX
  5
21F
330
218
100
AcDbEntity
  8
DEFAULT
100
AcDbVertex
100
AcDb2dVertex
 10
8.43440600033832
 20
13.31134372862894
 30
0.0
  0
VERTEX
  5
220
330
218
100
AcDbEntity
  8
DEFAULT
100
AcDbVertex
100
AcDb2dVertex
 10
8.556747553225525
 20
13.40987924348861
 30
0.0
  0
VERTEX
  5
221
330
218
100
AcDbEntity
  8
DEFAULT
100
AcDbVertex
100
AcDb2dVertex
 10
8.676138671690694
 20
13.51208347320467
 30
0.0
  0
VERTEX
  5
222
330
218
100
AcDbEntity
  8
DEFAULT
100
AcDbVertex
100
AcDb2dVertex
 10
8.792886369377278
 20
13.61744922587795
 30
0.0
  0
VERTEX
  5
223
330
218
100
AcDbEntity
  8
DEFAULT
100
AcDbVertex
100
AcDb2dVertex
 10
8.907297659928727
 20
13.72546930960927
 30
0.0
  0
VERTEX
  5
224
330
218
100
AcDbEntity
  8
DEFAULT
100
AcDbVertex
100
AcDb2dVertex
 10
9.019679556988489
 20
13.83563653249948
 30
0.0
  0
VERTEX
  5
225
330
218
100
AcDbEntity
  8
DEFAULT
100
AcDbVertex
100
AcDb2dVertex
 10
9.239555691362666
 20
14.06069727262855
 30
0.0
  0
VERTEX
  5
226
330
218
100
AcDbEntity
  8
DEFAULT
100
AcDbVertex
100
AcDb2dVertex
 10
10.31286660961787
 20
15.21096187898133
 30
0.0
  0
VERTEX
  5
227
330
218
100
AcDbEntity
  8
DEFAULT
100
AcDbVertex
100
AcDb2dVertex
 10
10.75494879492079
 20
15.65874011031687
 30
0.0
  0
VERTEX
  5
228
330
218
100
AcDbEntity
  8
DEFAULT
100
AcDbVertex
100
AcDb2dVertex
 10
11.20805260802101
 20
16.09539259451806
 30
0.0
  0
VERTEX
  5
229
330
218
100
AcDbEntity
  8
DEFAULT
100
AcDbVertex
100
AcDb2dVertex
 10
11.67392733514438
 20
16.51832338201688
 30
0.0
  0
VERTEX
  5
22A
330
218
100
AcDbEntity
  8
DEFAULT
100
AcDbVertex
100
AcDb2dVertex
 10
11.91223813124431
 20
16.72374071581136
 30
0.0
  0
VERTEX
  5
22B
330
218
100
AcDbEntity
  8
DEFAULT
100
AcDbVertex
100
AcDb2dVertex
 10
12.15436153778653
 20
16.92464662262377
 30
0.0
  0
VERTEX
  5
22C
330
218
100
AcDbEntity
  8
DEFAULT
100
AcDbVertex
100
AcDb2dVertex
 10
12.40043641058408
 20
17.12068235620476
 30
0.0
  0
VERTEX
  5
22D
330
218
100
AcDbEntity
  8
DEFAULT
100
AcDbVertex
100
AcDb2dVertex
 10
13.93205500076964
 20
18.26525609638867
 30
0.0
  0
VERTEX
  5
22E
330
218
100
AcDbEntity
  8
DEFAULT
100
AcDbVertex
100
AcDb2dVertex
 10
14.0567202814598
 20
18.3650311042007
 30
0.0
  0
VERTEX
  5
22F
330
218
100
AcDbEntity
  8
DEFAULT
100
AcDbVertex
100
AcDb2dVertex
 10
14.17856235652434
 20
18.46783828076947
 30
0.0
  0
VERTEX
  5
230
330
218
100
AcDbEntity
  8
DEFAULT
100
AcDbVertex
100
AcDb2dVertex
 10
14.29703448530861
 20
18.57423030011499
 30
0.0
  0
VERTEX
  5
231
330
218
100
AcDbEntity
  8
DEFAULT
100
AcDbVertex
100
AcDb2dVertex
 10
14.41275630396495
 20
18.68377980322925
 30
0.0
  0
VERTEX
  5
232
330
218
100
AcDbEntity
  8
DEFAULT
100
AcDbVertex
100
AcDb2dVertex
 10
14.63959393231004
 20
18.909661791704
 30
0.0
  0
VERTEX
  5
233
330
218
100
AcDbEntity
  8
DEFAULT
100
AcDbVertex
100
AcDb2dVertex
 10
14.75128162448008
 20
19.02535888507365
 30
0.0
  0
VERTEX
  5
234
330
218
100
AcDbEntity
  8
DEFAULT
100
AcDbVertex
100
AcDb2dVertex
 10
14.80505916372574
 20
19.08475497748926
 30
0.0
  0
VERTEX
  5
235
330
218
100
AcDbEntity
  8
DEFAULT
100
AcDbVertex
100
AcDb2dVertex
 10
14.83107084356802
 20
19.11503589306561
 30
0.0
  0
VERTEX
  5
236
330
218
100
AcDbEntity
  8
DEFAULT
100
AcDbVertex
100
AcDb2dVertex
 10
14.8563604585773
 20
19.14578004838705
 30
0.0
  0
VERTEX
  5
237
330
218
100
AcDbEntity
  8
DEFAULT
100
AcDbVertex
100
AcDb2dVertex
 10
14.88082500501909
 20
19.17704343857809
 30
0.0
  0
VERTEX
  5
238
330
218
100
AcDbEntity
  8
DEFAULT
100
AcDbVertex
100
AcDb2dVertex
 10
14.9043614791589
 20
19.20888205876326
 30
0.0
  0
VERTEX
  5
239
330
218
100
AcDbEntity
  8
DEFAULT
100
AcDbVertex
100
AcDb2dVertex
 10
14.92686687726224
 20
19.24135190406711
 30
0.0
  0
VERTEX
  5
23A
330
218
100
AcDbEntity
  8
DEFAULT
100
AcDbVertex
100
AcDb2dVertex
 10
14.93770073413321
 20
19.25784103461495
 30
0.0
  0
VERTEX
  5
23B
330
218
100
AcDbEntity
  8
DEFAULT
100
AcDbVertex
100
AcDb2dVertex
 10
14.94823819559463
 20
19.27450896961416
 30
0.0
  0
VERTEX
  5
23C
330
218
100
AcDbEntity
  8
DEFAULT
100
AcDbVertex
100
AcDb2dVertex
 10
14.9584663861797
 20
19.2913627084553
 30
0.0
  0
VERTEX
  5
23D
330
218
100
AcDbEntity
  8
DEFAULT
100
AcDbVertex
100
AcDb2dVertex
 10
14.96837243042159
 20
19.30840925052894
 30
0.0
  0
VERTEX
  5
23E
330
218
100
AcDbEntity
  8
DEFAULT
100
AcDbVertex
100
AcDb2dVertex
 10
14.97794345285351
 20
19.32565559522564
 30
0.0
  0
VERTEX
  5
23F
330
218
100
AcDbEntity
  8
DEFAULT
100
AcDbVertex
100
AcDb2dVertex
 10
14.98716657800863
 20
19.34310874193598
 30
0.0
  0
VERTEX
  5
240
330
218
100
AcDbEntity
  8
DEFAULT
100
AcDbVertex
100
AcDb2dVertex
 10
14.99602893042015
 20
19.36077569005052
 30
0.0
  0
VERTEX
  5
241
330
218
100
AcDbEntity
  8
DEFAULT
100
AcDbVertex
100
AcDb2dVertex
 10
15.00451763462126
 20
19.37866343895982
 30
0.0
  0
VERTEX
  5
242
330
218
100
AcDbEntity
  8
DEFAULT
100
AcDbVertex
100
AcDb2dVertex
 10
15.01261981514515
 20
19.39677898805445
 30
0.0
  0
VERTEX
  5
243
330
218
100
AcDbEntity
  8
DEFAULT
100
AcDbVertex
100
AcDb2dVertex
 10
15.020322596525
 20
19.41512933672498
 30
0.0
  0
VERTEX
  5
244
330
218
100
AcDbEntity
  8
DEFAULT
100
AcDbVertex
100
AcDb2dVertex
 10
15.01831547388552
 20
19.75966254202994
 30
0.0
  0
VERTEX
  5
245
330
218
100
AcDbEntity
  8
DEFAULT
100
AcDbVertex
100
AcDb2dVertex
 10
15.00247794899106
 20
20.44851469132112
 30
0.0
  0
VERTEX
  5
246
330
218
100
AcDbEntity
  8
DEFAULT
100
AcDbVertex
100
AcDb2dVertex
 10
14.966130544615
 20
21.13658208698998
 30
0.0
  0
VERTEX
  5
247
330
218
100
AcDbEntity
  8
DEFAULT
100
AcDbVertex
100
AcDb2dVertex
 10
14.96606010560878
 20
21.13754712050311
 30
0.0
  0
VERTEX
  5
248
330
218
100
AcDbEntity
  8
DEFAULT
100
AcDbVertex
100
AcDb2dVertex
 10
14.96600780775635
 20
21.13802907454988
 30
0.0
  0
VERTEX
  5
249
330
218
100
AcDbEntity
  8
DEFAULT
100
AcDbVertex
100
AcDb2dVertex
 10
14.96594428206537
 20
21.13851028170511
 30
0.0
  0
VERTEX
  5
24A
330
218
100
AcDbEntity
  8
DEFAULT
100
AcDbVertex
100
AcDb2dVertex
 10
14.96586964683157
 20
21.13899046315506
 30
0.0
  0
VERTEX
  5
24B
330
218
100
AcDbEntity
  8
DEFAULT
100
AcDbVertex
100
AcDb2dVertex
 10
14.96578402035072
 20
21.13946934008597
 30
0.0
  0
VERTEX
  5
24C
330
218
100
AcDbEntity
  8
DEFAULT
100
AcDbVertex
100
AcDb2dVertex
 10
14.96568752091855
 20
21.13994663368408
 30
0.0
  0
VERTEX
  5
24D
330
218
100
AcDbEntity
  8
DEFAULT
100
AcDbVertex
100
AcDb2dVertex
 10
14.96558026683081
 20
21.14042206513567
 30
0.0
  0
VERTEX
  5
24E
330
218
100
AcDbEntity
  8
DEFAULT
100
AcDbVertex
100
AcDb2dVertex
 10
14.96546237638325
 20
21.14089535562695
 30
0.0
  0
VERTEX
  5
24F
330
218
100
AcDbEntity
  8
DEFAULT
100
AcDbVertex
100
AcDb2dVertex
 10
14.96533396787161
 20
21.1413662263442
 30
0.0
  0
VERTEX
  5
250
330
218
100
AcDbEntity
  8
DEFAULT
100
AcDbVertex
100
AcDb2dVertex
 10
14.96519515959164
 20
21.14183439847365
 30
0.0
  0
VERTEX
  5
251
330
218
100
AcDbEntity
  8
DEFAULT
100
AcDbVertex
100
AcDb2dVertex
 10
14.96504606983908
 20
21.14229959320155
 30
0.0
  0
VERTEX
  5
252
330
218
100
AcDbEntity
  8
DEFAULT
100
AcDbVertex
100
AcDb2dVertex
 10
14.96488681690968
 20
21.14276153171415
 30
0.0
  0
VERTEX
  5
253
330
218
100
AcDbEntity
  8
DEFAULT
100
AcDbVertex
100
AcDb2dVertex
 10
14.96471751909918
 20
21.1432199351977
 30
0.0
  0
VERTEX
  5
254
330
218
100
AcDbEntity
  8
DEFAULT
100
AcDbVertex
100
AcDb2dVertex
 10
14.96453829470334
 20
21.14367452483845
 30
0.0
  0
VERTEX
  5
255
330
218
100
AcDbEntity
  8
DEFAULT
100
AcDbVertex
100
AcDb2dVertex
 10
14.9643492620179
 20
21.14412502182265
 30
0.0
  0
VERTEX
  5
256
330
218
100
AcDbEntity
  8
DEFAULT
100
AcDbVertex
100
AcDb2dVertex
 10
14.9641505393386
 20
21.14457114733653
 30
0.0
  0
VERTEX
  5
257
330
218
100
AcDbEntity
  8
DEFAULT
100
AcDbVertex
100
AcDb2dVertex
 10
14.96394224496118
 20
21.14501262256637
 30
0.0
  0
VERTEX
  5
258
330
218
100
AcDbEntity
  8
DEFAULT
100
AcDbVertex
100
AcDb2dVertex
 10
14.9637244971814
 20
21.14544916869839
 30
0.0
  0
VERTEX
  5
259
330
218
100
AcDbEntity
  8
DEFAULT
100
AcDbVertex
100
AcDb2dVertex
 10
14.96349741429501
 20
21.14588050691885
 30
0.0
  0
VERTEX
  5
25A
330
218
100
AcDbEntity
  8
DEFAULT
100
AcDbVertex
100
AcDb2dVertex
 10
14.96326111459774
 20
21.146306358414
 30
0.0
  0
VERTEX
  5
25B
330
218
100
AcDbEntity
  8
DEFAULT
100
AcDbVertex
100
AcDb2dVertex
 10
14.96301571638534
 20
21.14672644437008
 30
0.0
  0
VERTEX
  5
25C
330
218
100
AcDbEntity
  8
DEFAULT
100
AcDbVertex
100
AcDb2dVertex
 10
14.96276133795356
 20
21.14714048597335
 30
0.0
  0
VERTEX
  5
25D
330
218
100
AcDbEntity
  8
DEFAULT
100
AcDbVertex
100
AcDb2dVertex
 10
14.96249809759815
 20
21.14754820441005
 30
0.0
  0
VERTEX
  5
25E
330
218
100
AcDbEntity
  8
DEFAULT
100
AcDbVertex
100
AcDb2dVertex
 10
14.96222611361484
 20
21.14794932086643
 30
0.0
  0
VERTEX
  5
25F
330
218
100
AcDbEntity
  8
DEFAULT
100
AcDbVertex
100
AcDb2dVertex
 10
14.9619455042994
 20
21.14834355652874
 30
0.0
  0
VERTEX
  5
260
330
218
100
AcDbEntity
  8
DEFAULT
100
AcDbVertex
100
AcDb2dVertex
 10
14.96165638794755
 20
21.14873063258323
 30
0.0
  0
VERTEX
  5
261
330
218
100
AcDbEntity
  8
DEFAULT
100
AcDbVertex
100
AcDb2dVertex
 10
14.96135888285505
 20
21.14911027021615
 30
0.0
  0
VERTEX
  5
262
330
218
100
AcDbEntity
  8
DEFAULT
100
AcDbVertex
100
AcDb2dVertex
 10
14.96105310731765
 20
21.14948219061374
 30
0.0
  0
VERTEX
  5
263
330
218
100
AcDbEntity
  8
DEFAULT
100
AcDbVertex
100
AcDb2dVertex
 10
14.96073917963109
 20
21.14984611496225
 30
0.0
  0
VERTEX
  5
264
330
218
100
AcDbEntity
  8
DEFAULT
100
AcDbVertex
100
AcDb2dVertex
 10
14.96041721809111
 20
21.15020176444793
 30
0.0
  0
VERTEX
  5
265
330
218
100
AcDbEntity
  8
DEFAULT
100
AcDbVertex
100
AcDb2dVertex
 10
14.96008734099346
 20
21.15054886025703
 30
0.0
  0
VERTEX
  5
266
330
218
100
AcDbEntity
  8
DEFAULT
100
AcDbVertex
100
AcDb2dVertex
 10
14.95974968805594
 20
21.15088720908945
 30
0.0
  0
VERTEX
  5
267
330
218
100
AcDbEntity
  8
DEFAULT
100
AcDbVertex
100
AcDb2dVertex
 10
14.95940448468449
 20
21.15121695969972
 30
0.0
  0
VERTEX
  5
268
330
218
100
AcDbEntity
  8
DEFAULT
100
AcDbVertex
100
AcDb2dVertex
 10
14.95905197770712
 20
21.15153834635601
 30
0.0
  0
VERTEX
  5
269
330
218
100
AcDbEntity
  8
DEFAULT
100
AcDbVertex
100
AcDb2dVertex
 10
14.95869241395182
 20
21.15185160332648
 30
0.0
  0
VERTEX
  5
26A
330
218
100
AcDbEntity
  8
DEFAULT
100
AcDbVertex
100
AcDb2dVertex
 10
14.9583260402466
 20
21.15215696487933
 30
0.0
  0
VERTEX
  5
26B
330
218
100
AcDbEntity
  8
DEFAULT
100
AcDbVertex
100
AcDb2dVertex
 10
14.95795310341946
 20
21.15245466528272
 30
0.0
  0
VERTEX
  5
26C
330
218
100
AcDbEntity
  8
DEFAULT
100
AcDbVertex
100
AcDb2dVertex
 10
14.9575738502984
 20
21.15274493880482
 30
0.0
  0
VERTEX
  5
26D
330
218
100
AcDbEntity
  8
DEFAULT
100
AcDbVertex
100
AcDb2dVertex
 10
14.95718852771141
 20
21.15302801971382
 30
0.0
  0
VERTEX
  5
26E
330
218
100
AcDbEntity
  8
DEFAULT
100
AcDbVertex
100
AcDb2dVertex
 10
14.9567973824865
 20
21.15330414227789
 30
0.0
  0
VERTEX
  5
26F
330
218
100
AcDbEntity
  8
DEFAULT
100
AcDbVertex
100
AcDb2dVertex
 10
14.95640066145166
 20
21.15357354076521
 30
0.0
  0
VERTEX
  5
270
330
218
100
AcDbEntity
  8
DEFAULT
100
AcDbVertex
100
AcDb2dVertex
 10
14.95559147926421
 20
21.15409310258227
 30
0.0
  0
VERTEX
  5
271
330
218
100
AcDbEntity
  8
DEFAULT
100
AcDbVertex
100
AcDb2dVertex
 10
14.95476295577306
 20
21.15458857931041
 30
0.0
  0
VERTEX
  5
272
330
218
100
AcDbEntity
  8
DEFAULT
100
AcDbVertex
100
AcDb2dVertex
 10
14.95391706560221
 20
21.15506184509503
 30
0.0
  0
VERTEX
  5
273
330
218
100
AcDbEntity
  8
DEFAULT
100
AcDbVertex
100
AcDb2dVertex
 10
14.95305578337566
 20
21.15551477408154
 30
0.0
  0
VERTEX
  5
274
330
218
100
AcDbEntity
  8
DEFAULT
100
AcDbVertex
100
AcDb2dVertex
 10
14.95218108371741
 20
21.15594924041533
 30
0.0
  0
VERTEX
  5
275
330
218
100
AcDbEntity
  8
DEFAULT
100
AcDbVertex
100
AcDb2dVertex
 10
14.95129494125144
 20
21.1563671182418
 30
0.0
  0
VERTEX
  5
276
330
218
100
AcDbEntity
  8
DEFAULT
100
AcDbVertex
100
AcDb2dVertex
 10
14.95039933060177
 20
21.15677028170636
 30
0.0
  0
VERTEX
  5
277
330
218
100
AcDbEntity
  8
DEFAULT
100
AcDbVertex
100
AcDb2dVertex
 10
14.9485876032473
 20
21.15753996213136
 30
0.0
  0
VERTEX
  5
278
330
218
100
AcDbEntity
  8
DEFAULT
100
AcDbVertex
100
AcDb2dVertex
 10
14.94676169864598
 20
21.15827327485352
 30
0.0
  0
VERTEX
  5
279
330
218
100
AcDbEntity
  8
DEFAULT
100
AcDbVertex
100
AcDb2dVertex
 10
14.902985375705
 20
21.17437269872498
 30
0.0
  0
VERTEX
  5
27A
330
218
100
AcDbEntity
  8
DEFAULT
100
AcDbVertex
100
AcDb2dVertex
 10
14.5661331161455
 20
21.29486002423547
 30
0.0
  0
VERTEX
  5
27B
330
218
100
AcDbEntity
  8
DEFAULT
100
AcDbVertex
100
AcDb2dVertex
 10
14.5403902008197
 20
21.30461514716291
 30
0.0
  0
VERTEX
  5
27C
330
218
100
AcDbEntity
  8
DEFAULT
100
AcDbVertex
100
AcDb2dVertex
 10
14.51487087987375
 20
21.3150597181172
 30
0.0
  0
VERTEX
  5
27D
330
218
100
AcDbEntity
  8
DEFAULT
100
AcDbVertex
100
AcDb2dVertex
 10
14.50221213842472
 20
21.32059369531504
 30
0.0
  0
VERTEX
  5
27E
330
218
100
AcDbEntity
  8
DEFAULT
100
AcDbVertex
100
AcDb2dVertex
 10
14.48962978092846
 20
21.32636381297234
 30
0.0
  0
VERTEX
  5
27F
330
218
100
AcDbEntity
  8
DEFAULT
100
AcDbVertex
100
AcDb2dVertex
 10
14.47713325690878
 20
21.33238862238558
 30
0.0
  0
VERTEX
  5
280
330
218
100
AcDbEntity
  8
DEFAULT
100
AcDbVertex
100
AcDb2dVertex
 10
14.46474250017429
 20
21.33867584210022
 30
0.0
  0
VERTEX
  5
281
330
218
100
AcDbEntity
  8
DEFAULT
100
AcDbVertex
100
AcDb2dVertex
 10
14.4524800656048
 20
21.34523048247393
 30
0.0
  0
VERTEX
  5
282
330
218
100
AcDbEntity
  8
DEFAULT
100
AcDbVertex
100
AcDb2dVertex
 10
14.44036850808015
 20
21.35205755386441
 30
0.0
  0
VERTEX
  5
283
330
218
100
AcDbEntity
  8
DEFAULT
100
AcDbVertex
100
AcDb2dVertex
 10
14.42843038248013
 20
21.35916206662932
 30
0.0
  0
VERTEX
  5
284
330
218
100
AcDbEntity
  8
DEFAULT
100
AcDbVertex
100
AcDb2dVertex
 10
14.41668824368458
 20
21.36654903112636
 30
0.0
  0
VERTEX
  5
285
330
218
100
AcDbEntity
  8
DEFAULT
100
AcDbVertex
100
AcDb2dVertex
 10
14.4051646465733
 20
21.37422345771321
 30
0.0
  0
VERTEX
  5
286
330
218
100
AcDbEntity
  8
DEFAULT
100
AcDbVertex
100
AcDb2dVertex
 10
14.39388214602611
 20
21.38219035674754
 30
0.0
  0
VERTEX
  5
287
330
218
100
AcDbEntity
  8
DEFAULT
100
AcDbVertex
100
AcDb2dVertex
 10
14.38286329692284
 20
21.39045473858706
 30
0.0
  0
VERTEX
  5
288
330
218
100
AcDbEntity
  8
DEFAULT
100
AcDbVertex
100
AcDb2dVertex
 10
14.37213065414329
 20
21.39902161358943
 30
0.0
  0
VERTEX
  5
289
330
218
100
AcDbEntity
  8
DEFAULT
100
AcDbVertex
100
AcDb2dVertex
 10
14.36170677256728
 20
21.40789599211235
 30
0.0
  0
VERTEX
  5
28A
330
218
100
AcDbEntity
  8
DEFAULT
100
AcDbVertex
100
AcDb2dVertex
 10
14.35161420707464
 20
21.41708288451348
 30
0.0
  0
VERTEX
  5
28B
330
218
100
AcDbEntity
  8
DEFAULT
100
AcDbVertex
100
AcDb2dVertex
 10
14.34669921625952
 20
21.42179508915516
 30
0.0
  0
VERTEX
  5
28C
330
218
100
AcDbEntity
  8
DEFAULT
100
AcDbVertex
100
AcDb2dVertex
 10
14.34187551254518
 20
21.42658730115053
 30
0.0
  0
VERTEX
  5
28D
330
218
100
AcDbEntity
  8
DEFAULT
100
AcDbVertex
100
AcDb2dVertex
 10
14.33714591529158
 20
21.4314601467943
 30
0.0
  0
VERTEX
  5
28E
330
218
100
AcDbEntity
  8
DEFAULT
100
AcDbVertex
100
AcDb2dVertex
 10
14.33251324385871
 20
21.43641425238117
 30
0.0
  0
VERTEX
  5
28F
330
218
100
AcDbEntity
  8
DEFAULT
100
AcDbVertex
100
AcDb2dVertex
 10
14.32798031760654
 20
21.44145024420586
 30
0.0
  0
VERTEX
  5
290
330
218
100
AcDbEntity
  8
DEFAULT
100
AcDbVertex
100
AcDb2dVertex
 10
14.32354995589505
 20
21.44656874856308
 30
0.0
  0
VERTEX
  5
291
330
218
100
AcDbEntity
  8
DEFAULT
100
AcDbVertex
100
AcDb2dVertex
 10
14.31922497808422
 20
21.45177039174754
 30
0.0
  0
VERTEX
  5
292
330
218
100
AcDbEntity
  8
DEFAULT
100
AcDbVertex
100
AcDb2dVertex
 10
14.31500820353402
 20
21.45705580005395
 30
0.0
  0
VERTEX
  5
293
330
218
100
AcDbEntity
  8
DEFAULT
100
AcDbVertex
100
AcDb2dVertex
 10
14.31090135851823
 20
21.4624249872619
 30
0.0
  0
VERTEX
  5
294
330
218
100
AcDbEntity
  8
DEFAULT
100
AcDbVertex
100
AcDb2dVertex
 10
14.30690179696577
 20
21.46787551709045
 30
0.0
  0
VERTEX
  5
295
330
218
100
AcDbEntity
  8
DEFAULT
100
AcDbVertex
100
AcDb2dVertex
 10
14.30300577971939
 20
21.47340434074356
 30
0.0
  0
VERTEX
  5
296
330
218
100
AcDbEntity
  8
DEFAULT
100
AcDbVertex
100
AcDb2dVertex
 10
14.2992095676218
 20
21.47900840942518
 30
0.0
  0
VERTEX
  5
297
330
218
100
AcDbEntity
  8
DEFAULT
100
AcDbVertex
100
AcDb2dVertex
 10
14.29190160224393
 20
21.49043008668973
 30
0.0
  0
VERTEX
  5
298
330
218
100
AcDbEntity
  8
DEFAULT
100
AcDbVertex
100
AcDb2dVertex
 10
14.284947987574
 20
21.50211615851571
 30
0.0
  0
VERTEX
  5
299
330
218
100
AcDbEntity
  8
DEFAULT
100
AcDbVertex
100
AcDb2dVertex
 10
14.27831881035382
 20
21.5140422345347
 30
0.0
  0
VERTEX
  5
29A
330
218
100
AcDbEntity
  8
DEFAULT
100
AcDbVertex
100
AcDb2dVertex
 10
14.27198415732524
 20
21.52618392437829
 30
0.0
  0
VERTEX
  5
29B
330
218
100
AcDbEntity
  8
DEFAULT
100
AcDbVertex
100
AcDb2dVertex
 10
14.26591411523008
 20
21.53851683767808
 30
0.0
  0
VERTEX
  5
29C
330
218
100
AcDbEntity
  8
DEFAULT
100
AcDbVertex
100
AcDb2dVertex
 10
14.26007877081016
 20
21.55101658406566
 30
0.0
  0
VERTEX
  5
29D
330
218
100
AcDbEntity
  8
DEFAULT
100
AcDbVertex
100
AcDb2dVertex
 10
14.24899252196339
 20
21.57641901463055
 30
0.0
  0
VERTEX
  5
29E
330
218
100
AcDbEntity
  8
DEFAULT
100
AcDbVertex
100
AcDb2dVertex
 10
14.17748197149868
 20
21.75652916755407
 30
0.0
  0
VERTEX
  5
29F
330
218
100
AcDbEntity
  8
DEFAULT
100
AcDbVertex
100
AcDb2dVertex
 10
14.15759125769394
 20
21.80769864454808
 30
0.0
  0
VERTEX
  5
2A0
330
218
100
AcDbEntity
  8
DEFAULT
100
AcDbVertex
100
AcDb2dVertex
 10
14.13873770599
 20
21.85948452158998
 30
0.0
  0
VERTEX
  5
2A1
330
218
100
AcDbEntity
  8
DEFAULT
100
AcDbVertex
100
AcDb2dVertex
 10
13.97311346346985
 20
22.36026925569984
 30
0.0
  0
VERTEX
  5
2A2
330
218
100
AcDbEntity
  8
DEFAULT
100
AcDbVertex
100
AcDb2dVertex
 10
11.21292987866886
 20
32.03092555548983
 30
0.0
  0
VERTEX
  5
2A3
330
218
100
AcDbEntity
  8
DEFAULT
100
AcDbVertex
100
AcDb2dVertex
 10
11.20248607747171
 20
32.0640813943673
 30
0.0
  0
VERTEX
  5
2A4
330
218
100
AcDbEntity
  8
DEFAULT
100
AcDbVertex
100
AcDb2dVertex
 10
11.19136809736894
 20
32.09703522507481
 30
0.0
  0
VERTEX
  5
2A5
330
218
100
AcDbEntity
  8
DEFAULT
100
AcDbVertex
100
AcDb2dVertex
 10
11.17957593960089
 20
32.12976681471983
 30
0.0
  0
VERTEX
  5
2A6
330
218
100
AcDbEntity
  8
DEFAULT
100
AcDbVertex
100
AcDb2dVertex
 10
11.16710960540793
 20
32.16225593040979
 30
0.0
  0
VERTEX
  5
2A7
330
218
100
AcDbEntity
  8
DEFAULT
100
AcDbVertex
100
AcDb2dVertex
 10
11.15396909603042
 20
32.19448233925215
 30
0.0
  0
VERTEX
  5
2A8
330
218
100
AcDbEntity
  8
DEFAULT
100
AcDbVertex
100
AcDb2dVertex
 10
11.14015441270872
 20
32.22642580835437
 30
0.0
  0
VERTEX
  5
2A9
330
218
100
AcDbEntity
  8
DEFAULT
100
AcDbVertex
100
AcDb2dVertex
 10
11.1256655566832
 20
32.2580661048239
 30
0.0
  0
VERTEX
  5
2AA
330
218
100
AcDbEntity
  8
DEFAULT
100
AcDbVertex
100
AcDb2dVertex
 10
11.11050252919421
 20
32.28938299576818
 30
0.0
  0
VERTEX
  5
2AB
330
218
100
AcDbEntity
  8
DEFAULT
100
AcDbVertex
100
AcDb2dVertex
 10
11.09466533148212
 20
32.32035624829466
 30
0.0
  0
VERTEX
  5
2AC
330
218
100
AcDbEntity
  8
DEFAULT
100
AcDbVertex
100
AcDb2dVertex
 10
11.07815396478728
 20
32.3509656295108
 30
0.0
  0
VERTEX
  5
2AD
330
218
100
AcDbEntity
  8
DEFAULT
100
AcDbVertex
100
AcDb2dVertex
 10
11.06096843035006
 20
32.38119090652405
 30
0.0
  0
VERTEX
  5
2AE
330
218
100
AcDbEntity
  8
DEFAULT
100
AcDbVertex
100
AcDb2dVertex
 10
11.04310872941083
 20
32.41101184644186
 30
0.0
  0
VERTEX
  5
2AF
330
218
100
AcDbEntity
  8
DEFAULT
100
AcDbVertex
100
AcDb2dVertex
 10
11.02457486320993
 20
32.44040821637167
 30
0.0
  0
VERTEX
  5
2B0
330
218
100
AcDbEntity
  8
DEFAULT
100
AcDbVertex
100
AcDb2dVertex
 10
11.00536683298774
 20
32.46935978342096
 30
0.0
  0
VERTEX
  5
2B1
330
218
100
AcDbEntity
  8
DEFAULT
100
AcDbVertex
100
AcDb2dVertex
 10
10.98548463998462
 20
32.49784631469714
 30
0.0
  0
VERTEX
  5
2B2
330
218
100
AcDbEntity
  8
DEFAULT
100
AcDbVertex
100
AcDb2dVertex
 10
10.96493120314526
 20
32.52584979707818
 30
0.0
  0
VERTEX
  5
2B3
330
218
100
AcDbEntity
  8
DEFAULT
100
AcDbVertex
100
AcDb2dVertex
 10
10.94372133000767
 20
32.55336080230531
 30
0.0
  0
VERTEX
  5
2B4
330
218
100
AcDbEntity
  8
DEFAULT
100
AcDbVertex
100
AcDb2dVertex
 10
10.92187274818195
 20
32.58037212359459
 30
0.0
  0
VERTEX
  5
2B5
330
218
100
AcDbEntity
  8
DEFAULT
100
AcDbVertex
100
AcDb2dVertex
 10
10.89940318527822
 20
32.60687655416208
 30
0.0
  0
VERTEX
  5
2B6
330
218
100
AcDbEntity
  8
DEFAULT
100
AcDbVertex
100
AcDb2dVertex
 10
10.87633036890658
 20
32.63286688722387
 30
0.0
  0
VERTEX
  5
2B7
330
218
100
AcDbEntity
  8
DEFAULT
100
AcDbVertex
100
AcDb2dVertex
 10
10.85267202667714
 20
32.65833591599601
 30
0.0
  0
VERTEX
  5
2B8
330
218
100
AcDbEntity
  8
DEFAULT
100
AcDbVertex
100
AcDb2dVertex
 10
10.82844588620001
 20
32.68327643369457
 30
0.0
  0
VERTEX
  5
2B9
330
218
100
AcDbEntity
  8
DEFAULT
100
AcDbVertex
100
AcDb2dVertex
 10
10.8036696750853
 20
32.70768123353562
 30
0.0
  0
VERTEX
  5
2BA
330
218
100
AcDbEntity
  8
DEFAULT
100
AcDbVertex
100
AcDb2dVertex
 10
10.77836112094311
 20
32.73154310873522
 30
0.0
  0
VERTEX
  5
2BB
330
218
100
AcDbEntity
  8
DEFAULT
100
AcDbVertex
100
AcDb2dVertex
 10
10.75253795138356
 20
32.75485485250945
 30
0.0
  0
VERTEX
  5
2BC
330
218
100
AcDbEntity
  8
DEFAULT
100
AcDbVertex
100
AcDb2dVertex
 10
10.72621789401676
 20
32.77760925807438
 30
0.0
  0
VERTEX
  5
2BD
330
218
100
AcDbEntity
  8
DEFAULT
100
AcDbVertex
100
AcDb2dVertex
 10
10.69941867645281
 20
32.79979911864605
 30
0.0
  0
VERTEX
  5
2BE
330
218
100
AcDbEntity
  8
DEFAULT
100
AcDbVertex
100
AcDb2dVertex
 10
10.67215802630182
 20
32.82141722744055
 30
0.0
  0
VERTEX
  5
2BF
330
218
100
AcDbEntity
  8
DEFAULT
100
AcDbVertex
100
AcDb2dVertex
 10
10.64445367117391
 20
32.84245637767395
 30
0.0
  0
VERTEX
  5
2C0
330
218
100
AcDbEntity
  8
DEFAULT
100
AcDbVertex
100
AcDb2dVertex
 10
10.61632333867917
 20
32.86290936256231
 30
0.0
  0
VERTEX
  5
2C1
330
218
100
AcDbEntity
  8
DEFAULT
100
AcDbVertex
100
AcDb2dVertex
 10
10.58778475642773
 20
32.8827689753217
 30
0.0
  0
VERTEX
  5
2C2
330
218
100
AcDbEntity
  8
DEFAULT
100
AcDbVertex
100
AcDb2dVertex
 10
10.55885527462585
 20
32.90203058878839
 30
0.0
  0
VERTEX
  5
2C3
330
218
100
AcDbEntity
  8
DEFAULT
100
AcDbVertex
100
AcDb2dVertex
 10
10.52955073386451
 20
32.92069989427947
 30
0.0
  0
VERTEX
  5
2C4
330
218
100
AcDbEntity
  8
DEFAULT
100
AcDbVertex
100
AcDb2dVertex
 10
10.49988659733086
 20
32.93878516273225
 30
0.0
  0
VERTEX
  5
2C5
330
218
100
AcDbEntity
  8
DEFAULT
100
AcDbVertex
100
AcDb2dVertex
 10
10.46987832821202
 20
32.95629466508404
 30
0.0
  0
VERTEX
  5
2C6
330
218
100
AcDbEntity
  8
DEFAULT
100
AcDbVertex
100
AcDb2dVertex
 10
10.43954138969515
 20
32.97323667227213
 30
0.0
  0
VERTEX
  5
2C7
330
218
100
AcDbEntity
  8
DEFAULT
100
AcDbVertex
100
AcDb2dVertex
 10
10.40889124496738
 20
32.98961945523381
 30
0.0
  0
VERTEX
  5
2C8
330
218
100
AcDbEntity
  8
DEFAULT
100
AcDbVertex
100
AcDb2dVertex
 10
10.37794335721585
 20
33.0054512849064
 30
0.0
  0
VERTEX
  5
2C9
330
218
100
AcDbEntity
  8
DEFAULT
100
AcDbVertex
100
AcDb2dVertex
 10
10.34671318962771
 20
33.0207404322272
 30
0.0
  0
VERTEX
  5
2CA
330
218
100
AcDbEntity
  8
DEFAULT
100
AcDbVertex
100
AcDb2dVertex
 10
10.28346786769015
 20
33.04972376356262
 30
0.0
  0
VERTEX
  5
2CB
330
218
100
AcDbEntity
  8
DEFAULT
100
AcDbVertex
100
AcDb2dVertex
 10
10.21927898465182
 20
33.07663561673849
 30
0.0
  0
VERTEX
  5
2CC
330
218
100
AcDbEntity
  8
DEFAULT
100
AcDbVertex
100
AcDb2dVertex
 10
10.15427024600985
 20
33.1015421592532
 30
0.0
  0
VERTEX
  5
2CD
330
218
100
AcDbEntity
  8
DEFAULT
100
AcDbVertex
100
AcDb2dVertex
 10
10.08856535726137
 20
33.12450955860518
 30
0.0
  0
VERTEX
  5
2CE
330
218
100
AcDbEntity
  8
DEFAULT
100
AcDbVertex
100
AcDb2dVertex
 10
10.02227591224036
 20
33.14560387961119
 30
0.0
  0
VERTEX
  5
2CF
330
218
100
AcDbEntity
  8
DEFAULT
100
AcDbVertex
100
AcDb2dVertex
 10
9.955465058128173
 20
33.16489077636147
 30
0.0
  0
VERTEX
  5
2D0
330
218
100
AcDbEntity
  8
DEFAULT
100
AcDbVertex
100
AcDb2dVertex
 10
9.888183830443012
 20
33.18243580026461
 30
0.0
  0
VERTEX
  5
2D1
330
218
100
AcDbEntity
  8
DEFAULT
100
AcDbVertex
100
AcDb2dVertex
 10
9.820483264703086
 20
33.1983045027292
 30
0.0
  0
VERTEX
  5
2D2
330
218
100
AcDbEntity
  8
DEFAULT
100
AcDbVertex
100
AcDb2dVertex
 10
9.752414396426598
 20
33.21256243516384
 30
0.0
  0
VERTEX
  5
2D3
330
218
100
AcDbEntity
  8
DEFAULT
100
AcDbVertex
100
AcDb2dVertex
 10
9.684028261131754
 20
33.22527514897712
 30
0.0
  0
VERTEX
  5
2D4
330
218
100
AcDbEntity
  8
DEFAULT
100
AcDbVertex
100
AcDb2dVertex
 10
9.615375894336761
 20
33.23650819557763
 30
0.0
  0
VERTEX
  5
2D5
330
218
100
AcDbEntity
  8
DEFAULT
100
AcDbVertex
100
AcDb2dVertex
 10
9.546508331559824
 20
33.24632712637396
 30
0.0
  0
VERTEX
  5
2D6
330
218
100
AcDbEntity
  8
DEFAULT
100
AcDbVertex
100
AcDb2dVertex
 10
9.477472256238027
 20
33.25479391126537
 30
0.0
  0
VERTEX
  5
2D7
330
218
100
AcDbEntity
  8
DEFAULT
100
AcDbVertex
100
AcDb2dVertex
 10
9.40829490842929
 20
33.26195643674603
 30
0.0
  0
VERTEX
  5
2D8
330
218
100
AcDbEntity
  8
DEFAULT
100
AcDbVertex
100
AcDb2dVertex
 10
9.338999174498104
 20
33.26785899455581
 30
0.0
  0
VERTEX
  5
2D9
330
218
100
AcDbEntity
  8
DEFAULT
100
AcDbVertex
100
AcDb2dVertex
 10
9.269607940808957
 20
33.27254587643458
 30
0.0
  0
VERTEX
  5
2DA
330
218
100
AcDbEntity
  8
DEFAULT
100
AcDbVertex
100
AcDb2dVertex
 10
9.130630519614753
 20
33.27844977935854
 30
0.0
  0
VERTEX
  5
2DB
330
218
100
AcDbEntity
  8
DEFAULT
100
AcDbVertex
100
AcDb2dVertex
 10
8.991545735762603
 20
33.28002247943682
 30
0.0
  0
VERTEX
  5
2DC
330
218
100
AcDbEntity
  8
DEFAULT
100
AcDbVertex
100
AcDb2dVertex
 10
-0.0017985000000031
 20
33.23456689616998
 30
0.0
  0
SEQEND
  5
2DD
330
218
100
AcDbEntity
  8
DEFAULT
  0
POLYLINE
  5
2DE
330
1F
100
AcDbEntity
  8
DEFAULT
100
AcDb2dPolyline
 66
     1
 10
0.0
 20
0.0
 30
0.0
  0
VERTEX
  5
2DF
330
2DE
100
AcDbEntity
  8
DEFAULT
100
AcDbVertex
100
AcDb2dVertex
 10
-8.046608598709998
 20
13.04282139217998
 30
0.0
  0
VERTEX
  5
2E0
330
2DE
100
AcDbEntity
  8
DEFAULT
100
AcDbVertex
100
AcDb2dVertex
 10
-8.113629190488766
 20
13.08438401581478
 30
0.0
  0
VERTEX
  5
2E1
330
2DE
100
AcDbEntity
  8
DEFAULT
100
AcDbVertex
100
AcDb2dVertex
 10
-8.179643536724006
 20
13.12730761107545
 30
0.0
  0
VERTEX
  5
2E2
330
2DE
100
AcDbEntity
  8
DEFAULT
100
AcDbVertex
100
AcDb2dVertex
 10
-8.24469001412115
 20
13.1715287789746
 30
0.0
  0
VERTEX
  5
2E3
330
2DE
100
AcDbEntity
  8
DEFAULT
100
AcDbVertex
100
AcDb2dVertex
 10
-8.30880699938563
 20
13.21698412052483
 30
0.0
  0
VERTEX
  5
2E4
330
2DE
100
AcDbEntity
  8
DEFAULT
100
AcDbVertex
100
AcDb2dVertex
 10
-8.372032869222878
 20
13.26361023673874
 30
0.0
  0
VERTEX
  5
2E5
330
2DE
100
AcDbEntity
  8
DEFAULT
100
AcDbVertex
100
AcDb2dVertex
 10
-8.43440600033832
 20
13.31134372862894
 30
0.0
  0
VERTEX
  5
2E6
330
2DE
100
AcDbEntity
  8
DEFAULT
100
AcDbVertex
100
AcDb2dVertex
 10
-8.556747553225525
 20
13.40987924348861
 30
0.0
  0
VERTEX
  5
2E7
330
2DE
100
AcDbEntity
  8
DEFAULT
100
AcDbVertex
100
AcDb2dVertex
 10
-8.676138671690694
 20
13.51208347320467
 30
0.0
  0
VERTEX
  5
2E8
330
2DE
100
AcDbEntity
  8
DEFAULT
100
AcDbVertex
100
AcDb2dVertex
 10
-8.792886369377278
 20
13.61744922587795
 30
0.0
  0
VERTEX
  5
2E9
330
2DE
100
AcDbEntity
  8
DEFAULT
100
AcDbVertex
100
AcDb2dVertex
 10
-8.907297659928727
 20
13.72546930960927
 30
0.0
  0
VERTEX
  5
2EA
330
2DE
100
AcDbEntity
  8
DEFAULT
100
AcDbVertex
100
AcDb2dVertex
 10
-9.019679556988489
 20
13.83563653249948
 30
0.0
  0
VERTEX
  5
2EB
330
2DE
100
AcDbEntity
  8
DEFAULT
100
AcDbVertex
100
AcDb2dVertex
 10
-9.239555691362666
 20
14.06069727262855
 30
0.0
  0
VERTEX
  5
2EC
330
2DE
100
AcDbEntity
  8
DEFAULT
100
AcDbVertex
100
AcDb2dVertex
 10
-10.31286660961787
 20
15.21096187898133
 30
0.0
  0
VERTEX
  5
2ED
330
2DE
100
AcDbEntity
  8
DEFAULT
100
AcDbVertex
100
AcDb2dVertex
 10
-10.75494879492079
 20
15.65874011031687
 30
0.0
  0
VERTEX
  5
2EE
330
2DE
100
AcDbEntity
  8
DEFAULT
100
AcDbVertex
100
AcDb2dVertex
 10
-11.20805260802101
 20
16.09539259451806
 30
0.0
  0
VERTEX
  5
2EF
330
2DE
100
AcDbEntity
  8
DEFAULT
100
AcDbVertex
100
AcDb2dVertex
 10
-11.67392733514438
 20
16.51832338201688
 30
0.0
  0
VERTEX
  5
2F0
330
2DE
100
AcDbEntity
  8
DEFAULT
100
AcDbVertex
100
AcDb2dVertex
 10
-11.91223813124431
 20
16.72374071581136
 30
0.0
  0
VERTEX
  5
2F1
330
2DE
100
AcDbEntity
  8
DEFAULT
100
AcDbVertex
100
AcDb2dVertex
 10
-12.15436153778653
 20
16.92464662262377
 30
0.0
  0
VERTEX
  5
2F2
330
2DE
100
AcDbEntity
  8
DEFAULT
100
AcDbVertex
100
AcDb2dVertex
 10
-12.40043641058408
 20
17.12068235620476
 30
0.0
  0
VERTEX
  5
2F3
330
2DE
100
AcDbEntity
  8
DEFAULT
100
AcDbVertex
100
AcDb2dVertex
 10
-13.93205500076964
 20
18.26525609638867
 30
0.0
  0
VERTEX
  5
2F4
330
2DE
100
AcDbEntity
  8
DEFAULT
100
AcDbVertex
100
AcDb2dVertex
 10
-14.0567202814598
 20
18.3650311042007
 30
0.0
  0
VERTEX
  5
2F5
330
2DE
100
AcDbEntity
  8
DEFAULT
100
AcDbVertex
100
AcDb2dVertex
 10
-14.17856235652434
 20
18.46783828076947
 30
0.0
  0
VERTEX
  5
2F6
330
2DE
100
AcDbEntity
  8
DEFAULT
100
AcDbVertex
100
AcDb2dVertex
 10
-14.29703448530861
 20
18.57423030011499
 30
0.0
  0
VERTEX
  5
2F7
330
2DE
100
AcDbEntity
  8
DEFAULT
100
AcDbVertex
100
AcDb2dVertex
 10
-14.41275630396495
 20
18.68377980322925
 30
0.0
  0
VERTEX
  5
2F8
330
2DE
100
AcDbEntity
  8
DEFAULT
100
AcDbVertex
100
AcDb2dVertex
 10
-14.63959393231004
 20
18.909661791704
 30
0.0
  0
VERTEX
  5
2F9
330
2DE
100
AcDbEntity
  8
DEFAULT
100
AcDbVertex
100
AcDb2dVertex
 10
-14.75128162448008
 20
19.02535888507365
 30
0.0
  0
VERTEX
  5
2FA
330
2DE
100
AcDbEntity
  8
DEFAULT
100
AcDbVertex
100
AcDb2dVertex
 10
-14.80505916372574
 20
19.08475497748926
 30
0.0
  0
VERTEX
  5
2FB
330
2DE
100
AcDbEntity
  8
DEFAULT
100
AcDbVertex
100
AcDb2dVertex
 10
-14.83107084356802
 20
19.11503589306561
 30
0.0
  0
VERTEX
  5
2FC
330
2DE
100
AcDbEntity
  8
DEFAULT
100
AcDbVertex
100
AcDb2dVertex
 10
-14.8563604585773
 20
19.14578004838705
 30
0.0
  0
VERTEX
  5
2FD
330
2DE
100
AcDbEntity
  8
DEFAULT
100
AcDbVertex
100
AcDb2dVertex
 10
-14.88082500501909
 20
19.17704343857809
 30
0.0
  0
VERTEX
  5
2FE
330
2DE
100
AcDbEntity
  8
DEFAULT
100
AcDbVertex
100
AcDb2dVertex
 10
-14.9043614791589
 20
19.20888205876326
 30
0.0
  0
VERTEX
  5
2FF
330
2DE
100
AcDbEntity
  8
DEFAULT
100
AcDbVertex
100
AcDb2dVertex
 10
-14.92686687726224
 20
19.24135190406711
 30
0.0
  0
VERTEX
  5
300
330
2DE
100
AcDbEntity
  8
DEFAULT
100
AcDbVertex
100
AcDb2dVertex
 10
-14.93770073413321
 20
19.25784103461495
 30
0.0
  0
VERTEX
  5
301
330
2DE
100
AcDbEntity
  8
DEFAULT
100
AcDbVertex
100
AcDb2dVertex
 10
-14.94823819559463
 20
19.27450896961416
 30
0.0
  0
VERTEX
  5
302
330
2DE
100
AcDbEntity
  8
DEFAULT
100
AcDbVertex
100
AcDb2dVertex
 10
-14.9584663861797
 20
19.2913627084553
 30
0.0
  0
VERTEX
  5
303
330
2DE
100
AcDbEntity
  8
DEFAULT
100
AcDbVertex
100
AcDb2dVertex
 10
-14.96837243042159
 20
19.30840925052894
 30
0.0
  0
VERTEX
  5
304
330
2DE
100
AcDbEntity
  8
DEFAULT
100
AcDbVertex
100
AcDb2dVertex
 10
-14.97794345285351
 20
19.32565559522564
 30
0.0
  0
VERTEX
  5
305
330
2DE
100
AcDbEntity
  8
DEFAULT
100
AcDbVertex
100
AcDb2dVertex
 10
-14.98716657800863
 20
19.34310874193598
 30
0.0
  0
VERTEX
  5
306
330
2DE
100
AcDbEntity
  8
DEFAULT
100
AcDbVertex
100
AcDb2dVertex
 10
-14.99602893042015
 20
19.36077569005052
 30
0.0
  0
VERTEX
  5
307
330
2DE
100
AcDbEntity
  8
DEFAULT
100
AcDbVertex
100
AcDb2dVertex
 10
-15.00451763462126
 20
19.37866343895982
 30
0.0
  0
VERTEX
  5
308
330
2DE
100
AcDbEntity
  8
DEFAULT
100
AcDbVertex
100
AcDb2dVertex
 10
-15.01261981514515
 20
19.39677898805445
 30
0.0
  0
VERTEX
  5
309
330
2DE
100
AcDbEntity
  8
DEFAULT
100
AcDbVertex
100
AcDb2dVertex
 10
-15.020322596525
 20
19.41512933672498
 30
0.0
  0
VERTEX
  5
30A
330
2DE
100
AcDbEntity
  8
DEFAULT
100
AcDbVertex
100
AcDb2dVertex
 10
-15.01831547388552
 20
19.75966254202994
 30
0.0
  0
VERTEX
  5
30B
330
2DE
100
AcDbEntity
  8
DEFAULT
100
AcDbVertex
100
AcDb2dVertex
 10
-15.00247794899106
 20
20.44851469132112
 30
0.0
  0
VERTEX
  5
30C
330
2DE
100
AcDbEntity
  8
DEFAULT
100
AcDbVertex
100
AcDb2dVertex
 10
-14.966130544615
 20
21.13658208698998
 30
0.0
  0
VERTEX
  5
30D
330
2DE
100
AcDbEntity
  8
DEFAULT
100
AcDbVertex
100
AcDb2dVertex
 10
-14.96606010560878
 20
21.13754712050311
 30
0.0
  0
VERTEX
  5
30E
330
2DE
100
AcDbEntity
  8
DEFAULT
100
AcDbVertex
100
AcDb2dVertex
 10
-14.96600780775635
 20
21.13802907454988
 30
0.0
  0
VERTEX
  5
30F
330
2DE
100
AcDbEntity
  8
DEFAULT
100
AcDbVertex
100
AcDb2dVertex
 10
-14.96594428206537
 20
21.13851028170511
 30
0.0
  0
VERTEX
  5
310
330
2DE
100
AcDbEntity
  8
DEFAULT
100
AcDbVertex
100
AcDb2dVertex
 10
-14.96586964683157
 20
21.13899046315506
 30
0.0
  0
VERTEX
  5
311
330
2DE
100
AcDbEntity
  8
DEFAULT
100
AcDbVertex
100
AcDb2dVertex
 10
-14.96578402035072
 20
21.13946934008597
 30
0.0
  0
VERTEX
  5
312
330
2DE
100
AcDbEntity
  8
DEFAULT
100
AcDbVertex
100
AcDb2dVertex
 10
-14.96568752091855
 20
21.13994663368408
 30
0.0
  0
VERTEX
  5
313
330
2DE
100
AcDbEntity
  8
DEFAULT
100
AcDbVertex
100
AcDb2dVertex
 10
-14.96558026683081
 20
21.14042206513567
 30
0.0
  0
VERTEX
  5
314
330
2DE
100
AcDbEntity
  8
DEFAULT
100
AcDbVertex
100
AcDb2dVertex
 10
-14.96546237638325
 20
21.14089535562695
 30
0.0
  0
VERTEX
  5
315
330
2DE
100
AcDbEntity
  8
DEFAULT
100
AcDbVertex
100
AcDb2dVertex
 10
-14.96533396787161
 20
21.1413662263442
 30
0.0
  0
VERTEX
  5
316
330
2DE
100
AcDbEntity
  8
DEFAULT
100
AcDbVertex
100
AcDb2dVertex
 10
-14.96519515959164
 20
21.14183439847365
 30
0.0
  0
VERTEX
  5
317
330
2DE
100
AcDbEntity
  8
DEFAULT
100
AcDbVertex
100
AcDb2dVertex
 10
-14.96504606983908
 20
21.14229959320155
 30
0.0
  0
VERTEX
  5
318
330
2DE
100
AcDbEntity
  8
DEFAULT
100
AcDbVertex
100
AcDb2dVertex
 10
-14.96488681690968
 20
21.14276153171415
 30
0.0
  0
VERTEX
  5
319
330
2DE
100
AcDbEntity
  8
DEFAULT
100
AcDbVertex
100
AcDb2dVertex
 10
-14.96471751909918
 20
21.1432199351977
 30
0.0
  0
VERTEX
  5
31A
330
2DE
100
AcDbEntity
  8
DEFAULT
100
AcDbVertex
100
AcDb2dVertex
 10
-14.96453829470334
 20
21.14367452483845
 30
0.0
  0
VERTEX
  5
31B
330
2DE
100
AcDbEntity
  8
DEFAULT
100
AcDbVertex
100
AcDb2dVertex
 10
-14.9643492620179
 20
21.14412502182265
 30
0.0
  0
VERTEX
  5
31C
330
2DE
100
AcDbEntity
  8
DEFAULT
100
AcDbVertex
100
AcDb2dVertex
 10
-14.9641505393386
 20
21.14457114733653
 30
0.0
  0
VERTEX
  5
31D
330
2DE
100
AcDbEntity
  8
DEFAULT
100
AcDbVertex
100
AcDb2dVertex
 10
-14.96394224496118
 20
21.14501262256637
 30
0.0
  0
VERTEX
  5
31E
330
2DE
100
AcDbEntity
  8
DEFAULT
100
AcDbVertex
100
AcDb2dVertex
 10
-14.9637244971814
 20
21.14544916869839
 30
0.0
  0
VERTEX
  5
31F
330
2DE
100
AcDbEntity
  8
DEFAULT
100
AcDbVertex
100
AcDb2dVertex
 10
-14.96349741429501
 20
21.14588050691885
 30
0.0
  0
VERTEX
  5
320
330
2DE
100
AcDbEntity
  8
DEFAULT
100
AcDbVertex
100
AcDb2dVertex
 10
-14.96326111459774
 20
21.146306358414
 30
0.0
  0
VERTEX
  5
321
330
2DE
100
AcDbEntity
  8
DEFAULT
100
AcDbVertex
100
AcDb2dVertex
 10
-14.96301571638534
 20
21.14672644437008
 30
0.0
  0
VERTEX
  5
322
330
2DE
100
AcDbEntity
  8
DEFAULT
100
AcDbVertex
100
AcDb2dVertex
 10
-14.96276133795356
 20
21.14714048597335
 30
0.0
  0
VERTEX
  5
323
330
2DE
100
AcDbEntity
  8
DEFAULT
100
AcDbVertex
100
AcDb2dVertex
 10
-14.96249809759815
 20
21.14754820441005
 30
0.0
  0
VERTEX
  5
324
330
2DE
100
AcDbEntity
  8
DEFAULT
100
AcDbVertex
100
AcDb2dVertex
 10
-14.96222611361484
 20
21.14794932086643
 30
0.0
  0
VERTEX
  5
325
330
2DE
100
AcDbEntity
  8
DEFAULT
100
AcDbVertex
100
AcDb2dVertex
 10
-14.9619455042994
 20
21.14834355652874
 30
0.0
  0
VERTEX
  5
326
330
2DE
100
AcDbEntity
  8
DEFAULT
100
AcDbVertex
100
AcDb2dVertex
 10
-14.96165638794755
 20
21.14873063258323
 30
0.0
  0
VERTEX
  5
327
330
2DE
100
AcDbEntity
  8
DEFAULT
100
AcDbVertex
100
AcDb2dVertex
 10
-14.96135888285505
 20
21.14911027021615
 30
0.0
  0
VERTEX
  5
328
330
2DE
100
AcDbEntity
  8
DEFAULT
100
AcDbVertex
100
AcDb2dVertex
 10
-14.96105310731765
 20
21.14948219061374
 30
0.0
  0
VERTEX
  5
329
330
2DE
100
AcDbEntity
  8
DEFAULT
100
AcDbVertex
100
AcDb2dVertex
 10
-14.96073917963109
 20
21.14984611496225
 30
0.0
  0
VERTEX
  5
32A
330
2DE
100
AcDbEntity
  8
DEFAULT
100
AcDbVertex
100
AcDb2dVertex
 10
-14.96041721809111
 20
21.15020176444793
 30
0.0
  0
VERTEX
  5
32B
330
2DE
100
AcDbEntity
  8
DEFAULT
100
AcDbVertex
100
AcDb2dVertex
 10
-14.96008734099346
 20
21.15054886025703
 30
0.0
  0
VERTEX
  5
32C
330
2DE
100
AcDbEntity
  8
DEFAULT
100
AcDbVertex
100
AcDb2dVertex
 10
-14.95974968805594
 20
21.15088720908945
 30
0.0
  0
VERTEX
  5
32D
330
2DE
100
AcDbEntity
  8
DEFAULT
100
AcDbVertex
100
AcDb2dVertex
 10
-14.95940448468449
 20
21.15121695969972
 30
0.0
  0
VERTEX
  5
32E
330
2DE
100
AcDbEntity
  8
DEFAULT
100
AcDbVertex
100
AcDb2dVertex
 10
-14.95905197770712
 20
21.15153834635601
 30
0.0
  0
VERTEX
  5
32F
330
2DE
100
AcDbEntity
  8
DEFAULT
100
AcDbVertex
100
AcDb2dVertex
 10
-14.95869241395182
 20
21.15185160332648
 30
0.0
  0
VERTEX
  5
330
330
2DE
100
AcDbEntity
  8
DEFAULT
100
AcDbVertex
100
AcDb2dVertex
 10
-14.9583260402466
 20
21.15215696487933
 30
0.0
  0
VERTEX
  5
331
330
2DE
100
AcDbEntity
  8
DEFAULT
100
AcDbVertex
100
AcDb2dVertex
 10
-14.95795310341946
 20
21.15245466528272
 30
0.0
  0
VERTEX
  5
332
330
2DE
100
AcDbEntity
  8
DEFAULT
100
AcDbVertex
100
AcDb2dVertex
 10
-14.9575738502984
 20
21.15274493880482
 30
0.0
  0
VERTEX
  5
333
330
2DE
100
AcDbEntity
  8
DEFAULT
100
AcDbVertex
100
AcDb2dVertex
 10
-14.95718852771141
 20
21.15302801971382
 30
0.0
  0
VERTEX
  5
334
330
2DE
100
AcDbEntity
  8
DEFAULT
100
AcDbVertex
100
AcDb2dVertex
 10
-14.9567973824865
 20
21.15330414227789
 30
0.0
  0
VERTEX
  5
335
330
2DE
100
AcDbEntity
  8
DEFAULT
100
AcDbVertex
100
AcDb2dVertex
 10
-14.95640066145166
 20
21.15357354076521
 30
0.0
  0
VERTEX
  5
336
330
2DE
100
AcDbEntity
  8
DEFAULT
100
AcDbVertex
100
AcDb2dVertex
 10
-14.95559147926421
 20
21.15409310258227
 30
0.0
  0
VERTEX
  5
337
330
2DE
100
AcDbEntity
  8
DEFAULT
100
AcDbVertex
100
AcDb2dVertex
 10
-14.95476295577306
 20
21.15458857931041
 30
0.0
  0
VERTEX
  5
338
330
2DE
100
AcDbEntity
  8
DEFAULT
100
AcDbVertex
100
AcDb2dVertex
 10
-14.95391706560221
 20
21.15506184509503
 30
0.0
  0
VERTEX
  5
339
330
2DE
100
AcDbEntity
  8
DEFAULT
100
AcDbVertex
100
AcDb2dVertex
 10
-14.95305578337566
 20
21.15551477408154
 30
0.0
  0
VERTEX
  5
33A
330
2DE
100
AcDbEntity
  8
DEFAULT
100
AcDbVertex
100
AcDb2dVertex
 10
-14.95218108371741
 20
21.15594924041533
 30
0.0
  0
VERTEX
  5
33B
330
2DE
100
AcDbEntity
  8
DEFAULT
100
AcDbVertex
100
AcDb2dVertex
 10
-14.95129494125144
 20
21.1563671182418
 30
0.0
  0
VERTEX
  5
33C
330
2DE
100
AcDbEntity
  8
DEFAULT
100
AcDbVertex
100
AcDb2dVertex
 10
-14.95039933060177
 20
21.15677028170636
 30
0.0
  0
VERTEX
  5
33D
330
2DE
100
AcDbEntity
  8
DEFAULT
100
AcDbVertex
100
AcDb2dVertex
 10
-14.9485876032473
 20
21.15753996213136
 30
0.0
  0
VERTEX
  5
33E
330
2DE
100
AcDbEntity
  8
DEFAULT
100
AcDbVertex
100
AcDb2dVertex
 10
-14.94676169864598
 20
21.15827327485352
 30
0.0
  0
VERTEX
  5
33F
330
2DE
100
AcDbEntity
  8
DEFAULT
100
AcDbVertex
100
AcDb2dVertex
 10
-14.902985375705
 20
21.17437269872498
 30
0.0
  0
VERTEX
  5
340
330
2DE
100
AcDbEntity
  8
DEFAULT
100
AcDbVertex
100
AcDb2dVertex
 10
-14.5661331161455
 20
21.29486002423547
 30
0.0
  0
VERTEX
  5
341
330
2DE
100
AcDbEntity
  8
DEFAULT
100
AcDbVertex
100
AcDb2dVertex
 10
-14.5403902008197
 20
21.30461514716291
 30
0.0
  0
VERTEX
  5
342
330
2DE
100
AcDbEntity
  8
DEFAULT
100
AcDbVertex
100
AcDb2dVertex
 10
-14.51487087987375
 20
21.3150597181172
 30
0.0
  0
VERTEX
  5
343
330
2DE
100
AcDbEntity
  8
DEFAULT
100
AcDbVertex
100
AcDb2dVertex
 10
-14.50221213842472
 20
21.32059369531504
 30
0.0
  0
VERTEX
  5
344
330
2DE
100
AcDbEntity
  8
DEFAULT
100
AcDbVertex
100
AcDb2dVertex
 10
-14.48962978092846
 20
21.32636381297234
 30
0.0
  0
VERTEX
  5
345
330
2DE
100
AcDbEntity
  8
DEFAULT
100
AcDbVertex
100
AcDb2dVertex
 10
-14.47713325690878
 20
21.33238862238558
 30
0.0
  0
VERTEX
  5
346
330
2DE
100
AcDbEntity
  8
DEFAULT
100
AcDbVertex
100
AcDb2dVertex
 10
-14.46474250017429
 20
21.33867584210022
 30
0.0
  0
VERTEX
  5
347
330
2DE
100
AcDbEntity
  8
DEFAULT
100
AcDbVertex
100
AcDb2dVertex
 10
-14.4524800656048
 20
21.34523048247393
 30
0.0
  0
VERTEX
  5
348
330
2DE
100
AcDbEntity
  8
DEFAULT
100
AcDbVertex
100
AcDb2dVertex
 10
-14.44036850808015
 20
21.35205755386441
 30
0.0
  0
VERTEX
  5
349
330
2DE
100
AcDbEntity
  8
DEFAULT
100
AcDbVertex
100
AcDb2dVertex
 10
-14.42843038248013
 20
21.35916206662932
 30
0.0
  0
VERTEX
  5
34A
330
2DE
100
AcDbEntity
  8
DEFAULT
100
AcDbVertex
100
AcDb2dVertex
 10
-14.41668824368458
 20
21.36654903112636
 30
0.0
  0
VERTEX
  5
34B
330
2DE
100
AcDbEntity
  8
DEFAULT
100
AcDbVertex
100
AcDb2dVertex
 10
-14.4051646465733
 20
21.37422345771321
 30
0.0
  0
VERTEX
  5
34C
330
2DE
100
AcDbEntity
  8
DEFAULT
100
AcDbVertex
100
AcDb2dVertex
 10
-14.39388214602611
 20
21.38219035674754
 30
0.0
  0
VERTEX
  5
34D
330
2DE
100
AcDbEntity
  8
DEFAULT
100
AcDbVertex
100
AcDb2dVertex
 10
-14.38286329692284
 20
21.39045473858706
 30
0.0
  0
VERTEX
  5
34E
330
2DE
100
AcDbEntity
  8
DEFAULT
100
AcDbVertex
100
AcDb2dVertex
 10
-14.37213065414329
 20
21.39902161358943
 30
0.0
  0
VERTEX
  5
34F
330
2DE
100
AcDbEntity
  8
DEFAULT
100
AcDbVertex
100
AcDb2dVertex
 10
-14.36170677256728
 20
21.40789599211235
 30
0.0
  0
VERTEX
  5
350
330
2DE
100
AcDbEntity
  8
DEFAULT
100
AcDbVertex
100
AcDb2dVertex
 10
-14.35161420707464
 20
21.41708288451348
 30
0.0
  0
VERTEX
  5
351
330
2DE
100
AcDbEntity
  8
DEFAULT
100
AcDbVertex
100
AcDb2dVertex
 10
-14.34669921625952
 20
21.42179508915516
 30
0.0
  0
VERTEX
  5
352
330
2DE
100
AcDbEntity
  8
DEFAULT
100
AcDbVertex
100
AcDb2dVertex
 10
-14.34187551254518
 20
21.42658730115053
 30
0.0
  0
VERTEX
  5
353
330
2DE
100
AcDbEntity
  8
DEFAULT
100
AcDbVertex
100
AcDb2dVertex
 10
-14.33714591529158
 20
21.4314601467943
 30
0.0
  0
VERTEX
  5
354
330
2DE
100
AcDbEntity
  8
DEFAULT
100
AcDbVertex
100
AcDb2dVertex
 10
-14.33251324385871
 20
21.43641425238117
 30
0.0
  0
VERTEX
  5
355
330
2DE
100
AcDbEntity
  8
DEFAULT
100
AcDbVertex
100
AcDb2dVertex
 10
-14.32798031760654
 20
21.44145024420586
 30
0.0
  0
VERTEX
  5
356
330
2DE
100
AcDbEntity
  8
DEFAULT
100
AcDbVertex
100
AcDb2dVertex
 10
-14.32354995589505
 20
21.44656874856308
 30
0.0
  0
VERTEX
  5
357
330
2DE
100
AcDbEntity
  8
DEFAULT
100
AcDbVertex
100
AcDb2dVertex
 10
-14.31922497808422
 20
21.45177039174754
 30
0.0
  0
VERTEX
  5
358
330
2DE
100
AcDbEntity
  8
DEFAULT
100
AcDbVertex
100
AcDb2dVertex
 10
-14.31500820353402
 20
21.45705580005395
 30
0.0
  0
VERTEX
  5
359
330
2DE
100
AcDbEntity
  8
DEFAULT
100
AcDbVertex
100
AcDb2dVertex
 10
-14.31090135851823
 20
21.4624249872619
 30
0.0
  0
VERTEX
  5
35A
330
2DE
100
AcDbEntity
  8
DEFAULT
100
AcDbVertex
100
AcDb2dVertex
 10
-14.30690179696577
 20
21.46787551709045
 30
0.0
  0
VERTEX
  5
35B
330
2DE
100
AcDbEntity
  8
DEFAULT
100
AcDbVertex
100
AcDb2dVertex
 10
-14.30300577971939
 20
21.47340434074356
 30
0.0
  0
VERTEX
  5
35C
330
2DE
100
AcDbEntity
  8
DEFAULT
100
AcDbVertex
100
AcDb2dVertex
 10
-14.2992095676218
 20
21.47900840942518
 30
0.0
  0
VERTEX
  5
35D
330
2DE
100
AcDbEntity
  8
DEFAULT
100
AcDbVertex
100
AcDb2dVertex
 10
-14.29190160224393
 20
21.49043008668973
 30
0.0
  0
VERTEX
  5
35E
330
2DE
100
AcDbEntity
  8
DEFAULT
100
AcDbVertex
100
AcDb2dVertex
 10
-14.284947987574
 20
21.50211615851571
 30
0.0
  0
VERTEX
  5
35F
330
2DE
100
AcDbEntity
  8
DEFAULT
100
AcDbVertex
100
AcDb2dVertex
 10
-14.27831881035382
 20
21.5140422345347
 30
0.0
  0
VERTEX
  5
360
330
2DE
100
AcDbEntity
  8
DEFAULT
100
AcDbVertex
100
AcDb2dVertex
 10
-14.27198415732524
 20
21.52618392437829
 30
0.0
  0
VERTEX
  5
361
330
2DE
100
AcDbEntity
  8
DEFAULT
100
AcDbVertex
100
AcDb2dVertex
 10
-14.26591411523008
 20
21.53851683767808
 30
0.0
  0
VERTEX
  5
362
330
2DE
100
AcDbEntity
  8
DEFAULT
100
AcDbVertex
100
AcDb2dVertex
 10
-14.26007877081016
 20
21.55101658406566
 30
0.0
  0
VERTEX
  5
363
330
2DE
100
AcDbEntity
  8
DEFAULT
100
AcDbVertex
100
AcDb2dVertex
 10
-14.24899252196339
 20
21.57641901463055
 30
0.0
  0
VERTEX
  5
364
330
2DE
100
AcDbEntity
  8
DEFAULT
100
AcDbVertex
100
AcDb2dVertex
 10
-14.17748197149868
 20
21.75652916755407
 30
0.0
  0
VERTEX
  5
365
330
2DE
100
AcDbEntity
  8
DEFAULT
100
AcDbVertex
100
AcDb2dVertex
 10
-14.15759125769394
 20
21.80769864454808
 30
0.0
  0
VERTEX
  5
366
330
2DE
100
AcDbEntity
  8
DEFAULT
100
AcDbVertex
100
AcDb2dVertex
 10
-14.13873770599
 20
21.85948452158998
 30
0.0
  0
VERTEX
  5
367
330
2DE
100
AcDbEntity
  8
DEFAULT
100
AcDbVertex
100
AcDb2dVertex
 10
-13.97311346346985
 20
22.36026925569984
 30
0.0
  0
VERTEX
  5
368
330
2DE
100
AcDbEntity
  8
DEFAULT
100
AcDbVertex
100
AcDb2dVertex
 10
-11.21292987866886
 20
32.03092555548983
 30
0.0
  0
VERTEX
  5
369
330
2DE
100
AcDbEntity
  8
DEFAULT
100
AcDbVertex
100
AcDb2dVertex
 10
-11.20248607747171
 20
32.0640813943673
 30
0.0
  0
VERTEX
  5
36A
330
2DE
100
AcDbEntity
  8
DEFAULT
100
AcDbVertex
100
AcDb2dVertex
 10
-11.19136809736894
 20
32.09703522507481
 30
0.0
  0
VERTEX
  5
36B
330
2DE
100
AcDbEntity
  8
DEFAULT
100
AcDbVertex
100
AcDb2dVertex
 10
-11.17957593960089
 20
32.12976681471983
 30
0.0
  0
VERTEX
  5
36C
330
2DE
100
AcDbEntity
  8
DEFAULT
100
AcDbVertex
100
AcDb2dVertex
 10
-11.16710960540793
 20
32.16225593040979
 30
0.0
  0
VERTEX
  5
36D
330
2DE
100
AcDbEntity
  8
DEFAULT
100
AcDbVertex
100
AcDb2dVertex
 10
-11.15396909603042
 20
32.19448233925215
 30
0.0
  0
VERTEX
  5
36E
330
2DE
100
AcDbEntity
  8
DEFAULT
100
AcDbVertex
100
AcDb2dVertex
 10
-11.14015441270872
 20
32.22642580835437
 30
0.0
  0
VERTEX
  5
36F
330
2DE
100
AcDbEntity
  8
DEFAULT
100
AcDbVertex
100
AcDb2dVertex
 10
-11.1256655566832
 20
32.2580661048239
 30
0.0
  0
VERTEX
  5
370
330
2DE
100
AcDbEntity
  8
DEFAULT
100
AcDbVertex
100
AcDb2dVertex
 10
-11.11050252919421
 20
32.28938299576818
 30
0.0
  0
VERTEX
  5
371
330
2DE
100
AcDbEntity
  8
DEFAULT
100
AcDbVertex
100
AcDb2dVertex
 10
-11.09466533148212
 20
32.32035624829466
 30
0.0
  0
VERTEX
  5
372
330
2DE
100
AcDbEntity
  8
DEFAULT
100
AcDbVertex
100
AcDb2dVertex
 10
-11.07815396478728
 20
32.3509656295108
 30
0.0
  0
VERTEX
  5
373
330
2DE
100
AcDbEntity
  8
DEFAULT
100
AcDbVertex
100
AcDb2dVertex
 10
-11.06096843035006
 20
32.38119090652405
 30
0.0
  0
VERTEX
  5
374
330
2DE
100
AcDbEntity
  8
DEFAULT
100
AcDbVertex
100
AcDb2dVertex
 10
-11.04310872941083
 20
32.41101184644186
 30
0.0
  0
VERTEX
  5
375
330
2DE
100
AcDbEntity
  8
DEFAULT
100
AcDbVertex
100
AcDb2dVertex
 10
-11.02457486320993
 20
32.44040821637167
 30
0.0
  0
VERTEX
  5
376
330
2DE
100
AcDbEntity
  8
DEFAULT
100
AcDbVertex
100
AcDb2dVertex
 10
-11.00536683298774
 20
32.46935978342096
 30
0.0
  0
VERTEX
  5
377
330
2DE
100
AcDbEntity
  8
DEFAULT
100
AcDbVertex
100
AcDb2dVertex
 10
-10.98548463998462
 20
32.49784631469714
 30
0.0
  0
VERTEX
  5
378
330
2DE
100
AcDbEntity
  8
DEFAULT
100
AcDbVertex
100
AcDb2dVertex
 10
-10.96493120314526
 20
32.52584979707818
 30
0.0
  0
VERTEX
  5
379
330
2DE
100
AcDbEntity
  8
DEFAULT
100
AcDbVertex
100
AcDb2dVertex
 10
-10.94372133000767
 20
32.55336080230531
 30
0.0
  0
VERTEX
  5
37A
330
2DE
100
AcDbEntity
  8
DEFAULT
100
AcDbVertex
100
AcDb2dVertex
 10
-10.92187274818195
 20
32.58037212359459
 30
0.0
  0
VERTEX
  5
37B
330
2DE
100
AcDbEntity
  8
DEFAULT
100
AcDbVertex
100
AcDb2dVertex
 10
-10.89940318527822
 20
32.60687655416208
 30
0.0
  0
VERTEX
  5
37C
330
2DE
100
AcDbEntity
  8
DEFAULT
100
AcDbVertex
100
AcDb2dVertex
 10
-10.87633036890658
 20
32.63286688722387
 30
0.0
  0
VERTEX
  5
37D
330
2DE
100
AcDbEntity
  8
DEFAULT
100
AcDbVertex
100
AcDb2dVertex
 10
-10.85267202667714
 20
32.65833591599601
 30
0.0
  0
VERTEX
  5
37E
330
2DE
100
AcDbEntity
  8
DEFAULT
100
AcDbVertex
100
AcDb2dVertex
 10
-10.82844588620001
 20
32.68327643369457
 30
0.0
  0
VERTEX
  5
37F
330
2DE
100
AcDbEntity
  8
DEFAULT
100
AcDbVertex
100
AcDb2dVertex
 10
-10.8036696750853
 20
32.70768123353562
 30
0.0
  0
VERTEX
  5
380
330
2DE
100
AcDbEntity
  8
DEFAULT
100
AcDbVertex
100
AcDb2dVertex
 10
-10.77836112094311
 20
32.73154310873522
 30
0.0
  0
VERTEX
  5
381
330
2DE
100
AcDbEntity
  8
DEFAULT
100
AcDbVertex
100
AcDb2dVertex
 10
-10.75253795138356
 20
32.75485485250945
 30
0.0
  0
VERTEX
  5
382
330
2DE
100
AcDbEntity
  8
DEFAULT
100
AcDbVertex
100
AcDb2dVertex
 10
-10.72621789401676
 20
32.77760925807438
 30
0.0
  0
VERTEX
  5
383
330
2DE
100
AcDbEntity
  8
DEFAULT
100
AcDbVertex
100
AcDb2dVertex
 10
-10.69941867645281
 20
32.79979911864605
 30
0.0
  0
VERTEX
  5
384
330
2DE
100
AcDbEntity
  8
DEFAULT
100
AcDbVertex
100
AcDb2dVertex
 10
-10.67215802630182
 20
32.82141722744055
 30
0.0
  0
VERTEX
  5
385
330
2DE
100
AcDbEntity
  8
DEFAULT
100
AcDbVertex
100
AcDb2dVertex
 10
-10.64445367117391
 20
32.84245637767395
 30
0.0
  0
VERTEX
  5
386
330
2DE
100
AcDbEntity
  8
DEFAULT
100
AcDbVertex
100
AcDb2dVertex
 10
-10.61632333867917
 20
32.86290936256231
 30
0.0
  0
VERTEX
  5
387
330
2DE
100
AcDbEntity
  8
DEFAULT
100
AcDbVertex
100
AcDb2dVertex
 10
-10.58778475642773
 20
32.8827689753217
 30
0.0
  0
VERTEX
  5
388
330
2DE
100
AcDbEntity
  8
DEFAULT
100
AcDbVertex
100
AcDb2dVertex
 10
-10.55885527462585
 20
32.90203058878839
 30
0.0
  0
VERTEX
  5
389
330
2DE
100
AcDbEntity
  8
DEFAULT
100
AcDbVertex
100
AcDb2dVertex
 10
-10.52955073386451
 20
32.92069989427947
 30
0.0
  0
VERTEX
  5
38A
330
2DE
100
AcDbEntity
  8
DEFAULT
100
AcDbVertex
100
AcDb2dVertex
 10
-10.49988659733086
 20
32.93878516273225
 30
0.0
  0
VERTEX
  5
38B
330
2DE
100
AcDbEntity
  8
DEFAULT
100
AcDbVertex
100
AcDb2dVertex
 10
-10.46987832821202
 20
32.95629466508404
 30
0.0
  0
VERTEX
  5
38C
330
2DE
100
AcDbEntity
  8
DEFAULT
100
AcDbVertex
100
AcDb2dVertex
 10
-10.43954138969515
 20
32.97323667227213
 30
0.0
  0
VERTEX
  5
38D
330
2DE
100
AcDbEntity
  8
DEFAULT
100
AcDbVertex
100
AcDb2dVertex
 10
-10.40889124496738
 20
32.98961945523381
 30
0.0
  0
VERTEX
  5
38E
330
2DE
100
AcDbEntity
  8
DEFAULT
100
AcDbVertex
100
AcDb2dVertex
 10
-10.37794335721585
 20
33.0054512849064
 30
0.0
  0
VERTEX
  5
38F
330
2DE
100
AcDbEntity
  8
DEFAULT
100
AcDbVertex
100
AcDb2dVertex
 10
-10.34671318962771
 20
33.0207404322272
 30
0.0
  0
VERTEX
  5
390
330
2DE
100
AcDbEntity
  8
DEFAULT
100
AcDbVertex
100
AcDb2dVertex
 10
-10.28346786769015
 20
33.04972376356262
 30
0.0
  0
VERTEX
  5
391
330
2DE
100
AcDbEntity
  8
DEFAULT
100
AcDbVertex
100
AcDb2dVertex
 10
-10.21927898465182
 20
33.07663561673849
 30
0.0
  0
VERTEX
  5
392
330
2DE
100
AcDbEntity
  8
DEFAULT
100
AcDbVertex
100
AcDb2dVertex
 10
-10.15427024600985
 20
33.1015421592532
 30
0.0
  0
VERTEX
  5
393
330
2DE
100
AcDbEntity
  8
DEFAULT
100
AcDbVertex
100
AcDb2dVertex
 10
-10.08856535726137
 20
33.12450955860518
 30
0.0
  0
VERTEX
  5
394
330
2DE
100
AcDbEntity
  8
DEFAULT
100
AcDbVertex
100
AcDb2dVertex
 10
-10.02227591224036
 20
33.14560387961119
 30
0.0
  0
VERTEX
  5
395
330
2DE
100
AcDbEntity
  8
DEFAULT
100
AcDbVertex
100
AcDb2dVertex
 10
-9.955465058128173
 20
33.16489077636147
 30
0.0
  0
VERTEX
  5
396
330
2DE
100
AcDbEntity
  8
DEFAULT
100
AcDbVertex
100
AcDb2dVertex
 10
-9.888183830443012
 20
33.18243580026461
 30
0.0
  0
VERTEX
  5
397
330
2DE
100
AcDbEntity
  8
DEFAULT
100
AcDbVertex
100
AcDb2dVertex
 10
-9.820483264703086
 20
33.1983045027292
 30
0.0
  0
VERTEX
  5
398
330
2DE
100
AcDbEntity
  8
DEFAULT
100
AcDbVertex
100
AcDb2dVertex
 10
-9.752414396426598
 20
33.21256243516384
 30
0.0
  0
VERTEX
  5
399
330
2DE
100
AcDbEntity
  8
DEFAULT
100
AcDbVertex
100
AcDb2dVertex
 10
-9.684028261131754
 20
33.22527514897712
 30
0.0
  0
VERTEX
  5
39A
330
2DE
100
AcDbEntity
  8
DEFAULT
100
AcDbVertex
100
AcDb2dVertex
 10
-9.615375894336761
 20
33.23650819557763
 30
0.0
  0
VERTEX
  5
39B
330
2DE
100
AcDbEntity
  8
DEFAULT
100
AcDbVertex
100
AcDb2dVertex
 10
-9.546508331559824
 20
33.24632712637396
 30
0.0
  0
VERTEX
  5
39C
330
2DE
100
AcDbEntity
  8
DEFAULT
100
AcDbVertex
100
AcDb2dVertex
 10
-9.477472256238027
 20
33.25479391126537
 30
0.0
  0
VERTEX
  5
39D
330
2DE
100
AcDbEntity
  8
DEFAULT
100
AcDbVertex
100
AcDb2dVertex
 10
-9.40829490842929
 20
33.26195643674603
 30
0.0
  0
VERTEX
  5
39E
330
2DE
100
AcDbEntity
  8
DEFAULT
100
AcDbVertex
100
AcDb2dVertex
 10
-9.338999174498104
 20
33.26785899455581
 30
0.0
  0
VERTEX
  5
39F
330
2DE
100
AcDbEntity
  8
DEFAULT
100
AcDbVertex
100
AcDb2dVertex
 10
-9.269607940808957
 20
33.27254587643458
 30
0.0
  0
VERTEX
  5
3A0
330
2DE
100
AcDbEntity
  8
DEFAULT
100
AcDbVertex
100
AcDb2dVertex
 10
-9.130630519614753
 20
33.27844977935854
 30
0.0
  0
VERTEX
  5
3A1
330
2DE
100
AcDbEntity
  8
DEFAULT
100
AcDbVertex
100
AcDb2dVertex
 10
-8.991545735762603
 20
33.28002247943682
 30
0.0
  0
VERTEX
  5
3A2
330
2DE
100
AcDbEntity
  8
DEFAULT
100
AcDbVertex
100
AcDb2dVertex
 10
0.0017985000000031
 20
33.23456689616998
 30
0.0
  0
SEQEND
  5
3A3
330
2DE
100
AcDbEntity
  8
DEFAULT
  0
POLYLINE
  5
3A4
330
1F
100
AcDbEntity
  8
DEFAULT
100
AcDb2dPolyline
 66
     1
 10
0.0
 20
0.0
 30
0.0
  0
VERTEX
  5
3A5
330
3A4
100
AcDbEntity
  8
DEFAULT
100
AcDbVertex
100
AcDb2dVertex
 10
-7.940119882129999
 20
16.75572466555998
 30
0.0
  0
VERTEX
  5
3A6
330
3A4
100
AcDbEntity
  8
DEFAULT
100
AcDbVertex
100
AcDb2dVertex
 10
-8.820928782625474
 20
18.22009450747732
 30
0.0
  0
VERTEX
  5
3A7
330
3A4
100
AcDbEntity
  8
DEFAULT
100
AcDbVertex
100
AcDb2dVertex
 10
-9.278356610403264
 20
18.94091698820886
 30
0.0
  0
VERTEX
  5
3A8
330
3A4
100
AcDbEntity
  8
DEFAULT
100
AcDbVertex
100
AcDb2dVertex
 10
-9.517824677371713
 20
19.29463116313399
 30
0.0
  0
VERTEX
  5
3A9
330
3A4
100
AcDbEntity
  8
DEFAULT
100
AcDbVertex
100
AcDb2dVertex
 10
-9.767210880455547
 20
19.64239118171897
 30
0.0
  0
VERTEX
  5
3AA
330
3A4
100
AcDbEntity
  8
DEFAULT
100
AcDbVertex
100
AcDb2dVertex
 10
-9.896305645952395
 20
19.81357553445836
 30
0.0
  0
VERTEX
  5
3AB
330
3A4
100
AcDbEntity
  8
DEFAULT
100
AcDbVertex
100
AcDb2dVertex
 10
-10.02888183462795
 20
19.98216988736158
 30
0.0
  0
VERTEX
  5
3AC
330
3A4
100
AcDbEntity
  8
DEFAULT
100
AcDbVertex
100
AcDb2dVertex
 10
-10.16542595424536
 20
20.14735205081118
 30
0.0
  0
VERTEX
  5
3AD
330
3A4
100
AcDbEntity
  8
DEFAULT
100
AcDbVertex
100
AcDb2dVertex
 10
-10.3064245125678
 20
20.30829983518973
 30
0.0
  0
VERTEX
  5
3AE
330
3A4
100
AcDbEntity
  8
DEFAULT
100
AcDbVertex
100
AcDb2dVertex
 10
-10.37874623991939
 20
20.3869289009719
 30
0.0
  0
VERTEX
  5
3AF
330
3A4
100
AcDbEntity
  8
DEFAULT
100
AcDbVertex
100
AcDb2dVertex
 10
-10.45236401735843
 20
20.46419105087977
 30
0.0
  0
VERTEX
  5
3B0
330
3A4
100
AcDbEntity
  8
DEFAULT
100
AcDbVertex
100
AcDb2dVertex
 10
-10.5273386583553
 20
20.53998351121115
 30
0.0
  0
VERTEX
  5
3B1
330
3A4
100
AcDbEntity
  8
DEFAULT
100
AcDbVertex
100
AcDb2dVertex
 10
-10.60373097638041
 20
20.61420350826386
 30
0.0
  0
VERTEX
  5
3B2
330
3A4
100
AcDbEntity
  8
DEFAULT
100
AcDbVertex
100
AcDb2dVertex
 10
-10.68160178490415
 20
20.68674826833572
 30
0.0
  0
VERTEX
  5
3B3
330
3A4
100
AcDbEntity
  8
DEFAULT
100
AcDbVertex
100
AcDb2dVertex
 10
-10.76101189739691
 20
20.75751501772456
 30
0.0
  0
VERTEX
  5
3B4
330
3A4
100
AcDbEntity
  8
DEFAULT
100
AcDbVertex
100
AcDb2dVertex
 10
-10.8420221273291
 20
20.82640098272819
 30
0.0
  0
VERTEX
  5
3B5
330
3A4
100
AcDbEntity
  8
DEFAULT
100
AcDbVertex
100
AcDb2dVertex
 10
-10.9246932881711
 20
20.89330338964443
 30
0.0
  0
VERTEX
  5
3B6
330
3A4
100
AcDbEntity
  8
DEFAULT
100
AcDbVertex
100
AcDb2dVertex
 10
-11.00906511760766
 20
20.95813176254724
 30
0.0
  0
VERTEX
  5
3B7
330
3A4
100
AcDbEntity
  8
DEFAULT
100
AcDbVertex
100
AcDb2dVertex
 10
-11.0950930501809
 20
21.0208448166151
 30
0.0
  0
VERTEX
  5
3B8
330
3A4
100
AcDbEntity
  8
DEFAULT
100
AcDbVertex
100
AcDb2dVertex
 10
-11.18271144464729
 20
21.08141356480267
 30
0.0
  0
VERTEX
  5
3B9
330
3A4
100
AcDbEntity
  8
DEFAULT
100
AcDbVertex
100
AcDb2dVertex
 10
-11.2718546597633
 20
21.13980902006455
 30
0.0
  0
VERTEX
  5
3BA
330
3A4
100
AcDbEntity
  8
DEFAULT
100
AcDbVertex
100
AcDb2dVertex
 10
-11.36245705428541
 20
21.1960021953554
 30
0.0
  0
VERTEX
  5
3BB
330
3A4
100
AcDbEntity
  8
DEFAULT
100
AcDbVertex
100
AcDb2dVertex
 10
-11.45445298697008
 20
21.24996410362983
 30
0.0
  0
VERTEX
  5
3BC
330
3A4
100
AcDbEntity
  8
DEFAULT
100
AcDbVertex
100
AcDb2dVertex
 10
-11.54777681657378
 20
21.30166575784248
 30
0.0
  0
VERTEX
  5
3BD
330
3A4
100
AcDbEntity
  8
DEFAULT
100
AcDbVertex
100
AcDb2dVertex
 10
-11.64236290185298
 20
21.35107817094798
 30
0.0
  0
VERTEX
  5
3BE
330
3A4
100
AcDbEntity
  8
DEFAULT
100
AcDbVertex
100
AcDb2dVertex
 10
-11.73814560156416
 20
21.39817235590097
 30
0.0
  0
VERTEX
  5
3BF
330
3A4
100
AcDbEntity
  8
DEFAULT
100
AcDbVertex
100
AcDb2dVertex
 10
-11.83505927446378
 20
21.44291932565606
 30
0.0
  0
VERTEX
  5
3C0
330
3A4
100
AcDbEntity
  8
DEFAULT
100
AcDbVertex
100
AcDb2dVertex
 10
-11.93303827930832
 20
21.48529009316791
 30
0.0
  0
VERTEX
  5
3C1
330
3A4
100
AcDbEntity
  8
DEFAULT
100
AcDbVertex
100
AcDb2dVertex
 10
-12.03201697485424
 20
21.52525567139113
 30
0.0
  0
VERTEX
  5
3C2
330
3A4
100
AcDbEntity
  8
DEFAULT
100
AcDbVertex
100
AcDb2dVertex
 10
-12.13192971985801
 20
21.56278707328035
 30
0.0
  0
VERTEX
  5
3C3
330
3A4
100
AcDbEntity
  8
DEFAULT
100
AcDbVertex
100
AcDb2dVertex
 10
-12.23271087307611
 20
21.59785531179022
 30
0.0
  0
VERTEX
  5
3C4
330
3A4
100
AcDbEntity
  8
DEFAULT
100
AcDbVertex
100
AcDb2dVertex
 10
-12.334294793265
 20
21.63043139987536
 30
0.0
  0
VERTEX
  5
3C5
330
3A4
100
AcDbEntity
  8
DEFAULT
100
AcDbVertex
100
AcDb2dVertex
 10
-12.43661583918116
 20
21.6604863504904
 30
0.0
  0
VERTEX
  5
3C6
330
3A4
100
AcDbEntity
  8
DEFAULT
100
AcDbVertex
100
AcDb2dVertex
 10
-12.53960984639481
 20
21.68802017369313
 30
0.0
  0
VERTEX
  5
3C7
330
3A4
100
AcDbEntity
  8
DEFAULT
100
AcDbVertex
100
AcDb2dVertex
 10
-12.64321855773121
 20
21.71314886795399
 30
0.0
  0
VERTEX
  5
3C8
330
3A4
100
AcDbEntity
  8
DEFAULT
100
AcDbVertex
100
AcDb2dVertex
 10
-12.74738519282939
 20
21.73601742884657
 30
0.0
  0
VERTEX
  5
3C9
330
3A4
100
AcDbEntity
  8
DEFAULT
100
AcDbVertex
100
AcDb2dVertex
 10
-12.85205297132835
 20
21.75677085194445
 30
0.0
  0
VERTEX
  5
3CA
330
3A4
100
AcDbEntity
  8
DEFAULT
100
AcDbVertex
100
AcDb2dVertex
 10
-12.95716511286712
 20
21.77555413282123
 30
0.0
  0
VERTEX
  5
3CB
330
3A4
100
AcDbEntity
  8
DEFAULT
100
AcDbVertex
100
AcDb2dVertex
 10
-13.06266483708472
 20
21.7925122670505
 30
0.0
  0
VERTEX
  5
3CC
330
3A4
100
AcDbEntity
  8
DEFAULT
100
AcDbVertex
100
AcDb2dVertex
 10
-13.27459991211246
 20
21.82153307786086
 30
0.0
  0
VERTEX
  5
3CD
330
3A4
100
AcDbEntity
  8
DEFAULT
100
AcDbVertex
100
AcDb2dVertex
 10
-13.48740395352371
 20
21.84499324896426
 30
0.0
  0
VERTEX
  5
3CE
330
3A4
100
AcDbEntity
  8
DEFAULT
100
AcDbVertex
100
AcDb2dVertex
 10
-13.70062271843063
 20
21.86405274494943
 30
0.0
  0
VERTEX
  5
3CF
330
3A4
100
AcDbEntity
  8
DEFAULT
100
AcDbVertex
100
AcDb2dVertex
 10
-14.12648744718
 20
21.89360956991998
 30
0.0
  0
SEQEND
  5
3D0
330
3A4
100
AcDbEntity
  8
DEFAULT
  0
POLYLINE
  5
3D1
330
1F
100
AcDbEntity
  8
DEFAULT
100
AcDb2dPolyline
 66
     1
 10
0.0
 20
0.0
 30
0.0
  0
VERTEX
  5
3D2
330
3D1
100
AcDbEntity
  8
DEFAULT
100
AcDbVertex
100
AcDb2dVertex
 10
-6.332686428761583
 20
16.49861890073814
 30
0.0
  0
VERTEX
  5
3D3
330
3D1
100
AcDbEntity
  8
DEFAULT
100
AcDbVertex
100
AcDb2dVertex
 10
-6.566340614630001
 20
17.39809446148998
 30
0.0
  0
VERTEX
  5
3D4
330
3D1
100
AcDbEntity
  8
DEFAULT
100
AcDbVertex
100
AcDb2dVertex
 10
-6.753861710644058
 20
18.21316289053905
 30
0.0
  0
VERTEX
  5
3D5
330
3D1
100
AcDbEntity
  8
DEFAULT
100
AcDbVertex
100
AcDb2dVertex
 10
-6.865572314715905
 20
18.76267754472081
 30
0.0
  0
VERTEX
  5
3D6
330
3D1
100
AcDbEntity
  8
DEFAULT
100
AcDbVertex
100
AcDb2dVertex
 10
-6.919474980456575
 20
19.05812831888557
 30
0.0
  0
VERTEX
  5
3D7
330
3D1
100
AcDbEntity
  8
DEFAULT
100
AcDbVertex
100
AcDb2dVertex
 10
-7.144048629421898
 20
20.57645125320161
 30
0.0
  0
VERTEX
  5
3D8
330
3D1
100
AcDbEntity
  8
DEFAULT
100
AcDbVertex
100
AcDb2dVertex
 10
-8.551029759311943
 20
30.86508084060971
 30
0.0
  0
VERTEX
  5
3D9
330
3D1
100
AcDbEntity
  8
DEFAULT
100
AcDbVertex
100
AcDb2dVertex
 10
-8.880613996157033
 20
32.7215910517529
 30
0.0
  0
VERTEX
  5
3DA
330
3D1
100
AcDbEntity
  8
DEFAULT
100
AcDbVertex
100
AcDb2dVertex
 10
-8.991552499999997
 20
33.28002989616998
 30
0.0
  0
SEQEND
  5
3DB
330
3D1
100
AcDbEntity
  8
DEFAULT
  0
POLYLINE
  5
3DC
330
1F
100
AcDbEntity
  8
DEFAULT
100
AcDb2dPolyline
 66
     1
 10
0.0
 20
0.0
 30
0.0
  0
VERTEX
  5
3DD
330
3DC
100
AcDbEntity
  8
DEFAULT
100
AcDbVertex
100
AcDb2dVertex
 10
6.332686428761588
 20
16.49861890073817
 30
0.0
  0
VERTEX
  5
3DE
330
3DC
100
AcDbEntity
  8
DEFAULT
100
AcDbVertex
100
AcDb2dVertex
 10
6.566340614630004
 20
17.39809446149001
 30
0.0
  0
VERTEX
  5
3DF
330
3DC
100
AcDbEntity
  8
DEFAULT
100
AcDbVertex
100
AcDb2dVertex
 10
6.753861710644058
 20
18.21316289053905
 30
0.0
  0
VERTEX
  5
3E0
330
3DC
100
AcDbEntity
  8
DEFAULT
100
AcDbVertex
100
AcDb2dVertex
 10
6.865572314715905
 20
18.76267754472081
 30
0.0
  0
VERTEX
  5
3E1
330
3DC
100
AcDbEntity
  8
DEFAULT
100
AcDbVertex
100
AcDb2dVertex
 10
6.919474980456575
 20
19.05812831888557
 30
0.0
  0
VERTEX
  5
3E2
330
3DC
100
AcDbEntity
  8
DEFAULT
100
AcDbVertex
100
AcDb2dVertex
 10
7.144048629421898
 20
20.57645125320161
 30
0.0
  0
VERTEX
  5
3E3
330
3DC
100
AcDbEntity
  8
DEFAULT
100
AcDbVertex
100
AcDb2dVertex
 10
8.551029759311943
 20
30.86508084060971
 30
0.0
  0
VERTEX
  5
3E4
330
3DC
100
AcDbEntity
  8
DEFAULT
100
AcDbVertex
100
AcDb2dVertex
 10
8.880613996157033
 20
32.7215910517529
 30
0.0
  0
VERTEX
  5
3E5
330
3DC
100
AcDbEntity
  8
DEFAULT
100
AcDbVertex
100
AcDb2dVertex
 10
8.991552499999997
 20
33.28002989616998
 30
0.0
  0
SEQEND
  5
3E6
330
3DC
100
AcDbEntity
  8
DEFAULT
  0
POLYLINE
  5
3E7
330
1F
100
AcDbEntity
  8
DEFAULT
100
AcDb2dPolyline
 66
     1
 10
0.0
 20
0.0
 30
0.0
  0
VERTEX
  5
3E8
330
3E7
100
AcDbEntity
  8
DEFAULT
100
AcDbVertex
100
AcDb2dVertex
 10
0.0021851776300004
 20
70.21430702554997
 30
0.0
  0
VERTEX
  5
3E9
330
3E7
100
AcDbEntity
  8
DEFAULT
100
AcDbVertex
100
AcDb2dVertex
 10
-0.9419593153622738
 20
70.20456447565181
 30
0.0
  0
VERTEX
  5
3EA
330
3E7
100
AcDbEntity
  8
DEFAULT
100
AcDbVertex
100
AcDb2dVertex
 10
-1.885623373824152
 20
70.17312755253971
 30
0.0
  0
VERTEX
  5
3EB
330
3E7
100
AcDbEntity
  8
DEFAULT
100
AcDbVertex
100
AcDb2dVertex
 10
-2.828168355560321
 20
70.11731357111822
 30
0.0
  0
VERTEX
  5
3EC
330
3E7
100
AcDbEntity
  8
DEFAULT
100
AcDbVertex
100
AcDb2dVertex
 10
-3.768629861275295
 20
70.03381049269028
 30
0.0
  0
VERTEX
  5
3ED
330
3E7
100
AcDbEntity
  8
DEFAULT
100
AcDbVertex
100
AcDb2dVertex
 10
-4.237734718410713
 20
69.98058060407496
 30
0.0
  0
VERTEX
  5
3EE
330
3E7
100
AcDbEntity
  8
DEFAULT
100
AcDbVertex
100
AcDb2dVertex
 10
-4.705819911111911
 20
69.91906287871062
 30
0.0
  0
VERTEX
  5
3EF
330
3E7
100
AcDbEntity
  8
DEFAULT
100
AcDbVertex
100
AcDb2dVertex
 10
-5.172648103592604
 20
69.84875909837425
 30
0.0
  0
VERTEX
  5
3F0
330
3E7
100
AcDbEntity
  8
DEFAULT
100
AcDbVertex
100
AcDb2dVertex
 10
-5.637981960066503
 20
69.76917104484276
 30
0.0
  0
VERTEX
  5
3F1
330
3E7
100
AcDbEntity
  8
DEFAULT
100
AcDbVertex
100
AcDb2dVertex
 10
-6.101564670831582
 20
69.6798159534903
 30
0.0
  0
VERTEX
  5
3F2
330
3E7
100
AcDbEntity
  8
DEFAULT
100
AcDbVertex
100
AcDb2dVertex
 10
-6.563061530522864
 20
69.58027287407961
 30
0.0
  0
VERTEX
  5
3F3
330
3E7
100
AcDbEntity
  8
DEFAULT
100
AcDbVertex
100
AcDb2dVertex
 10
-7.022118359859633
 20
69.4701363099706
 30
0.0
  0
VERTEX
  5
3F4
330
3E7
100
AcDbEntity
  8
DEFAULT
100
AcDbVertex
100
AcDb2dVertex
 10
-7.478380979561172
 20
69.34900076452314
 30
0.0
  0
VERTEX
  5
3F5
330
3E7
100
AcDbEntity
  8
DEFAULT
100
AcDbVertex
100
AcDb2dVertex
 10
-7.931500965139954
 20
69.21653360628005
 30
0.0
  0
VERTEX
  5
3F6
330
3E7
100
AcDbEntity
  8
DEFAULT
100
AcDbVertex
100
AcDb2dVertex
 10
-8.381153379577023
 20
69.07269352549761
 30
0.0
  0
VERTEX
  5
3F7
330
3E7
100
AcDbEntity
  8
DEFAULT
100
AcDbVertex
100
AcDb2dVertex
 10
-8.827019039560874
 20
68.91751207368215
 30
0.0
  0
VERTEX
  5
3F8
330
3E7
100
AcDbEntity
  8
DEFAULT
100
AcDbVertex
100
AcDb2dVertex
 10
-9.268778761779998
 20
68.75102080233998
 30
0.0
  0
VERTEX
  5
3F9
330
3E7
100
AcDbEntity
  8
DEFAULT
100
AcDbVertex
100
AcDb2dVertex
 10
-9.395039204324238
 20
68.6995902171479
 30
0.0
  0
VERTEX
  5
3FA
330
3E7
100
AcDbEntity
  8
DEFAULT
100
AcDbVertex
100
AcDb2dVertex
 10
-9.519841527566365
 20
68.64471478879206
 30
0.0
  0
VERTEX
  5
3FB
330
3E7
100
AcDbEntity
  8
DEFAULT
100
AcDbVertex
100
AcDb2dVertex
 10
-9.64307601598734
 20
68.58640553152841
 30
0.0
  0
VERTEX
  5
3FC
330
3E7
100
AcDbEntity
  8
DEFAULT
100
AcDbVertex
100
AcDb2dVertex
 10
-9.764632954068126
 20
68.52467345961291
 30
0.0
  0
VERTEX
  5
3FD
330
3E7
100
AcDbEntity
  8
DEFAULT
100
AcDbVertex
100
AcDb2dVertex
 10
-9.884396643516716
 20
68.45952484294558
 30
0.0
  0
VERTEX
  5
3FE
330
3E7
100
AcDbEntity
  8
DEFAULT
100
AcDbVertex
100
AcDb2dVertex
 10
-10.00222701641156
 20
68.39094721517944
 30
0.0
  0
VERTEX
  5
3FF
330
3E7
100
AcDbEntity
  8
DEFAULT
100
AcDbVertex
100
AcDb2dVertex
 10
-10.11797802424463
 20
68.31892336978545
 30
0.0
  0
VERTEX
  5
400
330
3E7
100
AcDbEntity
  8
DEFAULT
100
AcDbVertex
100
AcDb2dVertex
 10
-10.23150361850787
 20
68.24343610023458
 30
0.0
  0
VERTEX
  5
401
330
3E7
100
AcDbEntity
  8
DEFAULT
100
AcDbVertex
100
AcDb2dVertex
 10
-10.34264150970913
 20
68.16446016191651
 30
0.0
  0
VERTEX
  5
402
330
3E7
100
AcDbEntity
  8
DEFAULT
100
AcDbVertex
100
AcDb2dVertex
 10
-10.45116444441986
 20
68.0819381578957
 30
0.0
  0
VERTEX
  5
403
330
3E7
100
AcDbEntity
  8
DEFAULT
100
AcDbVertex
100
AcDb2dVertex
 10
-10.55682892822738
 20
67.99580465315543
 30
0.0
  0
VERTEX
  5
404
330
3E7
100
AcDbEntity
  8
DEFAULT
100
AcDbVertex
100
AcDb2dVertex
 10
-10.60851315903848
 20
67.95136313957275
 30
0.0
  0
VERTEX
  5
405
330
3E7
100
AcDbEntity
  8
DEFAULT
100
AcDbVertex
100
AcDb2dVertex
 10
-10.65939146671902
 20
67.90599421267888
 30
0.0
  0
VERTEX
  5
406
330
3E7
100
AcDbEntity
  8
DEFAULT
100
AcDbVertex
100
AcDb2dVertex
 10
-10.70942708807582
 20
67.8596871457317
 30
0.0
  0
VERTEX
  5
407
330
3E7
100
AcDbEntity
  8
DEFAULT
100
AcDbVertex
100
AcDb2dVertex
 10
-10.75855795434927
 20
67.8124210225291
 30
0.0
  0
VERTEX
  5
408
330
3E7
100
AcDbEntity
  8
DEFAULT
100
AcDbVertex
100
AcDb2dVertex
 10
-10.80671567038816
 20
67.76417237950385
 30
0.0
  0
VERTEX
  5
409
330
3E7
100
AcDbEntity
  8
DEFAULT
100
AcDbVertex
100
AcDb2dVertex
 10
-10.85383184104126
 20
67.7149177530888
 30
0.0
  0
VERTEX
  5
40A
330
3E7
100
AcDbEntity
  8
DEFAULT
100
AcDbVertex
100
AcDb2dVertex
 10
-10.89983807115738
 20
67.66463367971674
 30
0.0
  0
VERTEX
  5
40B
330
3E7
100
AcDbEntity
  8
DEFAULT
100
AcDbVertex
100
AcDb2dVertex
 10
-10.94466596558528
 20
67.61329669582051
 30
0.0
  0
VERTEX
  5
40C
330
3E7
100
AcDbEntity
  8
DEFAULT
100
AcDbVertex
100
AcDb2dVertex
 10
-10.98824712917377
 20
67.5608833378329
 30
0.0
  0
VERTEX
  5
40D
330
3E7
100
AcDbEntity
  8
DEFAULT
100
AcDbVertex
100
AcDb2dVertex
 10
-11.03051316677163
 20
67.50737014218674
 30
0.0
  0
VERTEX
  5
40E
330
3E7
100
AcDbEntity
  8
DEFAULT
100
AcDbVertex
100
AcDb2dVertex
 10
-11.07137146634514
 20
67.45273205390764
 30
0.0
  0
VERTEX
  5
40F
330
3E7
100
AcDbEntity
  8
DEFAULT
100
AcDbVertex
100
AcDb2dVertex
 10
-11.11063254833057
 20
67.39693765239215
 30
0.0
  0
VERTEX
  5
410
330
3E7
100
AcDbEntity
  8
DEFAULT
100
AcDbVertex
100
AcDb2dVertex
 10
-11.14808271628171
 20
67.33995392562967
 30
0.0
  0
VERTEX
  5
411
330
3E7
100
AcDbEntity
  8
DEFAULT
100
AcDbVertex
100
AcDb2dVertex
 10
-11.16606192735498
 20
67.31100574902749
 30
0.0
  0
VERTEX
  5
412
330
3E7
100
AcDbEntity
  8
DEFAULT
100
AcDbVertex
100
AcDb2dVertex
 10
-11.18350827375233
 20
67.28174786160955
 30
0.0
  0
VERTEX
  5
413
330
3E7
100
AcDbEntity
  8
DEFAULT
100
AcDbVertex
100
AcDb2dVertex
 10
-11.20039504341799
 20
67.25217613687454
 30
0.0
  0
VERTEX
  5
414
330
3E7
100
AcDbEntity
  8
DEFAULT
100
AcDbVertex
100
AcDb2dVertex
 10
-11.21669552429619
 20
67.22228644832116
 30
0.0
  0
VERTEX
  5
415
330
3E7
100
AcDbEntity
  8
DEFAULT
100
AcDbVertex
100
AcDb2dVertex
 10
-11.23238300433114
 20
67.19207466944803
 30
0.0
  0
VERTEX
  5
416
330
3E7
100
AcDbEntity
  8
DEFAULT
100
AcDbVertex
100
AcDb2dVertex
 10
-11.24743077146707
 20
67.16153667375386
 30
0.0
  0
VERTEX
  5
417
330
3E7
100
AcDbEntity
  8
DEFAULT
100
AcDbVertex
100
AcDb2dVertex
 10
-11.2618121136482
 20
67.1306683347373
 30
0.0
  0
VERTEX
  5
418
330
3E7
100
AcDbEntity
  8
DEFAULT
100
AcDbVertex
100
AcDb2dVertex
 10
-11.27550031881875
 20
67.099465525897
 30
0.0
  0
VERTEX
  5
419
330
3E7
100
AcDbEntity
  8
DEFAULT
100
AcDbVertex
100
AcDb2dVertex
 10
-11.28846867492294
 20
67.06792412073167
 30
0.0
  0
VERTEX
  5
41A
330
3E7
100
AcDbEntity
  8
DEFAULT
100
AcDbVertex
100
AcDb2dVertex
 10
-13.24563730037772
 20
61.75101329211213
 30
0.0
  0
VERTEX
  5
41B
330
3E7
100
AcDbEntity
  8
DEFAULT
100
AcDbVertex
100
AcDb2dVertex
 10
-13.43759655382523
 20
61.22177038682895
 30
0.0
  0
VERTEX
  5
41C
330
3E7
100
AcDbEntity
  8
DEFAULT
100
AcDbVertex
100
AcDb2dVertex
 10
-13.52735628756444
 20
60.95533297032252
 30
0.0
  0
VERTEX
  5
41D
330
3E7
100
AcDbEntity
  8
DEFAULT
100
AcDbVertex
100
AcDb2dVertex
 10
-13.61157326563179
 20
60.68727728832096
 30
0.0
  0
VERTEX
  5
41E
330
3E7
100
AcDbEntity
  8
DEFAULT
100
AcDbVertex
100
AcDb2dVertex
 10
-13.68945907627434
 20
60.41738132988289
 30
0.0
  0
VERTEX
  5
41F
330
3E7
100
AcDbEntity
  8
DEFAULT
100
AcDbVertex
100
AcDb2dVertex
 10
-13.76126014177397
 20
60.14575790905731
 30
0.0
  0
VERTEX
  5
420
330
3E7
100
AcDbEntity
  8
DEFAULT
100
AcDbVertex
100
AcDb2dVertex
 10
-13.82748159292123
 20
59.87260354614074
 30
0.0
  0
VERTEX
  5
421
330
3E7
100
AcDbEntity
  8
DEFAULT
100
AcDbVertex
100
AcDb2dVertex
 10
-13.8886285605067
 20
59.59811476142972
 30
0.0
  0
VERTEX
  5
422
330
3E7
100
AcDbEntity
  8
DEFAULT
100
AcDbVertex
100
AcDb2dVertex
 10
-13.99771956815448
 20
59.04592000781055
 30
0.0
  0
VERTEX
  5
423
330
3E7
100
AcDbEntity
  8
DEFAULT
100
AcDbVertex
100
AcDb2dVertex
 10
-14.09257421104184
 20
58.49074581057216
 30
0.0
  0
VERTEX
  5
424
330
3E7
100
AcDbEntity
  8
DEFAULT
100
AcDbVertex
100
AcDb2dVertex
 10
-14.1763433079702
 20
57.9338985830759
 30
0.0
  0
VERTEX
  5
425
330
3E7
100
AcDbEntity
  8
DEFAULT
100
AcDbVertex
100
AcDb2dVertex
 10
-14.24861676764866
 20
57.37562174263918
 30
0.0
  0
VERTEX
  5
426
330
3E7
100
AcDbEntity
  8
DEFAULT
100
AcDbVertex
100
AcDb2dVertex
 10
-14.30809427126326
 20
56.81589295756841
 30
0.0
  0
VERTEX
  5
427
330
3E7
100
AcDbEntity
  8
DEFAULT
100
AcDbVertex
100
AcDb2dVertex
 10
-14.90943867652819
 20
47.06550565588596
 30
0.0
  0
VERTEX
  5
428
330
3E7
100
AcDbEntity
  8
DEFAULT
100
AcDbVertex
100
AcDb2dVertex
 10
-15.00422519146684
 20
45.44568870906024
 30
0.0
  0
VERTEX
  5
429
330
3E7
100
AcDbEntity
  8
DEFAULT
100
AcDbVertex
100
AcDb2dVertex
 10
-15.020226662245
 20
44.90509367603498
 30
0.0
  0
VERTEX
  5
42A
330
3E7
100
AcDbEntity
  8
DEFAULT
100
AcDbVertex
100
AcDb2dVertex
 10
-15.01941677683106
 20
44.74867217695782
 30
0.0
  0
VERTEX
  5
42B
330
3E7
100
AcDbEntity
  8
DEFAULT
100
AcDbVertex
100
AcDb2dVertex
 10
-15.01536242586808
 20
44.59230835041455
 30
0.0
  0
VERTEX
  5
42C
330
3E7
100
AcDbEntity
  8
DEFAULT
100
AcDbVertex
100
AcDb2dVertex
 10
-15.0072342707841
 20
44.4361174118448
 30
0.0
  0
VERTEX
  5
42D
330
3E7
100
AcDbEntity
  8
DEFAULT
100
AcDbVertex
100
AcDb2dVertex
 10
-14.99420297300717
 20
44.28021457668818
 30
0.0
  0
VERTEX
  5
42E
330
3E7
100
AcDbEntity
  8
DEFAULT
100
AcDbVertex
100
AcDb2dVertex
 10
-14.98557760235097
 20
44.20241954815943
 30
0.0
  0
VERTEX
  5
42F
330
3E7
100
AcDbEntity
  8
DEFAULT
100
AcDbVertex
100
AcDb2dVertex
 10
-14.97534426036136
 20
44.1248144053308
 30
0.0
  0
VERTEX
  5
430
330
3E7
100
AcDbEntity
  8
DEFAULT
100
AcDbVertex
100
AcDb2dVertex
 10
-14.96332809959134
 20
44.04748820393809
 30
0.0
  0
VERTEX
  5
431
330
3E7
100
AcDbEntity
  8
DEFAULT
100
AcDbVertex
100
AcDb2dVertex
 10
-14.94935427259387
 20
43.97052999971703
 30
0.0
  0
VERTEX
  5
432
330
3E7
100
AcDbEntity
  8
DEFAULT
100
AcDbVertex
100
AcDb2dVertex
 10
-14.93324793192194
 20
43.89402884840341
 30
0.0
  0
VERTEX
  5
433
330
3E7
100
AcDbEntity
  8
DEFAULT
100
AcDbVertex
100
AcDb2dVertex
 10
-14.91483423012853
 20
43.81807380573298
 30
0.0
  0
VERTEX
  5
434
330
3E7
100
AcDbEntity
  8
DEFAULT
100
AcDbVertex
100
AcDb2dVertex
 10
-14.89393831976662
 20
43.74275392744151
 30
0.0
  0
VERTEX
  5
435
330
3E7
100
AcDbEntity
  8
DEFAULT
100
AcDbVertex
100
AcDb2dVertex
 10
-14.88250489654528
 20
43.70536000485531
 30
0.0
  0
VERTEX
  5
436
330
3E7
100
AcDbEntity
  8
DEFAULT
100
AcDbVertex
100
AcDb2dVertex
 10
-14.87038535338919
 20
43.66815826926477
 30
0.0
  0
VERTEX
  5
437
330
3E7
100
AcDbEntity
  8
DEFAULT
100
AcDbVertex
100
AcDb2dVertex
 10
-14.85756057157122
 20
43.6311626208233
 30
0.0
  0
VERTEX
  5
438
330
3E7
100
AcDbEntity
  8
DEFAULT
100
AcDbVertex
100
AcDb2dVertex
 10
-14.84402238117931
 20
43.59439803243014
 30
0.0
  0
VERTEX
  5
439
330
3E7
100
AcDbEntity
  8
DEFAULT
100
AcDbVertex
100
AcDb2dVertex
 10
-14.82976534950514
 20
43.55789224517096
 30
0.0
  0
VERTEX
  5
43A
330
3E7
100
AcDbEntity
  8
DEFAULT
100
AcDbVertex
100
AcDb2dVertex
 10
-14.81478404384041
 20
43.52167300013146
 30
0.0
  0
VERTEX
  5
43B
330
3E7
100
AcDbEntity
  8
DEFAULT
100
AcDbVertex
100
AcDb2dVertex
 10
-14.79907303147679
 20
43.48576803839731
 30
0.0
  0
VERTEX
  5
43C
330
3E7
100
AcDbEntity
  8
DEFAULT
100
AcDbVertex
100
AcDb2dVertex
 10
-14.78262687970599
 20
43.4502051010542
 30
0.0
  0
VERTEX
  5
43D
330
3E7
100
AcDbEntity
  8
DEFAULT
100
AcDbVertex
100
AcDb2dVertex
 10
-14.76544015581969
 20
43.41501192918781
 30
0.0
  0
VERTEX
  5
43E
330
3E7
100
AcDbEntity
  8
DEFAULT
100
AcDbVertex
100
AcDb2dVertex
 10
-14.74750742710957
 20
43.38021626388384
 30
0.0
  0
VERTEX
  5
43F
330
3E7
100
AcDbEntity
  8
DEFAULT
100
AcDbVertex
100
AcDb2dVertex
 10
-14.72882326086734
 20
43.34584584622795
 30
0.0
  0
VERTEX
  5
440
330
3E7
100
AcDbEntity
  8
DEFAULT
100
AcDbVertex
100
AcDb2dVertex
 10
-14.70938222438467
 20
43.31192841730582
 30
0.0
  0
VERTEX
  5
441
330
3E7
100
AcDbEntity
  8
DEFAULT
100
AcDbVertex
100
AcDb2dVertex
 10
-14.68917888495325
 20
43.27849171820316
 30
0.0
  0
VERTEX
  5
442
330
3E7
100
AcDbEntity
  8
DEFAULT
100
AcDbVertex
100
AcDb2dVertex
 10
-14.66820780986479
 20
43.24556349000562
 30
0.0
  0
VERTEX
  5
443
330
3E7
100
AcDbEntity
  8
DEFAULT
100
AcDbVertex
100
AcDb2dVertex
 10
-14.64646356641095
 20
43.21317147379892
 30
0.0
  0
VERTEX
  5
444
330
3E7
100
AcDbEntity
  8
DEFAULT
100
AcDbVertex
100
AcDb2dVertex
 10
-14.62394072188344
 20
43.18134341066872
 30
0.0
  0
VERTEX
  5
445
330
3E7
100
AcDbEntity
  8
DEFAULT
100
AcDbVertex
100
AcDb2dVertex
 10
-14.60063384357394
 20
43.1501070417007
 30
0.0
  0
VERTEX
  5
446
330
3E7
100
AcDbEntity
  8
DEFAULT
100
AcDbVertex
100
AcDb2dVertex
 10
-14.57653749877414
 20
43.11949010798056
 30
0.0
  0
VERTEX
  5
447
330
3E7
100
AcDbEntity
  8
DEFAULT
100
AcDbVertex
100
AcDb2dVertex
 10
-14.55165189126726
 20
43.08951550636848
 30
0.0
  0
VERTEX
  5
448
330
3E7
100
AcDbEntity
  8
DEFAULT
100
AcDbVertex
100
AcDb2dVertex
 10
-14.52599977080264
 20
43.06018675682267
 30
0.0
  0
VERTEX
  5
449
330
3E7
100
AcDbEntity
  8
DEFAULT
100
AcDbVertex
100
AcDb2dVertex
 10
-14.49960952362114
 20
43.03150253507588
 30
0.0
  0
VERTEX
  5
44A
330
3E7
100
AcDbEntity
  8
DEFAULT
100
AcDbVertex
100
AcDb2dVertex
 10
-14.47250953596365
 20
43.00346151686083
 30
0.0
  0
VERTEX
  5
44B
330
3E7
100
AcDbEntity
  8
DEFAULT
100
AcDbVertex
100
AcDb2dVertex
 10
-14.44472819407101
 20
42.97606237791025
 30
0.0
  0
VERTEX
  5
44C
330
3E7
100
AcDbEntity
  8
DEFAULT
100
AcDbVertex
100
AcDb2dVertex
 10
-14.41629388418411
 20
42.94930379395686
 30
0.0
  0
VERTEX
  5
44D
330
3E7
100
AcDbEntity
  8
DEFAULT
100
AcDbVertex
100
AcDb2dVertex
 10
-14.3872349925438
 20
42.92318444073339
 30
0.0
  0
VERTEX
  5
44E
330
3E7
100
AcDbEntity
  8
DEFAULT
100
AcDbVertex
100
AcDb2dVertex
 10
-14.35757990539097
 20
42.89770299397259
 30
0.0
  0
VERTEX
  5
44F
330
3E7
100
AcDbEntity
  8
DEFAULT
100
AcDbVertex
100
AcDb2dVertex
 10
-14.32735700896647
 20
42.87285812940716
 30
0.0
  0
VERTEX
  5
450
330
3E7
100
AcDbEntity
  8
DEFAULT
100
AcDbVertex
100
AcDb2dVertex
 10
-14.29659468951117
 20
42.84864852276984
 30
0.0
  0
VERTEX
  5
451
330
3E7
100
AcDbEntity
  8
DEFAULT
100
AcDbVertex
100
AcDb2dVertex
 10
-14.26532133326596
 20
42.82507284979334
 30
0.0
  0
VERTEX
  5
452
330
3E7
100
AcDbEntity
  8
DEFAULT
100
AcDbVertex
100
AcDb2dVertex
 10
-14.23356532647168
 20
42.80212978621043
 30
0.0
  0
VERTEX
  5
453
330
3E7
100
AcDbEntity
  8
DEFAULT
100
AcDbVertex
100
AcDb2dVertex
 10
-14.20135505536921
 20
42.7798180077538
 30
0.0
  0
VERTEX
  5
454
330
3E7
100
AcDbEntity
  8
DEFAULT
100
AcDbVertex
100
AcDb2dVertex
 10
-14.16871890619942
 20
42.75813619015619
 30
0.0
  0
VERTEX
  5
455
330
3E7
100
AcDbEntity
  8
DEFAULT
100
AcDbVertex
100
AcDb2dVertex
 10
-14.13568526520318
 20
42.73708300915034
 30
0.0
  0
VERTEX
  5
456
330
3E7
100
AcDbEntity
  8
DEFAULT
100
AcDbVertex
100
AcDb2dVertex
 10
-14.10228251862135
 20
42.71665714046897
 30
0.0
  0
VERTEX
  5
457
330
3E7
100
AcDbEntity
  8
DEFAULT
100
AcDbVertex
100
AcDb2dVertex
 10
-14.03447198629882
 20
42.67764398143449
 30
0.0
  0
VERTEX
  5
458
330
3E7
100
AcDbEntity
  8
DEFAULT
100
AcDbVertex
100
AcDb2dVertex
 10
-13.9654574301925
 20
42.64089545294994
 30
0.0
  0
VERTEX
  5
459
330
3E7
100
AcDbEntity
  8
DEFAULT
100
AcDbVertex
100
AcDb2dVertex
 10
-13.89539769967828
 20
42.60617224108817
 30
0.0
  0
VERTEX
  5
45A
330
3E7
100
AcDbEntity
  8
DEFAULT
100
AcDbVertex
100
AcDb2dVertex
 10
-13.82445164413205
 20
42.573235031922
 30
0.0
  0
VERTEX
  5
45B
330
3E7
100
AcDbEntity
  8
DEFAULT
100
AcDbVertex
100
AcDb2dVertex
 10
-13.75277811292972
 20
42.54184451152427
 30
0.0
  0
VERTEX
  5
45C
330
3E7
100
AcDbEntity
  8
DEFAULT
100
AcDbVertex
100
AcDb2dVertex
 10
-13.68053595544717
 20
42.51176136596781
 30
0.0
  0
VERTEX
  5
45D
330
3E7
100
AcDbEntity
  8
DEFAULT
100
AcDbVertex
100
AcDb2dVertex
 10
-10.04996217274639
 20
41.13756731350652
 30
0.0
  0
VERTEX
  5
45E
330
3E7
100
AcDbEntity
  8
DEFAULT
100
AcDbVertex
100
AcDb2dVertex
 10
-9.75815326969753
 20
41.02954692591108
 30
0.0
  0
VERTEX
  5
45F
330
3E7
100
AcDbEntity
  8
DEFAULT
100
AcDbVertex
100
AcDb2dVertex
 10
-9.464423867257214
 20
40.92807560367783
 30
0.0
  0
VERTEX
  5
460
330
3E7
100
AcDbEntity
  8
DEFAULT
100
AcDbVertex
100
AcDb2dVertex
 10
-9.31646603390659
 20
40.8817028762807
 30
0.0
  0
VERTEX
  5
461
330
3E7
100
AcDbEntity
  8
DEFAULT
100
AcDbVertex
100
AcDb2dVertex
 10
-9.167580541877696
 20
40.8392558562745
 30
0.0
  0
VERTEX
  5
462
330
3E7
100
AcDbEntity
  8
DEFAULT
100
AcDbVertex
100
AcDb2dVertex
 10
-9.017618213227067
 20
40.80149735734271
 30
0.0
  0
VERTEX
  5
463
330
3E7
100
AcDbEntity
  8
DEFAULT
100
AcDbVertex
100
AcDb2dVertex
 10
-8.942186617061266
 20
40.7846146825558
 30
0.0
  0
VERTEX
  5
464
330
3E7
100
AcDbEntity
  8
DEFAULT
100
AcDbVertex
100
AcDb2dVertex
 10
-8.866429870011231
 20
40.7691901931688
 30
0.0
  0
VERTEX
  5
465
330
3E7
100
AcDbEntity
  8
DEFAULT
100
AcDbVertex
100
AcDb2dVertex
 10
-8.790337835688995
 20
40.75528890799488
 30
0.0
  0
VERTEX
  5
466
330
3E7
100
AcDbEntity
  8
DEFAULT
100
AcDbVertex
100
AcDb2dVertex
 10
-8.713934421126448
 20
40.74285451425816
 30
0.0
  0
VERTEX
  5
467
330
3E7
100
AcDbEntity
  8
DEFAULT
100
AcDbVertex
100
AcDb2dVertex
 10
-8.560323122827867
 20
40.72203981840384
 30
0.0
  0
VERTEX
  5
468
330
3E7
100
AcDbEntity
  8
DEFAULT
100
AcDbVertex
100
AcDb2dVertex
 10
-8.405855318210376
 20
40.70605294022083
 30
0.0
  0
VERTEX
  5
469
330
3E7
100
AcDbEntity
  8
DEFAULT
100
AcDbVertex
100
AcDb2dVertex
 10
-8.250790350368852
 20
40.69420071432413
 30
0.0
  0
VERTEX
  5
46A
330
3E7
100
AcDbEntity
  8
DEFAULT
100
AcDbVertex
100
AcDb2dVertex
 10
-8.09538756239817
 20
40.6857899753287
 30
0.0
  0
VERTEX
  5
46B
330
3E7
100
AcDbEntity
  8
DEFAULT
100
AcDbVertex
100
AcDb2dVertex
 10
-7.62974570866
 20
40.67427502589997
 30
0.0
  0
VERTEX
  5
46C
330
3E7
100
AcDbEntity
  8
DEFAULT
100
AcDbVertex
100
AcDb2dVertex
 10
7.62974570866
 20
40.67427502589997
 30
0.0
  0
VERTEX
  5
46D
330
3E7
100
AcDbEntity
  8
DEFAULT
100
AcDbVertex
100
AcDb2dVertex
 10
7.939906297393216
 20
40.68012755784954
 30
0.0
  0
VERTEX
  5
46E
330
3E7
100
AcDbEntity
  8
DEFAULT
100
AcDbVertex
100
AcDb2dVertex
 10
8.09538756239817
 20
40.6857899753287
 30
0.0
  0
VERTEX
  5
46F
330
3E7
100
AcDbEntity
  8
DEFAULT
100
AcDbVertex
100
AcDb2dVertex
 10
8.250790350368852
 20
40.69420071432413
 30
0.0
  0
VERTEX
  5
470
330
3E7
100
AcDbEntity
  8
DEFAULT
100
AcDbVertex
100
AcDb2dVertex
 10
8.405855318210378
 20
40.70605294022083
 30
0.0
  0
VERTEX
  5
471
330
3E7
100
AcDbEntity
  8
DEFAULT
100
AcDbVertex
100
AcDb2dVertex
 10
8.560323122827871
 20
40.72203981840384
 30
0.0
  0
VERTEX
  5
472
330
3E7
100
AcDbEntity
  8
DEFAULT
100
AcDbVertex
100
AcDb2dVertex
 10
8.71393442112645
 20
40.74285451425816
 30
0.0
  0
VERTEX
  5
473
330
3E7
100
AcDbEntity
  8
DEFAULT
100
AcDbVertex
100
AcDb2dVertex
 10
8.790337835688995
 20
40.75528890799488
 30
0.0
  0
VERTEX
  5
474
330
3E7
100
AcDbEntity
  8
DEFAULT
100
AcDbVertex
100
AcDb2dVertex
 10
8.866429870011233
 20
40.7691901931688
 30
0.0
  0
VERTEX
  5
475
330
3E7
100
AcDbEntity
  8
DEFAULT
100
AcDbVertex
100
AcDb2dVertex
 10
8.94218661706127
 20
40.7846146825558
 30
0.0
  0
VERTEX
  5
476
330
3E7
100
AcDbEntity
  8
DEFAULT
100
AcDbVertex
100
AcDb2dVertex
 10
9.017618213227069
 20
40.8014973573427
 30
0.0
  0
VERTEX
  5
477
330
3E7
100
AcDbEntity
  8
DEFAULT
100
AcDbVertex
100
AcDb2dVertex
 10
9.167580541877697
 20
40.83925585627449
 30
0.0
  0
VERTEX
  5
478
330
3E7
100
AcDbEntity
  8
DEFAULT
100
AcDbVertex
100
AcDb2dVertex
 10
9.31646603390659
 20
40.88170287628068
 30
0.0
  0
VERTEX
  5
479
330
3E7
100
AcDbEntity
  8
DEFAULT
100
AcDbVertex
100
AcDb2dVertex
 10
9.464423867257215
 20
40.92807560367783
 30
0.0
  0
VERTEX
  5
47A
330
3E7
100
AcDbEntity
  8
DEFAULT
100
AcDbVertex
100
AcDb2dVertex
 10
9.758153269697532
 20
41.02954692591108
 30
0.0
  0
VERTEX
  5
47B
330
3E7
100
AcDbEntity
  8
DEFAULT
100
AcDbVertex
100
AcDb2dVertex
 10
13.534981159145
 20
42.45455994366998
 30
0.0
  0
VERTEX
  5
47C
330
3E7
100
AcDbEntity
  8
DEFAULT
100
AcDbVertex
100
AcDb2dVertex
 10
13.68053595544717
 20
42.51176136596781
 30
0.0
  0
VERTEX
  5
47D
330
3E7
100
AcDbEntity
  8
DEFAULT
100
AcDbVertex
100
AcDb2dVertex
 10
13.75277811292972
 20
42.54184451152427
 30
0.0
  0
VERTEX
  5
47E
330
3E7
100
AcDbEntity
  8
DEFAULT
100
AcDbVertex
100
AcDb2dVertex
 10
13.82445164413205
 20
42.573235031922
 30
0.0
  0
VERTEX
  5
47F
330
3E7
100
AcDbEntity
  8
DEFAULT
100
AcDbVertex
100
AcDb2dVertex
 10
13.89539769967828
 20
42.60617224108817
 30
0.0
  0
VERTEX
  5
480
330
3E7
100
AcDbEntity
  8
DEFAULT
100
AcDbVertex
100
AcDb2dVertex
 10
13.9654574301925
 20
42.64089545294994
 30
0.0
  0
VERTEX
  5
481
330
3E7
100
AcDbEntity
  8
DEFAULT
100
AcDbVertex
100
AcDb2dVertex
 10
14.03447198629882
 20
42.67764398143449
 30
0.0
  0
VERTEX
  5
482
330
3E7
100
AcDbEntity
  8
DEFAULT
100
AcDbVertex
100
AcDb2dVertex
 10
14.10228251862135
 20
42.71665714046898
 30
0.0
  0
VERTEX
  5
483
330
3E7
100
AcDbEntity
  8
DEFAULT
100
AcDbVertex
100
AcDb2dVertex
 10
14.13568526520318
 20
42.73708300915035
 30
0.0
  0
VERTEX
  5
484
330
3E7
100
AcDbEntity
  8
DEFAULT
100
AcDbVertex
100
AcDb2dVertex
 10
14.16871890619942
 20
42.75813619015621
 30
0.0
  0
VERTEX
  5
485
330
3E7
100
AcDbEntity
  8
DEFAULT
100
AcDbVertex
100
AcDb2dVertex
 10
14.20135505536921
 20
42.77981800775381
 30
0.0
  0
VERTEX
  5
486
330
3E7
100
AcDbEntity
  8
DEFAULT
100
AcDbVertex
100
AcDb2dVertex
 10
14.23356532647168
 20
42.80212978621044
 30
0.0
  0
VERTEX
  5
487
330
3E7
100
AcDbEntity
  8
DEFAULT
100
AcDbVertex
100
AcDb2dVertex
 10
14.26532133326596
 20
42.82507284979336
 30
0.0
  0
VERTEX
  5
488
330
3E7
100
AcDbEntity
  8
DEFAULT
100
AcDbVertex
100
AcDb2dVertex
 10
14.29659468951117
 20
42.84864852276985
 30
0.0
  0
VERTEX
  5
489
330
3E7
100
AcDbEntity
  8
DEFAULT
100
AcDbVertex
100
AcDb2dVertex
 10
14.32735700896647
 20
42.87285812940718
 30
0.0
  0
VERTEX
  5
48A
330
3E7
100
AcDbEntity
  8
DEFAULT
100
AcDbVertex
100
AcDb2dVertex
 10
14.35757990539097
 20
42.8977029939726
 30
0.0
  0
VERTEX
  5
48B
330
3E7
100
AcDbEntity
  8
DEFAULT
100
AcDbVertex
100
AcDb2dVertex
 10
14.3872349925438
 20
42.92318444073341
 30
0.0
  0
VERTEX
  5
48C
330
3E7
100
AcDbEntity
  8
DEFAULT
100
AcDbVertex
100
AcDb2dVertex
 10
14.41629388418411
 20
42.94930379395687
 30
0.0
  0
VERTEX
  5
48D
330
3E7
100
AcDbEntity
  8
DEFAULT
100
AcDbVertex
100
AcDb2dVertex
 10
14.44472819407101
 20
42.97606237791027
 30
0.0
  0
VERTEX
  5
48E
330
3E7
100
AcDbEntity
  8
DEFAULT
100
AcDbVertex
100
AcDb2dVertex
 10
14.47250953596365
 20
43.00346151686084
 30
0.0
  0
VERTEX
  5
48F
330
3E7
100
AcDbEntity
  8
DEFAULT
100
AcDbVertex
100
AcDb2dVertex
 10
14.49960952362115
 20
43.03150253507589
 30
0.0
  0
VERTEX
  5
490
330
3E7
100
AcDbEntity
  8
DEFAULT
100
AcDbVertex
100
AcDb2dVertex
 10
14.52599977080264
 20
43.06018675682268
 30
0.0
  0
VERTEX
  5
491
330
3E7
100
AcDbEntity
  8
DEFAULT
100
AcDbVertex
100
AcDb2dVertex
 10
14.55165189126726
 20
43.08951550636848
 30
0.0
  0
VERTEX
  5
492
330
3E7
100
AcDbEntity
  8
DEFAULT
100
AcDbVertex
100
AcDb2dVertex
 10
14.57653749877414
 20
43.11949010798057
 30
0.0
  0
VERTEX
  5
493
330
3E7
100
AcDbEntity
  8
DEFAULT
100
AcDbVertex
100
AcDb2dVertex
 10
14.60063384357394
 20
43.1501070417007
 30
0.0
  0
VERTEX
  5
494
330
3E7
100
AcDbEntity
  8
DEFAULT
100
AcDbVertex
100
AcDb2dVertex
 10
14.62394072188344
 20
43.18134341066872
 30
0.0
  0
VERTEX
  5
495
330
3E7
100
AcDbEntity
  8
DEFAULT
100
AcDbVertex
100
AcDb2dVertex
 10
14.64646356641095
 20
43.21317147379892
 30
0.0
  0
VERTEX
  5
496
330
3E7
100
AcDbEntity
  8
DEFAULT
100
AcDbVertex
100
AcDb2dVertex
 10
14.66820780986479
 20
43.24556349000562
 30
0.0
  0
VERTEX
  5
497
330
3E7
100
AcDbEntity
  8
DEFAULT
100
AcDbVertex
100
AcDb2dVertex
 10
14.68917888495325
 20
43.27849171820316
 30
0.0
  0
VERTEX
  5
498
330
3E7
100
AcDbEntity
  8
DEFAULT
100
AcDbVertex
100
AcDb2dVertex
 10
14.70938222438467
 20
43.31192841730582
 30
0.0
  0
VERTEX
  5
499
330
3E7
100
AcDbEntity
  8
DEFAULT
100
AcDbVertex
100
AcDb2dVertex
 10
14.72882326086734
 20
43.34584584622795
 30
0.0
  0
VERTEX
  5
49A
330
3E7
100
AcDbEntity
  8
DEFAULT
100
AcDbVertex
100
AcDb2dVertex
 10
14.74750742710957
 20
43.38021626388384
 30
0.0
  0
VERTEX
  5
49B
330
3E7
100
AcDbEntity
  8
DEFAULT
100
AcDbVertex
100
AcDb2dVertex
 10
14.76544015581969
 20
43.41501192918781
 30
0.0
  0
VERTEX
  5
49C
330
3E7
100
AcDbEntity
  8
DEFAULT
100
AcDbVertex
100
AcDb2dVertex
 10
14.78262687970599
 20
43.4502051010542
 30
0.0
  0
VERTEX
  5
49D
330
3E7
100
AcDbEntity
  8
DEFAULT
100
AcDbVertex
100
AcDb2dVertex
 10
14.79907303147679
 20
43.48576803839731
 30
0.0
  0
VERTEX
  5
49E
330
3E7
100
AcDbEntity
  8
DEFAULT
100
AcDbVertex
100
AcDb2dVertex
 10
14.81478404384041
 20
43.52167300013146
 30
0.0
  0
VERTEX
  5
49F
330
3E7
100
AcDbEntity
  8
DEFAULT
100
AcDbVertex
100
AcDb2dVertex
 10
14.82976534950514
 20
43.55789224517096
 30
0.0
  0
VERTEX
  5
4A0
330
3E7
100
AcDbEntity
  8
DEFAULT
100
AcDbVertex
100
AcDb2dVertex
 10
14.84402238117931
 20
43.59439803243014
 30
0.0
  0
VERTEX
  5
4A1
330
3E7
100
AcDbEntity
  8
DEFAULT
100
AcDbVertex
100
AcDb2dVertex
 10
14.85756057157122
 20
43.6311626208233
 30
0.0
  0
VERTEX
  5
4A2
330
3E7
100
AcDbEntity
  8
DEFAULT
100
AcDbVertex
100
AcDb2dVertex
 10
14.87038535338919
 20
43.66815826926477
 30
0.0
  0
VERTEX
  5
4A3
330
3E7
100
AcDbEntity
  8
DEFAULT
100
AcDbVertex
100
AcDb2dVertex
 10
14.88250489654528
 20
43.70536000485531
 30
0.0
  0
VERTEX
  5
4A4
330
3E7
100
AcDbEntity
  8
DEFAULT
100
AcDbVertex
100
AcDb2dVertex
 10
14.89393831976662
 20
43.74275392744151
 30
0.0
  0
VERTEX
  5
4A5
330
3E7
100
AcDbEntity
  8
DEFAULT
100
AcDbVertex
100
AcDb2dVertex
 10
14.91483423012853
 20
43.81807380573298
 30
0.0
  0
VERTEX
  5
4A6
330
3E7
100
AcDbEntity
  8
DEFAULT
100
AcDbVertex
100
AcDb2dVertex
 10
14.93324793192194
 20
43.89402884840341
 30
0.0
  0
VERTEX
  5
4A7
330
3E7
100
AcDbEntity
  8
DEFAULT
100
AcDbVertex
100
AcDb2dVertex
 10
14.94935427259387
 20
43.97052999971703
 30
0.0
  0
VERTEX
  5
4A8
330
3E7
100
AcDbEntity
  8
DEFAULT
100
AcDbVertex
100
AcDb2dVertex
 10
14.96332809959134
 20
44.04748820393809
 30
0.0
  0
VERTEX
  5
4A9
330
3E7
100
AcDbEntity
  8
DEFAULT
100
AcDbVertex
100
AcDb2dVertex
 10
14.97534426036136
 20
44.1248144053308
 30
0.0
  0
VERTEX
  5
4AA
330
3E7
100
AcDbEntity
  8
DEFAULT
100
AcDbVertex
100
AcDb2dVertex
 10
14.98557760235097
 20
44.20241954815943
 30
0.0
  0
VERTEX
  5
4AB
330
3E7
100
AcDbEntity
  8
DEFAULT
100
AcDbVertex
100
AcDb2dVertex
 10
14.99420297300717
 20
44.28021457668818
 30
0.0
  0
VERTEX
  5
4AC
330
3E7
100
AcDbEntity
  8
DEFAULT
100
AcDbVertex
100
AcDb2dVertex
 10
15.0072342707841
 20
44.4361174118448
 30
0.0
  0
VERTEX
  5
4AD
330
3E7
100
AcDbEntity
  8
DEFAULT
100
AcDbVertex
100
AcDb2dVertex
 10
15.01536242586808
 20
44.59230835041455
 30
0.0
  0
VERTEX
  5
4AE
330
3E7
100
AcDbEntity
  8
DEFAULT
100
AcDbVertex
100
AcDb2dVertex
 10
15.01941677683106
 20
44.74867217695782
 30
0.0
  0
VERTEX
  5
4AF
330
3E7
100
AcDbEntity
  8
DEFAULT
100
AcDbVertex
100
AcDb2dVertex
 10
15.020226662245
 20
44.90509367603498
 30
0.0
  0
VERTEX
  5
4B0
330
3E7
100
AcDbEntity
  8
DEFAULT
100
AcDbVertex
100
AcDb2dVertex
 10
15.00422519146684
 20
45.44568870906024
 30
0.0
  0
VERTEX
  5
4B1
330
3E7
100
AcDbEntity
  8
DEFAULT
100
AcDbVertex
100
AcDb2dVertex
 10
14.3534755
 20
56.25468989616998
 30
0.0
  0
VERTEX
  5
4B2
330
3E7
100
AcDbEntity
  8
DEFAULT
100
AcDbVertex
100
AcDb2dVertex
 10
14.30809427126326
 20
56.81589295756841
 30
0.0
  0
VERTEX
  5
4B3
330
3E7
100
AcDbEntity
  8
DEFAULT
100
AcDbVertex
100
AcDb2dVertex
 10
14.24861676764866
 20
57.37562174263918
 30
0.0
  0
VERTEX
  5
4B4
330
3E7
100
AcDbEntity
  8
DEFAULT
100
AcDbVertex
100
AcDb2dVertex
 10
14.1763433079702
 20
57.93389858307591
 30
0.0
  0
VERTEX
  5
4B5
330
3E7
100
AcDbEntity
  8
DEFAULT
100
AcDbVertex
100
AcDb2dVertex
 10
14.09257421104184
 20
58.49074581057216
 30
0.0
  0
VERTEX
  5
4B6
330
3E7
100
AcDbEntity
  8
DEFAULT
100
AcDbVertex
100
AcDb2dVertex
 10
13.99771956815448
 20
59.04592000781055
 30
0.0
  0
VERTEX
  5
4B7
330
3E7
100
AcDbEntity
  8
DEFAULT
100
AcDbVertex
100
AcDb2dVertex
 10
13.8886285605067
 20
59.59811476142971
 30
0.0
  0
VERTEX
  5
4B8
330
3E7
100
AcDbEntity
  8
DEFAULT
100
AcDbVertex
100
AcDb2dVertex
 10
13.82748159292123
 20
59.87260354614072
 30
0.0
  0
VERTEX
  5
4B9
330
3E7
100
AcDbEntity
  8
DEFAULT
100
AcDbVertex
100
AcDb2dVertex
 10
13.76126014177397
 20
60.1457579090573
 30
0.0
  0
VERTEX
  5
4BA
330
3E7
100
AcDbEntity
  8
DEFAULT
100
AcDbVertex
100
AcDb2dVertex
 10
13.68945907627434
 20
60.41738132988289
 30
0.0
  0
VERTEX
  5
4BB
330
3E7
100
AcDbEntity
  8
DEFAULT
100
AcDbVertex
100
AcDb2dVertex
 10
13.61157326563179
 20
60.68727728832095
 30
0.0
  0
VERTEX
  5
4BC
330
3E7
100
AcDbEntity
  8
DEFAULT
100
AcDbVertex
100
AcDb2dVertex
 10
13.52735628756444
 20
60.95533297032252
 30
0.0
  0
VERTEX
  5
4BD
330
3E7
100
AcDbEntity
  8
DEFAULT
100
AcDbVertex
100
AcDb2dVertex
 10
13.43759655382523
 20
61.22177038682895
 30
0.0
  0
VERTEX
  5
4BE
330
3E7
100
AcDbEntity
  8
DEFAULT
100
AcDbVertex
100
AcDb2dVertex
 10
11.300690469905
 20
67.03603999273997
 30
0.0
  0
VERTEX
  5
4BF
330
3E7
100
AcDbEntity
  8
DEFAULT
100
AcDbVertex
100
AcDb2dVertex
 10
11.28846867492294
 20
67.06792412073167
 30
0.0
  0
VERTEX
  5
4C0
330
3E7
100
AcDbEntity
  8
DEFAULT
100
AcDbVertex
100
AcDb2dVertex
 10
11.27550031881875
 20
67.099465525897
 30
0.0
  0
VERTEX
  5
4C1
330
3E7
100
AcDbEntity
  8
DEFAULT
100
AcDbVertex
100
AcDb2dVertex
 10
11.2618121136482
 20
67.1306683347373
 30
0.0
  0
VERTEX
  5
4C2
330
3E7
100
AcDbEntity
  8
DEFAULT
100
AcDbVertex
100
AcDb2dVertex
 10
11.24743077146707
 20
67.16153667375386
 30
0.0
  0
VERTEX
  5
4C3
330
3E7
100
AcDbEntity
  8
DEFAULT
100
AcDbVertex
100
AcDb2dVertex
 10
11.23238300433114
 20
67.19207466944803
 30
0.0
  0
VERTEX
  5
4C4
330
3E7
100
AcDbEntity
  8
DEFAULT
100
AcDbVertex
100
AcDb2dVertex
 10
11.21669552429619
 20
67.22228644832116
 30
0.0
  0
VERTEX
  5
4C5
330
3E7
100
AcDbEntity
  8
DEFAULT
100
AcDbVertex
100
AcDb2dVertex
 10
11.20039504341799
 20
67.25217613687454
 30
0.0
  0
VERTEX
  5
4C6
330
3E7
100
AcDbEntity
  8
DEFAULT
100
AcDbVertex
100
AcDb2dVertex
 10
11.18350827375233
 20
67.28174786160955
 30
0.0
  0
VERTEX
  5
4C7
330
3E7
100
AcDbEntity
  8
DEFAULT
100
AcDbVertex
100
AcDb2dVertex
 10
11.16606192735498
 20
67.31100574902749
 30
0.0
  0
VERTEX
  5
4C8
330
3E7
100
AcDbEntity
  8
DEFAULT
100
AcDbVertex
100
AcDb2dVertex
 10
11.14808271628171
 20
67.33995392562967
 30
0.0
  0
VERTEX
  5
4C9
330
3E7
100
AcDbEntity
  8
DEFAULT
100
AcDbVertex
100
AcDb2dVertex
 10
11.11063254833057
 20
67.39693765239215
 30
0.0
  0
VERTEX
  5
4CA
330
3E7
100
AcDbEntity
  8
DEFAULT
100
AcDbVertex
100
AcDb2dVertex
 10
11.07137146634514
 20
67.45273205390764
 30
0.0
  0
VERTEX
  5
4CB
330
3E7
100
AcDbEntity
  8
DEFAULT
100
AcDbVertex
100
AcDb2dVertex
 10
11.03051316677163
 20
67.50737014218674
 30
0.0
  0
VERTEX
  5
4CC
330
3E7
100
AcDbEntity
  8
DEFAULT
100
AcDbVertex
100
AcDb2dVertex
 10
10.98824712917378
 20
67.5608833378329
 30
0.0
  0
VERTEX
  5
4CD
330
3E7
100
AcDbEntity
  8
DEFAULT
100
AcDbVertex
100
AcDb2dVertex
 10
10.94466596558529
 20
67.61329669582051
 30
0.0
  0
VERTEX
  5
4CE
330
3E7
100
AcDbEntity
  8
DEFAULT
100
AcDbVertex
100
AcDb2dVertex
 10
10.89983807115738
 20
67.66463367971674
 30
0.0
  0
VERTEX
  5
4CF
330
3E7
100
AcDbEntity
  8
DEFAULT
100
AcDbVertex
100
AcDb2dVertex
 10
10.85383184104126
 20
67.7149177530888
 30
0.0
  0
VERTEX
  5
4D0
330
3E7
100
AcDbEntity
  8
DEFAULT
100
AcDbVertex
100
AcDb2dVertex
 10
10.80671567038816
 20
67.76417237950385
 30
0.0
  0
VERTEX
  5
4D1
330
3E7
100
AcDbEntity
  8
DEFAULT
100
AcDbVertex
100
AcDb2dVertex
 10
10.75855795434927
 20
67.8124210225291
 30
0.0
  0
VERTEX
  5
4D2
330
3E7
100
AcDbEntity
  8
DEFAULT
100
AcDbVertex
100
AcDb2dVertex
 10
10.70942708807582
 20
67.8596871457317
 30
0.0
  0
VERTEX
  5
4D3
330
3E7
100
AcDbEntity
  8
DEFAULT
100
AcDbVertex
100
AcDb2dVertex
 10
10.65939146671903
 20
67.90599421267886
 30
0.0
  0
VERTEX
  5
4D4
330
3E7
100
AcDbEntity
  8
DEFAULT
100
AcDbVertex
100
AcDb2dVertex
 10
10.60851315903848
 20
67.95136313957272
 30
0.0
  0
VERTEX
  5
4D5
330
3E7
100
AcDbEntity
  8
DEFAULT
100
AcDbVertex
100
AcDb2dVertex
 10
10.55682892822738
 20
67.99580465315543
 30
0.0
  0
VERTEX
  5
4D6
330
3E7
100
AcDbEntity
  8
DEFAULT
100
AcDbVertex
100
AcDb2dVertex
 10
10.45116444441986
 20
68.0819381578957
 30
0.0
  0
VERTEX
  5
4D7
330
3E7
100
AcDbEntity
  8
DEFAULT
100
AcDbVertex
100
AcDb2dVertex
 10
10.34264150970913
 20
68.16446016191651
 30
0.0
  0
VERTEX
  5
4D8
330
3E7
100
AcDbEntity
  8
DEFAULT
100
AcDbVertex
100
AcDb2dVertex
 10
10.23150361850787
 20
68.24343610023458
 30
0.0
  0
VERTEX
  5
4D9
330
3E7
100
AcDbEntity
  8
DEFAULT
100
AcDbVertex
100
AcDb2dVertex
 10
10.11797802424463
 20
68.31892336978545
 30
0.0
  0
VERTEX
  5
4DA
330
3E7
100
AcDbEntity
  8
DEFAULT
100
AcDbVertex
100
AcDb2dVertex
 10
10.00222701641156
 20
68.39094721517944
 30
0.0
  0
VERTEX
  5
4DB
330
3E7
100
AcDbEntity
  8
DEFAULT
100
AcDbVertex
100
AcDb2dVertex
 10
9.884396643516716
 20
68.45952484294558
 30
0.0
  0
VERTEX
  5
4DC
330
3E7
100
AcDbEntity
  8
DEFAULT
100
AcDbVertex
100
AcDb2dVertex
 10
9.764632954068126
 20
68.52467345961291
 30
0.0
  0
VERTEX
  5
4DD
330
3E7
100
AcDbEntity
  8
DEFAULT
100
AcDbVertex
100
AcDb2dVertex
 10
9.64307601598734
 20
68.58640553152841
 30
0.0
  0
VERTEX
  5
4DE
330
3E7
100
AcDbEntity
  8
DEFAULT
100
AcDbVertex
100
AcDb2dVertex
 10
9.519841527566365
 20
68.64471478879206
 30
0.0
  0
VERTEX
  5
4DF
330
3E7
100
AcDbEntity
  8
DEFAULT
100
AcDbVertex
100
AcDb2dVertex
 10
9.395039204324238
 20
68.6995902171479
 30
0.0
  0
VERTEX
  5
4E0
330
3E7
100
AcDbEntity
  8
DEFAULT
100
AcDbVertex
100
AcDb2dVertex
 10
9.268778761779998
 20
68.75102080233998
 30
0.0
  0
VERTEX
  5
4E1
330
3E7
100
AcDbEntity
  8
DEFAULT
100
AcDbVertex
100
AcDb2dVertex
 10
8.827019039560874
 20
68.91751207368215
 30
0.0
  0
VERTEX
  5
4E2
330
3E7
100
AcDbEntity
  8
DEFAULT
100
AcDbVertex
100
AcDb2dVertex
 10
8.381153379577022
 20
69.07269352549761
 30
0.0
  0
VERTEX
  5
4E3
330
3E7
100
AcDbEntity
  8
DEFAULT
100
AcDbVertex
100
AcDb2dVertex
 10
7.931500965139951
 20
69.21653360628005
 30
0.0
  0
VERTEX
  5
4E4
330
3E7
100
AcDbEntity
  8
DEFAULT
100
AcDbVertex
100
AcDb2dVertex
 10
7.478380979561167
 20
69.34900076452314
 30
0.0
  0
VERTEX
  5
4E5
330
3E7
100
AcDbEntity
  8
DEFAULT
100
AcDbVertex
100
AcDb2dVertex
 10
7.02211835985963
 20
69.4701363099706
 30
0.0
  0
VERTEX
  5
4E6
330
3E7
100
AcDbEntity
  8
DEFAULT
100
AcDbVertex
100
AcDb2dVertex
 10
6.563061530522862
 20
69.58027287407961
 30
0.0
  0
VERTEX
  5
4E7
330
3E7
100
AcDbEntity
  8
DEFAULT
100
AcDbVertex
100
AcDb2dVertex
 10
6.101564670831581
 20
69.6798159534903
 30
0.0
  0
VERTEX
  5
4E8
330
3E7
100
AcDbEntity
  8
DEFAULT
100
AcDbVertex
100
AcDb2dVertex
 10
5.637981960066502
 20
69.76917104484275
 30
0.0
  0
VERTEX
  5
4E9
330
3E7
100
AcDbEntity
  8
DEFAULT
100
AcDbVertex
100
AcDb2dVertex
 10
5.172648103592604
 20
69.84875909837425
 30
0.0
  0
VERTEX
  5
4EA
330
3E7
100
AcDbEntity
  8
DEFAULT
100
AcDbVertex
100
AcDb2dVertex
 10
4.705819911111911
 20
69.91906287871062
 30
0.0
  0
VERTEX
  5
4EB
330
3E7
100
AcDbEntity
  8
DEFAULT
100
AcDbVertex
100
AcDb2dVertex
 10
4.237734718410713
 20
69.98058060407494
 30
0.0
  0
VERTEX
  5
4EC
330
3E7
100
AcDbEntity
  8
DEFAULT
100
AcDbVertex
100
AcDb2dVertex
 10
3.768629861275295
 20
70.03381049269028
 30
0.0
  0
VERTEX
  5
4ED
330
3E7
100
AcDbEntity
  8
DEFAULT
100
AcDbVertex
100
AcDb2dVertex
 10
2.828168355560321
 20
70.11731357111822
 30
0.0
  0
VERTEX
  5
4EE
330
3E7
100
AcDbEntity
  8
DEFAULT
100
AcDbVertex
100
AcDb2dVertex
 10
1.885623373824151
 20
70.17312755253971
 30
0.0
  0
VERTEX
  5
4EF
330
3E7
100
AcDbEntity
  8
DEFAULT
100
AcDbVertex
100
AcDb2dVertex
 10
0.9419593153622738
 20
70.20456447565181
 30
0.0
  0
VERTEX
  5
4F0
330
3E7
100
AcDbEntity
  8
DEFAULT
100
AcDbVertex
100
AcDb2dVertex
 10
-0.0021851776300004
 20
70.21430702554997
 30
0.0
  0
SEQEND
  5
4F1
330
3E7
100
AcDbEntity
  8
DEFAULT
  0
POLYLINE
  5
4F2
330
1F
100
AcDbEntity
  8
DEFAULT
100
AcDb2dPolyline
 66
     1
 10
0.0
 20
0.0
 30
0.0
  0
VERTEX
  5
4F3
330
4F2
100
AcDbEntity
  8
DEFAULT
100
AcDbVertex
100
AcDb2dVertex
 10
0.0017982346400025
 20
68.70297087139997
 30
0.0
  0
VERTEX
  5
4F4
330
4F2
100
AcDbEntity
  8
DEFAULT
100
AcDbVertex
100
AcDb2dVertex
 10
-0.8625418406241898
 20
68.69648060231836
 30
0.0
  0
VERTEX
  5
4F5
330
4F2
100
AcDbEntity
  8
DEFAULT
100
AcDbVertex
100
AcDb2dVertex
 10
-1.726605705773169
 20
68.67402946595459
 30
0.0
  0
VERTEX
  5
4F6
330
4F2
100
AcDbEntity
  8
DEFAULT
100
AcDbVertex
100
AcDb2dVertex
 10
-2.589942672810322
 20
68.63197161153039
 30
0.0
  0
VERTEX
  5
4F7
330
4F2
100
AcDbEntity
  8
DEFAULT
100
AcDbVertex
100
AcDb2dVertex
 10
-3.451779800618533
 20
68.56646302609786
 30
0.0
  0
VERTEX
  5
4F8
330
4F2
100
AcDbEntity
  8
DEFAULT
100
AcDbVertex
100
AcDb2dVertex
 10
-4.311128980538812
 20
68.47360718503066
 30
0.0
  0
VERTEX
  5
4F9
330
4F2
100
AcDbEntity
  8
DEFAULT
100
AcDbVertex
100
AcDb2dVertex
 10
-4.739401963524225
 20
68.4157028514644
 30
0.0
  0
VERTEX
  5
4FA
330
4F2
100
AcDbEntity
  8
DEFAULT
100
AcDbVertex
100
AcDb2dVertex
 10
-5.166463686865207
 20
68.34949567915868
 30
0.0
  0
VERTEX
  5
4FB
330
4F2
100
AcDbEntity
  8
DEFAULT
100
AcDbVertex
100
AcDb2dVertex
 10
-5.592096998493987
 20
68.27454053159128
 30
0.0
  0
VERTEX
  5
4FC
330
4F2
100
AcDbEntity
  8
DEFAULT
100
AcDbVertex
100
AcDb2dVertex
 10
-6.016046703055582
 20
68.19056741630408
 30
0.0
  0
VERTEX
  5
4FD
330
4F2
100
AcDbEntity
  8
DEFAULT
100
AcDbVertex
100
AcDb2dVertex
 10
-6.438048094373199
 20
68.09735012685498
 30
0.0
  0
VERTEX
  5
4FE
330
4F2
100
AcDbEntity
  8
DEFAULT
100
AcDbVertex
100
AcDb2dVertex
 10
-6.85783646627005
 20
67.9946624568019
 30
0.0
  0
VERTEX
  5
4FF
330
4F2
100
AcDbEntity
  8
DEFAULT
100
AcDbVertex
100
AcDb2dVertex
 10
-7.275157703608839
 20
67.88233993767943
 30
0.0
  0
VERTEX
  5
500
330
4F2
100
AcDbEntity
  8
DEFAULT
100
AcDbVertex
100
AcDb2dVertex
 10
-7.689800055410269
 20
67.76046505292886
 30
0.0
  0
VERTEX
  5
501
330
4F2
100
AcDbEntity
  8
DEFAULT
100
AcDbVertex
100
AcDb2dVertex
 10
-8.10156236173454
 20
67.62918202396814
 30
0.0
  0
VERTEX
  5
502
330
4F2
100
AcDbEntity
  8
DEFAULT
100
AcDbVertex
100
AcDb2dVertex
 10
-8.510243462641853
 20
67.4886350722152
 30
0.0
  0
VERTEX
  5
503
330
4F2
100
AcDbEntity
  8
DEFAULT
100
AcDbVertex
100
AcDb2dVertex
 10
-8.99377214142134
 20
67.30870744173323
 30
0.0
  0
VERTEX
  5
504
330
4F2
100
AcDbEntity
  8
DEFAULT
100
AcDbVertex
100
AcDb2dVertex
 10
-9.153107389342985
 20
67.24406292039745
 30
0.0
  0
VERTEX
  5
505
330
4F2
100
AcDbEntity
  8
DEFAULT
100
AcDbVertex
100
AcDb2dVertex
 10
-9.310768791680957
 20
67.17541379290004
 30
0.0
  0
VERTEX
  5
506
330
4F2
100
AcDbEntity
  8
DEFAULT
100
AcDbVertex
100
AcDb2dVertex
 10
-9.466516142647993
 20
67.10250852237648
 30
0.0
  0
VERTEX
  5
507
330
4F2
100
AcDbEntity
  8
DEFAULT
100
AcDbVertex
100
AcDb2dVertex
 10
-9.620157374652617
 20
67.02526617048036
 30
0.0
  0
VERTEX
  5
508
330
4F2
100
AcDbEntity
  8
DEFAULT
100
AcDbVertex
100
AcDb2dVertex
 10
-9.771500420103362
 20
66.94360579886529
 30
0.0
  0
VERTEX
  5
509
330
4F2
100
AcDbEntity
  8
DEFAULT
100
AcDbVertex
100
AcDb2dVertex
 10
-9.920325853252038
 20
66.85742469257053
 30
0.0
  0
VERTEX
  5
50A
330
4F2
100
AcDbEntity
  8
DEFAULT
100
AcDbVertex
100
AcDb2dVertex
 10
-10.06630481572362
 20
66.76653303017795
 30
0.0
  0
VERTEX
  5
50B
330
4F2
100
AcDbEntity
  8
DEFAULT
100
AcDbVertex
100
AcDb2dVertex
 10
-10.13811555278934
 20
66.7192546160598
 30
0.0
  0
VERTEX
  5
50C
330
4F2
100
AcDbEntity
  8
DEFAULT
100
AcDbVertex
100
AcDb2dVertex
 10
-10.20908109098637
 20
66.67071921365503
 30
0.0
  0
VERTEX
  5
50D
330
4F2
100
AcDbEntity
  8
DEFAULT
100
AcDbVertex
100
AcDb2dVertex
 10
-10.27915690324827
 20
66.62090037320955
 30
0.0
  0
VERTEX
  5
50E
330
4F2
100
AcDbEntity
  8
DEFAULT
100
AcDbVertex
100
AcDb2dVertex
 10
-10.34829846250856
 20
66.56977164496928
 30
0.0
  0
VERTEX
  5
50F
330
4F2
100
AcDbEntity
  8
DEFAULT
100
AcDbVertex
100
AcDb2dVertex
 10
-10.41644897013592
 20
66.51730087982264
 30
0.0
  0
VERTEX
  5
510
330
4F2
100
AcDbEntity
  8
DEFAULT
100
AcDbVertex
100
AcDb2dVertex
 10
-10.48350254123958
 20
66.46343313122793
 30
0.0
  0
VERTEX
  5
511
330
4F2
100
AcDbEntity
  8
DEFAULT
100
AcDbVertex
100
AcDb2dVertex
 10
-10.54934101936394
 20
66.40810775328592
 30
0.0
  0
VERTEX
  5
512
330
4F2
100
AcDbEntity
  8
DEFAULT
100
AcDbVertex
100
AcDb2dVertex
 10
-10.61384624805337
 20
66.35126410009735
 30
0.0
  0
VERTEX
  5
513
330
4F2
100
AcDbEntity
  8
DEFAULT
100
AcDbVertex
100
AcDb2dVertex
 10
-10.67690007085225
 20
66.292841525763
 30
0.0
  0
VERTEX
  5
514
330
4F2
100
AcDbEntity
  8
DEFAULT
100
AcDbVertex
100
AcDb2dVertex
 10
-10.73838433130498
 20
66.23277938438363
 30
0.0
  0
VERTEX
  5
515
330
4F2
100
AcDbEntity
  8
DEFAULT
100
AcDbVertex
100
AcDb2dVertex
 10
-10.79818087295594
 20
66.17101703006001
 30
0.0
  0
VERTEX
  5
516
330
4F2
100
AcDbEntity
  8
DEFAULT
100
AcDbVertex
100
AcDb2dVertex
 10
-10.85617153934949
 20
66.10749381689291
 30
0.0
  0
VERTEX
  5
517
330
4F2
100
AcDbEntity
  8
DEFAULT
100
AcDbVertex
100
AcDb2dVertex
 10
-10.91220261331356
 20
66.04215121981613
 30
0.0
  0
VERTEX
  5
518
330
4F2
100
AcDbEntity
  8
DEFAULT
100
AcDbVertex
100
AcDb2dVertex
 10
-10.93939303816744
 20
66.00878188171771
 30
0.0
  0
VERTEX
  5
519
330
4F2
100
AcDbEntity
  8
DEFAULT
100
AcDbVertex
100
AcDb2dVertex
 10
-10.96597813481012
 20
65.97493919709578
 30
0.0
  0
VERTEX
  5
51A
330
4F2
100
AcDbEntity
  8
DEFAULT
100
AcDbVertex
100
AcDb2dVertex
 10
-10.99191646314731
 20
65.94061717583773
 30
0.0
  0
VERTEX
  5
51B
330
4F2
100
AcDbEntity
  8
DEFAULT
100
AcDbVertex
100
AcDb2dVertex
 10
-11.01716658308468
 20
65.90580982783095
 30
0.0
  0
VERTEX
  5
51C
330
4F2
100
AcDbEntity
  8
DEFAULT
100
AcDbVertex
100
AcDb2dVertex
 10
-11.04168705452793
 20
65.87051116296286
 30
0.0
  0
VERTEX
  5
51D
330
4F2
100
AcDbEntity
  8
DEFAULT
100
AcDbVertex
100
AcDb2dVertex
 10
-11.06543643738274
 20
65.83471519112084
 30
0.0
  0
VERTEX
  5
51E
330
4F2
100
AcDbEntity
  8
DEFAULT
100
AcDbVertex
100
AcDb2dVertex
 10
-11.0883732915548
 20
65.79841592219226
 30
0.0
  0
VERTEX
  5
51F
330
4F2
100
AcDbEntity
  8
DEFAULT
100
AcDbVertex
100
AcDb2dVertex
 10
-11.1104561769498
 20
65.76160736606454
 30
0.0
  0
VERTEX
  5
520
330
4F2
100
AcDbEntity
  8
DEFAULT
100
AcDbVertex
100
AcDb2dVertex
 10
-11.13164365347342
 20
65.72428353262505
 30
0.0
  0
VERTEX
  5
521
330
4F2
100
AcDbEntity
  8
DEFAULT
100
AcDbVertex
100
AcDb2dVertex
 10
-11.15189428103136
 20
65.6864384317612
 30
0.0
  0
VERTEX
  5
522
330
4F2
100
AcDbEntity
  8
DEFAULT
100
AcDbVertex
100
AcDb2dVertex
 10
-11.17116661952929
 20
65.64806607336038
 30
0.0
  0
VERTEX
  5
523
330
4F2
100
AcDbEntity
  8
DEFAULT
100
AcDbVertex
100
AcDb2dVertex
 10
-11.18941922887292
 20
65.60916046730998
 30
0.0
  0
VERTEX
  5
524
330
4F2
100
AcDbEntity
  8
DEFAULT
100
AcDbVertex
100
AcDb2dVertex
 10
-11.20661066896793
 20
65.56971562349739
 30
0.0
  0
VERTEX
  5
525
330
4F2
100
AcDbEntity
  8
DEFAULT
100
AcDbVertex
100
AcDb2dVertex
 10
-12.72316199008982
 20
61.60296801749961
 30
0.0
  0
VERTEX
  5
526
330
4F2
100
AcDbEntity
  8
DEFAULT
100
AcDbVertex
100
AcDb2dVertex
 10
-13.47338289428599
 20
59.63958585895822
 30
0.0
  0
VERTEX
  5
527
330
4F2
100
AcDbEntity
  8
DEFAULT
100
AcDbVertex
100
AcDb2dVertex
 10
-13.64913996920487
 20
59.14395645652799
 30
0.0
  0
VERTEX
  5
528
330
4F2
100
AcDbEntity
  8
DEFAULT
100
AcDbVertex
100
AcDb2dVertex
 10
-13.81232842838686
 20
58.64448991690861
 30
0.0
  0
VERTEX
  5
529
330
4F2
100
AcDbEntity
  8
DEFAULT
100
AcDbVertex
100
AcDb2dVertex
 10
-13.88732225432598
 20
58.39299013492178
 30
0.0
  0
VERTEX
  5
52A
330
4F2
100
AcDbEntity
  8
DEFAULT
100
AcDbVertex
100
AcDb2dVertex
 10
-13.9569093190302
 20
58.14013796576022
 30
0.0
  0
VERTEX
  5
52B
330
4F2
100
AcDbEntity
  8
DEFAULT
100
AcDbVertex
100
AcDb2dVertex
 10
-14.02033475339933
 20
57.88580237513143
 30
0.0
  0
VERTEX
  5
52C
330
4F2
100
AcDbEntity
  8
DEFAULT
100
AcDbVertex
100
AcDb2dVertex
 10
-14.07684368833313
 20
57.62985232874295
 30
0.0
  0
VERTEX
  5
52D
330
4F2
100
AcDbEntity
  8
DEFAULT
100
AcDbVertex
100
AcDb2dVertex
 10
-14.12597356401924
 20
57.37222915743261
 30
0.0
  0
VERTEX
  5
52E
330
4F2
100
AcDbEntity
  8
DEFAULT
100
AcDbVertex
100
AcDb2dVertex
 10
-14.16843105779676
 20
57.11316365255963
 30
0.0
  0
VERTEX
  5
52F
330
4F2
100
AcDbEntity
  8
DEFAULT
100
AcDbVertex
100
AcDb2dVertex
 10
-14.20521515629261
 20
56.85295897061354
 30
0.0
  0
VERTEX
  5
530
330
4F2
100
AcDbEntity
  8
DEFAULT
100
AcDbVertex
100
AcDb2dVertex
 10
-14.23732484613375
 20
56.59191826808385
 30
0.0
  0
VERTEX
  5
531
330
4F2
100
AcDbEntity
  8
DEFAULT
100
AcDbVertex
100
AcDb2dVertex
 10
-14.33899925149
 20
55.54545838191997
 30
0.0
  0
VERTEX
  5
532
330
4F2
100
AcDbEntity
  8
DEFAULT
100
AcDbVertex
100
AcDb2dVertex
 10
-14.948528650285
 20
45.62058157086498
 30
0.0
  0
VERTEX
  5
533
330
4F2
100
AcDbEntity
  8
DEFAULT
100
AcDbVertex
100
AcDb2dVertex
 10
-14.95799574729435
 20
45.43804128609888
 30
0.0
  0
VERTEX
  5
534
330
4F2
100
AcDbEntity
  8
DEFAULT
100
AcDbVertex
100
AcDb2dVertex
 10
-14.96406009844691
 20
45.25530356494815
 30
0.0
  0
VERTEX
  5
535
330
4F2
100
AcDbEntity
  8
DEFAULT
100
AcDbVertex
100
AcDb2dVertex
 10
-14.9661742386148
 20
45.07250201930729
 30
0.0
  0
VERTEX
  5
536
330
4F2
100
AcDbEntity
  8
DEFAULT
100
AcDbVertex
100
AcDb2dVertex
 10
-14.96379070267015
 20
44.88977026107081
 30
0.0
  0
VERTEX
  5
537
330
4F2
100
AcDbEntity
  8
DEFAULT
100
AcDbVertex
100
AcDb2dVertex
 10
-14.95622832780449
 20
44.707257171248
 30
0.0
  0
VERTEX
  5
538
330
4F2
100
AcDbEntity
  8
DEFAULT
100
AcDbVertex
100
AcDb2dVertex
 10
-14.95013344715228
 20
44.61614730182346
 30
0.0
  0
VERTEX
  5
539
330
4F2
100
AcDbEntity
  8
DEFAULT
100
AcDbVertex
100
AcDb2dVertex
 10
-14.94227116298776
 20
44.52517276311923
 30
0.0
  0
VERTEX
  5
53A
330
4F2
100
AcDbEntity
  8
DEFAULT
100
AcDbVertex
100
AcDb2dVertex
 10
-14.93247276928638
 20
44.43436171543212
 30
0.0
  0
VERTEX
  5
53B
330
4F2
100
AcDbEntity
  8
DEFAULT
100
AcDbVertex
100
AcDb2dVertex
 10
-14.92056956002358
 20
44.34374231905893
 30
0.0
  0
VERTEX
  5
53C
330
4F2
100
AcDbEntity
  8
DEFAULT
100
AcDbVertex
100
AcDb2dVertex
 10
-14.90639282917482
 20
44.25334273429646
 30
0.0
  0
VERTEX
  5
53D
330
4F2
100
AcDbEntity
  8
DEFAULT
100
AcDbVertex
100
AcDb2dVertex
 10
-14.88977387071555
 20
44.16319112144151
 30
0.0
  0
VERTEX
  5
53E
330
4F2
100
AcDbEntity
  8
DEFAULT
100
AcDbVertex
100
AcDb2dVertex
 10
-14.87052447210084
 20
44.07336680298695
 30
0.0
  0
VERTEX
  5
53F
330
4F2
100
AcDbEntity
  8
DEFAULT
100
AcDbVertex
100
AcDb2dVertex
 10
-14.84837839470429
 20
43.98415375020986
 30
0.0
  0
VERTEX
  5
540
330
4F2
100
AcDbEntity
  8
DEFAULT
100
AcDbVertex
100
AcDb2dVertex
 10
-14.83612980610447
 20
43.93988117766071
 30
0.0
  0
VERTEX
  5
541
330
4F2
100
AcDbEntity
  8
DEFAULT
100
AcDbVertex
100
AcDb2dVertex
 10
-14.82304989337914
 20
43.89588709658335
 30
0.0
  0
VERTEX
  5
542
330
4F2
100
AcDbEntity
  8
DEFAULT
100
AcDbVertex
100
AcDb2dVertex
 10
-14.80910293838496
 20
43.85221339866192
 30
0.0
  0
VERTEX
  5
543
330
4F2
100
AcDbEntity
  8
DEFAULT
100
AcDbVertex
100
AcDb2dVertex
 10
-14.79425322297858
 20
43.80890197558057
 30
0.0
  0
VERTEX
  5
544
330
4F2
100
AcDbEntity
  8
DEFAULT
100
AcDbVertex
100
AcDb2dVertex
 10
-14.77846502901667
 20
43.76599471902342
 30
0.0
  0
VERTEX
  5
545
330
4F2
100
AcDbEntity
  8
DEFAULT
100
AcDbVertex
100
AcDb2dVertex
 10
-14.76170263835586
 20
43.72353352067464
 30
0.0
  0
VERTEX
  5
546
330
4F2
100
AcDbEntity
  8
DEFAULT
100
AcDbVertex
100
AcDb2dVertex
 10
-14.74393033285282
 20
43.68156027221835
 30
0.0
  0
VERTEX
  5
547
330
4F2
100
AcDbEntity
  8
DEFAULT
100
AcDbVertex
100
AcDb2dVertex
 10
-14.7251123943642
 20
43.6401168653387
 30
0.0
  0
VERTEX
  5
548
330
4F2
100
AcDbEntity
  8
DEFAULT
100
AcDbVertex
100
AcDb2dVertex
 10
-14.70521310474664
 20
43.59924519171983
 30
0.0
  0
VERTEX
  5
549
330
4F2
100
AcDbEntity
  8
DEFAULT
100
AcDbVertex
100
AcDb2dVertex
 10
-14.68419674585681
 20
43.55898714304589
 30
0.0
  0
VERTEX
  5
54A
330
4F2
100
AcDbEntity
  8
DEFAULT
100
AcDbVertex
100
AcDb2dVertex
 10
-14.66202759955135
 20
43.51938461100101
 30
0.0
  0
VERTEX
  5
54B
330
4F2
100
AcDbEntity
  8
DEFAULT
100
AcDbVertex
100
AcDb2dVertex
 10
-14.63866994768692
 20
43.48047948726933
 30
0.0
  0
VERTEX
  5
54C
330
4F2
100
AcDbEntity
  8
DEFAULT
100
AcDbVertex
100
AcDb2dVertex
 10
-14.61410086787093
 20
43.44230895453552
 30
0.0
  0
VERTEX
  5
54D
330
4F2
100
AcDbEntity
  8
DEFAULT
100
AcDbVertex
100
AcDb2dVertex
 10
-14.58834862071383
 20
43.40489135948633
 30
0.0
  0
VERTEX
  5
54E
330
4F2
100
AcDbEntity
  8
DEFAULT
100
AcDbVertex
100
AcDb2dVertex
 10
-14.56145426257681
 20
43.36824033980903
 30
0.0
  0
VERTEX
  5
54F
330
4F2
100
AcDbEntity
  8
DEFAULT
100
AcDbVertex
100
AcDb2dVertex
 10
-14.53345884982109
 20
43.3323695331909
 30
0.0
  0
VERTEX
  5
550
330
4F2
100
AcDbEntity
  8
DEFAULT
100
AcDbVertex
100
AcDb2dVertex
 10
-14.50440343880787
 20
43.2972925773192
 30
0.0
  0
VERTEX
  5
551
330
4F2
100
AcDbEntity
  8
DEFAULT
100
AcDbVertex
100
AcDb2dVertex
 10
-14.47432908589835
 20
43.26302310988121
 30
0.0
  0
VERTEX
  5
552
330
4F2
100
AcDbEntity
  8
DEFAULT
100
AcDbVertex
100
AcDb2dVertex
 10
-14.44327684745373
 20
43.22957476856421
 30
0.0
  0
VERTEX
  5
553
330
4F2
100
AcDbEntity
  8
DEFAULT
100
AcDbVertex
100
AcDb2dVertex
 10
-14.41128777983522
 20
43.19696119105546
 30
0.0
  0
VERTEX
  5
554
330
4F2
100
AcDbEntity
  8
DEFAULT
100
AcDbVertex
100
AcDb2dVertex
 10
-14.37840293940403
 20
43.16519601504224
 30
0.0
  0
VERTEX
  5
555
330
4F2
100
AcDbEntity
  8
DEFAULT
100
AcDbVertex
100
AcDb2dVertex
 10
-14.34466338252135
 20
43.13429287821182
 30
0.0
  0
VERTEX
  5
556
330
4F2
100
AcDbEntity
  8
DEFAULT
100
AcDbVertex
100
AcDb2dVertex
 10
-14.31011016554839
 20
43.10426541825148
 30
0.0
  0
VERTEX
  5
557
330
4F2
100
AcDbEntity
  8
DEFAULT
100
AcDbVertex
100
AcDb2dVertex
 10
-14.27478434484636
 20
43.07512727284848
 30
0.0
  0
VERTEX
  5
558
330
4F2
100
AcDbEntity
  8
DEFAULT
100
AcDbVertex
100
AcDb2dVertex
 10
-14.23872697677646
 20
43.04689207969011
 30
0.0
  0
VERTEX
  5
559
330
4F2
100
AcDbEntity
  8
DEFAULT
100
AcDbVertex
100
AcDb2dVertex
 10
-14.20197911769989
 20
43.01957347646363
 30
0.0
  0
VERTEX
  5
55A
330
4F2
100
AcDbEntity
  8
DEFAULT
100
AcDbVertex
100
AcDb2dVertex
 10
-14.16458182397787
 20
42.99318510085631
 30
0.0
  0
VERTEX
  5
55B
330
4F2
100
AcDbEntity
  8
DEFAULT
100
AcDbVertex
100
AcDb2dVertex
 10
-14.12657615197158
 20
42.96774059055542
 30
0.0
  0
VERTEX
  5
55C
330
4F2
100
AcDbEntity
  8
DEFAULT
100
AcDbVertex
100
AcDb2dVertex
 10
-14.08800268961943
 20
42.94324256721328
 30
0.0
  0
VERTEX
  5
55D
330
4F2
100
AcDbEntity
  8
DEFAULT
100
AcDbVertex
100
AcDb2dVertex
 10
-14.04889987644117
 20
42.91964941551382
 30
0.0
  0
VERTEX
  5
55E
330
4F2
100
AcDbEntity
  8
DEFAULT
100
AcDbVertex
100
AcDb2dVertex
 10
-14.00930568219041
 20
42.89690850637329
 30
0.0
  0
VERTEX
  5
55F
330
4F2
100
AcDbEntity
  8
DEFAULT
100
AcDbVertex
100
AcDb2dVertex
 10
-13.96925807662076
 20
42.87496721070791
 30
0.0
  0
VERTEX
  5
560
330
4F2
100
AcDbEntity
  8
DEFAULT
100
AcDbVertex
100
AcDb2dVertex
 10
-13.88795451053924
 20
42.83327294346747
 30
0.0
  0
VERTEX
  5
561
330
4F2
100
AcDbEntity
  8
DEFAULT
100
AcDbVertex
100
AcDb2dVertex
 10
-13.80529293622546
 20
42.79414558112229
 30
0.0
  0
VERTEX
  5
562
330
4F2
100
AcDbEntity
  8
DEFAULT
100
AcDbVertex
100
AcDb2dVertex
 10
-13.72157711170828
 20
42.75716409100215
 30
0.0
  0
VERTEX
  5
563
330
4F2
100
AcDbEntity
  8
DEFAULT
100
AcDbVertex
100
AcDb2dVertex
 10
-13.63711079501657
 20
42.72190744043687
 30
0.0
  0
VERTEX
  5
564
330
4F2
100
AcDbEntity
  8
DEFAULT
100
AcDbVertex
100
AcDb2dVertex
 10
-10.25891737335153
 20
41.44162155270174
 30
0.0
  0
VERTEX
  5
565
330
4F2
100
AcDbEntity
  8
DEFAULT
100
AcDbVertex
100
AcDb2dVertex
 10
-9.624420082794888
 20
41.20204375065607
 30
0.0
  0
VERTEX
  5
566
330
4F2
100
AcDbEntity
  8
DEFAULT
100
AcDbVertex
100
AcDb2dVertex
 10
-9.464189962174862
 20
41.14637860790913
 30
0.0
  0
VERTEX
  5
567
330
4F2
100
AcDbEntity
  8
DEFAULT
100
AcDbVertex
100
AcDb2dVertex
 10
-9.302825814140093
 20
41.09425374550946
 30
0.0
  0
VERTEX
  5
568
330
4F2
100
AcDbEntity
  8
DEFAULT
100
AcDbVertex
100
AcDb2dVertex
 10
-9.1401597713167
 20
41.04672849913901
 30
0.0
  0
VERTEX
  5
569
330
4F2
100
AcDbEntity
  8
DEFAULT
100
AcDbVertex
100
AcDb2dVertex
 10
-9.058286080804935
 20
41.02502177436537
 30
0.0
  0
VERTEX
  5
56A
330
4F2
100
AcDbEntity
  8
DEFAULT
100
AcDbVertex
100
AcDb2dVertex
 10
-8.97602396633081
 20
41.00486220447976
 30
0.0
  0
VERTEX
  5
56B
330
4F2
100
AcDbEntity
  8
DEFAULT
100
AcDbVertex
100
AcDb2dVertex
 10
-8.89336275837042
 20
40.98634913331247
 30
0.0
  0
VERTEX
  5
56C
330
4F2
100
AcDbEntity
  8
DEFAULT
100
AcDbVertex
100
AcDb2dVertex
 10
-8.810333042991175
 20
40.96944961217392
 30
0.0
  0
VERTEX
  5
56D
330
4F2
100
AcDbEntity
  8
DEFAULT
100
AcDbVertex
100
AcDb2dVertex
 10
-8.726975720158315
 20
40.95409761924454
 30
0.0
  0
VERTEX
  5
56E
330
4F2
100
AcDbEntity
  8
DEFAULT
100
AcDbVertex
100
AcDb2dVertex
 10
-8.64333168983708
 20
40.94022713270478
 30
0.0
  0
VERTEX
  5
56F
330
4F2
100
AcDbEntity
  8
DEFAULT
100
AcDbVertex
100
AcDb2dVertex
 10
-8.475347106590448
 20
40.91666659151588
 30
0.0
  0
VERTEX
  5
570
330
4F2
100
AcDbEntity
  8
DEFAULT
100
AcDbVertex
100
AcDb2dVertex
 10
-8.306706492973198
 20
40.89823981405078
 30
0.0
  0
VERTEX
  5
571
330
4F2
100
AcDbEntity
  8
DEFAULT
100
AcDbVertex
100
AcDb2dVertex
 10
-8.137695188810588
 20
40.88444261958507
 30
0.0
  0
VERTEX
  5
572
330
4F2
100
AcDbEntity
  8
DEFAULT
100
AcDbVertex
100
AcDb2dVertex
 10
-7.968431094341222
 20
40.87486680272251
 30
0.0
  0
VERTEX
  5
573
330
4F2
100
AcDbEntity
  8
DEFAULT
100
AcDbVertex
100
AcDb2dVertex
 10
-7.798990249907044
 20
40.86912815189887
 30
0.0
  0
VERTEX
  5
574
330
4F2
100
AcDbEntity
  8
DEFAULT
100
AcDbVertex
100
AcDb2dVertex
 10
7.629448695849998
 20
40.86684245554997
 30
0.0
  0
VERTEX
  5
575
330
4F2
100
AcDbEntity
  8
DEFAULT
100
AcDbVertex
100
AcDb2dVertex
 10
7.798990249907044
 20
40.86912815189887
 30
0.0
  0
VERTEX
  5
576
330
4F2
100
AcDbEntity
  8
DEFAULT
100
AcDbVertex
100
AcDb2dVertex
 10
7.968431094341222
 20
40.87486680272251
 30
0.0
  0
VERTEX
  5
577
330
4F2
100
AcDbEntity
  8
DEFAULT
100
AcDbVertex
100
AcDb2dVertex
 10
8.137695188810588
 20
40.88444261958507
 30
0.0
  0
VERTEX
  5
578
330
4F2
100
AcDbEntity
  8
DEFAULT
100
AcDbVertex
100
AcDb2dVertex
 10
8.306706492973198
 20
40.89823981405078
 30
0.0
  0
VERTEX
  5
579
330
4F2
100
AcDbEntity
  8
DEFAULT
100
AcDbVertex
100
AcDb2dVertex
 10
8.475347106590448
 20
40.91666659151588
 30
0.0
  0
VERTEX
  5
57A
330
4F2
100
AcDbEntity
  8
DEFAULT
100
AcDbVertex
100
AcDb2dVertex
 10
8.64333168983708
 20
40.94022713270478
 30
0.0
  0
VERTEX
  5
57B
330
4F2
100
AcDbEntity
  8
DEFAULT
100
AcDbVertex
100
AcDb2dVertex
 10
8.726975720158315
 20
40.95409761924454
 30
0.0
  0
VERTEX
  5
57C
330
4F2
100
AcDbEntity
  8
DEFAULT
100
AcDbVertex
100
AcDb2dVertex
 10
8.810333042991175
 20
40.96944961217392
 30
0.0
  0
VERTEX
  5
57D
330
4F2
100
AcDbEntity
  8
DEFAULT
100
AcDbVertex
100
AcDb2dVertex
 10
8.89336275837042
 20
40.98634913331247
 30
0.0
  0
VERTEX
  5
57E
330
4F2
100
AcDbEntity
  8
DEFAULT
100
AcDbVertex
100
AcDb2dVertex
 10
8.97602396633081
 20
41.00486220447976
 30
0.0
  0
VERTEX
  5
57F
330
4F2
100
AcDbEntity
  8
DEFAULT
100
AcDbVertex
100
AcDb2dVertex
 10
9.058286080804937
 20
41.02502177436537
 30
0.0
  0
VERTEX
  5
580
330
4F2
100
AcDbEntity
  8
DEFAULT
100
AcDbVertex
100
AcDb2dVertex
 10
9.140159771316702
 20
41.04672849913901
 30
0.0
  0
VERTEX
  5
581
330
4F2
100
AcDbEntity
  8
DEFAULT
100
AcDbVertex
100
AcDb2dVertex
 10
9.302825814140093
 20
41.09425374550946
 30
0.0
  0
VERTEX
  5
582
330
4F2
100
AcDbEntity
  8
DEFAULT
100
AcDbVertex
100
AcDb2dVertex
 10
9.464189962174864
 20
41.14637860790913
 30
0.0
  0
VERTEX
  5
583
330
4F2
100
AcDbEntity
  8
DEFAULT
100
AcDbVertex
100
AcDb2dVertex
 10
9.624420082794888
 20
41.20204375065607
 30
0.0
  0
VERTEX
  5
584
330
4F2
100
AcDbEntity
  8
DEFAULT
100
AcDbVertex
100
AcDb2dVertex
 10
13.467141717225
 20
42.65488452728998
 30
0.0
  0
VERTEX
  5
585
330
4F2
100
AcDbEntity
  8
DEFAULT
100
AcDbVertex
100
AcDb2dVertex
 10
13.63711079501657
 20
42.72190744043687
 30
0.0
  0
VERTEX
  5
586
330
4F2
100
AcDbEntity
  8
DEFAULT
100
AcDbVertex
100
AcDb2dVertex
 10
13.72157711170828
 20
42.75716409100215
 30
0.0
  0
VERTEX
  5
587
330
4F2
100
AcDbEntity
  8
DEFAULT
100
AcDbVertex
100
AcDb2dVertex
 10
13.80529293622546
 20
42.79414558112229
 30
0.0
  0
VERTEX
  5
588
330
4F2
100
AcDbEntity
  8
DEFAULT
100
AcDbVertex
100
AcDb2dVertex
 10
13.88795451053924
 20
42.83327294346747
 30
0.0
  0
VERTEX
  5
589
330
4F2
100
AcDbEntity
  8
DEFAULT
100
AcDbVertex
100
AcDb2dVertex
 10
13.96925807662076
 20
42.87496721070791
 30
0.0
  0
VERTEX
  5
58A
330
4F2
100
AcDbEntity
  8
DEFAULT
100
AcDbVertex
100
AcDb2dVertex
 10
14.0093056821904
 20
42.89690850637329
 30
0.0
  0
VERTEX
  5
58B
330
4F2
100
AcDbEntity
  8
DEFAULT
100
AcDbVertex
100
AcDb2dVertex
 10
14.04889987644116
 20
42.91964941551382
 30
0.0
  0
VERTEX
  5
58C
330
4F2
100
AcDbEntity
  8
DEFAULT
100
AcDbVertex
100
AcDb2dVertex
 10
14.08800268961942
 20
42.94324256721328
 30
0.0
  0
VERTEX
  5
58D
330
4F2
100
AcDbEntity
  8
DEFAULT
100
AcDbVertex
100
AcDb2dVertex
 10
14.12657615197157
 20
42.96774059055542
 30
0.0
  0
VERTEX
  5
58E
330
4F2
100
AcDbEntity
  8
DEFAULT
100
AcDbVertex
100
AcDb2dVertex
 10
14.16458182397786
 20
42.99318510085631
 30
0.0
  0
VERTEX
  5
58F
330
4F2
100
AcDbEntity
  8
DEFAULT
100
AcDbVertex
100
AcDb2dVertex
 10
14.20197911769989
 20
43.01957347646363
 30
0.0
  0
VERTEX
  5
590
330
4F2
100
AcDbEntity
  8
DEFAULT
100
AcDbVertex
100
AcDb2dVertex
 10
14.23872697677646
 20
43.04689207969011
 30
0.0
  0
VERTEX
  5
591
330
4F2
100
AcDbEntity
  8
DEFAULT
100
AcDbVertex
100
AcDb2dVertex
 10
14.27478434484636
 20
43.07512727284848
 30
0.0
  0
VERTEX
  5
592
330
4F2
100
AcDbEntity
  8
DEFAULT
100
AcDbVertex
100
AcDb2dVertex
 10
14.31011016554839
 20
43.10426541825148
 30
0.0
  0
VERTEX
  5
593
330
4F2
100
AcDbEntity
  8
DEFAULT
100
AcDbVertex
100
AcDb2dVertex
 10
14.34466338252135
 20
43.13429287821182
 30
0.0
  0
VERTEX
  5
594
330
4F2
100
AcDbEntity
  8
DEFAULT
100
AcDbVertex
100
AcDb2dVertex
 10
14.37840293940403
 20
43.16519601504224
 30
0.0
  0
VERTEX
  5
595
330
4F2
100
AcDbEntity
  8
DEFAULT
100
AcDbVertex
100
AcDb2dVertex
 10
14.41128777983522
 20
43.19696119105546
 30
0.0
  0
VERTEX
  5
596
330
4F2
100
AcDbEntity
  8
DEFAULT
100
AcDbVertex
100
AcDb2dVertex
 10
14.44327684745373
 20
43.22957476856421
 30
0.0
  0
VERTEX
  5
597
330
4F2
100
AcDbEntity
  8
DEFAULT
100
AcDbVertex
100
AcDb2dVertex
 10
14.47432908589835
 20
43.26302310988121
 30
0.0
  0
VERTEX
  5
598
330
4F2
100
AcDbEntity
  8
DEFAULT
100
AcDbVertex
100
AcDb2dVertex
 10
14.50440343880787
 20
43.2972925773192
 30
0.0
  0
VERTEX
  5
599
330
4F2
100
AcDbEntity
  8
DEFAULT
100
AcDbVertex
100
AcDb2dVertex
 10
14.53345884982109
 20
43.3323695331909
 30
0.0
  0
VERTEX
  5
59A
330
4F2
100
AcDbEntity
  8
DEFAULT
100
AcDbVertex
100
AcDb2dVertex
 10
14.56145426257681
 20
43.36824033980903
 30
0.0
  0
VERTEX
  5
59B
330
4F2
100
AcDbEntity
  8
DEFAULT
100
AcDbVertex
100
AcDb2dVertex
 10
14.58834862071383
 20
43.40489135948634
 30
0.0
  0
VERTEX
  5
59C
330
4F2
100
AcDbEntity
  8
DEFAULT
100
AcDbVertex
100
AcDb2dVertex
 10
14.61410086787093
 20
43.44230895453553
 30
0.0
  0
VERTEX
  5
59D
330
4F2
100
AcDbEntity
  8
DEFAULT
100
AcDbVertex
100
AcDb2dVertex
 10
14.63866994768692
 20
43.48047948726933
 30
0.0
  0
VERTEX
  5
59E
330
4F2
100
AcDbEntity
  8
DEFAULT
100
AcDbVertex
100
AcDb2dVertex
 10
14.66202759955135
 20
43.51938461100101
 30
0.0
  0
VERTEX
  5
59F
330
4F2
100
AcDbEntity
  8
DEFAULT
100
AcDbVertex
100
AcDb2dVertex
 10
14.68419674585681
 20
43.55898714304589
 30
0.0
  0
VERTEX
  5
5A0
330
4F2
100
AcDbEntity
  8
DEFAULT
100
AcDbVertex
100
AcDb2dVertex
 10
14.70521310474664
 20
43.59924519171983
 30
0.0
  0
VERTEX
  5
5A1
330
4F2
100
AcDbEntity
  8
DEFAULT
100
AcDbVertex
100
AcDb2dVertex
 10
14.7251123943642
 20
43.6401168653387
 30
0.0
  0
VERTEX
  5
5A2
330
4F2
100
AcDbEntity
  8
DEFAULT
100
AcDbVertex
100
AcDb2dVertex
 10
14.74393033285282
 20
43.68156027221835
 30
0.0
  0
VERTEX
  5
5A3
330
4F2
100
AcDbEntity
  8
DEFAULT
100
AcDbVertex
100
AcDb2dVertex
 10
14.76170263835586
 20
43.72353352067464
 30
0.0
  0
VERTEX
  5
5A4
330
4F2
100
AcDbEntity
  8
DEFAULT
100
AcDbVertex
100
AcDb2dVertex
 10
14.77846502901667
 20
43.76599471902342
 30
0.0
  0
VERTEX
  5
5A5
330
4F2
100
AcDbEntity
  8
DEFAULT
100
AcDbVertex
100
AcDb2dVertex
 10
14.79425322297858
 20
43.80890197558057
 30
0.0
  0
VERTEX
  5
5A6
330
4F2
100
AcDbEntity
  8
DEFAULT
100
AcDbVertex
100
AcDb2dVertex
 10
14.80910293838496
 20
43.85221339866192
 30
0.0
  0
VERTEX
  5
5A7
330
4F2
100
AcDbEntity
  8
DEFAULT
100
AcDbVertex
100
AcDb2dVertex
 10
14.82304989337914
 20
43.89588709658335
 30
0.0
  0
VERTEX
  5
5A8
330
4F2
100
AcDbEntity
  8
DEFAULT
100
AcDbVertex
100
AcDb2dVertex
 10
14.83612980610447
 20
43.93988117766071
 30
0.0
  0
VERTEX
  5
5A9
330
4F2
100
AcDbEntity
  8
DEFAULT
100
AcDbVertex
100
AcDb2dVertex
 10
14.84837839470429
 20
43.98415375020986
 30
0.0
  0
VERTEX
  5
5AA
330
4F2
100
AcDbEntity
  8
DEFAULT
100
AcDbVertex
100
AcDb2dVertex
 10
14.87052447210084
 20
44.07336680298695
 30
0.0
  0
VERTEX
  5
5AB
330
4F2
100
AcDbEntity
  8
DEFAULT
100
AcDbVertex
100
AcDb2dVertex
 10
14.88977387071555
 20
44.16319112144151
 30
0.0
  0
VERTEX
  5
5AC
330
4F2
100
AcDbEntity
  8
DEFAULT
100
AcDbVertex
100
AcDb2dVertex
 10
14.90639282917482
 20
44.25334273429645
 30
0.0
  0
VERTEX
  5
5AD
330
4F2
100
AcDbEntity
  8
DEFAULT
100
AcDbVertex
100
AcDb2dVertex
 10
14.92056956002358
 20
44.34374231905892
 30
0.0
  0
VERTEX
  5
5AE
330
4F2
100
AcDbEntity
  8
DEFAULT
100
AcDbVertex
100
AcDb2dVertex
 10
14.93247276928638
 20
44.43436171543211
 30
0.0
  0
VERTEX
  5
5AF
330
4F2
100
AcDbEntity
  8
DEFAULT
100
AcDbVertex
100
AcDb2dVertex
 10
14.94227116298776
 20
44.52517276311922
 30
0.0
  0
VERTEX
  5
5B0
330
4F2
100
AcDbEntity
  8
DEFAULT
100
AcDbVertex
100
AcDb2dVertex
 10
14.95013344715228
 20
44.61614730182345
 30
0.0
  0
VERTEX
  5
5B1
330
4F2
100
AcDbEntity
  8
DEFAULT
100
AcDbVertex
100
AcDb2dVertex
 10
14.95622832780449
 20
44.707257171248
 30
0.0
  0
VERTEX
  5
5B2
330
4F2
100
AcDbEntity
  8
DEFAULT
100
AcDbVertex
100
AcDb2dVertex
 10
14.96379070267015
 20
44.88977026107081
 30
0.0
  0
VERTEX
  5
5B3
330
4F2
100
AcDbEntity
  8
DEFAULT
100
AcDbVertex
100
AcDb2dVertex
 10
14.9661742386148
 20
45.07250201930729
 30
0.0
  0
VERTEX
  5
5B4
330
4F2
100
AcDbEntity
  8
DEFAULT
100
AcDbVertex
100
AcDb2dVertex
 10
14.96406009844691
 20
45.25530356494815
 30
0.0
  0
VERTEX
  5
5B5
330
4F2
100
AcDbEntity
  8
DEFAULT
100
AcDbVertex
100
AcDb2dVertex
 10
14.95799574729435
 20
45.43804128609888
 30
0.0
  0
VERTEX
  5
5B6
330
4F2
100
AcDbEntity
  8
DEFAULT
100
AcDbVertex
100
AcDb2dVertex
 10
14.47127915512678
 20
53.52568348859275
 30
0.0
  0
VERTEX
  5
5B7
330
4F2
100
AcDbEntity
  8
DEFAULT
100
AcDbVertex
100
AcDb2dVertex
 10
14.33899925149
 20
55.54545838191997
 30
0.0
  0
VERTEX
  5
5B8
330
4F2
100
AcDbEntity
  8
DEFAULT
100
AcDbVertex
100
AcDb2dVertex
 10
14.23732484613375
 20
56.59191826808385
 30
0.0
  0
VERTEX
  5
5B9
330
4F2
100
AcDbEntity
  8
DEFAULT
100
AcDbVertex
100
AcDb2dVertex
 10
14.20521515629261
 20
56.85295897061354
 30
0.0
  0
VERTEX
  5
5BA
330
4F2
100
AcDbEntity
  8
DEFAULT
100
AcDbVertex
100
AcDb2dVertex
 10
14.16843105779676
 20
57.11316365255963
 30
0.0
  0
VERTEX
  5
5BB
330
4F2
100
AcDbEntity
  8
DEFAULT
100
AcDbVertex
100
AcDb2dVertex
 10
14.12597356401924
 20
57.37222915743261
 30
0.0
  0
VERTEX
  5
5BC
330
4F2
100
AcDbEntity
  8
DEFAULT
100
AcDbVertex
100
AcDb2dVertex
 10
14.07684368833313
 20
57.62985232874294
 30
0.0
  0
VERTEX
  5
5BD
330
4F2
100
AcDbEntity
  8
DEFAULT
100
AcDbVertex
100
AcDb2dVertex
 10
14.02033475339933
 20
57.88580237513143
 30
0.0
  0
VERTEX
  5
5BE
330
4F2
100
AcDbEntity
  8
DEFAULT
100
AcDbVertex
100
AcDb2dVertex
 10
13.95690931903021
 20
58.14013796576022
 30
0.0
  0
VERTEX
  5
5BF
330
4F2
100
AcDbEntity
  8
DEFAULT
100
AcDbVertex
100
AcDb2dVertex
 10
13.88732225432598
 20
58.39299013492178
 30
0.0
  0
VERTEX
  5
5C0
330
4F2
100
AcDbEntity
  8
DEFAULT
100
AcDbVertex
100
AcDb2dVertex
 10
13.81232842838687
 20
58.64448991690861
 30
0.0
  0
VERTEX
  5
5C1
330
4F2
100
AcDbEntity
  8
DEFAULT
100
AcDbVertex
100
AcDb2dVertex
 10
13.64913996920487
 20
59.14395645652799
 30
0.0
  0
VERTEX
  5
5C2
330
4F2
100
AcDbEntity
  8
DEFAULT
100
AcDbVertex
100
AcDb2dVertex
 10
13.47338289428599
 20
59.63958585895822
 30
0.0
  0
VERTEX
  5
5C3
330
4F2
100
AcDbEntity
  8
DEFAULT
100
AcDbVertex
100
AcDb2dVertex
 10
11.22269949972
 20
65.52972555180997
 30
0.0
  0
VERTEX
  5
5C4
330
4F2
100
AcDbEntity
  8
DEFAULT
100
AcDbVertex
100
AcDb2dVertex
 10
11.20661066896793
 20
65.56971562349739
 30
0.0
  0
VERTEX
  5
5C5
330
4F2
100
AcDbEntity
  8
DEFAULT
100
AcDbVertex
100
AcDb2dVertex
 10
11.18941922887292
 20
65.60916046730998
 30
0.0
  0
VERTEX
  5
5C6
330
4F2
100
AcDbEntity
  8
DEFAULT
100
AcDbVertex
100
AcDb2dVertex
 10
11.17116661952929
 20
65.64806607336038
 30
0.0
  0
VERTEX
  5
5C7
330
4F2
100
AcDbEntity
  8
DEFAULT
100
AcDbVertex
100
AcDb2dVertex
 10
11.15189428103136
 20
65.6864384317612
 30
0.0
  0
VERTEX
  5
5C8
330
4F2
100
AcDbEntity
  8
DEFAULT
100
AcDbVertex
100
AcDb2dVertex
 10
11.13164365347342
 20
65.72428353262505
 30
0.0
  0
VERTEX
  5
5C9
330
4F2
100
AcDbEntity
  8
DEFAULT
100
AcDbVertex
100
AcDb2dVertex
 10
11.1104561769498
 20
65.76160736606454
 30
0.0
  0
VERTEX
  5
5CA
330
4F2
100
AcDbEntity
  8
DEFAULT
100
AcDbVertex
100
AcDb2dVertex
 10
11.0883732915548
 20
65.79841592219226
 30
0.0
  0
VERTEX
  5
5CB
330
4F2
100
AcDbEntity
  8
DEFAULT
100
AcDbVertex
100
AcDb2dVertex
 10
11.06543643738274
 20
65.83471519112084
 30
0.0
  0
VERTEX
  5
5CC
330
4F2
100
AcDbEntity
  8
DEFAULT
100
AcDbVertex
100
AcDb2dVertex
 10
11.04168705452793
 20
65.87051116296286
 30
0.0
  0
VERTEX
  5
5CD
330
4F2
100
AcDbEntity
  8
DEFAULT
100
AcDbVertex
100
AcDb2dVertex
 10
11.01716658308468
 20
65.90580982783095
 30
0.0
  0
VERTEX
  5
5CE
330
4F2
100
AcDbEntity
  8
DEFAULT
100
AcDbVertex
100
AcDb2dVertex
 10
10.99191646314731
 20
65.94061717583773
 30
0.0
  0
VERTEX
  5
5CF
330
4F2
100
AcDbEntity
  8
DEFAULT
100
AcDbVertex
100
AcDb2dVertex
 10
10.96597813481012
 20
65.97493919709578
 30
0.0
  0
VERTEX
  5
5D0
330
4F2
100
AcDbEntity
  8
DEFAULT
100
AcDbVertex
100
AcDb2dVertex
 10
10.93939303816744
 20
66.00878188171771
 30
0.0
  0
VERTEX
  5
5D1
330
4F2
100
AcDbEntity
  8
DEFAULT
100
AcDbVertex
100
AcDb2dVertex
 10
10.91220261331356
 20
66.04215121981613
 30
0.0
  0
VERTEX
  5
5D2
330
4F2
100
AcDbEntity
  8
DEFAULT
100
AcDbVertex
100
AcDb2dVertex
 10
10.85617153934949
 20
66.10749381689291
 30
0.0
  0
VERTEX
  5
5D3
330
4F2
100
AcDbEntity
  8
DEFAULT
100
AcDbVertex
100
AcDb2dVertex
 10
10.79818087295594
 20
66.17101703006001
 30
0.0
  0
VERTEX
  5
5D4
330
4F2
100
AcDbEntity
  8
DEFAULT
100
AcDbVertex
100
AcDb2dVertex
 10
10.73838433130498
 20
66.23277938438363
 30
0.0
  0
VERTEX
  5
5D5
330
4F2
100
AcDbEntity
  8
DEFAULT
100
AcDbVertex
100
AcDb2dVertex
 10
10.67690007085225
 20
66.29284152576301
 30
0.0
  0
VERTEX
  5
5D6
330
4F2
100
AcDbEntity
  8
DEFAULT
100
AcDbVertex
100
AcDb2dVertex
 10
10.61384624805337
 20
66.35126410009735
 30
0.0
  0
VERTEX
  5
5D7
330
4F2
100
AcDbEntity
  8
DEFAULT
100
AcDbVertex
100
AcDb2dVertex
 10
10.54934101936394
 20
66.40810775328592
 30
0.0
  0
VERTEX
  5
5D8
330
4F2
100
AcDbEntity
  8
DEFAULT
100
AcDbVertex
100
AcDb2dVertex
 10
10.48350254123958
 20
66.46343313122793
 30
0.0
  0
VERTEX
  5
5D9
330
4F2
100
AcDbEntity
  8
DEFAULT
100
AcDbVertex
100
AcDb2dVertex
 10
10.41644897013592
 20
66.51730087982264
 30
0.0
  0
VERTEX
  5
5DA
330
4F2
100
AcDbEntity
  8
DEFAULT
100
AcDbVertex
100
AcDb2dVertex
 10
10.34829846250856
 20
66.56977164496928
 30
0.0
  0
VERTEX
  5
5DB
330
4F2
100
AcDbEntity
  8
DEFAULT
100
AcDbVertex
100
AcDb2dVertex
 10
10.27915690324827
 20
66.62090037320955
 30
0.0
  0
VERTEX
  5
5DC
330
4F2
100
AcDbEntity
  8
DEFAULT
100
AcDbVertex
100
AcDb2dVertex
 10
10.20908109098637
 20
66.67071921365505
 30
0.0
  0
VERTEX
  5
5DD
330
4F2
100
AcDbEntity
  8
DEFAULT
100
AcDbVertex
100
AcDb2dVertex
 10
10.13811555278934
 20
66.71925461605983
 30
0.0
  0
VERTEX
  5
5DE
330
4F2
100
AcDbEntity
  8
DEFAULT
100
AcDbVertex
100
AcDb2dVertex
 10
10.06630481572362
 20
66.76653303017797
 30
0.0
  0
VERTEX
  5
5DF
330
4F2
100
AcDbEntity
  8
DEFAULT
100
AcDbVertex
100
AcDb2dVertex
 10
9.920325853252038
 20
66.85742469257055
 30
0.0
  0
VERTEX
  5
5E0
330
4F2
100
AcDbEntity
  8
DEFAULT
100
AcDbVertex
100
AcDb2dVertex
 10
9.771500420103362
 20
66.94360579886529
 30
0.0
  0
VERTEX
  5
5E1
330
4F2
100
AcDbEntity
  8
DEFAULT
100
AcDbVertex
100
AcDb2dVertex
 10
9.62015737465262
 20
67.02526617048036
 30
0.0
  0
VERTEX
  5
5E2
330
4F2
100
AcDbEntity
  8
DEFAULT
100
AcDbVertex
100
AcDb2dVertex
 10
9.466516142647993
 20
67.10250852237648
 30
0.0
  0
VERTEX
  5
5E3
330
4F2
100
AcDbEntity
  8
DEFAULT
100
AcDbVertex
100
AcDb2dVertex
 10
9.310768791680957
 20
67.17541379290004
 30
0.0
  0
VERTEX
  5
5E4
330
4F2
100
AcDbEntity
  8
DEFAULT
100
AcDbVertex
100
AcDb2dVertex
 10
9.153107389342985
 20
67.24406292039745
 30
0.0
  0
VERTEX
  5
5E5
330
4F2
100
AcDbEntity
  8
DEFAULT
100
AcDbVertex
100
AcDb2dVertex
 10
8.99377214142134
 20
67.30870744173323
 30
0.0
  0
VERTEX
  5
5E6
330
4F2
100
AcDbEntity
  8
DEFAULT
100
AcDbVertex
100
AcDb2dVertex
 10
8.510243462641853
 20
67.4886350722152
 30
0.0
  0
VERTEX
  5
5E7
330
4F2
100
AcDbEntity
  8
DEFAULT
100
AcDbVertex
100
AcDb2dVertex
 10
8.10156236173454
 20
67.62918202396814
 30
0.0
  0
VERTEX
  5
5E8
330
4F2
100
AcDbEntity
  8
DEFAULT
100
AcDbVertex
100
AcDb2dVertex
 10
7.689800055410269
 20
67.76046505292886
 30
0.0
  0
VERTEX
  5
5E9
330
4F2
100
AcDbEntity
  8
DEFAULT
100
AcDbVertex
100
AcDb2dVertex
 10
7.275157703608839
 20
67.88233993767943
 30
0.0
  0
VERTEX
  5
5EA
330
4F2
100
AcDbEntity
  8
DEFAULT
100
AcDbVertex
100
AcDb2dVertex
 10
6.85783646627005
 20
67.99466245680189
 30
0.0
  0
VERTEX
  5
5EB
330
4F2
100
AcDbEntity
  8
DEFAULT
100
AcDbVertex
100
AcDb2dVertex
 10
6.438048094373201
 20
68.09735012685495
 30
0.0
  0
VERTEX
  5
5EC
330
4F2
100
AcDbEntity
  8
DEFAULT
100
AcDbVertex
100
AcDb2dVertex
 10
6.016046703055583
 20
68.19056741630405
 30
0.0
  0
VERTEX
  5
5ED
330
4F2
100
AcDbEntity
  8
DEFAULT
100
AcDbVertex
100
AcDb2dVertex
 10
5.592096998493988
 20
68.27454053159127
 30
0.0
  0
VERTEX
  5
5EE
330
4F2
100
AcDbEntity
  8
DEFAULT
100
AcDbVertex
100
AcDb2dVertex
 10
5.166463686865207
 20
68.34949567915868
 30
0.0
  0
VERTEX
  5
5EF
330
4F2
100
AcDbEntity
  8
DEFAULT
100
AcDbVertex
100
AcDb2dVertex
 10
4.739401963524225
 20
68.41570285146442
 30
0.0
  0
VERTEX
  5
5F0
330
4F2
100
AcDbEntity
  8
DEFAULT
100
AcDbVertex
100
AcDb2dVertex
 10
4.311128980538812
 20
68.47360718503067
 30
0.0
  0
VERTEX
  5
5F1
330
4F2
100
AcDbEntity
  8
DEFAULT
100
AcDbVertex
100
AcDb2dVertex
 10
3.451779800618533
 20
68.56646302609786
 30
0.0
  0
VERTEX
  5
5F2
330
4F2
100
AcDbEntity
  8
DEFAULT
100
AcDbVertex
100
AcDb2dVertex
 10
2.589942672810322
 20
68.63197161153039
 30
0.0
  0
VERTEX
  5
5F3
330
4F2
100
AcDbEntity
  8
DEFAULT
100
AcDbVertex
100
AcDb2dVertex
 10
1.726605705773169
 20
68.67402946595458
 30
0.0
  0
VERTEX
  5
5F4
330
4F2
100
AcDbEntity
  8
DEFAULT
100
AcDbVertex
100
AcDb2dVertex
 10
0.8625418406241898
 20
68.69648060231836
 30
0.0
  0
VERTEX
  5
5F5
330
4F2
100
AcDbEntity
  8
DEFAULT
100
AcDbVertex
100
AcDb2dVertex
 10
-0.0017982346400025
 20
68.70297087139997
 30
0.0
  0
SEQEND
  5
5F6
330
4F2
100
AcDbEntity
  8
DEFAULT
  0
POLYLINE
  5
5F7
330
1F
100
AcDbEntity
  8
DEFAULT
100
AcDb2dPolyline
 66
     1
 10
0.0
 20
0.0
 30
0.0
  0
VERTEX
  5
5F8
330
5F7
100
AcDbEntity
  8
DEFAULT
100
AcDbVertex
100
AcDb2dVertex
 10
7.567010956425673
 20
40.86684245554655
 30
0.0
  0
VERTEX
  5
5F9
330
5F7
100
AcDbEntity
  8
DEFAULT
100
AcDbVertex
100
AcDb2dVertex
 10
6.93686540350585
 20
56.23933608647623
 30
0.0
  0
VERTEX
  5
5FA
330
5F7
100
AcDbEntity
  8
DEFAULT
100
AcDbVertex
100
AcDb2dVertex
 10
6.926880997835688
 20
56.36555471306027
 30
0.0
  0
VERTEX
  5
5FB
330
5F7
100
AcDbEntity
  8
DEFAULT
100
AcDbVertex
100
AcDb2dVertex
 10
6.913568077297256
 20
56.49112528592163
 30
0.0
  0
VERTEX
  5
5FC
330
5F7
100
AcDbEntity
  8
DEFAULT
100
AcDbVertex
100
AcDb2dVertex
 10
6.90539799119064
 20
56.55360149600426
 30
0.0
  0
VERTEX
  5
5FD
330
5F7
100
AcDbEntity
  8
DEFAULT
100
AcDbVertex
100
AcDb2dVertex
 10
6.896077257052799
 20
56.6158364252138
 30
0.0
  0
VERTEX
  5
5FE
330
5F7
100
AcDbEntity
  8
DEFAULT
100
AcDbVertex
100
AcDb2dVertex
 10
6.885499701779013
 20
56.6778036510694
 30
0.0
  0
VERTEX
  5
5FF
330
5F7
100
AcDbEntity
  8
DEFAULT
100
AcDbVertex
100
AcDb2dVertex
 10
6.873559152264564
 20
56.73947675109027
 30
0.0
  0
VERTEX
  5
600
330
5F7
100
AcDbEntity
  8
DEFAULT
100
AcDbVertex
100
AcDb2dVertex
 10
6.860149435404731
 20
56.80082930279559
 30
0.0
  0
VERTEX
  5
601
330
5F7
100
AcDbEntity
  8
DEFAULT
100
AcDbVertex
100
AcDb2dVertex
 10
6.845164378094795
 20
56.86183488370455
 30
0.0
  0
VERTEX
  5
602
330
5F7
100
AcDbEntity
  8
DEFAULT
100
AcDbVertex
100
AcDb2dVertex
 10
6.828521139241618
 20
56.92246573820994
 30
0.0
  0
VERTEX
  5
603
330
5F7
100
AcDbEntity
  8
DEFAULT
100
AcDbVertex
100
AcDb2dVertex
 10
6.810230205798385
 20
56.98268877819899
 30
0.0
  0
VERTEX
  5
604
330
5F7
100
AcDbEntity
  8
DEFAULT
100
AcDbVertex
100
AcDb2dVertex
 10
6.790325396729862
 20
57.04246958243256
 30
0.0
  0
VERTEX
  5
605
330
5F7
100
AcDbEntity
  8
DEFAULT
100
AcDbVertex
100
AcDb2dVertex
 10
6.768840531000816
 20
57.10177372967148
 30
0.0
  0
VERTEX
  5
606
330
5F7
100
AcDbEntity
  8
DEFAULT
100
AcDbVertex
100
AcDb2dVertex
 10
6.745809427576011
 20
57.16056679867659
 30
0.0
  0
VERTEX
  5
607
330
5F7
100
AcDbEntity
  8
DEFAULT
100
AcDbVertex
100
AcDb2dVertex
 10
6.721265905420218
 20
57.21881436820873
 30
0.0
  0
VERTEX
  5
608
330
5F7
100
AcDbEntity
  8
DEFAULT
100
AcDbVertex
100
AcDb2dVertex
 10
6.695243783498199
 20
57.27648201702874
 30
0.0
  0
VERTEX
  5
609
330
5F7
100
AcDbEntity
  8
DEFAULT
100
AcDbVertex
100
AcDb2dVertex
 10
6.667776880774722
 20
57.33353532389746
 30
0.0
  0
VERTEX
  5
60A
330
5F7
100
AcDbEntity
  8
DEFAULT
100
AcDbVertex
100
AcDb2dVertex
 10
6.638899016214553
 20
57.38993986757575
 30
0.0
  0
VERTEX
  5
60B
330
5F7
100
AcDbEntity
  8
DEFAULT
100
AcDbVertex
100
AcDb2dVertex
 10
6.608644008782457
 20
57.44566122682443
 30
0.0
  0
VERTEX
  5
60C
330
5F7
100
AcDbEntity
  8
DEFAULT
100
AcDbVertex
100
AcDb2dVertex
 10
6.577045677443202
 20
57.50066498040435
 30
0.0
  0
VERTEX
  5
60D
330
5F7
100
AcDbEntity
  8
DEFAULT
100
AcDbVertex
100
AcDb2dVertex
 10
6.544137841161554
 20
57.55491670707636
 30
0.0
  0
VERTEX
  5
60E
330
5F7
100
AcDbEntity
  8
DEFAULT
100
AcDbVertex
100
AcDb2dVertex
 10
6.509954318902277
 20
57.60838198560128
 30
0.0
  0
VERTEX
  5
60F
330
5F7
100
AcDbEntity
  8
DEFAULT
100
AcDbVertex
100
AcDb2dVertex
 10
6.474528929630141
 20
57.66102639473998
 30
0.0
  0
VERTEX
  5
610
330
5F7
100
AcDbEntity
  8
DEFAULT
100
AcDbVertex
100
AcDb2dVertex
 10
6.43789549230991
 20
57.71281551325328
 30
0.0
  0
VERTEX
  5
611
330
5F7
100
AcDbEntity
  8
DEFAULT
100
AcDbVertex
100
AcDb2dVertex
 10
6.400087825906351
 20
57.76371491990201
 30
0.0
  0
VERTEX
  5
612
330
5F7
100
AcDbEntity
  8
DEFAULT
100
AcDbVertex
100
AcDb2dVertex
 10
6.361137261104427
 20
57.81369218896155
 30
0.0
  0
VERTEX
  5
613
330
5F7
100
AcDbEntity
  8
DEFAULT
100
AcDbVertex
100
AcDb2dVertex
 10
6.321065175469901
 20
57.86272287676523
 30
0.0
  0
VERTEX
  5
614
330
5F7
100
AcDbEntity
  8
DEFAULT
100
AcDbVertex
100
AcDb2dVertex
 10
6.27989045828873
 20
57.91078453516095
 30
0.0
  0
VERTEX
  5
615
330
5F7
100
AcDbEntity
  8
DEFAULT
100
AcDbVertex
100
AcDb2dVertex
 10
6.237631998846872
 20
57.95785471599657
 30
0.0
  0
VERTEX
  5
616
330
5F7
100
AcDbEntity
  8
DEFAULT
100
AcDbVertex
100
AcDb2dVertex
 10
6.194308686430288
 20
58.00391097111995
 30
0.0
  0
VERTEX
  5
617
330
5F7
100
AcDbEntity
  8
DEFAULT
100
AcDbVertex
100
AcDb2dVertex
 10
6.149939410324934
 20
58.04893085237896
 30
0.0
  0
VERTEX
  5
618
330
5F7
100
AcDbEntity
  8
DEFAULT
100
AcDbVertex
100
AcDb2dVertex
 10
6.10454305981677
 20
58.09289191162146
 30
0.0
  0
VERTEX
  5
619
330
5F7
100
AcDbEntity
  8
DEFAULT
100
AcDbVertex
100
AcDb2dVertex
 10
6.058138524191754
 20
58.13577170069534
 30
0.0
  0
VERTEX
  5
61A
330
5F7
100
AcDbEntity
  8
DEFAULT
100
AcDbVertex
100
AcDb2dVertex
 10
6.010744692735845
 20
58.17754777144846
 30
0.0
  0
VERTEX
  5
61B
330
5F7
100
AcDbEntity
  8
DEFAULT
100
AcDbVertex
100
AcDb2dVertex
 10
5.962380454735
 20
58.21819767572869
 30
0.0
  0
VERTEX
  5
61C
330
5F7
100
AcDbEntity
  8
DEFAULT
100
AcDbVertex
100
AcDb2dVertex
 10
5.91306469947518
 20
58.2576989653839
 30
0.0
  0
VERTEX
  5
61D
330
5F7
100
AcDbEntity
  8
DEFAULT
100
AcDbVertex
100
AcDb2dVertex
 10
5.862816316242345
 20
58.29602919226195
 30
0.0
  0
VERTEX
  5
61E
330
5F7
100
AcDbEntity
  8
DEFAULT
100
AcDbVertex
100
AcDb2dVertex
 10
5.81165419432245
 20
58.3331659082107
 30
0.0
  0
VERTEX
  5
61F
330
5F7
100
AcDbEntity
  8
DEFAULT
100
AcDbVertex
100
AcDb2dVertex
 10
5.759597223001454
 20
58.36908666507806
 30
0.0
  0
VERTEX
  5
620
330
5F7
100
AcDbEntity
  8
DEFAULT
100
AcDbVertex
100
AcDb2dVertex
 10
5.706664291565318
 20
58.40376901471186
 30
0.0
  0
VERTEX
  5
621
330
5F7
100
AcDbEntity
  8
DEFAULT
100
AcDbVertex
100
AcDb2dVertex
 10
5.652874289299998
 20
58.43719050895998
 30
0.0
  0
VERTEX
  5
622
330
5F7
100
AcDbEntity
  8
DEFAULT
100
AcDbVertex
100
AcDb2dVertex
 10
5.568984609956244
 20
58.48571243522419
 30
0.0
  0
VERTEX
  5
623
330
5F7
100
AcDbEntity
  8
DEFAULT
100
AcDbVertex
100
AcDb2dVertex
 10
5.48337708341039
 20
58.53155819060136
 30
0.0
  0
VERTEX
  5
624
330
5F7
100
AcDbEntity
  8
DEFAULT
100
AcDbVertex
100
AcDb2dVertex
 10
5.396172793423995
 20
58.57452621469299
 30
0.0
  0
VERTEX
  5
625
330
5F7
100
AcDbEntity
  8
DEFAULT
100
AcDbVertex
100
AcDb2dVertex
 10
5.352009700816081
 20
58.5948680898822
 30
0.0
  0
VERTEX
  5
626
330
5F7
100
AcDbEntity
  8
DEFAULT
100
AcDbVertex
100
AcDb2dVertex
 10
5.307492823758619
 20
58.61441494710059
 30
0.0
  0
VERTEX
  5
627
330
5F7
100
AcDbEntity
  8
DEFAULT
100
AcDbVertex
100
AcDb2dVertex
 10
5.262637297721801
 20
58.63314159129835
 30
0.0
  0
VERTEX
  5
628
330
5F7
100
AcDbEntity
  8
DEFAULT
100
AcDbVertex
100
AcDb2dVertex
 10
5.217458258175823
 20
58.65102282742569
 30
0.0
  0
VERTEX
  5
629
330
5F7
100
AcDbEntity
  8
DEFAULT
100
AcDbVertex
100
AcDb2dVertex
 10
5.17197084059088
 20
58.66803346043277
 30
0.0
  0
VERTEX
  5
62A
330
5F7
100
AcDbEntity
  8
DEFAULT
100
AcDbVertex
100
AcDb2dVertex
 10
5.126190180437166
 20
58.68414829526979
 30
0.0
  0
VERTEX
  5
62B
330
5F7
100
AcDbEntity
  8
DEFAULT
100
AcDbVertex
100
AcDb2dVertex
 10
5.080131413184877
 20
58.69934213688695
 30
0.0
  0
VERTEX
  5
62C
330
5F7
100
AcDbEntity
  8
DEFAULT
100
AcDbVertex
100
AcDb2dVertex
 10
5.033809674304209
 20
58.71358979023442
 30
0.0
  0
VERTEX
  5
62D
330
5F7
100
AcDbEntity
  8
DEFAULT
100
AcDbVertex
100
AcDb2dVertex
 10
4.987240099265354
 20
58.72686606026241
 30
0.0
  0
VERTEX
  5
62E
330
5F7
100
AcDbEntity
  8
DEFAULT
100
AcDbVertex
100
AcDb2dVertex
 10
4.94043782353851
 20
58.73914575192109
 30
0.0
  0
VERTEX
  5
62F
330
5F7
100
AcDbEntity
  8
DEFAULT
100
AcDbVertex
100
AcDb2dVertex
 10
4.893417833784763
 20
58.75041553661265
 30
0.0
  0
VERTEX
  5
630
330
5F7
100
AcDbEntity
  8
DEFAULT
100
AcDbVertex
100
AcDb2dVertex
 10
4.846194521428774
 20
58.76070955154721
 30
0.0
  0
VERTEX
  5
631
330
5F7
100
AcDbEntity
  8
DEFAULT
100
AcDbVertex
100
AcDb2dVertex
 10
4.798782129086098
 20
58.77007380038691
 30
0.0
  0
VERTEX
  5
632
330
5F7
100
AcDbEntity
  8
DEFAULT
100
AcDbVertex
100
AcDb2dVertex
 10
4.751194899372287
 20
58.77855428679386
 30
0.0
  0
VERTEX
  5
633
330
5F7
100
AcDbEntity
  8
DEFAULT
100
AcDbVertex
100
AcDb2dVertex
 10
4.655552898293472
 20
58.79304798695798
 30
0.0
  0
VERTEX
  5
634
330
5F7
100
AcDbEntity
  8
DEFAULT
100
AcDbVertex
100
AcDb2dVertex
 10
4.55938245911676
 20
58.80455868133654
 30
0.0
  0
VERTEX
  5
635
330
5F7
100
AcDbEntity
  8
DEFAULT
100
AcDbVertex
100
AcDb2dVertex
 10
4.462797522766579
 20
58.81345439922652
 30
0.0
  0
VERTEX
  5
636
330
5F7
100
AcDbEntity
  8
DEFAULT
100
AcDbVertex
100
AcDb2dVertex
 10
4.365912030167355
 20
58.82010316992485
 30
0.0
  0
VERTEX
  5
637
330
5F7
100
AcDbEntity
  8
DEFAULT
100
AcDbVertex
100
AcDb2dVertex
 10
4.171695139919488
 20
58.82813198693449
 30
0.0
  0
VERTEX
  5
638
330
5F7
100
AcDbEntity
  8
DEFAULT
100
AcDbVertex
100
AcDb2dVertex
 10
-3.395312332643679
 20
58.82795898922058
 30
0.0
  0
VERTEX
  5
639
330
5F7
100
AcDbEntity
  8
DEFAULT
100
AcDbVertex
100
AcDb2dVertex
 10
-4.171695139919489
 20
58.82813198693448
 30
0.0
  0
VERTEX
  5
63A
330
5F7
100
AcDbEntity
  8
DEFAULT
100
AcDbVertex
100
AcDb2dVertex
 10
-4.365912030167355
 20
58.82010316992484
 30
0.0
  0
VERTEX
  5
63B
330
5F7
100
AcDbEntity
  8
DEFAULT
100
AcDbVertex
100
AcDb2dVertex
 10
-4.462797522766579
 20
58.8134543992265
 30
0.0
  0
VERTEX
  5
63C
330
5F7
100
AcDbEntity
  8
DEFAULT
100
AcDbVertex
100
AcDb2dVertex
 10
-4.55938245911676
 20
58.80455868133653
 30
0.0
  0
VERTEX
  5
63D
330
5F7
100
AcDbEntity
  8
DEFAULT
100
AcDbVertex
100
AcDb2dVertex
 10
-4.655552898293472
 20
58.79304798695797
 30
0.0
  0
VERTEX
  5
63E
330
5F7
100
AcDbEntity
  8
DEFAULT
100
AcDbVertex
100
AcDb2dVertex
 10
-4.751194899372286
 20
58.77855428679385
 30
0.0
  0
VERTEX
  5
63F
330
5F7
100
AcDbEntity
  8
DEFAULT
100
AcDbVertex
100
AcDb2dVertex
 10
-4.798782129086097
 20
58.77007380038691
 30
0.0
  0
VERTEX
  5
640
330
5F7
100
AcDbEntity
  8
DEFAULT
100
AcDbVertex
100
AcDb2dVertex
 10
-4.846194521428774
 20
58.76070955154721
 30
0.0
  0
VERTEX
  5
641
330
5F7
100
AcDbEntity
  8
DEFAULT
100
AcDbVertex
100
AcDb2dVertex
 10
-4.893417833784762
 20
58.75041553661265
 30
0.0
  0
VERTEX
  5
642
330
5F7
100
AcDbEntity
  8
DEFAULT
100
AcDbVertex
100
AcDb2dVertex
 10
-4.940437823538509
 20
58.73914575192109
 30
0.0
  0
VERTEX
  5
643
330
5F7
100
AcDbEntity
  8
DEFAULT
100
AcDbVertex
100
AcDb2dVertex
 10
-4.987240099265354
 20
58.72686606026241
 30
0.0
  0
VERTEX
  5
644
330
5F7
100
AcDbEntity
  8
DEFAULT
100
AcDbVertex
100
AcDb2dVertex
 10
-5.033809674304209
 20
58.71358979023442
 30
0.0
  0
VERTEX
  5
645
330
5F7
100
AcDbEntity
  8
DEFAULT
100
AcDbVertex
100
AcDb2dVertex
 10
-5.080131413184877
 20
58.69934213688695
 30
0.0
  0
VERTEX
  5
646
330
5F7
100
AcDbEntity
  8
DEFAULT
100
AcDbVertex
100
AcDb2dVertex
 10
-5.126190180437166
 20
58.68414829526979
 30
0.0
  0
VERTEX
  5
647
330
5F7
100
AcDbEntity
  8
DEFAULT
100
AcDbVertex
100
AcDb2dVertex
 10
-5.17197084059088
 20
58.66803346043277
 30
0.0
  0
VERTEX
  5
648
330
5F7
100
AcDbEntity
  8
DEFAULT
100
AcDbVertex
100
AcDb2dVertex
 10
-5.217458258175823
 20
58.65102282742569
 30
0.0
  0
VERTEX
  5
649
330
5F7
100
AcDbEntity
  8
DEFAULT
100
AcDbVertex
100
AcDb2dVertex
 10
-5.262637297721801
 20
58.63314159129835
 30
0.0
  0
VERTEX
  5
64A
330
5F7
100
AcDbEntity
  8
DEFAULT
100
AcDbVertex
100
AcDb2dVertex
 10
-5.307492823758619
 20
58.61441494710059
 30
0.0
  0
VERTEX
  5
64B
330
5F7
100
AcDbEntity
  8
DEFAULT
100
AcDbVertex
100
AcDb2dVertex
 10
-5.352009700816081
 20
58.5948680898822
 30
0.0
  0
VERTEX
  5
64C
330
5F7
100
AcDbEntity
  8
DEFAULT
100
AcDbVertex
100
AcDb2dVertex
 10
-5.396172793423995
 20
58.57452621469299
 30
0.0
  0
VERTEX
  5
64D
330
5F7
100
AcDbEntity
  8
DEFAULT
100
AcDbVertex
100
AcDb2dVertex
 10
-5.48337708341039
 20
58.53155819060136
 30
0.0
  0
VERTEX
  5
64E
330
5F7
100
AcDbEntity
  8
DEFAULT
100
AcDbVertex
100
AcDb2dVertex
 10
-5.568984609956244
 20
58.48571243522419
 30
0.0
  0
VERTEX
  5
64F
330
5F7
100
AcDbEntity
  8
DEFAULT
100
AcDbVertex
100
AcDb2dVertex
 10
-5.652874289299998
 20
58.43719050895998
 30
0.0
  0
VERTEX
  5
650
330
5F7
100
AcDbEntity
  8
DEFAULT
100
AcDbVertex
100
AcDb2dVertex
 10
-5.706664291565318
 20
58.40376901471186
 30
0.0
  0
VERTEX
  5
651
330
5F7
100
AcDbEntity
  8
DEFAULT
100
AcDbVertex
100
AcDb2dVertex
 10
-5.759597223001454
 20
58.36908666507806
 30
0.0
  0
VERTEX
  5
652
330
5F7
100
AcDbEntity
  8
DEFAULT
100
AcDbVertex
100
AcDb2dVertex
 10
-5.81165419432245
 20
58.3331659082107
 30
0.0
  0
VERTEX
  5
653
330
5F7
100
AcDbEntity
  8
DEFAULT
100
AcDbVertex
100
AcDb2dVertex
 10
-5.862816316242345
 20
58.29602919226195
 30
0.0
  0
VERTEX
  5
654
330
5F7
100
AcDbEntity
  8
DEFAULT
100
AcDbVertex
100
AcDb2dVertex
 10
-5.91306469947518
 20
58.2576989653839
 30
0.0
  0
VERTEX
  5
655
330
5F7
100
AcDbEntity
  8
DEFAULT
100
AcDbVertex
100
AcDb2dVertex
 10
-5.962380454735
 20
58.21819767572869
 30
0.0
  0
VERTEX
  5
656
330
5F7
100
AcDbEntity
  8
DEFAULT
100
AcDbVertex
100
AcDb2dVertex
 10
-6.010744692735845
 20
58.17754777144846
 30
0.0
  0
VERTEX
  5
657
330
5F7
100
AcDbEntity
  8
DEFAULT
100
AcDbVertex
100
AcDb2dVertex
 10
-6.058138524191754
 20
58.13577170069534
 30
0.0
  0
VERTEX
  5
658
330
5F7
100
AcDbEntity
  8
DEFAULT
100
AcDbVertex
100
AcDb2dVertex
 10
-6.10454305981677
 20
58.09289191162146
 30
0.0
  0
VERTEX
  5
659
330
5F7
100
AcDbEntity
  8
DEFAULT
100
AcDbVertex
100
AcDb2dVertex
 10
-6.149939410324934
 20
58.04893085237896
 30
0.0
  0
VERTEX
  5
65A
330
5F7
100
AcDbEntity
  8
DEFAULT
100
AcDbVertex
100
AcDb2dVertex
 10
-6.194308686430288
 20
58.00391097111995
 30
0.0
  0
VERTEX
  5
65B
330
5F7
100
AcDbEntity
  8
DEFAULT
100
AcDbVertex
100
AcDb2dVertex
 10
-6.237631998846872
 20
57.95785471599657
 30
0.0
  0
VERTEX
  5
65C
330
5F7
100
AcDbEntity
  8
DEFAULT
100
AcDbVertex
100
AcDb2dVertex
 10
-6.27989045828873
 20
57.91078453516095
 30
0.0
  0
VERTEX
  5
65D
330
5F7
100
AcDbEntity
  8
DEFAULT
100
AcDbVertex
100
AcDb2dVertex
 10
-6.321065175469901
 20
57.86272287676523
 30
0.0
  0
VERTEX
  5
65E
330
5F7
100
AcDbEntity
  8
DEFAULT
100
AcDbVertex
100
AcDb2dVertex
 10
-6.361137261104427
 20
57.81369218896155
 30
0.0
  0
VERTEX
  5
65F
330
5F7
100
AcDbEntity
  8
DEFAULT
100
AcDbVertex
100
AcDb2dVertex
 10
-6.400087825906351
 20
57.76371491990201
 30
0.0
  0
VERTEX
  5
660
330
5F7
100
AcDbEntity
  8
DEFAULT
100
AcDbVertex
100
AcDb2dVertex
 10
-6.43789549230991
 20
57.71281551325328
 30
0.0
  0
VERTEX
  5
661
330
5F7
100
AcDbEntity
  8
DEFAULT
100
AcDbVertex
100
AcDb2dVertex
 10
-6.474528929630141
 20
57.66102639473998
 30
0.0
  0
VERTEX
  5
662
330
5F7
100
AcDbEntity
  8
DEFAULT
100
AcDbVertex
100
AcDb2dVertex
 10
-6.509954318902277
 20
57.60838198560128
 30
0.0
  0
VERTEX
  5
663
330
5F7
100
AcDbEntity
  8
DEFAULT
100
AcDbVertex
100
AcDb2dVertex
 10
-6.544137841161554
 20
57.55491670707637
 30
0.0
  0
VERTEX
  5
664
330
5F7
100
AcDbEntity
  8
DEFAULT
100
AcDbVertex
100
AcDb2dVertex
 10
-6.577045677443203
 20
57.50066498040436
 30
0.0
  0
VERTEX
  5
665
330
5F7
100
AcDbEntity
  8
DEFAULT
100
AcDbVertex
100
AcDb2dVertex
 10
-6.608644008782457
 20
57.44566122682444
 30
0.0
  0
VERTEX
  5
666
330
5F7
100
AcDbEntity
  8
DEFAULT
100
AcDbVertex
100
AcDb2dVertex
 10
-6.638899016214553
 20
57.38993986757576
 30
0.0
  0
VERTEX
  5
667
330
5F7
100
AcDbEntity
  8
DEFAULT
100
AcDbVertex
100
AcDb2dVertex
 10
-6.667776880774722
 20
57.33353532389747
 30
0.0
  0
VERTEX
  5
668
330
5F7
100
AcDbEntity
  8
DEFAULT
100
AcDbVertex
100
AcDb2dVertex
 10
-6.695243783498201
 20
57.27648201702874
 30
0.0
  0
VERTEX
  5
669
330
5F7
100
AcDbEntity
  8
DEFAULT
100
AcDbVertex
100
AcDb2dVertex
 10
-6.72126590542022
 20
57.21881436820873
 30
0.0
  0
VERTEX
  5
66A
330
5F7
100
AcDbEntity
  8
DEFAULT
100
AcDbVertex
100
AcDb2dVertex
 10
-6.745809427576013
 20
57.1605667986766
 30
0.0
  0
VERTEX
  5
66B
330
5F7
100
AcDbEntity
  8
DEFAULT
100
AcDbVertex
100
AcDb2dVertex
 10
-6.768840531000817
 20
57.10177372967149
 30
0.0
  0
VERTEX
  5
66C
330
5F7
100
AcDbEntity
  8
DEFAULT
100
AcDbVertex
100
AcDb2dVertex
 10
-6.790325396729862
 20
57.04246958243257
 30
0.0
  0
VERTEX
  5
66D
330
5F7
100
AcDbEntity
  8
DEFAULT
100
AcDbVertex
100
AcDb2dVertex
 10
-6.810230205798385
 20
56.98268877819901
 30
0.0
  0
VERTEX
  5
66E
330
5F7
100
AcDbEntity
  8
DEFAULT
100
AcDbVertex
100
AcDb2dVertex
 10
-6.828521139241618
 20
56.92246573820994
 30
0.0
  0
VERTEX
  5
66F
330
5F7
100
AcDbEntity
  8
DEFAULT
100
AcDbVertex
100
AcDb2dVertex
 10
-6.845164378094795
 20
56.86183488370455
 30
0.0
  0
VERTEX
  5
670
330
5F7
100
AcDbEntity
  8
DEFAULT
100
AcDbVertex
100
AcDb2dVertex
 10
-6.860149435404731
 20
56.80082930279559
 30
0.0
  0
VERTEX
  5
671
330
5F7
100
AcDbEntity
  8
DEFAULT
100
AcDbVertex
100
AcDb2dVertex
 10
-6.873559152264564
 20
56.73947675109027
 30
0.0
  0
VERTEX
  5
672
330
5F7
100
AcDbEntity
  8
DEFAULT
100
AcDbVertex
100
AcDb2dVertex
 10
-6.885499701779013
 20
56.6778036510694
 30
0.0
  0
VERTEX
  5
673
330
5F7
100
AcDbEntity
  8
DEFAULT
100
AcDbVertex
100
AcDb2dVertex
 10
-6.896077257052799
 20
56.6158364252138
 30
0.0
  0
VERTEX
  5
674
330
5F7
100
AcDbEntity
  8
DEFAULT
100
AcDbVertex
100
AcDb2dVertex
 10
-6.90539799119064
 20
56.55360149600426
 30
0.0
  0
VERTEX
  5
675
330
5F7
100
AcDbEntity
  8
DEFAULT
100
AcDbVertex
100
AcDb2dVertex
 10
-6.913568077297256
 20
56.49112528592163
 30
0.0
  0
VERTEX
  5
676
330
5F7
100
AcDbEntity
  8
DEFAULT
100
AcDbVertex
100
AcDb2dVertex
 10
-6.926880997835688
 20
56.36555471306027
 30
0.0
  0
VERTEX
  5
677
330
5F7
100
AcDbEntity
  8
DEFAULT
100
AcDbVertex
100
AcDb2dVertex
 10
-6.93686540350585
 20
56.23933608647623
 30
0.0
  0
VERTEX
  5
678
330
5F7
100
AcDbEntity
  8
DEFAULT
100
AcDbVertex
100
AcDb2dVertex
 10
-7.567010956425448
 20
40.86684245554999
 30
0.0
  0
SEQEND
  5
679
330
5F7
100
AcDbEntity
  8
DEFAULT
  0
LINE
  5
67A
330
1F
100
AcDbEntity
  8
DEFAULT
100
AcDbLine
 10
31.34427855258001
 20
13.49222165249998
 30
0.0
 11
32.80525494349
 21
18.42571064887998
 31
0.0
  0
POLYLINE
  5
67B
330
1F
100
AcDbEntity
  8
DEFAULT
100
AcDb2dPolyline
 66
     1
 10
0.0
 20
0.0
 30
0.0
  0
VERTEX
  5
67C
330
67B
100
AcDbEntity
  8
DEFAULT
100
AcDbVertex
100
AcDb2dVertex
 10
27.44333498381999
 20
31.99820716955998
 30
0.0
  0
VERTEX
  5
67D
330
67B
100
AcDbEntity
  8
DEFAULT
100
AcDbVertex
100
AcDb2dVertex
 10
33.46606864519512
 20
23.88750030883584
 30
0.0
  0
VERTEX
  5
67E
330
67B
100
AcDbEntity
  8
DEFAULT
100
AcDbVertex
100
AcDb2dVertex
 10
33.80947983293294
 20
23.44387720614706
 30
0.0
  0
VERTEX
  5
67F
330
67B
100
AcDbEntity
  8
DEFAULT
100
AcDbVertex
100
AcDb2dVertex
 10
33.98636767273172
 20
23.22616968142182
 30
0.0
  0
VERTEX
  5
680
330
67B
100
AcDbEntity
  8
DEFAULT
100
AcDbVertex
100
AcDb2dVertex
 10
34.16768226004999
 20
23.01196808967998
 30
0.0
  0
VERTEX
  5
681
330
67B
100
AcDbEntity
  8
DEFAULT
100
AcDbVertex
100
AcDb2dVertex
 10
34.24718539567577
 20
22.9225225174892
 30
0.0
  0
VERTEX
  5
682
330
67B
100
AcDbEntity
  8
DEFAULT
100
AcDbVertex
100
AcDb2dVertex
 10
34.32920824263583
 20
22.83492984421493
 30
0.0
  0
VERTEX
  5
683
330
67B
100
AcDbEntity
  8
DEFAULT
100
AcDbVertex
100
AcDb2dVertex
 10
34.413664454997
 20
22.74929199225489
 30
0.0
  0
VERTEX
  5
684
330
67B
100
AcDbEntity
  8
DEFAULT
100
AcDbVertex
100
AcDb2dVertex
 10
34.5004676868261
 20
22.6657108840068
 30
0.0
  0
VERTEX
  5
685
330
67B
100
AcDbEntity
  8
DEFAULT
100
AcDbVertex
100
AcDb2dVertex
 10
34.58953159218996
 20
22.58428844186837
 30
0.0
  0
VERTEX
  5
686
330
67B
100
AcDbEntity
  8
DEFAULT
100
AcDbVertex
100
AcDb2dVertex
 10
34.68076982515543
 20
22.50512658823731
 30
0.0
  0
VERTEX
  5
687
330
67B
100
AcDbEntity
  8
DEFAULT
100
AcDbVertex
100
AcDb2dVertex
 10
34.77409603978931
 20
22.42832724551135
 30
0.0
  0
VERTEX
  5
688
330
67B
100
AcDbEntity
  8
DEFAULT
100
AcDbVertex
100
AcDb2dVertex
 10
34.86942389015845
 20
22.3539923360882
 30
0.0
  0
VERTEX
  5
689
330
67B
100
AcDbEntity
  8
DEFAULT
100
AcDbVertex
100
AcDb2dVertex
 10
34.96666703032967
 20
22.28222378236557
 30
0.0
  0
VERTEX
  5
68A
330
67B
100
AcDbEntity
  8
DEFAULT
100
AcDbVertex
100
AcDb2dVertex
 10
35.06573911436979
 20
22.21312350674118
 30
0.0
  0
VERTEX
  5
68B
330
67B
100
AcDbEntity
  8
DEFAULT
100
AcDbVertex
100
AcDb2dVertex
 10
35.16655379634565
 20
22.14679343161275
 30
0.0
  0
VERTEX
  5
68C
330
67B
100
AcDbEntity
  8
DEFAULT
100
AcDbVertex
100
AcDb2dVertex
 10
35.26902473032408
 20
22.08333547937798
 30
0.0
  0
VERTEX
  5
68D
330
67B
100
AcDbEntity
  8
DEFAULT
100
AcDbVertex
100
AcDb2dVertex
 10
35.37306557037191
 20
22.02285157243461
 30
0.0
  0
VERTEX
  5
68E
330
67B
100
AcDbEntity
  8
DEFAULT
100
AcDbVertex
100
AcDb2dVertex
 10
35.47858997055594
 20
21.96544363318034
 30
0.0
  0
VERTEX
  5
68F
330
67B
100
AcDbEntity
  8
DEFAULT
100
AcDbVertex
100
AcDb2dVertex
 10
35.58551158494303
 20
21.91121358401289
 30
0.0
  0
VERTEX
  5
690
330
67B
100
AcDbEntity
  8
DEFAULT
100
AcDbVertex
100
AcDb2dVertex
 10
35.69374406760001
 20
21.86026334732998
 30
0.0
  0
VERTEX
  5
691
330
67B
100
AcDbEntity
  8
DEFAULT
100
AcDbVertex
100
AcDb2dVertex
 10
35.76124037333932
 20
21.83042924137658
 30
0.0
  0
VERTEX
  5
692
330
67B
100
AcDbEntity
  8
DEFAULT
100
AcDbVertex
100
AcDb2dVertex
 10
35.82909976279517
 20
21.80184492531284
 30
0.0
  0
VERTEX
  5
693
330
67B
100
AcDbEntity
  8
DEFAULT
100
AcDbVertex
100
AcDb2dVertex
 10
35.96586070893696
 20
21.74830523628153
 30
0.0
  0
VERTEX
  5
694
330
67B
100
AcDbEntity
  8
DEFAULT
100
AcDbVertex
100
AcDb2dVertex
 10
36.10393273818629
 20
21.69940342709041
 30
0.0
  0
VERTEX
  5
695
330
67B
100
AcDbEntity
  8
DEFAULT
100
AcDbVertex
100
AcDb2dVertex
 10
36.24322168270406
 20
21.65489864459382
 30
0.0
  0
VERTEX
  5
696
330
67B
100
AcDbEntity
  8
DEFAULT
100
AcDbVertex
100
AcDb2dVertex
 10
36.3836333746512
 20
21.61455003564614
 30
0.0
  0
VERTEX
  5
697
330
67B
100
AcDbEntity
  8
DEFAULT
100
AcDbVertex
100
AcDb2dVertex
 10
36.52507364618859
 20
21.5781167471017
 30
0.0
  0
VERTEX
  5
698
330
67B
100
AcDbEntity
  8
DEFAULT
100
AcDbVertex
100
AcDb2dVertex
 10
36.66744832947717
 20
21.54535792581487
 30
0.0
  0
VERTEX
  5
699
330
67B
100
AcDbEntity
  8
DEFAULT
100
AcDbVertex
100
AcDb2dVertex
 10
36.81066325667786
 20
21.51603271864001
 30
0.0
  0
VERTEX
  5
69A
330
67B
100
AcDbEntity
  8
DEFAULT
100
AcDbVertex
100
AcDb2dVertex
 10
36.95462425995154
 20
21.48990027243146
 30
0.0
  0
VERTEX
  5
69B
330
67B
100
AcDbEntity
  8
DEFAULT
100
AcDbVertex
100
AcDb2dVertex
 10
37.09923717145915
 20
21.46671973404359
 30
0.0
  0
VERTEX
  5
69C
330
67B
100
AcDbEntity
  8
DEFAULT
100
AcDbVertex
100
AcDb2dVertex
 10
37.39004204781978
 20
21.4282509681473
 30
0.0
  0
VERTEX
  5
69D
330
67B
100
AcDbEntity
  8
DEFAULT
100
AcDbVertex
100
AcDb2dVertex
 10
37.68232454304702
 20
21.39869959578599
 30
0.0
  0
VERTEX
  5
69E
330
67B
100
AcDbEntity
  8
DEFAULT
100
AcDbVertex
100
AcDb2dVertex
 10
37.97533131442818
 20
21.3761387917945
 30
0.0
  0
VERTEX
  5
69F
330
67B
100
AcDbEntity
  8
DEFAULT
100
AcDbVertex
100
AcDb2dVertex
 10
38.56151628702721
 20
21.3458207491782
 30
0.0
  0
VERTEX
  5
6A0
330
67B
100
AcDbEntity
  8
DEFAULT
100
AcDbVertex
100
AcDb2dVertex
 10
47.69693502633074
 20
21.14676356118347
 30
0.0
  0
VERTEX
  5
6A1
330
67B
100
AcDbEntity
  8
DEFAULT
100
AcDbVertex
100
AcDb2dVertex
 10
48.03909234265618
 20
21.12527645668831
 30
0.0
  0
VERTEX
  5
6A2
330
67B
100
AcDbEntity
  8
DEFAULT
100
AcDbVertex
100
AcDb2dVertex
 10
48.20979374424098
 20
21.10992349637691
 30
0.0
  0
VERTEX
  5
6A3
330
67B
100
AcDbEntity
  8
DEFAULT
100
AcDbVertex
100
AcDb2dVertex
 10
48.38010075311424
 20
21.09081050090329
 30
0.0
  0
VERTEX
  5
6A4
330
67B
100
AcDbEntity
  8
DEFAULT
100
AcDbVertex
100
AcDb2dVertex
 10
48.54988876579162
 20
21.06734318081829
 30
0.0
  0
VERTEX
  5
6A5
330
67B
100
AcDbEntity
  8
DEFAULT
100
AcDbVertex
100
AcDb2dVertex
 10
48.71903317878879
 20
21.03892724667277
 30
0.0
  0
VERTEX
  5
6A6
330
67B
100
AcDbEntity
  8
DEFAULT
100
AcDbVertex
100
AcDb2dVertex
 10
48.80330575247592
 20
21.02265056577842
 30
0.0
  0
VERTEX
  5
6A7
330
67B
100
AcDbEntity
  8
DEFAULT
100
AcDbVertex
100
AcDb2dVertex
 10
48.88725463388116
 20
21.00475026424925
 30
0.0
  0
VERTEX
  5
6A8
330
67B
100
AcDbEntity
  8
DEFAULT
100
AcDbVertex
100
AcDb2dVertex
 10
48.97074818151376
 20
20.98498844732786
 30
0.0
  0
VERTEX
  5
6A9
330
67B
100
AcDbEntity
  8
DEFAULT
100
AcDbVertex
100
AcDb2dVertex
 10
49.05365475388297
 20
20.96312722025686
 30
0.0
  0
VERTEX
  5
6AA
330
67B
100
AcDbEntity
  8
DEFAULT
100
AcDbVertex
100
AcDb2dVertex
 10
49.13584270949804
 20
20.93892868827885
 30
0.0
  0
VERTEX
  5
6AB
330
67B
100
AcDbEntity
  8
DEFAULT
100
AcDbVertex
100
AcDb2dVertex
 10
49.21718040686821
 20
20.91215495663642
 30
0.0
  0
VERTEX
  5
6AC
330
67B
100
AcDbEntity
  8
DEFAULT
100
AcDbVertex
100
AcDb2dVertex
 10
49.25748927074559
 20
20.89772804882938
 30
0.0
  0
VERTEX
  5
6AD
330
67B
100
AcDbEntity
  8
DEFAULT
100
AcDbVertex
100
AcDb2dVertex
 10
49.29753620450273
 20
20.8825681305722
 30
0.0
  0
VERTEX
  5
6AE
330
67B
100
AcDbEntity
  8
DEFAULT
100
AcDbVertex
100
AcDb2dVertex
 10
49.33730475295326
 20
20.86664546502022
 30
0.0
  0
VERTEX
  5
6AF
330
67B
100
AcDbEntity
  8
DEFAULT
100
AcDbVertex
100
AcDb2dVertex
 10
49.37677846091085
 20
20.84993031532876
 30
0.0
  0
VERTEX
  5
6B0
330
67B
100
AcDbEntity
  8
DEFAULT
100
AcDbVertex
100
AcDb2dVertex
 10
49.41593735248911
 20
20.83239724512303
 30
0.0
  0
VERTEX
  5
6B1
330
67B
100
AcDbEntity
  8
DEFAULT
100
AcDbVertex
100
AcDb2dVertex
 10
49.45474736900152
 20
20.81403801990777
 30
0.0
  0
VERTEX
  5
6B2
330
67B
100
AcDbEntity
  8
DEFAULT
100
AcDbVertex
100
AcDb2dVertex
 10
49.49317093106149
 20
20.79484870565759
 30
0.0
  0
VERTEX
  5
6B3
330
67B
100
AcDbEntity
  8
DEFAULT
100
AcDbVertex
100
AcDb2dVertex
 10
49.53117045928248
 20
20.7748253683471
 30
0.0
  0
VERTEX
  5
6B4
330
67B
100
AcDbEntity
  8
DEFAULT
100
AcDbVertex
100
AcDb2dVertex
 10
49.56870837427789
 20
20.75396407395093
 30
0.0
  0
VERTEX
  5
6B5
330
67B
100
AcDbEntity
  8
DEFAULT
100
AcDbVertex
100
AcDb2dVertex
 10
49.60574709666116
 20
20.73226088844368
 30
0.0
  0
VERTEX
  5
6B6
330
67B
100
AcDbEntity
  8
DEFAULT
100
AcDbVertex
100
AcDb2dVertex
 10
49.64224904704572
 20
20.70971187779997
 30
0.0
  0
VERTEX
  5
6B7
330
67B
100
AcDbEntity
  8
DEFAULT
100
AcDbVertex
100
AcDb2dVertex
 10
49.67817664604501
 20
20.68631310799442
 30
0.0
  0
VERTEX
  5
6B8
330
67B
100
AcDbEntity
  8
DEFAULT
100
AcDbVertex
100
AcDb2dVertex
 10
49.71349231427244
 20
20.66206064500163
 30
0.0
  0
VERTEX
  5
6B9
330
67B
100
AcDbEntity
  8
DEFAULT
100
AcDbVertex
100
AcDb2dVertex
 10
49.74815847234147
 20
20.63695055479624
 30
0.0
  0
VERTEX
  5
6BA
330
67B
100
AcDbEntity
  8
DEFAULT
100
AcDbVertex
100
AcDb2dVertex
 10
49.7821375408655
 20
20.61097890335284
 30
0.0
  0
VERTEX
  5
6BB
330
67B
100
AcDbEntity
  8
DEFAULT
100
AcDbVertex
100
AcDb2dVertex
 10
49.81539194045797
 20
20.58414175664607
 30
0.0
  0
VERTEX
  5
6BC
330
67B
100
AcDbEntity
  8
DEFAULT
100
AcDbVertex
100
AcDb2dVertex
 10
49.84788409173231
 20
20.55643518065053
 30
0.0
  0
VERTEX
  5
6BD
330
67B
100
AcDbEntity
  8
DEFAULT
100
AcDbVertex
100
AcDb2dVertex
 10
49.87957641530196
 20
20.52785524134083
 30
0.0
  0
VERTEX
  5
6BE
330
67B
100
AcDbEntity
  8
DEFAULT
100
AcDbVertex
100
AcDb2dVertex
 10
49.91043133178034
 20
20.4983980046916
 30
0.0
  0
VERTEX
  5
6BF
330
67B
100
AcDbEntity
  8
DEFAULT
100
AcDbVertex
100
AcDb2dVertex
 10
49.94041126178088
 20
20.46805953667745
 30
0.0
  0
VERTEX
  5
6C0
330
67B
100
AcDbEntity
  8
DEFAULT
100
AcDbVertex
100
AcDb2dVertex
 10
49.96949054739758
 20
20.43684564460843
 30
0.0
  0
VERTEX
  5
6C1
330
67B
100
AcDbEntity
  8
DEFAULT
100
AcDbVertex
100
AcDb2dVertex
 10
49.99769121664674
 20
20.40480110113635
 30
0.0
  0
VERTEX
  5
6C2
330
67B
100
AcDbEntity
  8
DEFAULT
100
AcDbVertex
100
AcDb2dVertex
 10
50.0250472190252
 20
20.37198042024844
 30
0.0
  0
VERTEX
  5
6C3
330
67B
100
AcDbEntity
  8
DEFAULT
100
AcDbVertex
100
AcDb2dVertex
 10
50.05159250402985
 20
20.33843811593194
 30
0.0
  0
VERTEX
  5
6C4
330
67B
100
AcDbEntity
  8
DEFAULT
100
AcDbVertex
100
AcDb2dVertex
 10
50.07736102115754
 20
20.3042287021741
 30
0.0
  0
VERTEX
  5
6C5
330
67B
100
AcDbEntity
  8
DEFAULT
100
AcDbVertex
100
AcDb2dVertex
 10
50.10238671990511
 20
20.26940669296216
 30
0.0
  0
VERTEX
  5
6C6
330
67B
100
AcDbEntity
  8
DEFAULT
100
AcDbVertex
100
AcDb2dVertex
 10
50.12670354976946
 20
20.23402660228336
 30
0.0
  0
VERTEX
  5
6C7
330
67B
100
AcDbEntity
  8
DEFAULT
100
AcDbVertex
100
AcDb2dVertex
 10
50.15034546024743
 20
20.19814294412493
 30
0.0
  0
VERTEX
  5
6C8
330
67B
100
AcDbEntity
  8
DEFAULT
100
AcDbVertex
100
AcDb2dVertex
 10
50.19574032103168
 20
20.12508298131818
 30
0.0
  0
VERTEX
  5
6C9
330
67B
100
AcDbEntity
  8
DEFAULT
100
AcDbVertex
100
AcDb2dVertex
 10
50.23884289823276
 20
20.05066291643982
 30
0.0
  0
VERTEX
  5
6CA
330
67B
100
AcDbEntity
  8
DEFAULT
100
AcDbVertex
100
AcDb2dVertex
 10
50.27992478782557
 20
19.97531886138778
 30
0.0
  0
VERTEX
  5
6CB
330
67B
100
AcDbEntity
  8
DEFAULT
100
AcDbVertex
100
AcDb2dVertex
 10
51.74562775202141
 20
17.10312285637471
 30
0.0
  0
VERTEX
  5
6CC
330
67B
100
AcDbEntity
  8
DEFAULT
100
AcDbVertex
100
AcDb2dVertex
 10
51.79215143989158
 20
17.00550785568784
 30
0.0
  0
VERTEX
  5
6CD
330
67B
100
AcDbEntity
  8
DEFAULT
100
AcDbVertex
100
AcDb2dVertex
 10
51.83640060383545
 20
16.90693738520769
 30
0.0
  0
VERTEX
  5
6CE
330
67B
100
AcDbEntity
  8
DEFAULT
100
AcDbVertex
100
AcDb2dVertex
 10
51.87789301331618
 20
16.80721141298607
 30
0.0
  0
VERTEX
  5
6CF
330
67B
100
AcDbEntity
  8
DEFAULT
100
AcDbVertex
100
AcDb2dVertex
 10
51.91624675358766
 20
16.70618959435961
 30
0.0
  0
VERTEX
  5
6D0
330
67B
100
AcDbEntity
  8
DEFAULT
100
AcDbVertex
100
AcDb2dVertex
 10
51.95148564582962
 20
16.60395834843332
 30
0.0
  0
VERTEX
  5
6D1
330
67B
100
AcDbEntity
  8
DEFAULT
100
AcDbVertex
100
AcDb2dVertex
 10
51.98373369924025
 20
16.50066372812363
 30
0.0
  0
VERTEX
  5
6D2
330
67B
100
AcDbEntity
  8
DEFAULT
100
AcDbVertex
100
AcDb2dVertex
 10
52.01311492301777
 20
16.39645178634698
 30
0.0
  0
VERTEX
  5
6D3
330
67B
100
AcDbEntity
  8
DEFAULT
100
AcDbVertex
100
AcDb2dVertex
 10
52.03975332636037
 20
16.2914685760198
 30
0.0
  0
VERTEX
  5
6D4
330
67B
100
AcDbEntity
  8
DEFAULT
100
AcDbVertex
100
AcDb2dVertex
 10
52.06377291846626
 20
16.18586015005852
 30
0.0
  0
VERTEX
  5
6D5
330
67B
100
AcDbEntity
  8
DEFAULT
100
AcDbVertex
100
AcDb2dVertex
 10
52.08529770853362
 20
16.07977256137956
 30
0.0
  0
VERTEX
  5
6D6
330
67B
100
AcDbEntity
  8
DEFAULT
100
AcDbVertex
100
AcDb2dVertex
 10
52.10445170576068
 20
15.97335186289936
 30
0.0
  0
VERTEX
  5
6D7
330
67B
100
AcDbEntity
  8
DEFAULT
100
AcDbVertex
100
AcDb2dVertex
 10
52.15148938125402
 20
15.63658328630584
 30
0.0
  0
VERTEX
  5
6D8
330
67B
100
AcDbEntity
  8
DEFAULT
100
AcDbVertex
100
AcDb2dVertex
 10
52.23283494683592
 20
14.96137109136501
 30
0.0
  0
VERTEX
  5
6D9
330
67B
100
AcDbEntity
  8
DEFAULT
100
AcDbVertex
100
AcDb2dVertex
 10
52.29704822487193
 20
14.28431487359283
 30
0.0
  0
SEQEND
  5
6DA
330
67B
100
AcDbEntity
  8
DEFAULT
  0
POLYLINE
  5
6DB
330
1F
100
AcDbEntity
  8
DEFAULT
100
AcDb2dPolyline
 66
     1
 10
0.0
 20
0.0
 30
0.0
  0
VERTEX
  5
6DC
330
6DB
100
AcDbEntity
  8
DEFAULT
100
AcDbVertex
100
AcDb2dVertex
 10
24.26480439479999
 20
33.23456958577998
 30
0.0
  0
VERTEX
  5
6DD
330
6DB
100
AcDbEntity
  8
DEFAULT
100
AcDbVertex
100
AcDb2dVertex
 10
25.38302613333785
 20
33.27589396855712
 30
0.0
  0
VERTEX
  5
6DE
330
6DB
100
AcDbEntity
  8
DEFAULT
100
AcDbVertex
100
AcDb2dVertex
 10
25.66273279166747
 20
33.28051755500362
 30
0.0
  0
VERTEX
  5
6DF
330
6DB
100
AcDbEntity
  8
DEFAULT
100
AcDbVertex
100
AcDb2dVertex
 10
25.69109885692696
 20
33.28007709042153
 30
0.0
  0
VERTEX
  5
6E0
330
6DB
100
AcDbEntity
  8
DEFAULT
100
AcDbVertex
100
AcDb2dVertex
 10
25.71936120909342
 20
33.27870330119725
 30
0.0
  0
VERTEX
  5
6E1
330
6DB
100
AcDbEntity
  8
DEFAULT
100
AcDbVertex
100
AcDb2dVertex
 10
25.74751374684995
 20
33.27643087093391
 30
0.0
  0
VERTEX
  5
6E2
330
6DB
100
AcDbEntity
  8
DEFAULT
100
AcDbVertex
100
AcDb2dVertex
 10
25.77555036887966
 20
33.27329448323457
 30
0.0
  0
VERTEX
  5
6E3
330
6DB
100
AcDbEntity
  8
DEFAULT
100
AcDbVertex
100
AcDb2dVertex
 10
25.80346497386563
 20
33.26932882170233
 30
0.0
  0
VERTEX
  5
6E4
330
6DB
100
AcDbEntity
  8
DEFAULT
100
AcDbVertex
100
AcDb2dVertex
 10
25.831251460491
 20
33.2645685699403
 30
0.0
  0
VERTEX
  5
6E5
330
6DB
100
AcDbEntity
  8
DEFAULT
100
AcDbVertex
100
AcDb2dVertex
 10
25.85890372743884
 20
33.25904841155157
 30
0.0
  0
VERTEX
  5
6E6
330
6DB
100
AcDbEntity
  8
DEFAULT
100
AcDbVertex
100
AcDb2dVertex
 10
25.88641567339227
 20
33.25280303013923
 30
0.0
  0
VERTEX
  5
6E7
330
6DB
100
AcDbEntity
  8
DEFAULT
100
AcDbVertex
100
AcDb2dVertex
 10
25.9137811970344
 20
33.24586710930637
 30
0.0
  0
VERTEX
  5
6E8
330
6DB
100
AcDbEntity
  8
DEFAULT
100
AcDbVertex
100
AcDb2dVertex
 10
25.94099419704833
 20
33.23827533265609
 30
0.0
  0
VERTEX
  5
6E9
330
6DB
100
AcDbEntity
  8
DEFAULT
100
AcDbVertex
100
AcDb2dVertex
 10
25.96804857211716
 20
33.23006238379149
 30
0.0
  0
VERTEX
  5
6EA
330
6DB
100
AcDbEntity
  8
DEFAULT
100
AcDbVertex
100
AcDb2dVertex
 10
25.99493822092399
 20
33.22126294631565
 30
0.0
  0
VERTEX
  5
6EB
330
6DB
100
AcDbEntity
  8
DEFAULT
100
AcDbVertex
100
AcDb2dVertex
 10
26.02165704215194
 20
33.21191170383168
 30
0.0
  0
VERTEX
  5
6EC
330
6DB
100
AcDbEntity
  8
DEFAULT
100
AcDbVertex
100
AcDb2dVertex
 10
26.04819893448411
 20
33.20204333994267
 30
0.0
  0
VERTEX
  5
6ED
330
6DB
100
AcDbEntity
  8
DEFAULT
100
AcDbVertex
100
AcDb2dVertex
 10
26.10072752719349
 20
33.18089398236189
 30
0.0
  0
VERTEX
  5
6EE
330
6DB
100
AcDbEntity
  8
DEFAULT
100
AcDbVertex
100
AcDb2dVertex
 10
26.15248665485409
 20
33.15806083220624
 30
0.0
  0
VERTEX
  5
6EF
330
6DB
100
AcDbEntity
  8
DEFAULT
100
AcDbVertex
100
AcDb2dVertex
 10
26.20347959520299
 20
33.13366615588146
 30
0.0
  0
VERTEX
  5
6F0
330
6DB
100
AcDbEntity
  8
DEFAULT
100
AcDbVertex
100
AcDb2dVertex
 10
26.25372111875334
 20
33.10780076554053
 30
0.0
  0
VERTEX
  5
6F1
330
6DB
100
AcDbEntity
  8
DEFAULT
100
AcDbVertex
100
AcDb2dVertex
 10
26.30322599601826
 20
33.08055547333647
 30
0.0
  0
VERTEX
  5
6F2
330
6DB
100
AcDbEntity
  8
DEFAULT
100
AcDbVertex
100
AcDb2dVertex
 10
26.3520089975109
 20
33.05202109142226
 30
0.0
  0
VERTEX
  5
6F3
330
6DB
100
AcDbEntity
  8
DEFAULT
100
AcDbVertex
100
AcDb2dVertex
 10
26.40008489374437
 20
33.02228843195088
 30
0.0
  0
VERTEX
  5
6F4
330
6DB
100
AcDbEntity
  8
DEFAULT
100
AcDbVertex
100
AcDb2dVertex
 10
26.44746845523182
 20
32.99144830707534
 30
0.0
  0
VERTEX
  5
6F5
330
6DB
100
AcDbEntity
  8
DEFAULT
100
AcDbVertex
100
AcDb2dVertex
 10
26.49417445248639
 20
32.95959152894863
 30
0.0
  0
VERTEX
  5
6F6
330
6DB
100
AcDbEntity
  8
DEFAULT
100
AcDbVertex
100
AcDb2dVertex
 10
26.54021726212102
 20
32.92680062509409
 30
0.0
  0
VERTEX
  5
6F7
330
6DB
100
AcDbEntity
  8
DEFAULT
100
AcDbVertex
100
AcDb2dVertex
 10
26.5856096851479
 20
32.89312498451651
 30
0.0
  0
VERTEX
  5
6F8
330
6DB
100
AcDbEntity
  8
DEFAULT
100
AcDbVertex
100
AcDb2dVertex
 10
26.63036412867907
 20
32.85860571159103
 30
0.0
  0
VERTEX
  5
6F9
330
6DB
100
AcDbEntity
  8
DEFAULT
100
AcDbVertex
100
AcDb2dVertex
 10
26.67449299982653
 20
32.82328391069279
 30
0.0
  0
VERTEX
  5
6FA
330
6DB
100
AcDbEntity
  8
DEFAULT
100
AcDbVertex
100
AcDb2dVertex
 10
26.76092365341843
 20
32.75039714247862
 30
0.0
  0
VERTEX
  5
6FB
330
6DB
100
AcDbEntity
  8
DEFAULT
100
AcDbVertex
100
AcDb2dVertex
 10
26.84500090281974
 20
32.67479351487509
 30
0.0
  0
VERTEX
  5
6FC
330
6DB
100
AcDbEntity
  8
DEFAULT
100
AcDbVertex
100
AcDb2dVertex
 10
26.92682151572026
 20
32.59677705012551
 30
0.0
  0
VERTEX
  5
6FD
330
6DB
100
AcDbEntity
  8
DEFAULT
100
AcDbVertex
100
AcDb2dVertex
 10
27.00647230298436
 20
32.51655251944177
 30
0.0
  0
VERTEX
  5
6FE
330
6DB
100
AcDbEntity
  8
DEFAULT
100
AcDbVertex
100
AcDb2dVertex
 10
27.0840375862701
 20
32.43429988127792
 30
0.0
  0
VERTEX
  5
6FF
330
6DB
100
AcDbEntity
  8
DEFAULT
100
AcDbVertex
100
AcDb2dVertex
 10
27.15960168723551
 20
32.35019909408801
 30
0.0
  0
VERTEX
  5
700
330
6DB
100
AcDbEntity
  8
DEFAULT
100
AcDbVertex
100
AcDb2dVertex
 10
27.23324579555995
 20
32.26441904847314
 30
0.0
  0
VERTEX
  5
701
330
6DB
100
AcDbEntity
  8
DEFAULT
100
AcDbVertex
100
AcDb2dVertex
 10
27.30503857300814
 20
32.17708436362263
 30
0.0
  0
VERTEX
  5
702
330
6DB
100
AcDbEntity
  8
DEFAULT
100
AcDbVertex
100
AcDb2dVertex
 10
27.37504554936613
 20
32.08830859087279
 30
0.0
  0
VERTEX
  5
703
330
6DB
100
AcDbEntity
  8
DEFAULT
100
AcDbVertex
100
AcDb2dVertex
 10
27.44333225441999
 20
31.99820528155998
 30
0.0
  0
SEQEND
  5
704
330
6DB
100
AcDbEntity
  8
DEFAULT
  0
LINE
  5
705
330
1F
100
AcDbEntity
  8
DEFAULT
100
AcDbLine
 10
31.34427855258001
 20
13.49222165249998
 30
0.0
 11
22.75332553433999
 21
32.45098438295997
 31
0.0
  0
LINE
  5
706
330
1F
100
AcDbEntity
  8
DEFAULT
100
AcDbLine
 10
33.60404949583999
 20
12.15451645976498
 30
0.0
 11
31.3420225
 21
13.49104489616998
 31
0.0
  0
LINE
  5
707
330
1F
100
AcDbEntity
  8
DEFAULT
100
AcDbLine
 10
24.2646435
 20
33.23456489616997
 30
0.0
 11
22.75332553433999
 21
32.45098438295997
 31
0.0
  0
POLYLINE
  5
708
330
1F
100
AcDbEntity
  8
DEFAULT
100
AcDb2dPolyline
 66
     1
 10
0.0
 20
0.0
 30
0.0
  0
VERTEX
  5
709
330
708
100
AcDbEntity
  8
DEFAULT
100
AcDbVertex
100
AcDb2dVertex
 10
52.29704430794
 20
14.28431421894998
 30
0.0
  0
VERTEX
  5
70A
330
708
100
AcDbEntity
  8
DEFAULT
100
AcDbVertex
100
AcDb2dVertex
 10
52.28708741907543
 20
14.33483542782468
 30
0.0
  0
VERTEX
  5
70B
330
708
100
AcDbEntity
  8
DEFAULT
100
AcDbVertex
100
AcDb2dVertex
 10
52.27559345249779
 20
14.3848380791624
 30
0.0
  0
VERTEX
  5
70C
330
708
100
AcDbEntity
  8
DEFAULT
100
AcDbVertex
100
AcDb2dVertex
 10
52.26265946251453
 20
14.43435258728896
 30
0.0
  0
VERTEX
  5
70D
330
708
100
AcDbEntity
  8
DEFAULT
100
AcDbVertex
100
AcDb2dVertex
 10
52.24838250343309
 20
14.48340936653019
 30
0.0
  0
VERTEX
  5
70E
330
708
100
AcDbEntity
  8
DEFAULT
100
AcDbVertex
100
AcDb2dVertex
 10
52.23285962956093
 20
14.53203883121189
 30
0.0
  0
VERTEX
  5
70F
330
708
100
AcDbEntity
  8
DEFAULT
100
AcDbVertex
100
AcDb2dVertex
 10
52.21618789520549
 20
14.5802713956599
 30
0.0
  0
VERTEX
  5
710
330
708
100
AcDbEntity
  8
DEFAULT
100
AcDbVertex
100
AcDb2dVertex
 10
52.19846435467421
 20
14.62813747420003
 30
0.0
  0
VERTEX
  5
711
330
708
100
AcDbEntity
  8
DEFAULT
100
AcDbVertex
100
AcDb2dVertex
 10
52.17978606227456
 20
14.67566748115811
 30
0.0
  0
VERTEX
  5
712
330
708
100
AcDbEntity
  8
DEFAULT
100
AcDbVertex
100
AcDb2dVertex
 10
52.13995343909989
 20
14.7698409376314
 30
0.0
  0
VERTEX
  5
713
330
708
100
AcDbEntity
  8
DEFAULT
100
AcDbVertex
100
AcDb2dVertex
 10
52.09746646014105
 20
14.86303507968635
 30
0.0
  0
VERTEX
  5
714
330
708
100
AcDbEntity
  8
DEFAULT
100
AcDbVertex
100
AcDb2dVertex
 10
52.00763517270917
 20
15.04745867896748
 30
0.0
  0
VERTEX
  5
715
330
708
100
AcDbEntity
  8
DEFAULT
100
AcDbVertex
100
AcDb2dVertex
 10
50.47562180691879
 20
18.05017624701099
 30
0.0
  0
VERTEX
  5
716
330
708
100
AcDbEntity
  8
DEFAULT
100
AcDbVertex
100
AcDb2dVertex
 10
50.42982345919174
 20
18.13277149765158
 30
0.0
  0
VERTEX
  5
717
330
708
100
AcDbEntity
  8
DEFAULT
100
AcDbVertex
100
AcDb2dVertex
 10
50.38203461946068
 20
18.21429714217018
 30
0.0
  0
VERTEX
  5
718
330
708
100
AcDbEntity
  8
DEFAULT
100
AcDbVertex
100
AcDb2dVertex
 10
50.33207026146243
 20
18.29450056412021
 30
0.0
  0
VERTEX
  5
719
330
708
100
AcDbEntity
  8
DEFAULT
100
AcDbVertex
100
AcDb2dVertex
 10
50.27974535893384
 20
18.3731291470551
 30
0.0
  0
VERTEX
  5
71A
330
708
100
AcDbEntity
  8
DEFAULT
100
AcDbVertex
100
AcDb2dVertex
 10
50.22487488561175
 20
18.44993027452825
 30
0.0
  0
VERTEX
  5
71B
330
708
100
AcDbEntity
  8
DEFAULT
100
AcDbVertex
100
AcDb2dVertex
 10
50.19642723919591
 20
18.48756659982713
 30
0.0
  0
VERTEX
  5
71C
330
708
100
AcDbEntity
  8
DEFAULT
100
AcDbVertex
100
AcDb2dVertex
 10
50.167273815233
 20
18.5246513300931
 30
0.0
  0
VERTEX
  5
71D
330
708
100
AcDbEntity
  8
DEFAULT
100
AcDbVertex
100
AcDb2dVertex
 10
50.13739148544013
 20
18.56115288827036
 30
0.0
  0
VERTEX
  5
71E
330
708
100
AcDbEntity
  8
DEFAULT
100
AcDbVertex
100
AcDb2dVertex
 10
50.10675712153441
 20
18.59703969730307
 30
0.0
  0
VERTEX
  5
71F
330
708
100
AcDbEntity
  8
DEFAULT
100
AcDbVertex
100
AcDb2dVertex
 10
50.07535370696867
 20
18.63228221131591
 30
0.0
  0
VERTEX
  5
720
330
708
100
AcDbEntity
  8
DEFAULT
100
AcDbVertex
100
AcDb2dVertex
 10
50.04319104513603
 20
18.66685636502095
 30
0.0
  0
VERTEX
  5
721
330
708
100
AcDbEntity
  8
DEFAULT
100
AcDbVertex
100
AcDb2dVertex
 10
50.01028507060911
 20
18.7007401405229
 30
0.0
  0
VERTEX
  5
722
330
708
100
AcDbEntity
  8
DEFAULT
100
AcDbVertex
100
AcDb2dVertex
 10
49.97665171796059
 20
18.73391151992641
 30
0.0
  0
VERTEX
  5
723
330
708
100
AcDbEntity
  8
DEFAULT
100
AcDbVertex
100
AcDb2dVertex
 10
49.94230692176305
 20
18.76634848533617
 30
0.0
  0
VERTEX
  5
724
330
708
100
AcDbEntity
  8
DEFAULT
100
AcDbVertex
100
AcDb2dVertex
 10
49.90726661658913
 20
18.79802901885687
 30
0.0
  0
VERTEX
  5
725
330
708
100
AcDbEntity
  8
DEFAULT
100
AcDbVertex
100
AcDb2dVertex
 10
49.87154673701145
 20
18.82893110259319
 30
0.0
  0
VERTEX
  5
726
330
708
100
AcDbEntity
  8
DEFAULT
100
AcDbVertex
100
AcDb2dVertex
 10
49.83516321760264
 20
18.85903271864981
 30
0.0
  0
VERTEX
  5
727
330
708
100
AcDbEntity
  8
DEFAULT
100
AcDbVertex
100
AcDb2dVertex
 10
49.79813199293534
 20
18.88831184913141
 30
0.0
  0
VERTEX
  5
728
330
708
100
AcDbEntity
  8
DEFAULT
100
AcDbVertex
100
AcDb2dVertex
 10
49.76046899758217
 20
18.91674647614267
 30
0.0
  0
VERTEX
  5
729
330
708
100
AcDbEntity
  8
DEFAULT
100
AcDbVertex
100
AcDb2dVertex
 10
49.72219016611575
 20
18.94431458178828
 30
0.0
  0
VERTEX
  5
72A
330
708
100
AcDbEntity
  8
DEFAULT
100
AcDbVertex
100
AcDb2dVertex
 10
49.68331143310871
 20
18.97099414817292
 30
0.0
  0
VERTEX
  5
72B
330
708
100
AcDbEntity
  8
DEFAULT
100
AcDbVertex
100
AcDb2dVertex
 10
49.64384873313369
 20
18.99676315740127
 30
0.0
  0
VERTEX
  5
72C
330
708
100
AcDbEntity
  8
DEFAULT
100
AcDbVertex
100
AcDb2dVertex
 10
49.60381800076331
 20
19.02159959157801
 30
0.0
  0
VERTEX
  5
72D
330
708
100
AcDbEntity
  8
DEFAULT
100
AcDbVertex
100
AcDb2dVertex
 10
49.5632351705702
 20
19.04548143280782
 30
0.0
  0
VERTEX
  5
72E
330
708
100
AcDbEntity
  8
DEFAULT
100
AcDbVertex
100
AcDb2dVertex
 10
49.52211617712696
 20
19.06838666319539
 30
0.0
  0
VERTEX
  5
72F
330
708
100
AcDbEntity
  8
DEFAULT
100
AcDbVertex
100
AcDb2dVertex
 10
49.48047881763539
 20
19.0903015180807
 30
0.0
  0
VERTEX
  5
730
330
708
100
AcDbEntity
  8
DEFAULT
100
AcDbVertex
100
AcDb2dVertex
 10
49.43834833981381
 20
19.11124524574496
 30
0.0
  0
VERTEX
  5
731
330
708
100
AcDbEntity
  8
DEFAULT
100
AcDbVertex
100
AcDb2dVertex
 10
49.39575185400972
 20
19.13124534770469
 30
0.0
  0
VERTEX
  5
732
330
708
100
AcDbEntity
  8
DEFAULT
100
AcDbVertex
100
AcDb2dVertex
 10
49.35271647057056
 20
19.15032932547641
 30
0.0
  0
VERTEX
  5
733
330
708
100
AcDbEntity
  8
DEFAULT
100
AcDbVertex
100
AcDb2dVertex
 10
49.30926929984383
 20
19.16852468057663
 30
0.0
  0
VERTEX
  5
734
330
708
100
AcDbEntity
  8
DEFAULT
100
AcDbVertex
100
AcDb2dVertex
 10
49.26543745217701
 20
19.18585891452187
 30
0.0
  0
VERTEX
  5
735
330
708
100
AcDbEntity
  8
DEFAULT
100
AcDbVertex
100
AcDb2dVertex
 10
49.22124803791757
 20
19.20235952882864
 30
0.0
  0
VERTEX
  5
736
330
708
100
AcDbEntity
  8
DEFAULT
100
AcDbVertex
100
AcDb2dVertex
 10
49.17672816741298
 20
19.21805402501346
 30
0.0
  0
VERTEX
  5
737
330
708
100
AcDbEntity
  8
DEFAULT
100
AcDbVertex
100
AcDb2dVertex
 10
49.08680549905828
 20
19.24713466908332
 30
0.0
  0
VERTEX
  5
738
330
708
100
AcDbEntity
  8
DEFAULT
100
AcDbVertex
100
AcDb2dVertex
 10
48.99588632989271
 20
19.27332085886356
 30
0.0
  0
VERTEX
  5
739
330
708
100
AcDbEntity
  8
DEFAULT
100
AcDbVertex
100
AcDb2dVertex
 10
48.90418754269609
 20
19.29683260648633
 30
0.0
  0
VERTEX
  5
73A
330
708
100
AcDbEntity
  8
DEFAULT
100
AcDbVertex
100
AcDb2dVertex
 10
48.81192602024822
 20
19.31788992408375
 30
0.0
  0
VERTEX
  5
73B
330
708
100
AcDbEntity
  8
DEFAULT
100
AcDbVertex
100
AcDb2dVertex
 10
48.71928827315418
 20
19.33670315144448
 30
0.0
  0
VERTEX
  5
73C
330
708
100
AcDbEntity
  8
DEFAULT
100
AcDbVertex
100
AcDb2dVertex
 10
48.62633932331995
 20
19.35344393898332
 30
0.0
  0
VERTEX
  5
73D
330
708
100
AcDbEntity
  8
DEFAULT
100
AcDbVertex
100
AcDb2dVertex
 10
48.53311382047684
 20
19.36827426477159
 30
0.0
  0
VERTEX
  5
73E
330
708
100
AcDbEntity
  8
DEFAULT
100
AcDbVertex
100
AcDb2dVertex
 10
48.43964641435606
 20
19.38135610688061
 30
0.0
  0
VERTEX
  5
73F
330
708
100
AcDbEntity
  8
DEFAULT
100
AcDbVertex
100
AcDb2dVertex
 10
48.25212449120662
 20
19.40292225234625
 30
0.0
  0
VERTEX
  5
740
330
708
100
AcDbEntity
  8
DEFAULT
100
AcDbVertex
100
AcDb2dVertex
 10
48.06405075172169
 20
19.41943819995084
 30
0.0
  0
VERTEX
  5
741
330
708
100
AcDbEntity
  8
DEFAULT
100
AcDbVertex
100
AcDb2dVertex
 10
47.68708779472273
 20
19.44154595255203
 30
0.0
  0
VERTEX
  5
742
330
708
100
AcDbEntity
  8
DEFAULT
100
AcDbVertex
100
AcDb2dVertex
 10
37.97981235402999
 20
19.66027681400998
 30
0.0
  0
VERTEX
  5
743
330
708
100
AcDbEntity
  8
DEFAULT
100
AcDbVertex
100
AcDb2dVertex
 10
37.92165080315177
 20
19.66073072418266
 30
0.0
  0
VERTEX
  5
744
330
708
100
AcDbEntity
  8
DEFAULT
100
AcDbVertex
100
AcDb2dVertex
 10
37.86350200110398
 20
19.65963931492438
 30
0.0
  0
VERTEX
  5
745
330
708
100
AcDbEntity
  8
DEFAULT
100
AcDbVertex
100
AcDb2dVertex
 10
37.80540313086978
 20
19.65701876780368
 30
0.0
  0
VERTEX
  5
746
330
708
100
AcDbEntity
  8
DEFAULT
100
AcDbVertex
100
AcDb2dVertex
 10
37.74739137543227
 20
19.65288526438908
 30
0.0
  0
VERTEX
  5
747
330
708
100
AcDbEntity
  8
DEFAULT
100
AcDbVertex
100
AcDb2dVertex
 10
37.68950391777463
 20
19.64725498624909
 30
0.0
  0
VERTEX
  5
748
330
708
100
AcDbEntity
  8
DEFAULT
100
AcDbVertex
100
AcDb2dVertex
 10
37.63177794087999
 20
19.64014411495223
 30
0.0
  0
VERTEX
  5
749
330
708
100
AcDbEntity
  8
DEFAULT
100
AcDbVertex
100
AcDb2dVertex
 10
37.5742506277315
 20
19.63156883206703
 30
0.0
  0
VERTEX
  5
74A
330
708
100
AcDbEntity
  8
DEFAULT
100
AcDbVertex
100
AcDb2dVertex
 10
37.51695916131231
 20
19.621545319162
 30
0.0
  0
VERTEX
  5
74B
330
708
100
AcDbEntity
  8
DEFAULT
100
AcDbVertex
100
AcDb2dVertex
 10
37.45994010033586
 20
19.6100887787146
 30
0.0
  0
VERTEX
  5
74C
330
708
100
AcDbEntity
  8
DEFAULT
100
AcDbVertex
100
AcDb2dVertex
 10
37.40322750643675
 20
19.59721049683795
 30
0.0
  0
VERTEX
  5
74D
330
708
100
AcDbEntity
  8
DEFAULT
100
AcDbVertex
100
AcDb2dVertex
 10
37.34685481697993
 20
19.58292078055413
 30
0.0
  0
VERTEX
  5
74E
330
708
100
AcDbEntity
  8
DEFAULT
100
AcDbVertex
100
AcDb2dVertex
 10
37.2908554693303
 20
19.56722993688522
 30
0.0
  0
VERTEX
  5
74F
330
708
100
AcDbEntity
  8
DEFAULT
100
AcDbVertex
100
AcDb2dVertex
 10
37.23526290085277
 20
19.55014827285326
 30
0.0
  0
VERTEX
  5
750
330
708
100
AcDbEntity
  8
DEFAULT
100
AcDbVertex
100
AcDb2dVertex
 10
37.18011054891227
 20
19.53168609548033
 30
0.0
  0
VERTEX
  5
751
330
708
100
AcDbEntity
  8
DEFAULT
100
AcDbVertex
100
AcDb2dVertex
 10
37.12543185087372
 20
19.51185371178849
 30
0.0
  0
VERTEX
  5
752
330
708
100
AcDbEntity
  8
DEFAULT
100
AcDbVertex
100
AcDb2dVertex
 10
37.07126024410205
 20
19.49066142879982
 30
0.0
  0
VERTEX
  5
753
330
708
100
AcDbEntity
  8
DEFAULT
100
AcDbVertex
100
AcDb2dVertex
 10
37.01763206805232
 20
19.46811644899226
 30
0.0
  0
VERTEX
  5
754
330
708
100
AcDbEntity
  8
DEFAULT
100
AcDbVertex
100
AcDb2dVertex
 10
36.96459527054031
 20
19.4442135566673
 30
0.0
  0
VERTEX
  5
755
330
708
100
AcDbEntity
  8
DEFAULT
100
AcDbVertex
100
AcDb2dVertex
 10
36.91220070147197
 20
19.41894443158233
 30
0.0
  0
VERTEX
  5
756
330
708
100
AcDbEntity
  8
DEFAULT
100
AcDbVertex
100
AcDb2dVertex
 10
36.86049921075323
 20
19.39230075349472
 30
0.0
  0
VERTEX
  5
757
330
708
100
AcDbEntity
  8
DEFAULT
100
AcDbVertex
100
AcDb2dVertex
 10
36.80954164829002
 20
19.36427420216187
 30
0.0
  0
VERTEX
  5
758
330
708
100
AcDbEntity
  8
DEFAULT
100
AcDbVertex
100
AcDb2dVertex
 10
36.7593788639883
 20
19.33485645734113
 30
0.0
  0
VERTEX
  5
759
330
708
100
AcDbEntity
  8
DEFAULT
100
AcDbVertex
100
AcDb2dVertex
 10
36.710061707754
 20
19.3040391987899
 30
0.0
  0
VERTEX
  5
75A
330
708
100
AcDbEntity
  8
DEFAULT
100
AcDbVertex
100
AcDb2dVertex
 10
36.66164102949305
 20
19.27181410626555
 30
0.0
  0
VERTEX
  5
75B
330
708
100
AcDbEntity
  8
DEFAULT
100
AcDbVertex
100
AcDb2dVertex
 10
36.61417328154578
 20
19.23817398907161
 30
0.0
  0
VERTEX
  5
75C
330
708
100
AcDbEntity
  8
DEFAULT
100
AcDbVertex
100
AcDb2dVertex
 10
36.56773732599001
 20
19.20311617469617
 30
0.0
  0
VERTEX
  5
75D
330
708
100
AcDbEntity
  8
DEFAULT
100
AcDbVertex
100
AcDb2dVertex
 10
36.52241762733794
 20
19.16663912017347
 30
0.0
  0
VERTEX
  5
75E
330
708
100
AcDbEntity
  8
DEFAULT
100
AcDbVertex
100
AcDb2dVertex
 10
36.47829865010178
 20
19.12874128253775
 30
0.0
  0
VERTEX
  5
75F
330
708
100
AcDbEntity
  8
DEFAULT
100
AcDbVertex
100
AcDb2dVertex
 10
36.43546485879371
 20
19.08942111882325
 30
0.0
  0
VERTEX
  5
760
330
708
100
AcDbEntity
  8
DEFAULT
100
AcDbVertex
100
AcDb2dVertex
 10
36.39400071792595
 20
19.04867708606421
 30
0.0
  0
VERTEX
  5
761
330
708
100
AcDbEntity
  8
DEFAULT
100
AcDbVertex
100
AcDb2dVertex
 10
36.37380866156723
 20
19.02777063661619
 30
0.0
  0
VERTEX
  5
762
330
708
100
AcDbEntity
  8
DEFAULT
100
AcDbVertex
100
AcDb2dVertex
 10
36.35399069201068
 20
19.00650764129486
 30
0.0
  0
VERTEX
  5
763
330
708
100
AcDbEntity
  8
DEFAULT
100
AcDbVertex
100
AcDb2dVertex
 10
36.33455736732029
 20
18.98488790722952
 30
0.0
  0
VERTEX
  5
764
330
708
100
AcDbEntity
  8
DEFAULT
100
AcDbVertex
100
AcDb2dVertex
 10
36.31551924556012
 20
18.96291124154945
 30
0.0
  0
VERTEX
  5
765
330
708
100
AcDbEntity
  8
DEFAULT
100
AcDbVertex
100
AcDb2dVertex
 10
36.29688765754447
 20
18.94057836233328
 30
0.0
  0
VERTEX
  5
766
330
708
100
AcDbEntity
  8
DEFAULT
100
AcDbVertex
100
AcDb2dVertex
 10
36.27867702508892
 20
18.91789363145712
 30
0.0
  0
VERTEX
  5
767
330
708
100
AcDbEntity
  8
DEFAULT
100
AcDbVertex
100
AcDb2dVertex
 10
36.26090254275935
 20
18.89486232174642
 30
0.0
  0
VERTEX
  5
768
330
708
100
AcDbEntity
  8
DEFAULT
100
AcDbVertex
100
AcDb2dVertex
 10
36.24357940512161
 20
18.87148970602665
 30
0.0
  0
VERTEX
  5
769
330
708
100
AcDbEntity
  8
DEFAULT
100
AcDbVertex
100
AcDb2dVertex
 10
36.22672280674159
 20
18.84778105712327
 30
0.0
  0
VERTEX
  5
76A
330
708
100
AcDbEntity
  8
DEFAULT
100
AcDbVertex
100
AcDb2dVertex
 10
36.21034794218517
 20
18.82374164786175
 30
0.0
  0
VERTEX
  5
76B
330
708
100
AcDbEntity
  8
DEFAULT
100
AcDbVertex
100
AcDb2dVertex
 10
36.19447000601819
 20
18.79937675106753
 30
0.0
  0
VERTEX
  5
76C
330
708
100
AcDbEntity
  8
DEFAULT
100
AcDbVertex
100
AcDb2dVertex
 10
36.17910419280655
 20
18.7746916395661
 30
0.0
  0
VERTEX
  5
76D
330
708
100
AcDbEntity
  8
DEFAULT
100
AcDbVertex
100
AcDb2dVertex
 10
36.16426569711611
 20
18.7496915861829
 30
0.0
  0
VERTEX
  5
76E
330
708
100
AcDbEntity
  8
DEFAULT
100
AcDbVertex
100
AcDb2dVertex
 10
36.14996971351275
 20
18.72438186374341
 30
0.0
  0
VERTEX
  5
76F
330
708
100
AcDbEntity
  8
DEFAULT
100
AcDbVertex
100
AcDb2dVertex
 10
36.13623143656233
 20
18.69876774507307
 30
0.0
  0
VERTEX
  5
770
330
708
100
AcDbEntity
  8
DEFAULT
100
AcDbVertex
100
AcDb2dVertex
 10
36.12306606083074
 20
18.67285450299736
 30
0.0
  0
VERTEX
  5
771
330
708
100
AcDbEntity
  8
DEFAULT
100
AcDbVertex
100
AcDb2dVertex
 10
36.11048878088383
 20
18.64664741034173
 30
0.0
  0
VERTEX
  5
772
330
708
100
AcDbEntity
  8
DEFAULT
100
AcDbVertex
100
AcDb2dVertex
 10
36.09851479128749
 20
18.62015173993165
 30
0.0
  0
VERTEX
  5
773
330
708
100
AcDbEntity
  8
DEFAULT
100
AcDbVertex
100
AcDb2dVertex
 10
36.08715928660759
 20
18.59337276459258
 30
0.0
  0
VERTEX
  5
774
330
708
100
AcDbEntity
  8
DEFAULT
100
AcDbVertex
100
AcDb2dVertex
 10
34.06421910017012
 20
13.44870189017826
 30
0.0
  0
VERTEX
  5
775
330
708
100
AcDbEntity
  8
DEFAULT
100
AcDbVertex
100
AcDb2dVertex
 10
33.82540078714088
 20
12.80401556418157
 30
0.0
  0
VERTEX
  5
776
330
708
100
AcDbEntity
  8
DEFAULT
100
AcDbVertex
100
AcDb2dVertex
 10
33.60404949583999
 20
12.15451645976498
 30
0.0
  0
SEQEND
  5
777
330
708
100
AcDbEntity
  8
DEFAULT
  0
POLYLINE
  5
778
330
1F
100
AcDbEntity
  8
DEFAULT
100
AcDb2dPolyline
 66
     1
 10
0.0
 20
0.0
 30
0.0
  0
VERTEX
  5
779
330
778
100
AcDbEntity
  8
DEFAULT
100
AcDbVertex
100
AcDb2dVertex
 10
32.81004360066999
 20
18.44318129585998
 30
0.0
  0
VERTEX
  5
77A
330
778
100
AcDbEntity
  8
DEFAULT
100
AcDbVertex
100
AcDb2dVertex
 10
32.91345184532867
 20
18.83772250214003
 30
0.0
  0
VERTEX
  5
77B
330
778
100
AcDbEntity
  8
DEFAULT
100
AcDbVertex
100
AcDb2dVertex
 10
33.00749977998887
 20
19.23462597925418
 30
0.0
  0
VERTEX
  5
77C
330
778
100
AcDbEntity
  8
DEFAULT
100
AcDbVertex
100
AcDb2dVertex
 10
33.09170308493007
 20
19.63381118752987
 30
0.0
  0
VERTEX
  5
77D
330
778
100
AcDbEntity
  8
DEFAULT
100
AcDbVertex
100
AcDb2dVertex
 10
33.12696620857071
 20
19.83467943770922
 30
0.0
  0
VERTEX
  5
77E
330
778
100
AcDbEntity
  8
DEFAULT
100
AcDbVertex
100
AcDb2dVertex
 10
33.1421719118367
 20
19.93553057501058
 30
0.0
  0
VERTEX
  5
77F
330
778
100
AcDbEntity
  8
DEFAULT
100
AcDbVertex
100
AcDb2dVertex
 10
33.15548752793433
 20
20.0366970921488
 30
0.0
  0
VERTEX
  5
780
330
778
100
AcDbEntity
  8
DEFAULT
100
AcDbVertex
100
AcDb2dVertex
 10
33.16669237374228
 20
20.13818374098728
 30
0.0
  0
VERTEX
  5
781
330
778
100
AcDbEntity
  8
DEFAULT
100
AcDbVertex
100
AcDb2dVertex
 10
33.17550157805034
 20
20.23990216575591
 30
0.0
  0
VERTEX
  5
782
330
778
100
AcDbEntity
  8
DEFAULT
100
AcDbVertex
100
AcDb2dVertex
 10
33.18161422262606
 20
20.34174073377616
 30
0.0
  0
VERTEX
  5
783
330
778
100
AcDbEntity
  8
DEFAULT
100
AcDbVertex
100
AcDb2dVertex
 10
33.18472938923701
 20
20.44358781236952
 30
0.0
  0
VERTEX
  5
784
330
778
100
AcDbEntity
  8
DEFAULT
100
AcDbVertex
100
AcDb2dVertex
 10
33.18454615965073
 20
20.54533176885747
 30
0.0
  0
VERTEX
  5
785
330
778
100
AcDbEntity
  8
DEFAULT
100
AcDbVertex
100
AcDb2dVertex
 10
33.18312360933599
 20
20.59613019109988
 30
0.0
  0
VERTEX
  5
786
330
778
100
AcDbEntity
  8
DEFAULT
100
AcDbVertex
100
AcDb2dVertex
 10
33.18076361563479
 20
20.6468609705615
 30
0.0
  0
VERTEX
  5
787
330
778
100
AcDbEntity
  8
DEFAULT
100
AcDbVertex
100
AcDb2dVertex
 10
33.17742856376806
 20
20.69751015315751
 30
0.0
  0
VERTEX
  5
788
330
778
100
AcDbEntity
  8
DEFAULT
100
AcDbVertex
100
AcDb2dVertex
 10
33.17308083895674
 20
20.74806378480309
 30
0.0
  0
VERTEX
  5
789
330
778
100
AcDbEntity
  8
DEFAULT
100
AcDbVertex
100
AcDb2dVertex
 10
33.16768282642179
 20
20.79850791141344
 30
0.0
  0
VERTEX
  5
78A
330
778
100
AcDbEntity
  8
DEFAULT
100
AcDbVertex
100
AcDb2dVertex
 10
33.16119691138415
 20
20.84882857890373
 30
0.0
  0
VERTEX
  5
78B
330
778
100
AcDbEntity
  8
DEFAULT
100
AcDbVertex
100
AcDb2dVertex
 10
33.15359700891575
 20
20.89901224269566
 30
0.0
  0
VERTEX
  5
78C
330
778
100
AcDbEntity
  8
DEFAULT
100
AcDbVertex
100
AcDb2dVertex
 10
33.14490315349259
 20
20.94904699623698
 30
0.0
  0
VERTEX
  5
78D
330
778
100
AcDbEntity
  8
DEFAULT
100
AcDbVertex
100
AcDb2dVertex
 10
33.13514690944163
 20
20.99892134248193
 30
0.0
  0
VERTEX
  5
78E
330
778
100
AcDbEntity
  8
DEFAULT
100
AcDbVertex
100
AcDb2dVertex
 10
33.12435984108984
 20
21.04862378438477
 30
0.0
  0
VERTEX
  5
78F
330
778
100
AcDbEntity
  8
DEFAULT
100
AcDbVertex
100
AcDb2dVertex
 10
33.1125735127642
 20
21.09814282489974
 30
0.0
  0
VERTEX
  5
790
330
778
100
AcDbEntity
  8
DEFAULT
100
AcDbVertex
100
AcDb2dVertex
 10
33.09981948879168
 20
21.14746696698109
 30
0.0
  0
VERTEX
  5
791
330
778
100
AcDbEntity
  8
DEFAULT
100
AcDbVertex
100
AcDb2dVertex
 10
33.08612933349926
 20
21.19658471358308
 30
0.0
  0
VERTEX
  5
792
330
778
100
AcDbEntity
  8
DEFAULT
100
AcDbVertex
100
AcDb2dVertex
 10
33.07153461121389
 20
21.24548456765996
 30
0.0
  0
VERTEX
  5
793
330
778
100
AcDbEntity
  8
DEFAULT
100
AcDbVertex
100
AcDb2dVertex
 10
33.03975772297226
 20
21.34258461005538
 30
0.0
  0
VERTEX
  5
794
330
778
100
AcDbEntity
  8
DEFAULT
100
AcDbVertex
100
AcDb2dVertex
 10
33.00474133868258
 20
21.43867511780135
 30
0.0
  0
VERTEX
  5
795
330
778
100
AcDbEntity
  8
DEFAULT
100
AcDbVertex
100
AcDb2dVertex
 10
32.96673797296064
 20
21.53366411453189
 30
0.0
  0
VERTEX
  5
796
330
778
100
AcDbEntity
  8
DEFAULT
100
AcDbVertex
100
AcDb2dVertex
 10
32.92600014042223
 20
21.627459623881
 30
0.0
  0
VERTEX
  5
797
330
778
100
AcDbEntity
  8
DEFAULT
100
AcDbVertex
100
AcDb2dVertex
 10
32.8827434688752
 20
21.71997988882669
 30
0.0
  0
VERTEX
  5
798
330
778
100
AcDbEntity
  8
DEFAULT
100
AcDbVertex
100
AcDb2dVertex
 10
32.83703552088441
 20
21.81118512457449
 30
0.0
  0
VERTEX
  5
799
330
778
100
AcDbEntity
  8
DEFAULT
100
AcDbVertex
100
AcDb2dVertex
 10
32.78890696239437
 20
21.9010457605919
 30
0.0
  0
VERTEX
  5
79A
330
778
100
AcDbEntity
  8
DEFAULT
100
AcDbVertex
100
AcDb2dVertex
 10
32.73838845934965
 20
21.98953222634639
 30
0.0
  0
VERTEX
  5
79B
330
778
100
AcDbEntity
  8
DEFAULT
100
AcDbVertex
100
AcDb2dVertex
 10
32.6855106776948
 20
22.07661495130546
 30
0.0
  0
VERTEX
  5
79C
330
778
100
AcDbEntity
  8
DEFAULT
100
AcDbVertex
100
AcDb2dVertex
 10
32.63030428337438
 20
22.16226436493659
 30
0.0
  0
VERTEX
  5
79D
330
778
100
AcDbEntity
  8
DEFAULT
100
AcDbVertex
100
AcDb2dVertex
 10
32.57279994233293
 20
22.24645089670727
 30
0.0
  0
VERTEX
  5
79E
330
778
100
AcDbEntity
  8
DEFAULT
100
AcDbVertex
100
AcDb2dVertex
 10
25.937056738295
 20
31.18460610728998
 30
0.0
  0
VERTEX
  5
79F
330
778
100
AcDbEntity
  8
DEFAULT
100
AcDbVertex
100
AcDb2dVertex
 10
25.86982803939699
 20
31.27325798716324
 30
0.0
  0
VERTEX
  5
7A0
330
778
100
AcDbEntity
  8
DEFAULT
100
AcDbVertex
100
AcDb2dVertex
 10
25.80083822955569
 20
31.36054924714138
 30
0.0
  0
VERTEX
  5
7A1
330
778
100
AcDbEntity
  8
DEFAULT
100
AcDbVertex
100
AcDb2dVertex
 10
25.73009858304162
 20
31.44642735217639
 30
0.0
  0
VERTEX
  5
7A2
330
778
100
AcDbEntity
  8
DEFAULT
100
AcDbVertex
100
AcDb2dVertex
 10
25.65762037412535
 20
31.53083976722026
 30
0.0
  0
VERTEX
  5
7A3
330
778
100
AcDbEntity
  8
DEFAULT
100
AcDbVertex
100
AcDb2dVertex
 10
25.5834092780219
 20
31.6137286658422
 30
0.0
  0
VERTEX
  5
7A4
330
778
100
AcDbEntity
  8
DEFAULT
100
AcDbVertex
100
AcDb2dVertex
 10
25.50744857372432
 20
31.69501505608029
 30
0.0
  0
VERTEX
  5
7A5
330
778
100
AcDbEntity
  8
DEFAULT
100
AcDbVertex
100
AcDb2dVertex
 10
25.42971594117015
 20
31.77461465458981
 30
0.0
  0
VERTEX
  5
7A6
330
778
100
AcDbEntity
  8
DEFAULT
100
AcDbVertex
100
AcDb2dVertex
 10
25.35018906029693
 20
31.85244317802606
 30
0.0
  0
VERTEX
  5
7A7
330
778
100
AcDbEntity
  8
DEFAULT
100
AcDbVertex
100
AcDb2dVertex
 10
25.26884002957881
 20
31.92839473616125
 30
0.0
  0
VERTEX
  5
7A8
330
778
100
AcDbEntity
  8
DEFAULT
100
AcDbVertex
100
AcDb2dVertex
 10
25.18561862163633
 20
32.00227701123533
 30
0.0
  0
VERTEX
  5
7A9
330
778
100
AcDbEntity
  8
DEFAULT
100
AcDbVertex
100
AcDb2dVertex
 10
25.10046902762664
 20
32.07387607860516
 30
0.0
  0
VERTEX
  5
7AA
330
778
100
AcDbEntity
  8
DEFAULT
100
AcDbVertex
100
AcDb2dVertex
 10
25.01333543870689
 20
32.14297801362759
 30
0.0
  0
VERTEX
  5
7AB
330
778
100
AcDbEntity
  8
DEFAULT
100
AcDbVertex
100
AcDb2dVertex
 10
24.92412724611487
 20
32.20931670565954
 30
0.0
  0
VERTEX
  5
7AC
330
778
100
AcDbEntity
  8
DEFAULT
100
AcDbVertex
100
AcDb2dVertex
 10
24.87867553329936
 20
32.24130470510315
 30
0.0
  0
VERTEX
  5
7AD
330
778
100
AcDbEntity
  8
DEFAULT
100
AcDbVertex
100
AcDb2dVertex
 10
24.83261464141103
 20
32.27241730005804
 30
0.0
  0
VERTEX
  5
7AE
330
778
100
AcDbEntity
  8
DEFAULT
100
AcDbVertex
100
AcDb2dVertex
 10
24.78591149440501
 20
32.30258861044382
 30
0.0
  0
VERTEX
  5
7AF
330
778
100
AcDbEntity
  8
DEFAULT
100
AcDbVertex
100
AcDb2dVertex
 10
24.73853301623645
 20
32.33175275618014
 30
0.0
  0
VERTEX
  5
7B0
330
778
100
AcDbEntity
  8
DEFAULT
100
AcDbVertex
100
AcDb2dVertex
 10
24.69044613086049
 20
32.35984385718663
 30
0.0
  0
VERTEX
  5
7B1
330
778
100
AcDbEntity
  8
DEFAULT
100
AcDbVertex
100
AcDb2dVertex
 10
24.64161776223224
 20
32.38679603338292
 30
0.0
  0
VERTEX
  5
7B2
330
778
100
AcDbEntity
  8
DEFAULT
100
AcDbVertex
100
AcDb2dVertex
 10
24.59201632989381
 20
32.41247855861475
 30
0.0
  0
VERTEX
  5
7B3
330
778
100
AcDbEntity
  8
DEFAULT
100
AcDbVertex
100
AcDb2dVertex
 10
24.56691762194966
 20
32.42472584548302
 30
0.0
  0
VERTEX
  5
7B4
330
778
100
AcDbEntity
  8
DEFAULT
100
AcDbVertex
100
AcDb2dVertex
 10
24.54161623573502
 20
32.43650132243224
 30
0.0
  0
VERTEX
  5
7B5
330
778
100
AcDbEntity
  8
DEFAULT
100
AcDbVertex
100
AcDb2dVertex
 10
24.5161091584345
 20
32.44774811989693
 30
0.0
  0
VERTEX
  5
7B6
330
778
100
AcDbEntity
  8
DEFAULT
100
AcDbVertex
100
AcDb2dVertex
 10
24.49039337723267
 20
32.45840936831163
 30
0.0
  0
VERTEX
  5
7B7
330
778
100
AcDbEntity
  8
DEFAULT
100
AcDbVertex
100
AcDb2dVertex
 10
24.46446587931416
 20
32.46842819811085
 30
0.0
  0
VERTEX
  5
7B8
330
778
100
AcDbEntity
  8
DEFAULT
100
AcDbVertex
100
AcDb2dVertex
 10
24.43832365186355
 20
32.47774773972913
 30
0.0
  0
VERTEX
  5
7B9
330
778
100
AcDbEntity
  8
DEFAULT
100
AcDbVertex
100
AcDb2dVertex
 10
24.41196368206544
 20
32.486311123601
 30
0.0
  0
VERTEX
  5
7BA
330
778
100
AcDbEntity
  8
DEFAULT
100
AcDbVertex
100
AcDb2dVertex
 10
24.38538295710443
 20
32.49406148016099
 30
0.0
  0
VERTEX
  5
7BB
330
778
100
AcDbEntity
  8
DEFAULT
100
AcDbVertex
100
AcDb2dVertex
 10
24.35857846416512
 20
32.50094193984363
 30
0.0
  0
VERTEX
  5
7BC
330
778
100
AcDbEntity
  8
DEFAULT
100
AcDbVertex
100
AcDb2dVertex
 10
24.34509136319879
 20
32.50403818661673
 30
0.0
  0
VERTEX
  5
7BD
330
778
100
AcDbEntity
  8
DEFAULT
100
AcDbVertex
100
AcDb2dVertex
 10
24.33154719043211
 20
32.50689563308343
 30
0.0
  0
VERTEX
  5
7BE
330
778
100
AcDbEntity
  8
DEFAULT
100
AcDbVertex
100
AcDb2dVertex
 10
24.31794556926315
 20
32.50950717054806
 30
0.0
  0
VERTEX
  5
7BF
330
778
100
AcDbEntity
  8
DEFAULT
100
AcDbVertex
100
AcDb2dVertex
 10
24.30428612308999
 20
32.51186569031494
 30
0.0
  0
VERTEX
  5
7C0
330
778
100
AcDbEntity
  8
DEFAULT
100
AcDbVertex
100
AcDb2dVertex
 10
24.2905684753107
 20
32.51396408368838
 30
0.0
  0
VERTEX
  5
7C1
330
778
100
AcDbEntity
  8
DEFAULT
100
AcDbVertex
100
AcDb2dVertex
 10
24.27679224932336
 20
32.51579524197268
 30
0.0
  0
VERTEX
  5
7C2
330
778
100
AcDbEntity
  8
DEFAULT
100
AcDbVertex
100
AcDb2dVertex
 10
24.26295706852605
 20
32.51735205647218
 30
0.0
  0
VERTEX
  5
7C3
330
778
100
AcDbEntity
  8
DEFAULT
100
AcDbVertex
100
AcDb2dVertex
 10
24.24906255631684
 20
32.51862741849119
 30
0.0
  0
VERTEX
  5
7C4
330
778
100
AcDbEntity
  8
DEFAULT
100
AcDbVertex
100
AcDb2dVertex
 10
24.23510833609379
 20
32.51961421933402
 30
0.0
  0
VERTEX
  5
7C5
330
778
100
AcDbEntity
  8
DEFAULT
100
AcDbVertex
100
AcDb2dVertex
 10
24.22109403125499
 20
32.52030535030498
 30
0.0
  0
VERTEX
  5
7C6
330
778
100
AcDbEntity
  8
DEFAULT
100
AcDbVertex
100
AcDb2dVertex
 10
23.92697706849847
 20
32.52086910178365
 30
0.0
  0
VERTEX
  5
7C7
330
778
100
AcDbEntity
  8
DEFAULT
100
AcDbVertex
100
AcDb2dVertex
 10
23.63295787778013
 20
32.51487757357695
 30
0.0
  0
VERTEX
  5
7C8
330
778
100
AcDbEntity
  8
DEFAULT
100
AcDbVertex
100
AcDb2dVertex
 10
23.33916089683543
 20
32.50200331743632
 30
0.0
  0
VERTEX
  5
7C9
330
778
100
AcDbEntity
  8
DEFAULT
100
AcDbVertex
100
AcDb2dVertex
 10
23.04580223063705
 20
32.48146803910954
 30
0.0
  0
VERTEX
  5
7CA
330
778
100
AcDbEntity
  8
DEFAULT
100
AcDbVertex
100
AcDb2dVertex
 10
22.89938925184705
 20
32.46786988264257
 30
0.0
  0
VERTEX
  5
7CB
330
778
100
AcDbEntity
  8
DEFAULT
100
AcDbVertex
100
AcDb2dVertex
 10
22.75332553433999
 20
32.45098438295997
 30
0.0
  0
SEQEND
  5
7CC
330
778
100
AcDbEntity
  8
DEFAULT
  0
ENDSEC
  0
SECTION
  2
OBJECTS
  0
DICTIONARY
  5
C
330
0
100
AcDbDictionary
  3
ACAD_GROUP
350
D
  3
ACAD_LAYOUT
350
1A
  3
ACAD_MLEADERSTYLE
350
7EF
  3
ACAD_MLINESTYLE
350
17
  3
ACAD_PLOTSETTINGS
350
19
  3
ACAD_VISUALSTYLE
350
2A
  3
ACDBHEADERROUNDTRIPXREC
350
7CD
  3
ACDBVARIABLEDICTIONARY
350
7ED
  0
DICTIONARY
  5
D
102
{ACAD_REACTORS
330
C
102
}
330
C
100
AcDbDictionary
  0
DICTIONARY
  5
1A
102
{ACAD_REACTORS
330
C
102
}
330
C
100
AcDbDictionary
  0
DICTIONARY
  5
7EF
102
{ACAD_REACTORS
330
C
102
}
330
C
100
AcDbDictionary
  0
DICTIONARY
  5
17
102
{ACAD_REACTORS
330
C
102
}
330
C
100
AcDbDictionary
  3
STANDARD
350
18
  0
DICTIONARY
  5
19
102
{ACAD_REACTORS
330
C
102
}
330
C
100
AcDbDictionary
  0
DICTIONARY
  5
2A
102
{ACAD_REACTORS
330
C
102
}
330
C
100
AcDbDictionary
  3
2DWIREFRAME
350
2F
  3
3D_HIDDEN
350
31
  3
3DWIREFRAME
350
30
  3
BASIC
350
32
  3
BRIGHTEN
350
36
  3
COLORCHANGE
350
3A
  3
CONCEPTUAL
350
34
  3
DIM
350
35
  3
FACEPATTERN
350
39
  3
FLAT
350
2B
  3
FLATWITHEDGES
350
2C
  3
GOURAUD
350
2D
  3
GOURAUDWITHEDGES
350
2E
  3
LINEPATTERN
350
38
  3
REALISTIC
350
33
  3
THICKEN
350
37
  0
DICTIONARY
  5
7CD
102
{ACAD_REACTORS
330
C
102
}
330
C
100
AcDbDictionary
  3
CEPSNTYPE
350
7D6
  3
DIMSTYLEDATA
350
7EC
  3
FINGERPRINTGUID
350
7D7
  3
HYPERLINKBASE
350
7D0
  3
INSUNITS
350
7D5
  3
LAYOUTDICT
350
7D2
  3
LWETCUNION
350
7D4
  3
PLOTSETDICT
350
7D3
  3
PSVPSCALE
350
7D9
  3
PUCSBASE
350
7DC
  3
PUCSORGBACK
350
7E2
  3
PUCSORGBOTTOM
350
7DE
  3
PUCSORGFRONT
350
7E1
  3
PUCSORGLEFT
350
7DF
  3
PUCSORGRIGHT
350
7E0
  3
PUCSORGTOP
350
7DD
  3
PUCSORTHOREF
350
7DA
  3
PUCSORTHOVIEW
350
7DB
  3
STYLESHEET
350
7D1
  3
TSTACKALIGN
350
7CE
  3
TSTACKSIZE
350
7CF
  3
UCSBASE
350
7E5
  3
UCSORGBACK
350
7EB
  3
UCSORGBOTTOM
350
7E7
  3
UCSORGFRONT
350
7EA
  3
UCSORGLEFT
350
7E8
  3
UCSORGRIGHT
350
7E9
  3
UCSORGTOP
350
7E6
  3
UCSORTHOREF
350
7E3
  3
UCSORTHOVIEW
350
7E4
  3
VERSIONGUID
350
7D8
  0
DICTIONARY
  5
7ED
102
{ACAD_REACTORS
330
C
102
}
330
C
100
AcDbDictionary
  0
MLINESTYLE
  5
18
102
{ACAD_REACTORS
330
17
102
}
330
17
100
AcDbMlineStyle
  2
Standard
 70
     0
  3

 62
   256
 51
90.0
 52
90.0
 71
     2
 49
0.5
 62
   256
  6
BYLAYER
 49
-0.5
 62
   256
  6
BYLAYER
  0
ACAD_PROXY_OBJECT
  5
2F
102
{ACAD_REACTORS
330
2A
102
}
330
2A
100
AcDbProxyObject
 90
      499
 91
      501
 93
      436
310
42CC9915DA5C99599C985B595049028333333333333E3BF0000000000000FB0107901411070040501600405405064090741402480A0340
1001
ACAD
1000
AcDbSavedByObjectVersion
1070
     0
  0
ACAD_PROXY_OBJECT
  5
31
102
{ACAD_REACTORS
330
2A
102
}
330
2A
100
AcDbProxyObject
 90
      499
 91
      501
 93
      500
310
424CD108121A5919195B90640502408333333333333E3BF0000000000000FB01079024090700405020000000000001110200405405064090740C02480A0340
1001
ACAD
1000
AcDbSavedByObjectVersion
1070
     0
  0
ACAD_PROXY_OBJECT
  5
30
102
{ACAD_REACTORS
330
2A
102
}
330
2A
100
AcDbProxyObject
 90
      499
 91
      501
 93
      436
310
42CCD915DA5C99599C985B595059028333333333333E3BF0000000000000FB0107901411070040501600405405064090741402480A0340
1001
ACAD
1000
AcDbSavedByObjectVersion
1070
     0
  0
ACAD_PROXY_OBJECT
  5
32
102
{ACAD_REACTORS
330
2A
102
}
330
2A
100
AcDbProxyObject
 90
      499
 91
      501
 93
      388
310
4150985CDA58D07406404333333333333E3BF0000000000000FB0107A41107004050150841D405064090741402480A0350
1001
ACAD
1000
AcDbSavedByObjectVersion
1070
     0
  0
ACAD_PROXY_OBJECT
  5
36
102
{ACAD_REACTORS
330
2A
102
}
330
2A
100
AcDbProxyObject
 90
      499
 91
      501
 93
      428
310
42109C9A59DA1D195B90C409028333333333333E3BF0000000000000FB010790141107004050150841D405064090741402480A029950
1001
ACAD
1000
AcDbSavedByObjectVersion
1070
     0
  0
ACAD_PROXY_OBJECT
  5
3A
102
{ACAD_REACTORS
330
2A
102
}
330
2A
100
AcDbProxyObject
 90
      499
 91
      501
 93
      452
310
42D0DBDB1BDC90DA185B99D95104090240C333333333333E3BF0000000000000FB0108901411070040501508421405064090741402480A0350
1001
ACAD
1000
AcDbSavedByObjectVersion
1070
     0
  0
ACAD_PROXY_OBJECT
  5
34
102
{ACAD_REACTORS
330
2A
102
}
330
2A
100
AcDbProxyObject
 90
      499
 91
      501
 93
      500
310
4290DBDB98D95C1D1D585B10940D028333333333333E3BF0000000000000FB0107902409070040501000000000000111010841D405064090740C02480A0340
1001
ACAD
1000
AcDbSavedByObjectVersion
1070
     0
  0
ACAD_PROXY_OBJECT
  5
35
102
{ACAD_REACTORS
330
2A
102
}
330
2A
100
AcDbProxyObject
 90
      499
 91
      501
 93
      412
310
40D11A5B50B409028333333333333E3BF0000000000000FB010790141107004050150841D405064090741402480A02677FFFFFD0
1001
ACAD
1000
AcDbSavedByObjectVersion
1070
     0
  0
ACAD_PROXY_OBJECT
  5
39
102
{ACAD_REACTORS
330
2A
102
}
330
2A
100
AcDbProxyObject
 90
      499
 91
      501
 93
      444
310
42D19858D95C185D1D195C9B90F409028333333333333E3BF0000000000000FB010790141107004050150841D405064090741402480A0350
1001
ACAD
1000
AcDbSavedByObjectVersion
1070
     0
  0
ACAD_PROXY_OBJECT
  5
2B
102
{ACAD_REACTORS
330
2A
102
}
330
2A
100
AcDbProxyObject
 90
      499
 91
      501
 93
      388
310
41119B185D240901404333333333333E3BF0000000000000F9010740A41107004050150841D405064090741402480A1B50
1001
ACAD
1000
AcDbSavedByObjectVersion
1070
     0
  0
ACAD_PROXY_OBJECT
  5
2C
102
{ACAD_REACTORS
330
2A
102
}
330
2A
100
AcDbProxyObject
 90
      499
 91
      501
 93
      476
310
43519B185D15DA5D1A115919D95CD0140901404333333333333E3BF0000000000000F9010740901411070040501600405405064090741402480A1B50
1001
ACAD
1000
AcDbSavedByObjectVersion
1070
     0
  0
ACAD_PROXY_OBJECT
  5
2D
102
{ACAD_REACTORS
330
2A
102
}
330
2A
100
AcDbProxyObject
 90
      499
 91
      501
 93
      412
310
41D1DBDD5C985D5910240902404333333333333E3BF0000000000000F9010740A411070040501641D405064090741402480A1B50
1001
ACAD
1000
AcDbSavedByObjectVersion
1070
     0
  0
ACAD_PROXY_OBJECT
  5
2E
102
{ACAD_REACTORS
330
2A
102
}
330
2A
100
AcDbProxyObject
 90
      499
 91
      501
 93
      500
310
4411DBDD5C985D5915DA5D1A115919D95CD0340902404333333333333E3BF0000000000000F9010740901411070040501600405405064090741402480A1B50
1001
ACAD
1000
AcDbSavedByObjectVersion
1070
     0
  0
ACAD_PROXY_OBJECT
  5
38
102
{ACAD_REACTORS
330
2A
102
}
330
2A
100
AcDbProxyObject
 90
      499
 91
      501
 93
      444
310
42D31A5B995C185D1D195C9B90E409028333333333333E3BF0000000000000FB010790141107004050750841D405064090741402483A0350
1001
ACAD
1000
AcDbSavedByObjectVersion
1070
     0
  0
ACAD_PROXY_OBJECT
  5
33
102
{ACAD_REACTORS
330
2A
102
}
330
2A
100
AcDbProxyObject
 90
      499
 91
      501
 93
      420
310
425499585B1A5CDD1A58D08409028333333333333E3BF0000000000000FB01079019070040501508421405064090741402480A1B40
1001
ACAD
1000
AcDbSavedByObjectVersion
1070
     0
  0
ACAD_PROXY_OBJECT
  5
37
102
{ACAD_REACTORS
330
2A
102
}
330
2A
100
AcDbProxyObject
 90
      499
 91
      501
 93
      412
310
41D51A1A58DAD95B90D409028333333333333E3BF0000000000000FB010790141107004050150C41D405064090741402480A0350
1001
ACAD
1000
AcDbSavedByObjectVersion
1070
     0
  0
ACAD_PROXY_OBJECT
  5
7D6
102
{ACAD_REACTORS
330
7CD
102
}
330
7CD
100
AcDbProxyObject
 90
      499
 91
      502
 93
       58
310
4196800000000000
  0
ACAD_PROXY_OBJECT
  5
7EC
102
{ACAD_REACTORS
330
7CD
102
}
330
7CD
100
AcDbProxyObject
 90
      499
 91
      502
 93
      370
310
4B7A00C180079114D51653117A80C040079ECB8105C0518000800B811500550044400000000000003A80C040079F40
  0
ACAD_PROXY_OBJECT
  5
7D7
102
{ACAD_REACTORS
330
7CD
102
}
330
7CD
100
AcDbProxyObject
 90
      499
 91
      502
 93
      354
310
4AC0400980079ED18C51104CD10E0C4B50D10E10CB4D0D0C518B4E4D50D08B4C8E518E4D8D8DD1504D514C5F40
  0
ACAD_PROXY_OBJECT
  5
7D0
102
{ACAD_REACTORS
330
7CD
102
}
330
7CD
100
AcDbProxyObject
 90
      499
 91
      502
 93
       50
310
41404000000780
  0
ACAD_PROXY_OBJECT
  5
7D5
102
{ACAD_REACTORS
330
7CD
102
}
330
7CD
100
AcDbProxyObject
 90
      499
 91
      502
 93
       58
310
4196800040000000
  0
ACAD_PROXY_OBJECT
  5
7D2
102
{ACAD_REACTORS
330
7CD
102
}
330
7CD
100
AcDbProxyObject
 90
      499
 91
      502
 93
       90
310
429500468000000000000000
  0
ACAD_PROXY_OBJECT
  5
7D4
102
{ACAD_REACTORS
330
7CD
102
}
330
7CD
100
AcDbProxyObject
 90
      499
 91
      502
 93
       58
310
419680074A800000
  0
ACAD_PROXY_OBJECT
  5
7D3
102
{ACAD_REACTORS
330
7CD
102
}
330
7CD
100
AcDbProxyObject
 90
      499
 91
      502
 93
       90
310
429500464000000000000000
  0
ACAD_PROXY_OBJECT
  5
7D9
102
{ACAD_REACTORS
330
7CD
102
}
330
7CD
100
AcDbProxyObject
 90
      499
 91
      502
 93
       90
310
428A00000000000000000000
  0
ACAD_PROXY_OBJECT
  5
7DC
102
{ACAD_REACTORS
330
7CD
102
}
330
7CD
100
AcDbProxyObject
 90
      499
 91
      502
 93
       90
310
429500400000000000000000
  0
ACAD_PROXY_OBJECT
  5
7E2
102
{ACAD_REACTORS
330
7CD
102
}
330
7CD
100
AcDbProxyObject
 90
      499
 91
      502
 93
      218
310
46828000000000000000000000000000000000000000000000000000
  0
ACAD_PROXY_OBJECT
  5
7DE
102
{ACAD_REACTORS
330
7CD
102
}
330
7CD
100
AcDbProxyObject
 90
      499
 91
      502
 93
      218
310
46828000000000000000000000000000000000000000000000000000
  0
ACAD_PROXY_OBJECT
  5
7E1
102
{ACAD_REACTORS
330
7CD
102
}
330
7CD
100
AcDbProxyObject
 90
      499
 91
      502
 93
      218
310
46828000000000000000000000000000000000000000000000000000
  0
ACAD_PROXY_OBJECT
  5
7DF
102
{ACAD_REACTORS
330
7CD
102
}
330
7CD
100
AcDbProxyObject
 90
      499
 91
      502
 93
      218
310
46828000000000000000000000000000000000000000000000000000
  0
ACAD_PROXY_OBJECT
  5
7E0
102
{ACAD_REACTORS
330
7CD
102
}
330
7CD
100
AcDbProxyObject
 90
      499
 91
      502
 93
      218
310
46828000000000000000000000000000000000000000000000000000
  0
ACAD_PROXY_OBJECT
  5
7DD
102
{ACAD_REACTORS
330
7CD
102
}
330
7CD
100
AcDbProxyObject
 90
      499
 91
      502
 93
      218
310
46828000000000000000000000000000000000000000000000000000
  0
ACAD_PROXY_OBJECT
  5
7DA
102
{ACAD_REACTORS
330
7CD
102
}
330
7CD
100
AcDbProxyObject
 90
      499
 91
      502
 93
       90
310
429500400000000000000000
  0
ACAD_PROXY_OBJECT
  5
7DB
102
{ACAD_REACTORS
330
7CD
102
}
330
7CD
100
AcDbProxyObject
 90
      499
 91
      502
 93
       42
310
411180000000
  0
ACAD_PROXY_OBJECT
  5
7D1
102
{ACAD_REACTORS
330
7CD
102
}
330
7CD
100
AcDbProxyObject
 90
      499
 91
      502
 93
       50
310
41404000000780
  0
ACAD_PROXY_OBJECT
  5
7CE
102
{ACAD_REACTORS
330
7CD
102
}
330
7CD
100
AcDbProxyObject
 90
      499
 91
      502
 93
       58
310
4196800040000000
  0
ACAD_PROXY_OBJECT
  5
7CF
102
{ACAD_REACTORS
330
7CD
102
}
330
7CD
100
AcDbProxyObject
 90
      499
 91
      502
 93
       58
310
4196801180000000
  0
ACAD_PROXY_OBJECT
  5
7E5
102
{ACAD_REACTORS
330
7CD
102
}
330
7CD
100
AcDbProxyObject
 90
      499
 91
      502
 93
       90
310
429500400000000000000000
  0
ACAD_PROXY_OBJECT
  5
7EB
102
{ACAD_REACTORS
330
7CD
102
}
330
7CD
100
AcDbProxyObject
 90
      499
 91
      502
 93
      218
310
46828000000000000000000000000000000000000000000000000000
  0
ACAD_PROXY_OBJECT
  5
7E7
102
{ACAD_REACTORS
330
7CD
102
}
330
7CD
100
AcDbProxyObject
 90
      499
 91
      502
 93
      218
310
46828000000000000000000000000000000000000000000000000000
  0
ACAD_PROXY_OBJECT
  5
7EA
102
{ACAD_REACTORS
330
7CD
102
}
330
7CD
100
AcDbProxyObject
 90
      499
 91
      502
 93
      218
310
46828000000000000000000000000000000000000000000000000000
  0
ACAD_PROXY_OBJECT
  5
7E8
102
{ACAD_REACTORS
330
7CD
102
}
330
7CD
100
AcDbProxyObject
 90
      499
 91
      502
 93
      218
310
46828000000000000000000000000000000000000000000000000000
  0
ACAD_PROXY_OBJECT
  5
7E9
102
{ACAD_REACTORS
330
7CD
102
}
330
7CD
100
AcDbProxyObject
 90
      499
 91
      502
 93
      218
310
46828000000000000000000000000000000000000000000000000000
  0
ACAD_PROXY_OBJECT
  5
7E6
102
{ACAD_REACTORS
330
7CD
102
}
330
7CD
100
AcDbProxyObject
 90
      499
 91
      502
 93
      218
310
46828000000000000000000000000000000000000000000000000000
  0
ACAD_PROXY_OBJECT
  5
7E3
102
{ACAD_REACTORS
330
7CD
102
}
330
7CD
100
AcDbProxyObject
 90
      499
 91
      502
 93
       90
310
429500400000000000000000
  0
ACAD_PROXY_OBJECT
  5
7E4
102
{ACAD_REACTORS
330
7CD
102
}
330
7CD
100
AcDbProxyObject
 90
      499
 91
      502
 93
       42
310
411180000000
  0
ACAD_PROXY_OBJECT
  5
7D8
102
{ACAD_REACTORS
330
7CD
102
}
330
7CD
100
AcDbProxyObject
 90
      499
 91
      502
 93
      354
310
4AC0400980079ED19051508C50CCCC8B514C0C4E4B4C4C510D4B4E4C8E508B4C0C10CC11118C8D4D9150CD1F40
  0
ENDSEC
  0
EOF
