  0
SECTION
  2
HEADER
  9
$ACADVER
  1
AC1018
  9
$ACADMAINTVER
 70
     0
  9
$DWGCODEPAGE
  3
ANSI_1252
  9
$INSBASE
 10
0.0
 20
0.0
 30
0.0
  9
$EXTMIN
 10
-0.000724054806891
 20
0.000717657730816
 30
0.0
  9
$EXTMAX
 10
49.2018709528942
 20
40.59796675646561
 30
0.0
  9
$LIMMIN
 10
0.0
 20
0.0
  9
$LIMMAX
 10
12.0
 20
9.0
  9
$ORTHOMODE
 70
     0
  9
$REGENMODE
 70
     1
  9
$FILLMODE
 70
     1
  9
$QTEXTMODE
 70
     0
  9
$MIRRTEXT
 70
     1
  9
$LTSCALE
 40
0.0393700787401575
  9
$ATTMODE
 70
     1
  9
$TEXTSIZE
 40
0.2
  9
$TRACEWID
 40
0.05
  9
$TEXTSTYLE
  7
Standard
  9
$CLAYER
  8
DEFAULT
  9
$CELTYPE
  6
ByLayer
  9
$CECOLOR
 62
   256
  9
$CELTSCALE
 40
1.0
  9
$DISPSILH
 70
     0
  9
$DIMSCALE
 40
1.0
  9
$DIMASZ
 40
0.18
  9
$DIMEXO
 40
0.0625
  9
$DIMDLI
 40
0.38
  9
$DIMRND
 40
0.0
  9
$DIMDLE
 40
0.0
  9
$DIMEXE
 40
0.18
  9
$DIMTP
 40
0.0
  9
$DIMTM
 40
0.0
  9
$DIMTXT
 40
0.18
  9
$DIMCEN
 40
0.09
  9
$DIMTSZ
 40
0.0
  9
$DIMTOL
 70
     0
  9
$DIMLIM
 70
     0
  9
$DIMTIH
 70
     1
  9
$DIMTOH
 70
     1
  9
$DIMSE1
 70
     0
  9
$DIMSE2
 70
     0
  9
$DIMTAD
 70
     0
  9
$DIMZIN
 70
     0
  9
$DIMBLK
  1

  9
$DIMASO
 70
     1
  9
$DIMSHO
 70
     1
  9
$DIMPOST
  1

  9
$DIMAPOST
  1

  9
$DIMALT
 70
     0
  9
$DIMALTD
 70
     2
  9
$DIMALTF
 40
25.4
  9
$DIMLFAC
 40
1.0
  9
$DIMTOFL
 70
     0
  9
$DIMTVP
 40
0.0
  9
$DIMTIX
 70
     0
  9
$DIMSOXD
 70
     0
  9
$DIMSAH
 70
     0
  9
$DIMBLK1
  1

  9
$DIMBLK2
  1

  9
$DIMSTYLE
  2
Standard
  9
$DIMCLRD
 70
     0
  9
$DIMCLRE
 70
     0
  9
$DIMCLRT
 70
     0
  9
$DIMTFAC
 40
1.0
  9
$DIMGAP
 40
0.09
  9
$DIMJUST
 70
     0
  9
$DIMSD1
 70
     0
  9
$DIMSD2
 70
     0
  9
$DIMTOLJ
 70
     1
  9
$DIMTZIN
 70
     0
  9
$DIMALTZ
 70
     0
  9
$DIMALTTZ
 70
     0
  9
$DIMUPT
 70
     0
  9
$DIMDEC
 70
     4
  9
$DIMTDEC
 70
     4
  9
$DIMALTU
 70
     2
  9
$DIMALTTD
 70
     2
  9
$DIMTXSTY
  7
Standard
  9
$DIMAUNIT
 70
     0
  9
$DIMADEC
 70
     0
  9
$DIMALTRND
 40
0.0
  9
$DIMAZIN
 70
     0
  9
$DIMDSEP
 70
    46
  9
$DIMATFIT
 70
     3
  9
$DIMFRAC
 70
     0
  9
$DIMLDRBLK
  1

  9
$DIMLUNIT
 70
     2
  9
$DIMLWD
 70
    -2
  9
$DIMLWE
 70
    -2
  9
$DIMTMOVE
 70
     2
  9
$LUNITS
 70
     2
  9
$LUPREC
 70
     3
  9
$SKETCHINC
 40
0.1
  9
$FILLETRAD
 40
0.5
  9
$AUNITS
 70
     0
  9
$AUPREC
 70
     0
  9
$MENU
  1
.
  9
$ELEVATION
 40
0.0
  9
$PELEVATION
 40
0.0
  9
$THICKNESS
 40
0.0
  9
$LIMCHECK
 70
     0
  9
$CHAMFERA
 40
0.5
  9
$CHAMFERB
 40
0.5
  9
$CHAMFERC
 40
1.0
  9
$CHAMFERD
 40
0.0
  9
$SKPOLY
 70
     0
  9
$TDCREATE
 40
2455509.635897998
  9
$TDUCREATE
 40
2455509.844231331
  9
$TDUPDATE
 40
2455509.635898009
  9
$TDUUPDATE
 40
2455509.844231342
  9
$TDINDWG
 40
0.0000000116
  9
$TDUSRTIMER
 40
0.0000000116
  9
$USRTIMER
 70
     1
  9
$ANGBASE
 50
0.0
  9
$ANGDIR
 70
     0
  9
$PDMODE
 70
     0
  9
$PDSIZE
 40
0.0
  9
$PLINEWID
 40
0.0
  9
$SPLFRAME
 70
     0
  9
$SPLINETYPE
 70
     6
  9
$SPLINESEGS
 70
     8
  9
$HANDSEED
  5
5AF
  9
$SURFTAB1
 70
     6
  9
$SURFTAB2
 70
     6
  9
$SURFTYPE
 70
     6
  9
$SURFU
 70
     6
  9
$SURFV
 70
     6
  9
$UCSBASE
  2

  9
$UCSNAME
  2

  9
$UCSORG
 10
0.0
 20
0.0
 30
0.0
  9
$UCSXDIR
 10
1.0
 20
0.0
 30
0.0
  9
$UCSYDIR
 10
0.0
 20
1.0
 30
0.0
  9
$UCSORTHOREF
  2

  9
$UCSORTHOVIEW
 70
     0
  9
$UCSORGTOP
 10
0.0
 20
0.0
 30
0.0
  9
$UCSORGBOTTOM
 10
0.0
 20
0.0
 30
0.0
  9
$UCSORGLEFT
 10
0.0
 20
0.0
 30
0.0
  9
$UCSORGRIGHT
 10
0.0
 20
0.0
 30
0.0
  9
$UCSORGFRONT
 10
0.0
 20
0.0
 30
0.0
  9
$UCSORGBACK
 10
0.0
 20
0.0
 30
0.0
  9
$PUCSBASE
  2

  9
$PUCSNAME
  2

  9
$PUCSORG
 10
0.0
 20
0.0
 30
0.0
  9
$PUCSXDIR
 10
1.0
 20
0.0
 30
0.0
  9
$PUCSYDIR
 10
0.0
 20
1.0
 30
0.0
  9
$PUCSORTHOREF
  2

  9
$PUCSORTHOVIEW
 70
     0
  9
$PUCSORGTOP
 10
0.0
 20
0.0
 30
0.0
  9
$PUCSORGBOTTOM
 10
0.0
 20
0.0
 30
0.0
  9
$PUCSORGLEFT
 10
0.0
 20
0.0
 30
0.0
  9
$PUCSORGRIGHT
 10
0.0
 20
0.0
 30
0.0
  9
$PUCSORGFRONT
 10
0.0
 20
0.0
 30
0.0
  9
$PUCSORGBACK
 10
0.0
 20
0.0
 30
0.0
  9
$USERI1
 70
     0
  9
$USERI2
 70
     0
  9
$USERI3
 70
     0
  9
$USERI4
 70
     0
  9
$USERI5
 70
     0
  9
$USERR1
 40
0.0
  9
$USERR2
 40
0.0
  9
$USERR3
 40
0.0
  9
$USERR4
 40
0.0
  9
$USERR5
 40
0.0
  9
$WORLDVIEW
 70
     1
  9
$SHADEDGE
 70
     3
  9
$SHADEDIF
 70
    70
  9
$TILEMODE
 70
     1
  9
$MAXACTVP
 70
    64
  9
$PINSBASE
 10
0.0
 20
0.0
 30
0.0
  9
$PLIMCHECK
 70
     0
  9
$PEXTMIN
 10
1.000000000000000E+20
 20
1.000000000000000E+20
 30
1.000000000000000E+20
  9
$PEXTMAX
 10
-1.000000000000000E+20
 20
-1.000000000000000E+20
 30
-1.000000000000000E+20
  9
$PLIMMIN
 10
0.0
 20
0.0
  9
$PLIMMAX
 10
12.0
 20
9.0
  9
$UNITMODE
 70
     0
  9
$VISRETAIN
 70
     1
  9
$PLINEGEN
 70
     0
  9
$PSLTSCALE
 70
     1
  9
$TREEDEPTH
 70
  3020
  9
$CMLSTYLE
  2
Standard
  9
$CMLJUST
 70
     0
  9
$CMLSCALE
 40
1.0
  9
$PROXYGRAPHICS
 70
     1
  9
$MEASUREMENT
 70
     0
  9
$CELWEIGHT
370
    -1
  9
$ENDCAPS
280
     0
  9
$JOINSTYLE
280
     0
  9
$LWDISPLAY
290
     0
  9
$INSUNITS
 70
     1
  9
$HYPERLINKBASE
  1

  9
$STYLESHEET
  1

  9
$XEDIT
290
     1
  9
$CEPSNTYPE
380
     0
  9
$PSTYLEMODE
290
     1
  9
$FINGERPRINTGUID
  2
{A3CA72EE-8B27-46EF-91AB-4CEB19813047}
  9
$VERSIONGUID
  2
{FAEB1C32-E019-11D5-929B-00C0DF256EC4}
  9
$EXTNAMES
290
     1
  9
$PSVPSCALE
 40
0.0
  9
$OLESTARTUP
290
     0
  9
$SORTENTS
280
   127
  9
$INDEXCTL
280
     0
  9
$HIDETEXT
280
     1
  9
$XCLIPFRAME
290
     0
  9
$HALOGAP
280
     0
  9
$OBSCOLOR
 70
   257
  9
$OBSLTYPE
280
     0
  9
$INTERSECTIONDISPLAY
280
     0
  9
$INTERSECTIONCOLOR
 70
   257
  9
$DIMASSOC
280
     2
  9
$PROJECTNAME
  1

  0
ENDSEC
  0
SECTION
  2
CLASSES
  0
CLASS
  1
ACDBDICTIONARYWDFLT
  2
AcDbDictionaryWithDefault
  3
ObjectDBX Classes
 90
        0
 91
        4
280
     0
281
     0
  0
CLASS
  1
VISUALSTYLE
  2
AcDbVisualStyle
  3
ObjectDBX Classes
 90
     4095
 91
        4
280
     0
281
     0
  0
ENDSEC
  0
SECTION
  2
TABLES
  0
TABLE
  2
VPORT
  5
8
330
0
100
AcDbSymbolTable
 70
     1
  0
VPORT
  5
29
330
8
100
AcDbSymbolTableRecord
100
AcDbViewportTableRecord
  2
*Active
 70
     0
 10
0.0
 20
0.0
 11
1.0
 21
1.0
 12
24.60057344904365
 22
20.29934220709821
 13
0.0
 23
0.0
 14
0.5
 24
0.5
 15
0.5
 25
0.5
 16
0.0
 26
0.0
 36
1.0
 17
0.0
 27
0.0
 37
0.0
 40
41.40919408070949
 41
1.211968694924072
 42
50.0
 43
0.0
 44
0.0
 50
0.0
 51
0.0
 71
     0
 72
   100
 73
     1
 74
     3
 75
     0
 76
     0
 77
     0
 78
     0
281
     0
 65
     1
110
0.0
120
0.0
130
0.0
111
1.0
121
0.0
131
0.0
112
0.0
122
1.0
132
0.0
 79
     0
146
0.0
  0
ENDTAB
  0
TABLE
  2
LTYPE
  5
5
330
0
100
AcDbSymbolTable
 70
     1
  0
LTYPE
  5
14
330
5
100
AcDbSymbolTableRecord
100
AcDbLinetypeTableRecord
  2
ByBlock
 70
     0
  3

 72
    65
 73
     0
 40
0.0
  0
LTYPE
  5
15
330
5
100
AcDbSymbolTableRecord
100
AcDbLinetypeTableRecord
  2
ByLayer
 70
     0
  3

 72
    65
 73
     0
 40
0.0
  0
LTYPE
  5
16
330
5
100
AcDbSymbolTableRecord
100
AcDbLinetypeTableRecord
  2
Continuous
 70
     0
  3
Solid line
 72
    65
 73
     0
 40
0.0
  0
ENDTAB
  0
TABLE
  2
LAYER
  5
2
330
0
100
AcDbSymbolTable
 70
     4
  0
LAYER
  5
10
330
2
100
AcDbSymbolTableRecord
100
AcDbLayerTableRecord
  2
0
 70
     0
 62
     7
  6
Continuous
370
    -3
390
F
  0
LAYER
  5
3B
330
2
100
AcDbSymbolTableRecord
100
AcDbLayerTableRecord
  2
MAKE2D VISIBLE LINES
 70
     0
 62
     7
  6
Continuous
370
    -3
390
F
  0
LAYER
  5
6D
330
2
100
AcDbSymbolTableRecord
100
AcDbLayerTableRecord
  2
DEFAULT
 70
     0
 62
     7
  6
Continuous
370
    -3
390
F
  0
LAYER
  5
4B7
330
2
100
AcDbSymbolTableRecord
100
AcDbLayerTableRecord
  2
MAKE2D VISIBLE LINES - TANGENT
 70
     0
 62
     7
  6
Continuous
370
    -3
390
F
  0
ENDTAB
  0
TABLE
  2
STYLE
  5
3
330
0
100
AcDbSymbolTable
 70
     1
  0
STYLE
  5
11
330
3
100
AcDbSymbolTableRecord
100
AcDbTextStyleTableRecord
  2
Standard
 70
     0
 40
0.0
 41
1.0
 50
0.0
 71
     0
 42
0.2
  3
txt
  4

  0
ENDTAB
  0
TABLE
  2
VIEW
  5
6
330
0
100
AcDbSymbolTable
 70
     0
  0
ENDTAB
  0
TABLE
  2
UCS
  5
7
330
0
100
AcDbSymbolTable
 70
     0
  0
ENDTAB
  0
TABLE
  2
APPID
  5
9
330
0
100
AcDbSymbolTable
 70
     1
  0
APPID
  5
12
330
9
100
AcDbSymbolTableRecord
100
AcDbRegAppTableRecord
  2
ACAD
 70
     0
  0
ENDTAB
  0
TABLE
  2
DIMSTYLE
  5
A
330
0
100
AcDbSymbolTable
 70
     1
100
AcDbDimStyleTable
  0
DIMSTYLE
105
27
330
A
100
AcDbSymbolTableRecord
100
AcDbDimStyleTableRecord
  2
Standard
 70
     0
340
11
  0
ENDTAB
  0
TABLE
  2
BLOCK_RECORD
  5
1
330
0
100
AcDbSymbolTable
 70
     1
  0
BLOCK_RECORD
  5
1F
330
1
100
AcDbSymbolTableRecord
100
AcDbBlockTableRecord
  2
*Model_Space
340
22
  0
BLOCK_RECORD
  5
1B
330
1
100
AcDbSymbolTableRecord
100
AcDbBlockTableRecord
  2
*Paper_Space
340
1E
  0
BLOCK_RECORD
  5
23
330
1
100
AcDbSymbolTableRecord
100
AcDbBlockTableRecord
  2
*Paper_Space0
340
26
  0
ENDTAB
  0
ENDSEC
  0
SECTION
  2
BLOCKS
  0
BLOCK
  5
20
330
1F
100
AcDbEntity
  8
0
100
AcDbBlockBegin
  2
*Model_Space
 70
     0
 10
0.0
 20
0.0
 30
0.0
  3
*Model_Space
  1

  0
ENDBLK
  5
21
330
1F
100
AcDbEntity
  8
0
100
AcDbBlockEnd
  0
BLOCK
  5
1C
330
1B
100
AcDbEntity
 67
     1
  8
0
100
AcDbBlockBegin
  2
*Paper_Space
 70
     0
 10
0.0
 20
0.0
 30
0.0
  3
*Paper_Space
  1

  0
ENDBLK
  5
1D
330
1B
100
AcDbEntity
 67
     1
  8
0
100
AcDbBlockEnd
  0
BLOCK
  5
24
330
23
100
AcDbEntity
  8
0
100
AcDbBlockBegin
  2
*Paper_Space0
 70
     0
 10
0.0
 20
0.0
 30
0.0
  3
*Paper_Space0
  1

  0
ENDBLK
  5
25
330
23
100
AcDbEntity
  8
0
100
AcDbBlockEnd
  0
ENDSEC
  0
SECTION
  2
ENTITIES
  0
LINE
  5
3C
330
1F
100
AcDbEntity
  8
MAKE2D VISIBLE LINES
100
AcDbLine
 10
37.50402639109911
 20
12.12750000000018
 30
0.0
 11
45.5531474999971
 21
12.12750000000018
 31
0.0
  0
LINE
  5
3D
330
1F
100
AcDbEntity
  8
MAKE2D VISIBLE LINES
100
AcDbLine
 10
47.34214729022629
 20
0.1499814271969231
 30
0.0
 11
47.34105880136071
 21
0.1465705211954144
 31
0.0
  0
LINE
  5
3E
330
1F
100
AcDbEntity
  8
MAKE2D VISIBLE LINES
100
AcDbLine
 10
47.34105880136071
 20
0.1465705211954144
 30
0.0
 11
47.33990153750823
 21
0.1431832917789728
 31
0.0
  0
LINE
  5
3F
330
1F
100
AcDbEntity
  8
MAKE2D VISIBLE LINES
100
AcDbLine
 10
47.33990153750823
 20
0.1431832917789728
 30
0.0
 11
47.33867646588273
 21
0.1398206526999348
 31
0.0
  0
LINE
  5
40
330
1F
100
AcDbEntity
  8
MAKE2D VISIBLE LINES
100
AcDbLine
 10
47.33867646588273
 20
0.1398206526999348
 30
0.0
 11
47.33738455369803
 21
0.1364835177106367
 31
0.0
  0
LINE
  5
41
330
1F
100
AcDbEntity
  8
MAKE2D VISIBLE LINES
100
AcDbLine
 10
47.33738455369803
 20
0.1364835177106367
 30
0.0
 11
47.33602676816801
 21
0.1331728005634149
 31
0.0
  0
LINE
  5
42
330
1F
100
AcDbEntity
  8
MAKE2D VISIBLE LINES
100
AcDbLine
 10
47.33602676816801
 20
0.1331728005634149
 30
0.0
 11
47.33460407650652
 21
0.1298894150106057
 31
0.0
  0
LINE
  5
43
330
1F
100
AcDbEntity
  8
MAKE2D VISIBLE LINES
100
AcDbLine
 10
47.33460407650652
 20
0.1298894150106057
 30
0.0
 11
47.33311744592742
 21
0.1266342748045455
 31
0.0
  0
LINE
  5
44
330
1F
100
AcDbEntity
  8
MAKE2D VISIBLE LINES
100
AcDbLine
 10
47.33311744592742
 20
0.1266342748045455
 30
0.0
 11
47.33156784364454
 21
0.1234082936975708
 31
0.0
  0
LINE
  5
45
330
1F
100
AcDbEntity
  8
MAKE2D VISIBLE LINES
100
AcDbLine
 10
47.33156784364454
 20
0.1234082936975708
 30
0.0
 11
47.32991799067558
 21
0.120138225778926
 31
0.0
  0
LINE
  5
46
330
1F
100
AcDbEntity
  8
MAKE2D VISIBLE LINES
100
AcDbLine
 10
47.32991799067558
 20
0.120138225778926
 30
0.0
 11
47.32820459457376
 21
0.1169005260683832
 31
0.0
  0
LINE
  5
47
330
1F
100
AcDbEntity
  8
MAKE2D VISIBLE LINES
100
AcDbLine
 10
47.32820459457376
 20
0.1169005260683832
 30
0.0
 11
47.3264290415148
 21
0.1136960713537858
 31
0.0
  0
LINE
  5
48
330
1F
100
AcDbEntity
  8
MAKE2D VISIBLE LINES
100
AcDbLine
 10
47.3264290415148
 20
0.1136960713537858
 30
0.0
 11
47.32459271767443
 21
0.1105257384229776
 31
0.0
  0
LINE
  5
49
330
1F
100
AcDbEntity
  8
MAKE2D VISIBLE LINES
100
AcDbLine
 10
47.32459271767443
 20
0.1105257384229776
 30
0.0
 11
47.32269700922835
 21
0.1073904040638018
 31
0.0
  0
LINE
  5
4A
330
1F
100
AcDbEntity
  8
MAKE2D VISIBLE LINES
100
AcDbLine
 10
47.32269700922835
 20
0.1073904040638018
 30
0.0
 11
47.32074330235228
 21
0.1042909450641022
 31
0.0
  0
LINE
  5
4B
330
1F
100
AcDbEntity
  8
MAKE2D VISIBLE LINES
100
AcDbLine
 10
47.32074330235228
 20
0.1042909450641022
 30
0.0
 11
47.31873298322196
 21
0.1012282382117223
 31
0.0
  0
LINE
  5
4C
330
1F
100
AcDbEntity
  8
MAKE2D VISIBLE LINES
100
AcDbLine
 10
47.31873298322196
 20
0.1012282382117223
 30
0.0
 11
47.31666743801308
 21
0.0982031602945056
 31
0.0
  0
LINE
  5
4D
330
1F
100
AcDbEntity
  8
MAKE2D VISIBLE LINES
100
AcDbLine
 10
47.31666743801308
 20
0.0982031602945056
 30
0.0
 11
47.31444941541583
 21
0.0950803063709692
 31
0.0
  0
LINE
  5
4E
330
1F
100
AcDbEntity
  8
MAKE2D VISIBLE LINES
100
AcDbLine
 10
47.31444941541583
 20
0.0950803063709692
 30
0.0
 11
47.31217372515427
 21
0.0919999957008305
 31
0.0
  0
LINE
  5
4F
330
1F
100
AcDbEntity
  8
MAKE2D VISIBLE LINES
100
AcDbLine
 10
47.31217372515427
 20
0.0919999957008305
 30
0.0
 11
47.3098415969035
 21
0.0889626487899038
 31
0.0
  0
LINE
  5
50
330
1F
100
AcDbEntity
  8
MAKE2D VISIBLE LINES
100
AcDbLine
 10
47.3098415969035
 20
0.0889626487899038
 30
0.0
 11
47.30745426033862
 21
0.0859686861440035
 31
0.0
  0
LINE
  5
51
330
1F
100
AcDbEntity
  8
MAKE2D VISIBLE LINES
100
AcDbLine
 10
47.30745426033862
 20
0.0859686861440035
 30
0.0
 11
47.30501294513471
 21
0.083018528268944
 31
0.0
  0
LINE
  5
52
330
1F
100
AcDbEntity
  8
MAKE2D VISIBLE LINES
100
AcDbLine
 10
47.30501294513471
 20
0.083018528268944
 30
0.0
 11
47.30251888096686
 21
0.0801125956705396
 31
0.0
  0
LINE
  5
53
330
1F
100
AcDbEntity
  8
MAKE2D VISIBLE LINES
100
AcDbLine
 10
47.30251888096686
 20
0.0801125956705396
 30
0.0
 11
47.29997329751019
 21
0.0772513088546048
 31
0.0
  0
LINE
  5
54
330
1F
100
AcDbEntity
  8
MAKE2D VISIBLE LINES
100
AcDbLine
 10
47.29997329751019
 20
0.0772513088546048
 30
0.0
 11
47.29737742443977
 21
0.0744350883269538
 31
0.0
  0
LINE
  5
55
330
1F
100
AcDbEntity
  8
MAKE2D VISIBLE LINES
100
AcDbLine
 10
47.29737742443977
 20
0.0744350883269538
 30
0.0
 11
47.29203972815808
 21
0.068939528159761
 31
0.0
  0
LINE
  5
56
330
1F
100
AcDbEntity
  8
MAKE2D VISIBLE LINES
100
AcDbLine
 10
47.29203972815808
 20
0.068939528159761
 30
0.0
 11
47.28651562952253
 21
0.0636292792154762
 31
0.0
  0
LINE
  5
57
330
1F
100
AcDbEntity
  8
MAKE2D VISIBLE LINES
100
AcDbLine
 10
47.28651562952253
 20
0.0636292792154762
 30
0.0
 11
47.28081496593386
 21
0.0585077055406144
 31
0.0
  0
LINE
  5
58
330
1F
100
AcDbEntity
  8
MAKE2D VISIBLE LINES
100
AcDbLine
 10
47.28081496593386
 20
0.0585077055406144
 30
0.0
 11
47.27494757479284
 21
0.0535781711816906
 31
0.0
  0
LINE
  5
59
330
1F
100
AcDbEntity
  8
MAKE2D VISIBLE LINES
100
AcDbLine
 10
47.27494757479284
 20
0.0535781711816906
 30
0.0
 11
47.2687274105316
 21
0.0486956946431721
 31
0.0
  0
LINE
  5
5A
330
1F
100
AcDbEntity
  8
MAKE2D VISIBLE LINES
100
AcDbLine
 10
47.2687274105316
 20
0.0486956946431721
 30
0.0
 11
47.2623479161248
 21
0.0440248644561194
 31
0.0
  0
LINE
  5
5B
330
1F
100
AcDbEntity
  8
MAKE2D VISIBLE LINES
100
AcDbLine
 10
47.2623479161248
 20
0.0440248644561194
 30
0.0
 11
47.25581685945886
 21
0.0395692099106541
 31
0.0
  0
LINE
  5
5C
330
1F
100
AcDbEntity
  8
MAKE2D VISIBLE LINES
100
AcDbLine
 10
47.25581685945886
 20
0.0395692099106541
 30
0.0
 11
47.24914200842022
 21
0.0353322602968977
 31
0.0
  0
LINE
  5
5D
330
1F
100
AcDbEntity
  8
MAKE2D VISIBLE LINES
100
AcDbLine
 10
47.24914200842022
 20
0.0353322602968977
 30
0.0
 11
47.24233113089529
 21
0.0313175449049716
 31
0.0
  0
LINE
  5
5E
330
1F
100
AcDbEntity
  8
MAKE2D VISIBLE LINES
100
AcDbLine
 10
47.24233113089529
 20
0.0313175449049716
 30
0.0
 11
47.2353919947705
 21
0.0275285930249974
 31
0.0
  0
LINE
  5
5F
330
1F
100
AcDbEntity
  8
MAKE2D VISIBLE LINES
100
AcDbLine
 10
47.2353919947705
 20
0.0275285930249974
 30
0.0
 11
47.22833236793225
 21
0.0239689339470965
 31
0.0
  0
LINE
  5
60
330
1F
100
AcDbEntity
  8
MAKE2D VISIBLE LINES
100
AcDbLine
 10
47.22833236793225
 20
0.0239689339470965
 30
0.0
 11
47.221160018267
 21
0.0206420969613906
 31
0.0
  0
LINE
  5
61
330
1F
100
AcDbEntity
  8
MAKE2D VISIBLE LINES
100
AcDbLine
 10
47.221160018267
 20
0.0206420969613906
 30
0.0
 11
47.21388271366114
 21
0.017551611358001
 31
0.0
  0
LINE
  5
62
330
1F
100
AcDbEntity
  8
MAKE2D VISIBLE LINES
100
AcDbLine
 10
47.21388271366114
 20
0.017551611358001
 30
0.0
 11
47.2065082220011
 21
0.0147010064270494
 31
0.0
  0
LINE
  5
63
330
1F
100
AcDbEntity
  8
MAKE2D VISIBLE LINES
100
AcDbLine
 10
47.2065082220011
 20
0.0147010064270494
 30
0.0
 11
47.19904431117331
 21
0.0120938114586572
 31
0.0
  0
LINE
  5
64
330
1F
100
AcDbEntity
  8
MAKE2D VISIBLE LINES
100
AcDbLine
 10
47.19904431117331
 20
0.0120938114586572
 30
0.0
 11
47.19149874906419
 21
0.0097335557429459
 31
0.0
  0
LINE
  5
65
330
1F
100
AcDbEntity
  8
MAKE2D VISIBLE LINES
100
AcDbLine
 10
47.19149874906419
 20
0.0097335557429459
 30
0.0
 11
47.18387930356016
 21
0.0076237685700371
 31
0.0
  0
LINE
  5
66
330
1F
100
AcDbEntity
  8
MAKE2D VISIBLE LINES
100
AcDbLine
 10
47.18387930356016
 20
0.0076237685700371
 30
0.0
 11
47.17619374254765
 21
0.0057679792300522
 31
0.0
  0
LINE
  5
67
330
1F
100
AcDbEntity
  8
MAKE2D VISIBLE LINES
100
AcDbLine
 10
47.17619374254765
 20
0.0057679792300522
 30
0.0
 11
47.16844983391307
 21
0.0041697170131128
 31
0.0
  0
LINE
  5
68
330
1F
100
AcDbEntity
  8
MAKE2D VISIBLE LINES
100
AcDbLine
 10
47.16844983391307
 20
0.0041697170131128
 30
0.0
 11
47.16065534554284
 21
0.0028325112093403
 31
0.0
  0
LINE
  5
69
330
1F
100
AcDbEntity
  8
MAKE2D VISIBLE LINES
100
AcDbLine
 10
47.16065534554284
 20
0.0028325112093403
 30
0.0
 11
45.64128386162771
 21
0.0007236378965598
 31
0.0
  0
ARC
  5
6A
330
1F
100
AcDbEntity
  8
MAKE2D VISIBLE LINES
100
AcDbCircle
 10
45.65296442368692
 20
0.2228664022705713
 30
0.0
 40
0.2224496421524357
100
AcDbArc
 50
192.7130218944
 51
266.9900835877519
  0
LINE
  5
6B
330
1F
100
AcDbEntity
  8
MAKE2D VISIBLE LINES
100
AcDbLine
 10
45.4359682338979
 20
0.1739123737254969
 30
0.0
 11
45.42232454118411
 21
0.3444232289715004
 31
0.0
  0
ARC
  5
6C
330
1F
100
AcDbEntity
  8
MAKE2D VISIBLE LINES
100
AcDbCircle
 10
45.59966732352412
 20
0.3619833372644659
 30
0.0
 40
0.1782100441932435
100
AcDbArc
 50
94.76859222877708
 51
185.6548741724694
  0
LINE
  5
6E
330
1F
100
AcDbEntity
  8
DEFAULT
100
AcDbLine
 10
47.20258254165852
 20
0.1500284956851952
 30
0.0
 11
47.66044941851749
 21
0.1501641144746535
 31
0.0
  0
LINE
  5
6F
330
1F
100
AcDbEntity
  8
DEFAULT
100
AcDbLine
 10
47.66044941851749
 20
0.1501641144746535
 30
0.0
 11
47.69899103354189
 21
0.1511929250541355
 31
0.0
  0
LINE
  5
70
330
1F
100
AcDbEntity
  8
DEFAULT
100
AcDbLine
 10
47.69899103354189
 20
0.1511929250541355
 30
0.0
 11
47.71831541528452
 21
0.1522730620816672
 31
0.0
  0
LINE
  5
71
330
1F
100
AcDbEntity
  8
DEFAULT
100
AcDbLine
 10
47.71831541528452
 20
0.1522730620816672
 30
0.0
 11
47.73767833732316
 21
0.1538398737408699
 31
0.0
  0
LINE
  5
72
330
1F
100
AcDbEntity
  8
DEFAULT
100
AcDbLine
 10
47.73767833732316
 20
0.1538398737408699
 30
0.0
 11
47.75707823910489
 21
0.1559651924614133
 31
0.0
  0
LINE
  5
73
330
1F
100
AcDbEntity
  8
DEFAULT
100
AcDbLine
 10
47.75707823910489
 20
0.1559651924614133
 30
0.0
 11
47.7765107938517
 21
0.1587129303804849
 31
0.0
  0
LINE
  5
74
330
1F
100
AcDbEntity
  8
DEFAULT
100
AcDbLine
 10
47.7765107938517
 20
0.1587129303804849
 30
0.0
 11
47.78623724381712
 21
0.160338080201593
 31
0.0
  0
LINE
  5
75
330
1F
100
AcDbEntity
  8
DEFAULT
100
AcDbLine
 10
47.78623724381712
 20
0.160338080201593
 30
0.0
 11
47.7959690558129
 21
0.1621393508825134
 31
0.0
  0
LINE
  5
76
330
1F
100
AcDbEntity
  8
DEFAULT
100
AcDbLine
 10
47.7959690558129
 20
0.1621393508825134
 30
0.0
 11
47.80570497656429
 21
0.1641226247781668
 31
0.0
  0
LINE
  5
77
330
1F
100
AcDbEntity
  8
DEFAULT
100
AcDbLine
 10
47.80570497656429
 20
0.1641226247781668
 30
0.0
 11
47.81544360751729
 21
0.1662933401388924
 31
0.0
  0
LINE
  5
78
330
1F
100
AcDbEntity
  8
DEFAULT
100
AcDbLine
 10
47.81544360751729
 20
0.1662933401388924
 30
0.0
 11
47.82518340944023
 21
0.1686564995960634
 31
0.0
  0
LINE
  5
79
330
1F
100
AcDbEntity
  8
DEFAULT
100
AcDbLine
 10
47.82518340944023
 20
0.1686564995960634
 30
0.0
 11
47.83492270702549
 21
0.171216678647704
 31
0.0
  0
LINE
  5
7A
330
1F
100
AcDbEntity
  8
DEFAULT
100
AcDbLine
 10
47.83492270702549
 20
0.171216678647704
 30
0.0
 11
47.84465969349107
 21
0.1739780341441052
 31
0.0
  0
LINE
  5
7B
330
1F
100
AcDbEntity
  8
DEFAULT
100
AcDbLine
 10
47.84465969349107
 20
0.1739780341441052
 30
0.0
 11
47.85439243518224
 21
0.1769443127734418
 31
0.0
  0
LINE
  5
7C
330
1F
100
AcDbEntity
  8
DEFAULT
100
AcDbLine
 10
47.85439243518224
 20
0.1769443127734418
 30
0.0
 11
47.86411887617321
 21
0.1801188595473883
 31
0.0
  0
LINE
  5
7D
330
1F
100
AcDbEntity
  8
DEFAULT
100
AcDbLine
 10
47.86411887617321
 20
0.1801188595473883
 30
0.0
 11
47.87383684286867
 21
0.1835046262867355
 31
0.0
  0
LINE
  5
7E
330
1F
100
AcDbEntity
  8
DEFAULT
100
AcDbLine
 10
47.87383684286867
 20
0.1835046262867355
 30
0.0
 11
47.88354404860555
 21
0.1871041801070063
 31
0.0
  0
LINE
  5
7F
330
1F
100
AcDbEntity
  8
DEFAULT
100
AcDbLine
 10
47.88354404860555
 20
0.1871041801070063
 30
0.0
 11
47.89323809825456
 21
0.1909197119040731
 31
0.0
  0
LINE
  5
80
330
1F
100
AcDbEntity
  8
DEFAULT
100
AcDbLine
 10
47.89323809825456
 20
0.1909197119040731
 30
0.0
 11
47.90291649282187
 21
0.1949530448397732
 31
0.0
  0
LINE
  5
81
330
1F
100
AcDbEntity
  8
DEFAULT
100
AcDbLine
 10
47.90291649282187
 20
0.1949530448397732
 30
0.0
 11
47.91257663405071
 21
0.1992056428275257
 31
0.0
  0
LINE
  5
82
330
1F
100
AcDbEntity
  8
DEFAULT
100
AcDbLine
 10
47.91257663405071
 20
0.1992056428275257
 30
0.0
 11
47.92221582902302
 21
0.2036786190179475
 31
0.0
  0
LINE
  5
83
330
1F
100
AcDbEntity
  8
DEFAULT
100
AcDbLine
 10
47.92221582902302
 20
0.2036786190179475
 30
0.0
 11
47.93183129476111
 21
0.2083727442844701
 31
0.0
  0
LINE
  5
84
330
1F
100
AcDbEntity
  8
DEFAULT
100
AcDbLine
 10
47.93183129476111
 20
0.2083727442844701
 30
0.0
 11
47.94142016282926
 21
0.2132884557089555
 31
0.0
  0
LINE
  5
85
330
1F
100
AcDbEntity
  8
DEFAULT
100
AcDbLine
 10
47.94142016282926
 20
0.2132884557089555
 30
0.0
 11
47.95097948393534
 21
0.2184258650673129
 31
0.0
  0
LINE
  5
86
330
1F
100
AcDbEntity
  8
DEFAULT
100
AcDbLine
 10
47.95097948393534
 20
0.2184258650673129
 30
0.0
 11
47.96050623253251
 21
0.2237847673151148
 31
0.0
  0
LINE
  5
87
330
1F
100
AcDbEntity
  8
DEFAULT
100
AcDbLine
 10
47.96050623253251
 20
0.2237847673151148
 30
0.0
 11
47.96999731142077
 21
0.2293646490732137
 31
0.0
  0
LINE
  5
88
330
1F
100
AcDbEntity
  8
DEFAULT
100
AcDbLine
 10
47.96999731142077
 20
0.2293646490732137
 30
0.0
 11
47.97944955634866
 21
0.2351646971133581
 31
0.0
  0
LINE
  5
89
330
1F
100
AcDbEntity
  8
DEFAULT
100
AcDbLine
 10
47.97944955634866
 20
0.2351646971133581
 30
0.0
 11
47.98885974061488
 21
0.2411838068438091
 31
0.0
  0
LINE
  5
8A
330
1F
100
AcDbEntity
  8
DEFAULT
100
AcDbLine
 10
47.98885974061488
 20
0.2411838068438091
 30
0.0
 11
47.99822457966988
 21
0.2474205907949565
 31
0.0
  0
LINE
  5
8B
330
1F
100
AcDbEntity
  8
DEFAULT
100
AcDbLine
 10
47.99822457966988
 20
0.2474205907949565
 30
0.0
 11
48.00754073571755
 21
0.2538733871049355
 31
0.0
  0
LINE
  5
8C
330
1F
100
AcDbEntity
  8
DEFAULT
100
AcDbLine
 10
48.00754073571755
 20
0.2538733871049355
 30
0.0
 11
48.01680482231684
 21
0.2605402680052429
 31
0.0
  0
LINE
  5
8D
330
1F
100
AcDbEntity
  8
DEFAULT
100
AcDbLine
 10
48.01680482231684
 20
0.2605402680052429
 30
0.0
 11
48.02601340898335
 21
0.2674190483063534
 31
0.0
  0
LINE
  5
8E
330
1F
100
AcDbEntity
  8
DEFAULT
100
AcDbLine
 10
48.02601340898335
 20
0.2674190483063534
 30
0.0
 11
48.04425016797381
 21
0.2818023301614705
 31
0.0
  0
LINE
  5
8F
330
1F
100
AcDbEntity
  8
DEFAULT
100
AcDbLine
 10
48.04425016797381
 20
0.2818023301614705
 30
0.0
 11
48.06222286280971
 21
0.2970009251870654
 31
0.0
  0
LINE
  5
90
330
1F
100
AcDbEntity
  8
DEFAULT
100
AcDbLine
 10
48.06222286280971
 20
0.2970009251870654
 30
0.0
 11
48.07990293342337
 21
0.312988950243011
 31
0.0
  0
LINE
  5
91
330
1F
100
AcDbEntity
  8
DEFAULT
100
AcDbLine
 10
48.07990293342337
 20
0.312988950243011
 30
0.0
 11
48.09726155681093
 21
0.3297372180719982
 31
0.0
  0
LINE
  5
92
330
1F
100
AcDbEntity
  8
DEFAULT
100
AcDbLine
 10
48.09726155681093
 20
0.3297372180719982
 30
0.0
 11
48.11426979428467
 21
0.3472135088392593
 31
0.0
  0
LINE
  5
93
330
1F
100
AcDbEntity
  8
DEFAULT
100
AcDbLine
 10
48.11426979428467
 20
0.3472135088392593
 30
0.0
 11
48.1308987387252
 21
0.3653828416722918
 31
0.0
  0
LINE
  5
94
330
1F
100
AcDbEntity
  8
DEFAULT
100
AcDbLine
 10
48.1308987387252
 20
0.3653828416722918
 30
0.0
 11
48.14711966183391
 21
0.3842077462005816
 31
0.0
  0
LINE
  5
95
330
1F
100
AcDbEntity
  8
DEFAULT
100
AcDbLine
 10
48.14711966183391
 20
0.3842077462005816
 30
0.0
 11
48.16290416138507
 21
0.4036485340953266
 31
0.0
  0
LINE
  5
96
330
1F
100
AcDbEntity
  8
DEFAULT
100
AcDbLine
 10
48.16290416138507
 20
0.4036485340953266
 30
0.0
 11
48.17822430847826
 21
0.4236635706091608
 31
0.0
  0
LINE
  5
97
330
1F
100
AcDbEntity
  8
DEFAULT
100
AcDbLine
 10
48.17822430847826
 20
0.4236635706091608
 30
0.0
 11
48.19305279479057
 21
0.4442095461158767
 31
0.0
  0
LINE
  5
98
330
1F
100
AcDbEntity
  8
DEFAULT
100
AcDbLine
 10
48.19305279479057
 20
0.4442095461158767
 30
0.0
 11
48.20736307982897
 21
0.4652417476501499
 31
0.0
  0
LINE
  5
99
330
1F
100
AcDbEntity
  8
DEFAULT
100
AcDbLine
 10
48.20736307982897
 20
0.4652417476501499
 30
0.0
 11
48.22112953818247
 21
0.4867143304472622
 31
0.0
  0
LINE
  5
9A
330
1F
100
AcDbEntity
  8
DEFAULT
100
AcDbLine
 10
48.22112953818247
 20
0.4867143304472622
 30
0.0
 11
48.23432760677451
 21
0.5085805894828255
 31
0.0
  0
LINE
  5
9B
330
1F
100
AcDbEntity
  8
DEFAULT
100
AcDbLine
 10
48.23432760677451
 20
0.5085805894828255
 30
0.0
 11
48.24693393211525
 21
0.5307932310125042
 31
0.0
  0
LINE
  5
9C
330
1F
100
AcDbEntity
  8
DEFAULT
100
AcDbLine
 10
48.24693393211525
 20
0.5307932310125042
 30
0.0
 11
48.25892651755379
 21
0.5533046441117406
 31
0.0
  0
LINE
  5
9D
330
1F
100
AcDbEntity
  8
DEFAULT
100
AcDbLine
 10
48.25892651755379
 20
0.5533046441117406
 30
0.0
 11
48.27028487053049
 21
0.5760671722154768
 31
0.0
  0
LINE
  5
9E
330
1F
100
AcDbEntity
  8
DEFAULT
100
AcDbLine
 10
48.27028487053049
 20
0.5760671722154768
 30
0.0
 11
48.28099014982924
 21
0.5990333846578788
 31
0.0
  0
LINE
  5
9F
330
1F
100
AcDbEntity
  8
DEFAULT
100
AcDbLine
 10
48.28099014982924
 20
0.5990333846578788
 30
0.0
 11
48.2910253128298
 21
0.6221563482120602
 31
0.0
  0
LINE
  5
A0
330
1F
100
AcDbEntity
  8
DEFAULT
100
AcDbLine
 10
48.2910253128298
 20
0.6221563482120602
 30
0.0
 11
48.30037526276001
 21
0.645389898629806
 31
0.0
  0
LINE
  5
A1
330
1F
100
AcDbEntity
  8
DEFAULT
100
AcDbLine
 10
48.30037526276001
 20
0.645389898629806
 30
0.0
 11
48.30902699594813
 21
0.6686889121812956
 31
0.0
  0
LINE
  5
A2
330
1F
100
AcDbEntity
  8
DEFAULT
100
AcDbLine
 10
48.30902699594813
 20
0.6686889121812956
 30
0.0
 11
48.31696974907511
 21
0.692009577194826
 31
0.0
  0
LINE
  5
A3
330
1F
100
AcDbEntity
  8
DEFAULT
100
AcDbLine
 10
48.31696974907511
 20
0.692009577194826
 30
0.0
 11
48.32419514642686
 21
0.7153096655965365
 31
0.0
  0
LINE
  5
A4
330
1F
100
AcDbEntity
  8
DEFAULT
100
AcDbLine
 10
48.32419514642686
 20
0.7153096655965365
 30
0.0
 11
48.33069734714657
 21
0.7385488044501312
 31
0.0
  0
LINE
  5
A5
330
1F
100
AcDbEntity
  8
DEFAULT
100
AcDbLine
 10
48.33069734714657
 20
0.7385488044501312
 30
0.0
 11
48.33647319248696
 21
0.7616887474966034
 31
0.0
  0
LINE
  5
A6
330
1F
100
AcDbEntity
  8
DEFAULT
100
AcDbLine
 10
48.33647319248696
 20
0.7616887474966034
 30
0.0
 11
48.34152235306259
 21
0.7846936466939579
 31
0.0
  0
LINE
  5
A7
330
1F
100
AcDbEntity
  8
DEFAULT
100
AcDbLine
 10
48.34152235306259
 20
0.7846936466939579
 30
0.0
 11
48.34584747610214
 21
0.8075303237569362
 31
0.0
  0
LINE
  5
A8
330
1F
100
AcDbEntity
  8
DEFAULT
100
AcDbLine
 10
48.34584747610214
 20
0.8075303237569362
 30
0.0
 11
48.34945433270069
 21
0.8301685416967386
 31
0.0
  0
LINE
  5
A9
330
1F
100
AcDbEntity
  8
DEFAULT
100
AcDbLine
 10
48.34945433270069
 20
0.8301685416967386
 30
0.0
 11
48.35235196507202
 21
0.8525812763607483
 31
0.0
  0
LINE
  5
AA
330
1F
100
AcDbEntity
  8
DEFAULT
100
AcDbLine
 10
48.35235196507202
 20
0.8525812763607483
 30
0.0
 11
48.35455283380088
 21
0.8747449879722553
 31
0.0
  0
LINE
  5
AB
330
1F
100
AcDbEntity
  8
DEFAULT
100
AcDbLine
 10
48.35455283380088
 20
0.8747449879722553
 30
0.0
 11
48.35607296509529
 21
0.8966398926701793
 31
0.0
  0
LINE
  5
AC
330
1F
100
AcDbEntity
  8
DEFAULT
100
AcDbLine
 10
48.35607296509529
 20
0.8966398926701793
 30
0.0
 11
48.35693209803883
 21
0.9182502340487936
 31
0.0
  0
LINE
  5
AD
330
1F
100
AcDbEntity
  8
DEFAULT
100
AcDbLine
 10
48.35693209803883
 20
0.9182502340487936
 30
0.0
 11
48.35715383184287
 21
0.9395645546974485
 31
0.0
  0
LINE
  5
AE
330
1F
100
AcDbEntity
  8
DEFAULT
100
AcDbLine
 10
48.35715383184287
 20
0.9395645546974485
 30
0.0
 11
48.35676577309896
 21
0.9605759677402946
 31
0.0
  0
LINE
  5
AF
330
1F
100
AcDbEntity
  8
DEFAULT
100
AcDbLine
 10
48.35676577309896
 20
0.9605759677402946
 30
0.0
 11
48.35579968303099
 21
0.9812824283760074
 31
0.0
  0
LINE
  5
B0
330
1F
100
AcDbEntity
  8
DEFAULT
100
AcDbLine
 10
48.35579968303099
 20
0.9812824283760074
 30
0.0
 11
48.35429162474763
 21
1.00168700541751
 31
0.0
  0
LINE
  5
B1
330
1F
100
AcDbEntity
  8
DEFAULT
100
AcDbLine
 10
48.35429162474763
 20
1.00168700541751
 30
0.0
 11
48.35228211049446
 21
1.021798152831695
 31
0.0
  0
LINE
  5
B2
330
1F
100
AcDbEntity
  8
DEFAULT
100
AcDbLine
 10
48.35228211049446
 20
1.021798152831695
 30
0.0
 11
48.34981624890635
 21
1.041629981279152
 31
0.0
  0
LINE
  5
B3
330
1F
100
AcDbEntity
  8
DEFAULT
100
AcDbLine
 10
48.34981624890635
 20
1.041629981279152
 30
0.0
 11
48.34694389225973
 21
1.061202529653888
 31
0.0
  0
LINE
  5
B4
330
1F
100
AcDbEntity
  8
DEFAULT
100
AcDbLine
 10
48.34694389225973
 20
1.061202529653888
 30
0.0
 11
48.34371978372485
 21
1.080542036623052
 31
0.0
  0
LINE
  5
B5
330
1F
100
AcDbEntity
  8
DEFAULT
100
AcDbLine
 10
48.34371978372485
 20
1.080542036623052
 30
0.0
 11
48.3364606216543
 21
1.11865950911731
 31
0.0
  0
LINE
  5
B6
330
1F
100
AcDbEntity
  8
DEFAULT
100
AcDbLine
 10
48.3364606216543
 20
1.11865950911731
 30
0.0
 11
45.99117764009203
 21
12.15263025880022
 31
0.0
  0
LINE
  5
B7
330
1F
100
AcDbEntity
  8
DEFAULT
100
AcDbLine
 10
45.99117764009203
 20
12.15263025880022
 30
0.0
 11
45.98989201512747
 21
12.1577713843384
 31
0.0
  0
LINE
  5
B8
330
1F
100
AcDbEntity
  8
DEFAULT
100
AcDbLine
 10
45.98989201512747
 20
12.1577713843384
 30
0.0
 11
45.98847673731317
 21
12.16290149436626
 31
0.0
  0
LINE
  5
B9
330
1F
100
AcDbEntity
  8
DEFAULT
100
AcDbLine
 10
45.98847673731317
 20
12.16290149436626
 30
0.0
 11
45.98693150252527
 21
12.16801579710935
 31
0.0
  0
LINE
  5
BA
330
1F
100
AcDbEntity
  8
DEFAULT
100
AcDbLine
 10
45.98693150252527
 20
12.16801579710935
 30
0.0
 11
45.98525623859501
 21
12.17310945393364
 31
0.0
  0
LINE
  5
BB
330
1F
100
AcDbEntity
  8
DEFAULT
100
AcDbLine
 10
45.98525623859501
 20
12.17310945393364
 30
0.0
 11
45.98345110994484
 21
12.17817759319219
 31
0.0
  0
LINE
  5
BC
330
1F
100
AcDbEntity
  8
DEFAULT
100
AcDbLine
 10
45.98345110994484
 20
12.17817759319219
 30
0.0
 11
45.98151652124167
 21
12.18321532452766
 31
0.0
  0
LINE
  5
BD
330
1F
100
AcDbEntity
  8
DEFAULT
100
AcDbLine
 10
45.98151652124167
 20
12.18321532452766
 30
0.0
 11
45.97945312002086
 21
12.18821775354993
 31
0.0
  0
LINE
  5
BE
330
1F
100
AcDbEntity
  8
DEFAULT
100
AcDbLine
 10
45.97945312002086
 20
12.18821775354993
 30
0.0
 11
45.97726179823962
 21
12.19317999680262
 31
0.0
  0
LINE
  5
BF
330
1F
100
AcDbEntity
  8
DEFAULT
100
AcDbLine
 10
45.97726179823962
 20
12.19317999680262
 30
0.0
 11
45.97494369272889
 21
12.19809719692776
 31
0.0
  0
LINE
  5
C0
330
1F
100
AcDbEntity
  8
DEFAULT
100
AcDbLine
 10
45.97494369272889
 20
12.19809719692776
 30
0.0
 11
45.97250018451975
 21
12.20296453793415
 31
0.0
  0
LINE
  5
C1
330
1F
100
AcDbEntity
  8
DEFAULT
100
AcDbLine
 10
45.97250018451975
 20
12.20296453793415
 30
0.0
 11
45.96993289703121
 21
12.20777726047209
 31
0.0
  0
LINE
  5
C2
330
1F
100
AcDbEntity
  8
DEFAULT
100
AcDbLine
 10
45.96993289703121
 20
12.20777726047209
 30
0.0
 11
45.96724369311439
 21
12.21253067701556
 31
0.0
  0
LINE
  5
C3
330
1F
100
AcDbEntity
  8
DEFAULT
100
AcDbLine
 10
45.96724369311439
 20
12.21253067701556
 30
0.0
 11
45.96443467095953
 21
12.21722018685214
 31
0.0
  0
LINE
  5
C4
330
1F
100
AcDbEntity
  8
DEFAULT
100
AcDbLine
 10
45.96443467095953
 20
12.21722018685214
 30
0.0
 11
45.96150815888041
 21
12.22184129078149
 31
0.0
  0
LINE
  5
C5
330
1F
100
AcDbEntity
  8
DEFAULT
100
AcDbLine
 10
45.96150815888041
 20
12.22184129078149
 30
0.0
 11
45.95846670900248
 21
12.22638960542459
 31
0.0
  0
LINE
  5
C6
330
1F
100
AcDbEntity
  8
DEFAULT
100
AcDbLine
 10
45.95846670900248
 20
12.22638960542459
 30
0.0
 11
45.95531308988878
 21
12.23086087704891
 31
0.0
  0
LINE
  5
C7
330
1F
100
AcDbEntity
  8
DEFAULT
100
AcDbLine
 10
45.95531308988878
 20
12.23086087704891
 30
0.0
 11
45.95205027814912
 21
12.23525099481798
 31
0.0
  0
LINE
  5
C8
330
1F
100
AcDbEntity
  8
DEFAULT
100
AcDbLine
 10
45.95205027814912
 20
12.23525099481798
 30
0.0
 11
45.94868144908479
 21
12.23955600337888
 31
0.0
  0
LINE
  5
C9
330
1F
100
AcDbEntity
  8
DEFAULT
100
AcDbLine
 10
45.94868144908479
 20
12.23955600337888
 30
0.0
 11
45.94520996643148
 21
12.24377211470683
 31
0.0
  0
LINE
  5
CA
330
1F
100
AcDbEntity
  8
DEFAULT
100
AcDbLine
 10
45.94520996643148
 20
12.24377211470683
 30
0.0
 11
45.94163937126881
 21
12.24789571913263
 31
0.0
  0
LINE
  5
CB
330
1F
100
AcDbEntity
  8
DEFAULT
100
AcDbLine
 10
45.94163937126881
 20
12.24789571913263
 30
0.0
 11
45.93797337017322
 21
12.25192339548602
 31
0.0
  0
LINE
  5
CC
330
1F
100
AcDbEntity
  8
DEFAULT
100
AcDbLine
 10
45.93797337017322
 20
12.25192339548602
 30
0.0
 11
45.93421582269593
 21
12.25585192029638
 31
0.0
  0
LINE
  5
CD
330
1F
100
AcDbEntity
  8
DEFAULT
100
AcDbLine
 10
45.93421582269593
 20
12.25585192029638
 30
0.0
 11
45.93037072825328
 21
12.25967827600054
 31
0.0
  0
LINE
  5
CE
330
1F
100
AcDbEntity
  8
DEFAULT
100
AcDbLine
 10
45.93037072825328
 20
12.25967827600054
 30
0.0
 11
45.92644221252013
 21
12.26339965811685
 31
0.0
  0
LINE
  5
CF
330
1F
100
AcDbEntity
  8
DEFAULT
100
AcDbLine
 10
45.92644221252013
 20
12.26339965811685
 30
0.0
 11
45.92243451342078
 21
12.26701348135376
 31
0.0
  0
LINE
  5
D0
330
1F
100
AcDbEntity
  8
DEFAULT
100
AcDbLine
 10
45.92243451342078
 20
12.26701348135376
 30
0.0
 11
45.91835196681235
 21
12.27051738463121
 31
0.0
  0
LINE
  5
D1
330
1F
100
AcDbEntity
  8
DEFAULT
100
AcDbLine
 10
45.91835196681235
 20
12.27051738463121
 30
0.0
 11
45.9141989919581
 21
12.27390923500223
 31
0.0
  0
LINE
  5
D2
330
1F
100
AcDbEntity
  8
DEFAULT
100
AcDbLine
 10
45.9141989919581
 20
12.27390923500223
 30
0.0
 11
45.90998007688595
 21
12.27718713047218
 31
0.0
  0
LINE
  5
D3
330
1F
100
AcDbEntity
  8
DEFAULT
100
AcDbLine
 10
45.90998007688595
 20
12.27718713047218
 30
0.0
 11
45.90569976372778
 21
12.280349401722
 31
0.0
  0
LINE
  5
D4
330
1F
100
AcDbEntity
  8
DEFAULT
100
AcDbLine
 10
45.90569976372778
 20
12.280349401722
 30
0.0
 11
45.90136263413132
 21
12.28339461275122
 31
0.0
  0
LINE
  5
D5
330
1F
100
AcDbEntity
  8
DEFAULT
100
AcDbLine
 10
45.90136263413132
 20
12.28339461275122
 30
0.0
 11
45.8969732948346
 21
12.28632156046464
 31
0.0
  0
LINE
  5
D6
330
1F
100
AcDbEntity
  8
DEFAULT
100
AcDbLine
 10
45.8969732948346
 20
12.28632156046464
 30
0.0
 11
45.89251503307136
 21
12.28914241573023
 31
0.0
  0
LINE
  5
D7
330
1F
100
AcDbEntity
  8
DEFAULT
100
AcDbLine
 10
45.89251503307136
 20
12.28914241573023
 30
0.0
 11
45.88796993595763
 21
12.29186750207304
 31
0.0
  0
LINE
  5
D8
330
1F
100
AcDbEntity
  8
DEFAULT
100
AcDbLine
 10
45.88796993595763
 20
12.29186750207304
 30
0.0
 11
45.88334097506071
 21
12.29449309937737
 31
0.0
  0
LINE
  5
D9
330
1F
100
AcDbEntity
  8
DEFAULT
100
AcDbLine
 10
45.88334097506071
 20
12.29449309937737
 30
0.0
 11
45.87863132455174
 21
12.29701560511196
 31
0.0
  0
LINE
  5
DA
330
1F
100
AcDbEntity
  8
DEFAULT
100
AcDbLine
 10
45.87863132455174
 20
12.29701560511196
 30
0.0
 11
45.8738443557201
 21
12.29943154767845
 31
0.0
  0
LINE
  5
DB
330
1F
100
AcDbEntity
  8
DEFAULT
100
AcDbLine
 10
45.8738443557201
 20
12.29943154767845
 30
0.0
 11
45.86898363045717
 21
12.30173759947878
 31
0.0
  0
LINE
  5
DC
330
1F
100
AcDbEntity
  8
DEFAULT
100
AcDbLine
 10
45.86898363045717
 20
12.30173759947878
 30
0.0
 11
45.86405289372291
 21
12.30393058961014
 31
0.0
  0
LINE
  5
DD
330
1F
100
AcDbEntity
  8
DEFAULT
100
AcDbLine
 10
45.86405289372291
 20
12.30393058961014
 30
0.0
 11
45.85905606501958
 21
12.30600751609669
 31
0.0
  0
LINE
  5
DE
330
1F
100
AcDbEntity
  8
DEFAULT
100
AcDbLine
 10
45.85905606501958
 20
12.30600751609669
 30
0.0
 11
45.85399722890421
 21
12.3079655575686
 31
0.0
  0
LINE
  5
DF
330
1F
100
AcDbEntity
  8
DEFAULT
100
AcDbLine
 10
45.85399722890421
 20
12.3079655575686
 30
0.0
 11
45.84888062458224
 21
12.30980208430185
 31
0.0
  0
LINE
  5
E0
330
1F
100
AcDbEntity
  8
DEFAULT
100
AcDbLine
 10
45.84888062458224
 20
12.30980208430185
 30
0.0
 11
45.84371063463222
 21
12.31151466853551
 31
0.0
  0
LINE
  5
E1
330
1F
100
AcDbEntity
  8
DEFAULT
100
AcDbLine
 10
45.84371063463222
 20
12.31151466853551
 30
0.0
 11
45.8384917729211
 21
12.31310109398795
 31
0.0
  0
LINE
  5
E2
330
1F
100
AcDbEntity
  8
DEFAULT
100
AcDbLine
 10
45.8384917729211
 20
12.31310109398795
 30
0.0
 11
45.8332286717765
 21
12.31455936449908
 31
0.0
  0
LINE
  5
E3
330
1F
100
AcDbEntity
  8
DEFAULT
100
AcDbLine
 10
45.8332286717765
 20
12.31455936449908
 30
0.0
 11
45.82792606849105
 21
12.31588771173197
 31
0.0
  0
LINE
  5
E4
330
1F
100
AcDbEntity
  8
DEFAULT
100
AcDbLine
 10
45.82792606849105
 20
12.31588771173197
 30
0.0
 11
45.82258879123943
 21
12.31708460187487
 31
0.0
  0
LINE
  5
E5
330
1F
100
AcDbEntity
  8
DEFAULT
100
AcDbLine
 10
45.82258879123943
 20
12.31708460187487
 30
0.0
 11
45.81722174449536
 21
12.3181487412923
 31
0.0
  0
LINE
  5
E6
330
1F
100
AcDbEntity
  8
DEFAULT
100
AcDbLine
 10
45.81722174449536
 20
12.3181487412923
 30
0.0
 11
45.81182989404059
 21
12.31907908108296
 31
0.0
  0
LINE
  5
E7
330
1F
100
AcDbEntity
  8
DEFAULT
100
AcDbLine
 10
45.81182989404059
 20
12.31907908108296
 30
0.0
 11
45.80641825166168
 21
12.3198748205113
 31
0.0
  0
LINE
  5
E8
330
1F
100
AcDbEntity
  8
DEFAULT
100
AcDbLine
 10
45.80641825166168
 20
12.3198748205113
 30
0.0
 11
45.80099185963378
 21
12.32053540928928
 31
0.0
  0
LINE
  5
E9
330
1F
100
AcDbEntity
  8
DEFAULT
100
AcDbLine
 10
45.80099185963378
 20
12.32053540928928
 30
0.0
 11
45.79555577509187
 21
12.3210605486947
 31
0.0
  0
LINE
  5
EA
330
1F
100
AcDbEntity
  8
DEFAULT
100
AcDbLine
 10
45.79555577509187
 20
12.3210605486947
 30
0.0
 11
45.7901150543912
 21
12.3214501915227
 31
0.0
  0
LINE
  5
EB
330
1F
100
AcDbEntity
  8
DEFAULT
100
AcDbLine
 10
45.7901150543912
 20
12.3214501915227
 30
0.0
 11
45.78467473755794
 21
12.32170454087708
 31
0.0
  0
LINE
  5
EC
330
1F
100
AcDbEntity
  8
DEFAULT
100
AcDbLine
 10
45.78467473755794
 20
12.32170454087708
 30
0.0
 11
45.77923983292943
 21
12.32182404781779
 31
0.0
  0
LINE
  5
ED
330
1F
100
AcDbEntity
  8
DEFAULT
100
AcDbLine
 10
45.77923983292943
 20
12.32182404781779
 30
0.0
 11
45.7738153020815
 21
12.32180940789091
 31
0.0
  0
LINE
  5
EE
330
1F
100
AcDbEntity
  8
DEFAULT
100
AcDbLine
 10
45.7738153020815
 20
12.32180940789091
 30
0.0
 11
45.76840604513531
 21
12.32166155657646
 31
0.0
  0
LINE
  5
EF
330
1F
100
AcDbEntity
  8
DEFAULT
100
AcDbLine
 10
45.76840604513531
 20
12.32166155657646
 30
0.0
 11
45.76301688653351
 21
12.32138166369818
 31
0.0
  0
LINE
  5
F0
330
1F
100
AcDbEntity
  8
DEFAULT
100
AcDbLine
 10
45.76301688653351
 20
12.32138166369818
 30
0.0
 11
45.75765256136795
 21
12.32097112684743
 31
0.0
  0
LINE
  5
F1
330
1F
100
AcDbEntity
  8
DEFAULT
100
AcDbLine
 10
45.75765256136795
 20
12.32097112684743
 30
0.0
 11
45.75231770233659
 21
12.32043156388077
 31
0.0
  0
LINE
  5
F2
330
1F
100
AcDbEntity
  8
DEFAULT
100
AcDbLine
 10
45.75231770233659
 20
12.32043156388077
 30
0.0
 11
45.74701682739913
 21
12.31976480455735
 31
0.0
  0
LINE
  5
F3
330
1F
100
AcDbEntity
  8
DEFAULT
100
AcDbLine
 10
45.74701682739913
 20
12.31976480455735
 30
0.0
 11
45.74175432819412
 21
12.31897288138767
 31
0.0
  0
LINE
  5
F4
330
1F
100
AcDbEntity
  8
DEFAULT
100
AcDbLine
 10
45.74175432819412
 20
12.31897288138767
 30
0.0
 11
45.73653445927144
 21
12.31805801977025
 31
0.0
  0
LINE
  5
F5
330
1F
100
AcDbEntity
  8
DEFAULT
100
AcDbLine
 10
45.73653445927144
 20
12.31805801977025
 30
0.0
 11
45.7313613281869
 21
12.31702262749634
 31
0.0
  0
LINE
  5
F6
330
1F
100
AcDbEntity
  8
DEFAULT
100
AcDbLine
 10
45.7313613281869
 20
12.31702262749634
 30
0.0
 11
45.72621451195025
 21
12.31586348772688
 31
0.0
  0
LINE
  5
F7
330
1F
100
AcDbEntity
  8
DEFAULT
100
AcDbLine
 10
45.72621451195025
 20
12.31586348772688
 30
0.0
 11
45.72107404578065
 21
12.31457522886001
 31
0.0
  0
LINE
  5
F8
330
1F
100
AcDbEntity
  8
DEFAULT
100
AcDbLine
 10
45.72107404578065
 20
12.31457522886001
 30
0.0
 11
45.71594466154794
 21
12.31315732280428
 31
0.0
  0
LINE
  5
F9
330
1F
100
AcDbEntity
  8
DEFAULT
100
AcDbLine
 10
45.71594466154794
 20
12.31315732280428
 30
0.0
 11
45.71083115118178
 21
12.31160946789088
 31
0.0
  0
LINE
  5
FA
330
1F
100
AcDbEntity
  8
DEFAULT
100
AcDbLine
 10
45.71083115118178
 20
12.31160946789088
 30
0.0
 11
45.70573835335252
 21
12.30993159443023
 31
0.0
  0
LINE
  5
FB
330
1F
100
AcDbEntity
  8
DEFAULT
100
AcDbLine
 10
45.70573835335252
 20
12.30993159443023
 30
0.0
 11
45.70067113962225
 21
12.30812386934068
 31
0.0
  0
LINE
  5
FC
330
1F
100
AcDbEntity
  8
DEFAULT
100
AcDbLine
 10
45.70067113962225
 20
12.30812386934068
 30
0.0
 11
45.69563440014029
 21
12.30618669979474
 31
0.0
  0
LINE
  5
FD
330
1F
100
AcDbEntity
  8
DEFAULT
100
AcDbLine
 10
45.69563440014029
 20
12.30618669979474
 30
0.0
 11
45.6906330289644
 21
12.30412073583528
 31
0.0
  0
LINE
  5
FE
330
1F
100
AcDbEntity
  8
DEFAULT
100
AcDbLine
 10
45.6906330289644
 20
12.30412073583528
 30
0.0
 11
45.68567190909327
 21
12.3019268719215
 31
0.0
  0
LINE
  5
FF
330
1F
100
AcDbEntity
  8
DEFAULT
100
AcDbLine
 10
45.68567190909327
 20
12.3019268719215
 30
0.0
 11
45.68075589730182
 21
12.29960624737285
 31
0.0
  0
LINE
  5
100
330
1F
100
AcDbEntity
  8
DEFAULT
100
AcDbLine
 10
45.68075589730182
 20
12.29960624737285
 30
0.0
 11
45.67588980887301
 21
12.29716024568772
 31
0.0
  0
LINE
  5
101
330
1F
100
AcDbEntity
  8
DEFAULT
100
AcDbLine
 10
45.67588980887301
 20
12.29716024568772
 30
0.0
 11
45.67107840232418
 21
12.29459049272335
 31
0.0
  0
LINE
  5
102
330
1F
100
AcDbEntity
  8
DEFAULT
100
AcDbLine
 10
45.67107840232418
 20
12.29459049272335
 30
0.0
 11
45.66632636422628
 21
12.29189885373233
 31
0.0
  0
LINE
  5
103
330
1F
100
AcDbEntity
  8
DEFAULT
100
AcDbLine
 10
45.66632636422628
 20
12.29189885373233
 30
0.0
 11
45.6616382942161
 21
12.28908742926177
 31
0.0
  0
LINE
  5
104
330
1F
100
AcDbEntity
  8
DEFAULT
100
AcDbLine
 10
45.6616382942161
 20
12.28908742926177
 30
0.0
 11
45.6570186903005
 21
12.28615854993037
 31
0.0
  0
LINE
  5
105
330
1F
100
AcDbEntity
  8
DEFAULT
100
AcDbLine
 10
45.6570186903005
 20
12.28615854993037
 30
0.0
 11
45.65247193455031
 21
12.28311477010902
 31
0.0
  0
LINE
  5
106
330
1F
100
AcDbEntity
  8
DEFAULT
100
AcDbLine
 10
45.65247193455031
 20
12.28311477010902
 30
0.0
 11
45.64800227927903
 21
12.27995886053988
 31
0.0
  0
LINE
  5
107
330
1F
100
AcDbEntity
  8
DEFAULT
100
AcDbLine
 10
45.64800227927903
 20
12.27995886053988
 30
0.0
 11
45.64361383379753
 21
12.2766937999385
 31
0.0
  0
LINE
  5
108
330
1F
100
AcDbEntity
  8
DEFAULT
100
AcDbLine
 10
45.64361383379753
 20
12.2766937999385
 30
0.0
 11
45.6393105518313
 21
12.27332276563234
 31
0.0
  0
LINE
  5
109
330
1F
100
AcDbEntity
  8
DEFAULT
100
AcDbLine
 10
45.6393105518313
 20
12.27332276563234
 30
0.0
 11
45.63509621968124
 21
12.26984912329743
 31
0.0
  0
LINE
  5
10A
330
1F
100
AcDbEntity
  8
DEFAULT
100
AcDbLine
 10
45.63509621968124
 20
12.26984912329743
 30
0.0
 11
45.63097444520178
 21
12.26627641586237
 31
0.0
  0
LINE
  5
10B
330
1F
100
AcDbEntity
  8
DEFAULT
100
AcDbLine
 10
45.63097444520178
 20
12.26627641586237
 30
0.0
 11
45.62694864766366
 21
12.26260835165593
 31
0.0
  0
LINE
  5
10C
330
1F
100
AcDbEntity
  8
DEFAULT
100
AcDbLine
 10
45.62694864766366
 20
12.26260835165593
 30
0.0
 11
45.6230220485596
 21
12.25884879188041
 31
0.0
  0
LINE
  5
10D
330
1F
100
AcDbEntity
  8
DEFAULT
100
AcDbLine
 10
45.6230220485596
 20
12.25884879188041
 30
0.0
 11
45.61919766340329
 21
12.25500173749765
 31
0.0
  0
LINE
  5
10E
330
1F
100
AcDbEntity
  8
DEFAULT
100
AcDbLine
 10
45.61919766340329
 20
12.25500173749765
 30
0.0
 11
45.6154782945622
 21
12.2510713156189
 31
0.0
  0
LINE
  5
10F
330
1F
100
AcDbEntity
  8
DEFAULT
100
AcDbLine
 10
45.6154782945622
 20
12.2510713156189
 30
0.0
 11
45.61186652515623
 21
12.24706176549242
 31
0.0
  0
LINE
  5
110
330
1F
100
AcDbEntity
  8
DEFAULT
100
AcDbLine
 10
45.61186652515623
 20
12.24706176549242
 30
0.0
 11
45.60836471404362
 21
12.24297742418452
 31
0.0
  0
LINE
  5
111
330
1F
100
AcDbEntity
  8
DEFAULT
100
AcDbLine
 10
45.60836471404362
 20
12.24297742418452
 30
0.0
 11
45.60497499190688
 21
12.23882271205067
 31
0.0
  0
LINE
  5
112
330
1F
100
AcDbEntity
  8
DEFAULT
100
AcDbLine
 10
45.60497499190688
 20
12.23882271205067
 30
0.0
 11
45.6016992584409
 21
12.23460211809273
 31
0.0
  0
LINE
  5
113
330
1F
100
AcDbEntity
  8
DEFAULT
100
AcDbLine
 10
45.6016992584409
 20
12.23460211809273
 30
0.0
 11
45.59853918063739
 21
12.23032018529723
 31
0.0
  0
LINE
  5
114
330
1F
100
AcDbEntity
  8
DEFAULT
100
AcDbLine
 10
45.59853918063739
 20
12.23032018529723
 30
0.0
 11
45.59549619214916
 21
12.22598149604706
 31
0.0
  0
LINE
  5
115
330
1F
100
AcDbEntity
  8
DEFAULT
100
AcDbLine
 10
45.59549619214916
 20
12.22598149604706
 30
0.0
 11
45.59257149371103
 21
12.22159065769604
 31
0.0
  0
LINE
  5
116
330
1F
100
AcDbEntity
  8
DEFAULT
100
AcDbLine
 10
45.59257149371103
 20
12.22159065769604
 30
0.0
 11
45.58975292301942
 21
12.21713095124434
 31
0.0
  0
LINE
  5
117
330
1F
100
AcDbEntity
  8
DEFAULT
100
AcDbLine
 10
45.58975292301942
 20
12.21713095124434
 30
0.0
 11
45.58703016572839
 21
12.21258445852105
 31
0.0
  0
LINE
  5
118
330
1F
100
AcDbEntity
  8
DEFAULT
100
AcDbLine
 10
45.58703016572839
 20
12.21258445852105
 30
0.0
 11
45.5844069404306
 21
12.20795415299908
 31
0.0
  0
LINE
  5
119
330
1F
100
AcDbEntity
  8
DEFAULT
100
AcDbLine
 10
45.5844069404306
 20
12.20795415299908
 30
0.0
 11
45.58188684803062
 21
12.2032432106949
 31
0.0
  0
LINE
  5
11A
330
1F
100
AcDbEntity
  8
DEFAULT
100
AcDbLine
 10
45.58188684803062
 20
12.2032432106949
 30
0.0
 11
45.57947335839902
 21
12.19845500467618
 31
0.0
  0
LINE
  5
11B
330
1F
100
AcDbEntity
  8
DEFAULT
100
AcDbLine
 10
45.57947335839902
 20
12.19845500467618
 30
0.0
 11
45.5771697973085
 21
12.19359309853867
 31
0.0
  0
LINE
  5
11C
330
1F
100
AcDbEntity
  8
DEFAULT
100
AcDbLine
 10
45.5771697973085
 20
12.19359309853867
 30
0.0
 11
45.57497933374266
 21
12.18866123886655
 31
0.0
  0
LINE
  5
11D
330
1F
100
AcDbEntity
  8
DEFAULT
100
AcDbLine
 10
45.57497933374266
 20
12.18866123886655
 30
0.0
 11
45.57290496766885
 21
12.18366334669957
 31
0.0
  0
LINE
  5
11E
330
1F
100
AcDbEntity
  8
DEFAULT
100
AcDbLine
 10
45.57290496766885
 20
12.18366334669957
 30
0.0
 11
45.57094951836373
 21
12.1786035080398
 31
0.0
  0
LINE
  5
11F
330
1F
100
AcDbEntity
  8
DEFAULT
100
AcDbLine
 10
45.57094951836373
 20
12.1786035080398
 30
0.0
 11
45.56911561337905
 21
12.17348596343943
 31
0.0
  0
LINE
  5
120
330
1F
100
AcDbEntity
  8
DEFAULT
100
AcDbLine
 10
45.56911561337905
 20
12.17348596343943
 30
0.0
 11
45.56740567822996
 21
12.16831509672035
 31
0.0
  0
LINE
  5
121
330
1F
100
AcDbEntity
  8
DEFAULT
100
AcDbLine
 10
45.56740567822996
 20
12.16831509672035
 30
0.0
 11
45.56582192688514
 21
12.16309542288438
 31
0.0
  0
LINE
  5
122
330
1F
100
AcDbEntity
  8
DEFAULT
100
AcDbLine
 10
45.56582192688514
 20
12.16309542288438
 30
0.0
 11
45.56436635313103
 21
12.15783157528132
 31
0.0
  0
LINE
  5
123
330
1F
100
AcDbEntity
  8
DEFAULT
100
AcDbLine
 10
45.56436635313103
 20
12.15783157528132
 30
0.0
 11
45.56304072287714
 21
12.15252829210918
 31
0.0
  0
LINE
  5
124
330
1F
100
AcDbEntity
  8
DEFAULT
100
AcDbLine
 10
45.56304072287714
 20
12.15252829210918
 30
0.0
 11
45.56184656746128
 21
12.14719040232785
 31
0.0
  0
LINE
  5
125
330
1F
100
AcDbEntity
  8
DEFAULT
100
AcDbLine
 10
45.56184656746128
 20
12.14719040232785
 30
0.0
 11
45.56078517800596
 21
12.14182281107321
 31
0.0
  0
LINE
  5
126
330
1F
100
AcDbEntity
  8
DEFAULT
100
AcDbLine
 10
45.56078517800596
 20
12.14182281107321
 30
0.0
 11
45.55985760086811
 21
12.13643048466376
 31
0.0
  0
LINE
  5
127
330
1F
100
AcDbEntity
  8
DEFAULT
100
AcDbLine
 10
45.55985760086811
 20
12.13643048466376
 30
0.0
 11
45.55906463421535
 21
12.13101843529569
 31
0.0
  0
LINE
  5
128
330
1F
100
AcDbEntity
  8
DEFAULT
100
AcDbLine
 10
45.55906463421535
 20
12.13101843529569
 30
0.0
 11
45.55840682575224
 21
12.12559170552538
 31
0.0
  0
LINE
  5
129
330
1F
100
AcDbEntity
  8
DEFAULT
100
AcDbLine
 10
45.55840682575224
 20
12.12559170552538
 30
0.0
 11
45.5578844716099
 21
12.12015535264023
 31
0.0
  0
LINE
  5
12A
330
1F
100
AcDbEntity
  8
DEFAULT
100
AcDbLine
 10
45.5578844716099
 20
12.12015535264023
 30
0.0
 11
45.55749761640255
 21
12.114714433019
 31
0.0
  0
LINE
  5
12B
330
1F
100
AcDbEntity
  8
DEFAULT
100
AcDbLine
 10
45.55749761640255
 20
12.114714433019
 30
0.0
 11
45.55724605444416
 21
12.10927398658313
 31
0.0
  0
LINE
  5
12C
330
1F
100
AcDbEntity
  8
DEFAULT
100
AcDbLine
 10
45.55724605444416
 20
12.10927398658313
 30
0.0
 11
45.55712933210877
 21
12.10383902143825
 31
0.0
  0
LINE
  5
12D
330
1F
100
AcDbEntity
  8
DEFAULT
100
AcDbLine
 10
45.55712933210877
 20
12.10383902143825
 30
0.0
 11
45.55714675130832
 21
12.0984144988031
 31
0.0
  0
LINE
  5
12E
330
1F
100
AcDbEntity
  8
DEFAULT
100
AcDbLine
 10
45.55714675130832
 20
12.0984144988031
 30
0.0
 11
45.55729737405231
 21
12.09300531831896
 31
0.0
  0
LINE
  5
12F
330
1F
100
AcDbEntity
  8
DEFAULT
100
AcDbLine
 10
45.55729737405231
 20
12.09300531831896
 30
0.0
 11
45.55758002804538
 21
12.08761630382845
 31
0.0
  0
LINE
  5
130
330
1F
100
AcDbEntity
  8
DEFAULT
100
AcDbLine
 10
45.55758002804538
 20
12.08761630382845
 30
0.0
 11
45.55799331327027
 21
12.08225218970675
 31
0.0
  0
LINE
  5
131
330
1F
100
AcDbEntity
  8
DEFAULT
100
AcDbLine
 10
45.55799331327027
 20
12.08225218970675
 30
0.0
 11
45.55853560949707
 21
12.0769176078223
 31
0.0
  0
LINE
  5
132
330
1F
100
AcDbEntity
  8
DEFAULT
100
AcDbLine
 10
45.55853560949707
 20
12.0769176078223
 30
0.0
 11
45.55920508465209
 21
12.07161707519673
 31
0.0
  0
LINE
  5
133
330
1F
100
AcDbEntity
  8
DEFAULT
100
AcDbLine
 10
45.55920508465209
 20
12.07161707519673
 30
0.0
 11
45.55999970397504
 21
12.06635498242663
 31
0.0
  0
LINE
  5
134
330
1F
100
AcDbEntity
  8
DEFAULT
100
AcDbLine
 10
45.55999970397504
 20
12.06635498242663
 30
0.0
 11
45.56091723988783
 21
12.06113558292117
 31
0.0
  0
LINE
  5
135
330
1F
100
AcDbEntity
  8
DEFAULT
100
AcDbLine
 10
45.56091723988783
 20
12.06113558292117
 30
0.0
 11
47.90630057162601
 21
1.024935770497664
 31
0.0
  0
LINE
  5
136
330
1F
100
AcDbEntity
  8
DEFAULT
100
AcDbLine
 10
47.90630057162601
 20
1.024935770497664
 30
0.0
 11
47.90916898222833
 21
1.007465618886334
 31
0.0
  0
LINE
  5
137
330
1F
100
AcDbEntity
  8
DEFAULT
100
AcDbLine
 10
47.90916898222833
 20
1.007465618886334
 30
0.0
 11
47.9103865173827
 21
0.9985343759793618
 31
0.0
  0
LINE
  5
138
330
1F
100
AcDbEntity
  8
DEFAULT
100
AcDbLine
 10
47.9103865173827
 20
0.9985343759793618
 30
0.0
 11
47.91143349356993
 21
0.9894566920917484
 31
0.0
  0
LINE
  5
139
330
1F
100
AcDbEntity
  8
DEFAULT
100
AcDbLine
 10
47.91143349356993
 20
0.9894566920917484
 30
0.0
 11
47.91229236076234
 21
0.9802245711391588
 31
0.0
  0
LINE
  5
13A
330
1F
100
AcDbEntity
  8
DEFAULT
100
AcDbLine
 10
47.91229236076234
 20
0.9802245711391588
 30
0.0
 11
47.91294714132877
 21
0.9708328567288556
 31
0.0
  0
LINE
  5
13B
330
1F
100
AcDbEntity
  8
DEFAULT
100
AcDbLine
 10
47.91294714132877
 20
0.9708328567288556
 30
0.0
 11
47.91338338428216
 21
0.9612790978356989
 31
0.0
  0
LINE
  5
13C
330
1F
100
AcDbEntity
  8
DEFAULT
100
AcDbLine
 10
47.91338338428216
 20
0.9612790978356989
 30
0.0
 11
47.91358811952698
 21
0.9515634144781474
 31
0.0
  0
LINE
  5
13D
330
1F
100
AcDbEntity
  8
DEFAULT
100
AcDbLine
 10
47.91358811952698
 20
0.9515634144781474
 30
0.0
 11
47.91354981210691
 21
0.9416883633942604
 31
0.0
  0
LINE
  5
13E
330
1F
100
AcDbEntity
  8
DEFAULT
100
AcDbLine
 10
47.91354981210691
 20
0.9416883633942604
 30
0.0
 11
47.91325831645229
 21
0.9316588037176985
 31
0.0
  0
LINE
  5
13F
330
1F
100
AcDbEntity
  8
DEFAULT
100
AcDbLine
 10
47.91325831645229
 20
0.9316588037176985
 30
0.0
 11
47.91270483062772
 21
0.9214817626537246
 31
0.0
  0
LINE
  5
140
330
1F
100
AcDbEntity
  8
DEFAULT
100
AcDbLine
 10
47.91270483062772
 20
0.9214817626537246
 30
0.0
 11
47.9118818505796
 21
0.9111663011552054
 31
0.0
  0
LINE
  5
141
330
1F
100
AcDbEntity
  8
DEFAULT
100
AcDbLine
 10
47.9118818505796
 20
0.9111663011552054
 30
0.0
 11
47.91078312438366
 21
0.9007233795986127
 31
0.0
  0
LINE
  5
142
330
1F
100
AcDbEntity
  8
DEFAULT
100
AcDbLine
 10
47.91078312438366
 20
0.9007233795986127
 30
0.0
 11
47.90940360649249
 21
0.8901657234600246
 31
0.0
  0
LINE
  5
143
330
1F
100
AcDbEntity
  8
DEFAULT
100
AcDbLine
 10
47.90940360649249
 20
0.8901657234600246
 30
0.0
 11
47.90773941198318
 21
0.8795076889911264
 31
0.0
  0
LINE
  5
144
330
1F
100
AcDbEntity
  8
DEFAULT
100
AcDbLine
 10
47.90773941198318
 20
0.8795076889911264
 30
0.0
 11
47.90578777080474
 21
0.8687651288952116
 31
0.0
  0
LINE
  5
145
330
1F
100
AcDbEntity
  8
DEFAULT
100
AcDbLine
 10
47.90578777080474
 20
0.8687651288952116
 30
0.0
 11
47.90354698202574
 21
0.8579552580031841
 31
0.0
  0
LINE
  5
146
330
1F
100
AcDbEntity
  8
DEFAULT
100
AcDbLine
 10
47.90354698202574
 20
0.8579552580031841
 30
0.0
 11
47.90101636808183
 21
0.8470965189495585
 31
0.0
  0
LINE
  5
147
330
1F
100
AcDbEntity
  8
DEFAULT
100
AcDbLine
 10
47.90101636808183
 20
0.8470965189495585
 30
0.0
 11
47.89819622902326
 21
0.8362084478484617
 31
0.0
  0
LINE
  5
148
330
1F
100
AcDbEntity
  8
DEFAULT
100
AcDbLine
 10
47.89819622902326
 20
0.8362084478484617
 30
0.0
 11
47.89508779676248
 21
0.825311539969634
 31
0.0
  0
LINE
  5
149
330
1F
100
AcDbEntity
  8
DEFAULT
100
AcDbLine
 10
47.89508779676248
 20
0.825311539969634
 30
0.0
 11
47.89169318932165
 21
0.81442711541443
 31
0.0
  0
LINE
  5
14A
330
1F
100
AcDbEntity
  8
DEFAULT
100
AcDbLine
 10
47.89169318932165
 20
0.81442711541443
 30
0.0
 11
47.88801536508019
 21
0.8035771847918208
 31
0.0
  0
LINE
  5
14B
330
1F
100
AcDbEntity
  8
DEFAULT
100
AcDbLine
 10
47.88801536508019
 20
0.8035771847918208
 30
0.0
 11
47.88405807702233
 21
0.7927843148943937
 31
0.0
  0
LINE
  5
14C
330
1F
100
AcDbEntity
  8
DEFAULT
100
AcDbLine
 10
47.88405807702233
 20
0.7927843148943937
 30
0.0
 11
47.87982582698471
 21
0.7820714943743546
 31
0.0
  0
LINE
  5
14D
330
1F
100
AcDbEntity
  8
DEFAULT
100
AcDbLine
 10
47.87982582698471
 20
0.7820714943743546
 30
0.0
 11
47.87532381990381
 21
0.7714619994195292
 31
0.0
  0
LINE
  5
14E
330
1F
100
AcDbEntity
  8
DEFAULT
100
AcDbLine
 10
47.87532381990381
 20
0.7714619994195292
 30
0.0
 11
47.8705579180636
 21
0.7609792594293632
 31
0.0
  0
LINE
  5
14F
330
1F
100
AcDbEntity
  8
DEFAULT
100
AcDbLine
 10
47.8705579180636
 20
0.7609792594293632
 30
0.0
 11
47.86553459534305
 21
0.7506467226909245
 31
0.0
  0
LINE
  5
150
330
1F
100
AcDbEntity
  8
DEFAULT
100
AcDbLine
 10
47.86553459534305
 20
0.7506467226909245
 30
0.0
 11
47.86026089146371
 21
0.740487722054904
 31
0.0
  0
LINE
  5
151
330
1F
100
AcDbEntity
  8
DEFAULT
100
AcDbLine
 10
47.86026089146371
 20
0.740487722054904
 30
0.0
 11
47.85474436623719
 21
0.7305253406116168
 31
0.0
  0
LINE
  5
152
330
1F
100
AcDbEntity
  8
DEFAULT
100
AcDbLine
 10
47.85474436623719
 20
0.7305253406116168
 30
0.0
 11
47.84899305381276
 21
0.7207822773670034
 31
0.0
  0
LINE
  5
153
330
1F
100
AcDbEntity
  8
DEFAULT
100
AcDbLine
 10
47.84899305381276
 20
0.7207822773670034
 30
0.0
 11
47.84301541692489
 21
0.7112807129186314
 31
0.0
  0
LINE
  5
154
330
1F
100
AcDbEntity
  8
DEFAULT
100
AcDbLine
 10
47.84301541692489
 20
0.7112807129186314
 30
0.0
 11
47.83682030114079
 21
0.7020421751316955
 31
0.0
  0
LINE
  5
155
330
1F
100
AcDbEntity
  8
DEFAULT
100
AcDbLine
 10
47.83682030114079
 20
0.7020421751316955
 30
0.0
 11
47.83041688910797
 21
0.6930874048150202
 31
0.0
  0
LINE
  5
156
330
1F
100
AcDbEntity
  8
DEFAULT
100
AcDbLine
 10
47.83041688910797
 20
0.6930874048150202
 30
0.0
 11
47.82381465480175
 21
0.6844362213970598
 31
0.0
  0
LINE
  5
157
330
1F
100
AcDbEntity
  8
DEFAULT
100
AcDbLine
 10
47.82381465480175
 20
0.6844362213970598
 30
0.0
 11
47.81702331777286
 21
0.6761073886019004
 31
0.0
  0
LINE
  5
158
330
1F
100
AcDbEntity
  8
DEFAULT
100
AcDbLine
 10
47.81702331777286
 20
0.6761073886019004
 30
0.0
 11
47.81005279739495
 21
0.6681184801252606
 31
0.0
  0
LINE
  5
159
330
1F
100
AcDbEntity
  8
DEFAULT
100
AcDbLine
 10
47.81005279739495
 20
0.6681184801252606
 30
0.0
 11
47.80650348663406
 21
0.6642566308316193
 31
0.0
  0
LINE
  5
15A
330
1F
100
AcDbEntity
  8
DEFAULT
100
AcDbLine
 10
47.80650348663406
 20
0.6642566308316193
 30
0.0
 11
47.80291316711214
 21
0.660485745310493
 31
0.0
  0
LINE
  5
15B
330
1F
100
AcDbEntity
  8
DEFAULT
100
AcDbLine
 10
47.80291316711214
 20
0.660485745310493
 30
0.0
 11
47.79928311457697
 21
0.6568076257622122
 31
0.0
  0
LINE
  5
15C
330
1F
100
AcDbEntity
  8
DEFAULT
100
AcDbLine
 10
47.79928311457697
 20
0.6568076257622122
 30
0.0
 11
47.79561460868662
 21
0.6532239748245853
 31
0.0
  0
LINE
  5
15D
330
1F
100
AcDbEntity
  8
DEFAULT
100
AcDbLine
 10
47.79561460868662
 20
0.6532239748245853
 30
0.0
 11
47.79190893157983
 21
0.6497363913752725
 31
0.0
  0
LINE
  5
15E
330
1F
100
AcDbEntity
  8
DEFAULT
100
AcDbLine
 10
47.79190893157983
 20
0.6497363913752725
 30
0.0
 11
47.78816736644609
 21
0.6463463663341615
 31
0.0
  0
LINE
  5
15F
330
1F
100
AcDbEntity
  8
DEFAULT
100
AcDbLine
 10
47.78816736644609
 20
0.6463463663341615
 30
0.0
 11
47.784391196096
 21
0.6430552784657424
 31
0.0
  0
LINE
  5
160
330
1F
100
AcDbEntity
  8
DEFAULT
100
AcDbLine
 10
47.784391196096
 20
0.6430552784657424
 30
0.0
 11
47.78058170153142
 21
0.6398643901814829
 31
0.0
  0
LINE
  5
161
330
1F
100
AcDbEntity
  8
DEFAULT
100
AcDbLine
 10
47.78058170153142
 20
0.6398643901814829
 30
0.0
 11
47.77674016051575
 21
0.6367748433422029
 31
0.0
  0
LINE
  5
162
330
1F
100
AcDbEntity
  8
DEFAULT
100
AcDbLine
 10
47.77674016051575
 20
0.6367748433422029
 30
0.0
 11
47.77286784614414
 21
0.63378765506045
 31
0.0
  0
LINE
  5
163
330
1F
100
AcDbEntity
  8
DEFAULT
100
AcDbLine
 10
47.77286784614414
 20
0.63378765506045
 30
0.0
 11
47.76896602541375
 21
0.6309037135028741
 31
0.0
  0
LINE
  5
164
330
1F
100
AcDbEntity
  8
DEFAULT
100
AcDbLine
 10
47.76896602541375
 20
0.6309037135028741
 30
0.0
 11
47.76503595779398
 21
0.6281237736926029
 31
0.0
  0
LINE
  5
165
330
1F
100
AcDbEntity
  8
DEFAULT
100
AcDbLine
 10
47.76503595779398
 20
0.6281237736926029
 30
0.0
 11
47.76107889379669
 21
0.6254484533116165
 31
0.0
  0
LINE
  5
166
330
1F
100
AcDbEntity
  8
DEFAULT
100
AcDbLine
 10
47.76107889379669
 20
0.6254484533116165
 30
0.0
 11
47.75709607354646
 21
0.6228782285031227
 31
0.0
  0
LINE
  5
167
330
1F
100
AcDbEntity
  8
DEFAULT
100
AcDbLine
 10
47.75709607354646
 20
0.6228782285031227
 30
0.0
 11
47.75308872535079
 21
0.6204134296739321
 31
0.0
  0
LINE
  5
168
330
1F
100
AcDbEntity
  8
DEFAULT
100
AcDbLine
 10
47.75308872535079
 20
0.6204134296739321
 30
0.0
 11
47.74905806427039
 21
0.6180542372968332
 31
0.0
  0
LINE
  5
169
330
1F
100
AcDbEntity
  8
DEFAULT
100
AcDbLine
 10
47.74905806427039
 20
0.6180542372968332
 30
0.0
 11
47.74500529068936
 21
0.6158006777129666
 31
0.0
  0
LINE
  5
16A
330
1F
100
AcDbEntity
  8
DEFAULT
100
AcDbLine
 10
47.74500529068936
 20
0.6158006777129666
 30
0.0
 11
47.74093158888545
 21
0.6136526189342015
 31
0.0
  0
LINE
  5
16B
330
1F
100
AcDbEntity
  8
DEFAULT
100
AcDbLine
 10
47.74093158888545
 20
0.6136526189342015
 30
0.0
 11
47.7368381256003
 21
0.6116097664455091
 31
0.0
  0
LINE
  5
16C
330
1F
100
AcDbEntity
  8
DEFAULT
100
AcDbLine
 10
47.7368381256003
 20
0.6116097664455091
 30
0.0
 11
47.73272604860971
 21
0.6096716590073394
 31
0.0
  0
LINE
  5
16D
330
1F
100
AcDbEntity
  8
DEFAULT
100
AcDbLine
 10
47.73272604860971
 20
0.6096716590073394
 30
0.0
 11
47.72859648529378
 21
0.6078376644579946
 31
0.0
  0
LINE
  5
16E
330
1F
100
AcDbEntity
  8
DEFAULT
100
AcDbLine
 10
47.72859648529378
 20
0.6078376644579946
 30
0.0
 11
47.72445054120722
 21
0.6061069755160051
 31
0.0
  0
LINE
  5
16F
330
1F
100
AcDbEntity
  8
DEFAULT
100
AcDbLine
 10
47.72445054120722
 20
0.6061069755160051
 30
0.0
 11
47.7202892986496
 21
0.6044786055825042
 31
0.0
  0
LINE
  5
170
330
1F
100
AcDbEntity
  8
DEFAULT
100
AcDbLine
 10
47.7202892986496
 20
0.6044786055825042
 30
0.0
 11
47.71611381523554
 21
0.6029513845436035
 31
0.0
  0
LINE
  5
171
330
1F
100
AcDbEntity
  8
DEFAULT
100
AcDbLine
 10
47.71611381523554
 20
0.6029513845436035
 30
0.0
 11
47.71192512246493
 21
0.6015239545727672
 31
0.0
  0
LINE
  5
172
330
1F
100
AcDbEntity
  8
DEFAULT
100
AcDbLine
 10
47.71192512246493
 20
0.6015239545727672
 30
0.0
 11
47.70772422429323
 21
0.6001947659331881
 31
0.0
  0
LINE
  5
173
330
1F
100
AcDbEntity
  8
DEFAULT
100
AcDbLine
 10
47.70772422429323
 20
0.6001947659331881
 30
0.0
 11
47.70351209570167
 21
0.5989620727801616
 31
0.0
  0
LINE
  5
174
330
1F
100
AcDbEntity
  8
DEFAULT
100
AcDbLine
 10
47.70351209570167
 20
0.5989620727801616
 30
0.0
 11
47.69928968126749
 21
0.5978239289634615
 31
0.0
  0
LINE
  5
175
330
1F
100
AcDbEntity
  8
DEFAULT
100
AcDbLine
 10
47.69928968126749
 20
0.5978239289634615
 30
0.0
 11
47.69505789373417
 21
0.5967781838297153
 31
0.0
  0
LINE
  5
176
330
1F
100
AcDbEntity
  8
DEFAULT
100
AcDbLine
 10
47.69505789373417
 20
0.5967781838297153
 30
0.0
 11
47.69081761258165
 21
0.5958224780247778
 31
0.0
  0
LINE
  5
177
330
1F
100
AcDbEntity
  8
DEFAULT
100
AcDbLine
 10
47.69081761258165
 20
0.5958224780247778
 30
0.0
 11
47.68656968259664
 21
0.5949542392961081
 31
0.0
  0
LINE
  5
178
330
1F
100
AcDbEntity
  8
DEFAULT
100
AcDbLine
 10
47.68656968259664
 20
0.5949542392961081
 30
0.0
 11
47.68231491244275
 21
0.5941706782951428
 31
0.0
  0
LINE
  5
179
330
1F
100
AcDbEntity
  8
DEFAULT
100
AcDbLine
 10
47.68231491244275
 20
0.5941706782951428
 30
0.0
 11
47.6780540732308
 21
0.5934687843796723
 31
0.0
  0
LINE
  5
17A
330
1F
100
AcDbEntity
  8
DEFAULT
100
AcDbLine
 10
47.6780540732308
 20
0.5934687843796723
 30
0.0
 11
47.67378789708903
 21
0.5928453214162153
 31
0.0
  0
LINE
  5
17B
330
1F
100
AcDbEntity
  8
DEFAULT
100
AcDbLine
 10
47.67378789708903
 20
0.5928453214162153
 30
0.0
 11
47.66524225903753
 21
0.5918195911693087
 31
0.0
  0
LINE
  5
17C
330
1F
100
AcDbEntity
  8
DEFAULT
100
AcDbLine
 10
47.66524225903753
 20
0.5918195911693087
 30
0.0
 11
47.65668302133166
 21
0.5910629291513918
 31
0.0
  0
LINE
  5
17D
330
1F
100
AcDbEntity
  8
DEFAULT
100
AcDbLine
 10
47.65668302133166
 20
0.5910629291513918
 30
0.0
 11
47.64811449178868
 21
0.5905409004510906
 31
0.0
  0
LINE
  5
17E
330
1F
100
AcDbEntity
  8
DEFAULT
100
AcDbLine
 10
47.64811449178868
 20
0.5905409004510906
 30
0.0
 11
47.63954021724727
 21
0.5902150593246889
 31
0.0
  0
LINE
  5
17F
330
1F
100
AcDbEntity
  8
DEFAULT
100
AcDbLine
 10
47.63954021724727
 20
0.5902150593246889
 30
0.0
 11
41.7650547785566
 21
0.5895717536582716
 31
0.0
  0
LINE
  5
180
330
1F
100
AcDbEntity
  8
DEFAULT
100
AcDbLine
 10
41.7650547785566
 20
0.5895717536582716
 30
0.0
 11
41.75968782809888
 21
0.5898413570245785
 31
0.0
  0
LINE
  5
181
330
1F
100
AcDbEntity
  8
DEFAULT
100
AcDbLine
 10
41.75968782809888
 20
0.5898413570245785
 30
0.0
 11
41.75429080305816
 21
0.589980135244101
 31
0.0
  0
LINE
  5
182
330
1F
100
AcDbEntity
  8
DEFAULT
100
AcDbLine
 10
41.75429080305816
 20
0.589980135244101
 30
0.0
 11
41.74886836666133
 21
0.5899861747432166
 31
0.0
  0
LINE
  5
183
330
1F
100
AcDbEntity
  8
DEFAULT
100
AcDbLine
 10
41.74886836666133
 20
0.5899861747432166
 30
0.0
 11
41.74342531224063
 21
0.58985777876667
 31
0.0
  0
LINE
  5
184
330
1F
100
AcDbEntity
  8
DEFAULT
100
AcDbLine
 10
41.74342531224063
 20
0.58985777876667
 30
0.0
 11
41.73796655087347
 21
0.5895934773546818
 31
0.0
  0
LINE
  5
185
330
1F
100
AcDbEntity
  8
DEFAULT
100
AcDbLine
 10
41.73796655087347
 20
0.5895934773546818
 30
0.0
 11
41.73249709815742
 21
0.5891920364889831
 31
0.0
  0
LINE
  5
186
330
1F
100
AcDbEntity
  8
DEFAULT
100
AcDbLine
 10
41.73249709815742
 20
0.5891920364889831
 30
0.0
 11
41.72702206018462
 21
0.588652466323657
 31
0.0
  0
LINE
  5
187
330
1F
100
AcDbEntity
  8
DEFAULT
100
AcDbLine
 10
41.72702206018462
 20
0.588652466323657
 30
0.0
 11
41.72154661878882
 21
0.5879740284222472
 31
0.0
  0
LINE
  5
188
330
1F
100
AcDbEntity
  8
DEFAULT
100
AcDbLine
 10
41.72154661878882
 20
0.5879740284222472
 30
0.0
 11
41.716076016147
 21
0.5871562419292826
 31
0.0
  0
LINE
  5
189
330
1F
100
AcDbEntity
  8
DEFAULT
100
AcDbLine
 10
41.716076016147
 20
0.5871562419292826
 30
0.0
 11
41.71061553882513
 21
0.5861988886120656
 31
0.0
  0
LINE
  5
18A
330
1F
100
AcDbEntity
  8
DEFAULT
100
AcDbLine
 10
41.71061553882513
 20
0.5861988886120656
 30
0.0
 11
41.70517050136521
 21
0.5851020167172412
 31
0.0
  0
LINE
  5
18B
330
1F
100
AcDbEntity
  8
DEFAULT
100
AcDbLine
 10
41.70517050136521
 20
0.5851020167172412
 30
0.0
 11
41.69974622951611
 21
0.5838659435961668
 31
0.0
  0
LINE
  5
18C
330
1F
100
AcDbEntity
  8
DEFAULT
100
AcDbLine
 10
41.69974622951611
 20
0.5838659435961668
 30
0.0
 11
41.69434804321651
 21
0.5824912570633678
 31
0.0
  0
LINE
  5
18D
330
1F
100
AcDbEntity
  8
DEFAULT
100
AcDbLine
 10
41.69434804321651
 20
0.5824912570633678
 30
0.0
 11
41.68898123944152
 21
0.5809788154632024
 31
0.0
  0
LINE
  5
18E
330
1F
100
AcDbEntity
  8
DEFAULT
100
AcDbLine
 10
41.68898123944152
 20
0.5809788154632024
 30
0.0
 11
41.68365107502787
 21
0.5793297464312058
 31
0.0
  0
LINE
  5
18F
330
1F
100
AcDbEntity
  8
DEFAULT
100
AcDbLine
 10
41.68365107502787
 20
0.5793297464312058
 30
0.0
 11
41.67836274959313
 21
0.5775454443481797
 31
0.0
  0
LINE
  5
190
330
1F
100
AcDbEntity
  8
DEFAULT
100
AcDbLine
 10
41.67836274959313
 20
0.5775454443481797
 30
0.0
 11
41.67312138866541
 21
0.5756275664968783
 31
0.0
  0
LINE
  5
191
330
1F
100
AcDbEntity
  8
DEFAULT
100
AcDbLine
 10
41.67312138866541
 20
0.5756275664968783
 30
0.0
 11
41.66793202713777
 21
0.5735780279428639
 31
0.0
  0
LINE
  5
192
330
1F
100
AcDbEntity
  8
DEFAULT
100
AcDbLine
 10
41.66793202713777
 20
0.5735780279428639
 30
0.0
 11
41.6627995931597
 21
0.5713989951726511
 31
0.0
  0
LINE
  5
193
330
1F
100
AcDbEntity
  8
DEFAULT
100
AcDbLine
 10
41.6627995931597
 20
0.5713989951726511
 30
0.0
 11
41.65772889257348
 21
0.5690928785334187
 31
0.0
  0
LINE
  5
194
330
1F
100
AcDbEntity
  8
DEFAULT
100
AcDbLine
 10
41.65772889257348
 20
0.5690928785334187
 30
0.0
 11
41.65272459399875
 21
0.5666623235292247
 31
0.0
  0
LINE
  5
195
330
1F
100
AcDbEntity
  8
DEFAULT
100
AcDbLine
 10
41.65272459399875
 20
0.5666623235292247
 30
0.0
 11
41.64779121466137
 21
0.5641102010386071
 31
0.0
  0
LINE
  5
196
330
1F
100
AcDbEntity
  8
DEFAULT
100
AcDbLine
 10
41.64779121466137
 20
0.5641102010386071
 30
0.0
 11
41.64293310705629
 21
0.5614395965276214
 31
0.0
  0
LINE
  5
197
330
1F
100
AcDbEntity
  8
DEFAULT
100
AcDbLine
 10
41.64293310705629
 20
0.5614395965276214
 30
0.0
 11
41.63815444652495
 21
0.5586537983405492
 31
0.0
  0
LINE
  5
198
330
1F
100
AcDbEntity
  8
DEFAULT
100
AcDbLine
 10
41.63815444652495
 20
0.5586537983405492
 30
0.0
 11
41.63345921981904
 21
0.5557562851576897
 31
0.0
  0
LINE
  5
199
330
1F
100
AcDbEntity
  8
DEFAULT
100
AcDbLine
 10
41.63345921981904
 20
0.5557562851576897
 30
0.0
 11
41.62885121471242
 21
0.5527507127156637
 31
0.0
  0
LINE
  5
19A
330
1F
100
AcDbEntity
  8
DEFAULT
100
AcDbLine
 10
41.62885121471242
 20
0.5527507127156637
 30
0.0
 11
41.62433401071279
 21
0.5496408998904972
 31
0.0
  0
LINE
  5
19B
330
1F
100
AcDbEntity
  8
DEFAULT
100
AcDbLine
 10
41.62433401071279
 20
0.5496408998904972
 30
0.0
 11
41.61991097091377
 21
0.5464308142473397
 31
0.0
  0
LINE
  5
19C
330
1F
100
AcDbEntity
  8
DEFAULT
100
AcDbLine
 10
41.61991097091377
 20
0.5464308142473397
 30
0.0
 11
41.61558523501733
 21
0.5431245571630172
 31
0.0
  0
LINE
  5
19D
330
1F
100
AcDbEntity
  8
DEFAULT
100
AcDbLine
 10
41.61558523501733
 20
0.5431245571630172
 30
0.0
 11
41.61135971354533
 21
0.5397263486286895
 31
0.0
  0
LINE
  5
19E
330
1F
100
AcDbEntity
  8
DEFAULT
100
AcDbLine
 10
41.61135971354533
 20
0.5397263486286895
 30
0.0
 11
41.60723708324839
 21
0.5362405118397465
 31
0.0
  0
LINE
  5
19F
330
1F
100
AcDbEntity
  8
DEFAULT
100
AcDbLine
 10
41.60723708324839
 20
0.5362405118397465
 30
0.0
 11
41.60321978370934
 21
0.5326714576787215
 31
0.0
  0
LINE
  5
1A0
330
1F
100
AcDbEntity
  8
DEFAULT
100
AcDbLine
 10
41.60321978370934
 20
0.5326714576787215
 30
0.0
 11
41.59929085379329
 21
0.5290053489916431
 31
0.0
  0
LINE
  5
1A1
330
1F
100
AcDbEntity
  8
DEFAULT
100
AcDbLine
 10
41.59929085379329
 20
0.5290053489916431
 30
0.0
 11
41.59543493155078
 21
0.5252265922722846
 31
0.0
  0
LINE
  5
1A2
330
1F
100
AcDbEntity
  8
DEFAULT
100
AcDbLine
 10
41.59543493155078
 20
0.5252265922722846
 30
0.0
 11
41.59165663658379
 21
0.5213372041333008
 31
0.0
  0
LINE
  5
1A3
330
1F
100
AcDbEntity
  8
DEFAULT
100
AcDbLine
 10
41.59165663658379
 20
0.5213372041333008
 30
0.0
 11
41.5879605233594
 21
0.5173394455130393
 31
0.0
  0
LINE
  5
1A4
330
1F
100
AcDbEntity
  8
DEFAULT
100
AcDbLine
 10
41.5879605233594
 20
0.5173394455130393
 30
0.0
 11
41.58435106544306
 21
0.513235819744258
 31
0.0
  0
LINE
  5
1A5
330
1F
100
AcDbEntity
  8
DEFAULT
100
AcDbLine
 10
41.58435106544306
 20
0.513235819744258
 30
0.0
 11
41.58083263972691
 21
0.5090290694234367
 31
0.0
  0
LINE
  5
1A6
330
1F
100
AcDbEntity
  8
DEFAULT
100
AcDbLine
 10
41.58083263972691
 20
0.5090290694234367
 30
0.0
 11
41.57740951075787
 21
0.5047221720682298
 31
0.0
  0
LINE
  5
1A7
330
1F
100
AcDbEntity
  8
DEFAULT
100
AcDbLine
 10
41.57740951075787
 20
0.5047221720682298
 30
0.0
 11
41.57408581527316
 21
0.5003183345610323
 31
0.0
  0
LINE
  5
1A8
330
1F
100
AcDbEntity
  8
DEFAULT
100
AcDbLine
 10
41.57408581527316
 20
0.5003183345610323
 30
0.0
 11
41.57086554705169
 21
0.4958209863874306
 31
0.0
  0
LINE
  5
1A9
330
1F
100
AcDbEntity
  8
DEFAULT
100
AcDbLine
 10
41.57086554705169
 20
0.4958209863874306
 30
0.0
 11
41.56775254218982
 21
0.4912337716893295
 31
0.0
  0
LINE
  5
1AA
330
1F
100
AcDbEntity
  8
DEFAULT
100
AcDbLine
 10
41.56775254218982
 20
0.4912337716893295
 30
0.0
 11
41.56475046490883
 21
0.4865605401636436
 31
0.0
  0
LINE
  5
1AB
330
1F
100
AcDbEntity
  8
DEFAULT
100
AcDbLine
 10
41.56475046490883
 20
0.4865605401636436
 30
0.0
 11
41.56186279399877
 21
0.4818053368484559
 31
0.0
  0
LINE
  5
1AC
330
1F
100
AcDbEntity
  8
DEFAULT
100
AcDbLine
 10
41.56186279399877
 20
0.4818053368484559
 30
0.0
 11
41.55909280999918
 21
0.4769723908493045
 31
0.0
  0
LINE
  5
1AD
330
1F
100
AcDbEntity
  8
DEFAULT
100
AcDbLine
 10
41.55909280999918
 20
0.4769723908493045
 30
0.0
 11
41.55644358321271
 21
0.4720661030686257
 31
0.0
  0
LINE
  5
1AE
330
1F
100
AcDbEntity
  8
DEFAULT
100
AcDbLine
 10
41.55644358321271
 20
0.4720661030686257
 30
0.0
 11
41.55391796264099
 21
0.4670910330111676
 31
0.0
  0
LINE
  5
1AF
330
1F
100
AcDbEntity
  8
DEFAULT
100
AcDbLine
 10
41.55391796264099
 20
0.4670910330111676
 30
0.0
 11
41.55151856592481
 21
0.4620518847472698
 31
0.0
  0
LINE
  5
1B0
330
1F
100
AcDbEntity
  8
DEFAULT
100
AcDbLine
 10
41.55151856592481
 20
0.4620518847472698
 30
0.0
 11
41.54924777036215
 21
0.4569534921241228
 31
0.0
  0
LINE
  5
1B1
330
1F
100
AcDbEntity
  8
DEFAULT
100
AcDbLine
 10
41.54924777036215
 20
0.4569534921241228
 30
0.0
 11
41.54710770506851
 21
0.4518008033223586
 31
0.0
  0
LINE
  5
1B2
330
1F
100
AcDbEntity
  8
DEFAULT
100
AcDbLine
 10
41.54710770506851
 20
0.4518008033223586
 30
0.0
 11
41.54510024433361
 21
0.446598864861466
 31
0.0
  0
LINE
  5
1B3
330
1F
100
AcDbEntity
  8
DEFAULT
100
AcDbLine
 10
41.54510024433361
 20
0.446598864861466
 30
0.0
 11
41.54322700221808
 21
0.4413528051624757
 31
0.0
  0
LINE
  5
1B4
330
1F
100
AcDbEntity
  8
DEFAULT
100
AcDbLine
 10
41.54322700221808
 20
0.4413528051624757
 30
0.0
 11
41.54148932842212
 21
0.436067817780058
 31
0.0
  0
LINE
  5
1B5
330
1F
100
AcDbEntity
  8
DEFAULT
100
AcDbLine
 10
41.54148932842212
 20
0.436067817780058
 30
0.0
 11
41.53988830544685
 21
0.4307491444185663
 31
0.0
  0
LINE
  5
1B6
330
1F
100
AcDbEntity
  8
DEFAULT
100
AcDbLine
 10
41.53988830544685
 20
0.4307491444185663
 30
0.0
 11
41.53842474705741
 21
0.4254020578476072
 31
0.0
  0
LINE
  5
1B7
330
1F
100
AcDbEntity
  8
DEFAULT
100
AcDbLine
 10
41.53842474705741
 20
0.4254020578476072
 30
0.0
 11
41.53709919804488
 21
0.4200318448324419
 31
0.0
  0
LINE
  5
1B8
330
1F
100
AcDbEntity
  8
DEFAULT
100
AcDbLine
 10
41.53709919804488
 20
0.4200318448324419
 30
0.0
 11
41.53591193527269
 21
0.4146437891929232
 31
0.0
  0
LINE
  5
1B9
330
1F
100
AcDbEntity
  8
DEFAULT
100
AcDbLine
 10
41.53591193527269
 20
0.4146437891929232
 30
0.0
 11
41.53486296998216
 21
0.4092431551018055
 31
0.0
  0
LINE
  5
1BA
330
1F
100
AcDbEntity
  8
DEFAULT
100
AcDbLine
 10
41.53486296998216
 20
0.4092431551018055
 30
0.0
 11
41.53395205132092
 21
0.4038351707291872
 31
0.0
  0
LINE
  5
1BB
330
1F
100
AcDbEntity
  8
DEFAULT
100
AcDbLine
 10
41.53395205132092
 20
0.4038351707291872
 30
0.0
 11
41.5331786710483
 21
0.3984250123346501
 31
0.0
  0
LINE
  5
1BC
330
1F
100
AcDbEntity
  8
DEFAULT
100
AcDbLine
 10
41.5331786710483
 20
0.3984250123346501
 30
0.0
 11
41.5325420693615
 21
0.3930177889024386
 31
0.0
  0
LINE
  5
1BD
330
1F
100
AcDbEntity
  8
DEFAULT
100
AcDbLine
 10
41.5325420693615
 20
0.3930177889024386
 30
0.0
 11
41.53204124177967
 21
0.3876185274078991
 31
0.0
  0
LINE
  5
1BE
330
1F
100
AcDbEntity
  8
DEFAULT
100
AcDbLine
 10
41.53204124177967
 20
0.3876185274078991
 30
0.0
 11
41.53167494701356
 21
0.3822321587954983
 31
0.0
  0
LINE
  5
1BF
330
1F
100
AcDbEntity
  8
DEFAULT
100
AcDbLine
 10
41.53167494701356
 20
0.3822321587954983
 30
0.0
 11
41.5314417157437
 21
0.3768635047401968
 31
0.0
  0
LINE
  5
1C0
330
1F
100
AcDbEntity
  8
DEFAULT
100
AcDbLine
 10
41.5314417157437
 20
0.3768635047401968
 30
0.0
 11
41.53133967899668
 21
0.3714907557517368
 31
0.0
  0
LINE
  5
1C1
330
1F
100
AcDbEntity
  8
DEFAULT
100
AcDbLine
 10
41.53133967899668
 20
0.3714907557517368
 30
0.0
 11
41.53136934196748
 21
0.3660920282356912
 31
0.0
  0
LINE
  5
1C2
330
1F
100
AcDbEntity
  8
DEFAULT
100
AcDbLine
 10
41.53136934196748
 20
0.3660920282356912
 30
0.0
 11
41.53153247181731
 21
0.3606720428477735
 31
0.0
  0
LINE
  5
1C3
330
1F
100
AcDbEntity
  8
DEFAULT
100
AcDbLine
 10
41.53153247181731
 20
0.3606720428477735
 30
0.0
 11
41.53183061493558
 21
0.3552356435215189
 31
0.0
  0
LINE
  5
1C4
330
1F
100
AcDbEntity
  8
DEFAULT
100
AcDbLine
 10
41.53183061493558
 20
0.3552356435215189
 30
0.0
 11
41.53226508735325
 21
0.3497877848028703
 31
0.0
  0
LINE
  5
1C5
330
1F
100
AcDbEntity
  8
DEFAULT
100
AcDbLine
 10
41.53226508735325
 20
0.3497877848028703
 30
0.0
 11
41.53283696601387
 21
0.3443335183462913
 31
0.0
  0
LINE
  5
1C6
330
1F
100
AcDbEntity
  8
DEFAULT
100
AcDbLine
 10
41.53283696601387
 20
0.3443335183462913
 30
0.0
 11
41.53354708098426
 21
0.3388779786391923
 31
0.0
  0
LINE
  5
1C7
330
1F
100
AcDbEntity
  8
DEFAULT
100
AcDbLine
 10
41.53354708098426
 20
0.3388779786391923
 30
0.0
 11
41.53439600868123
 21
0.3334263680303822
 31
0.0
  0
LINE
  5
1C8
330
1F
100
AcDbEntity
  8
DEFAULT
100
AcDbLine
 10
41.53439600868123
 20
0.3334263680303822
 30
0.0
 11
41.53538406618345
 21
0.3279839411466114
 31
0.0
  0
LINE
  5
1C9
330
1F
100
AcDbEntity
  8
DEFAULT
100
AcDbLine
 10
41.53538406618345
 20
0.3279839411466114
 30
0.0
 11
41.53651130668975
 21
0.322555988788904
 31
0.0
  0
LINE
  5
1CA
330
1F
100
AcDbEntity
  8
DEFAULT
100
AcDbLine
 10
41.53651130668975
 20
0.322555988788904
 30
0.0
 11
41.53777751617663
 21
0.3171478214071609
 31
0.0
  0
LINE
  5
1CB
330
1F
100
AcDbEntity
  8
DEFAULT
100
AcDbLine
 10
41.53777751617663
 20
0.3171478214071609
 30
0.0
 11
41.53918221129718
 21
0.3117647522573366
 31
0.0
  0
LINE
  5
1CC
330
1F
100
AcDbEntity
  8
DEFAULT
100
AcDbLine
 10
41.53918221129718
 20
0.3117647522573366
 30
0.0
 11
41.54072463855429
 21
0.3064120803502183
 31
0.0
  0
LINE
  5
1CD
330
1F
100
AcDbEntity
  8
DEFAULT
100
AcDbLine
 10
41.54072463855429
 20
0.3064120803502183
 30
0.0
 11
41.54240377476907
 21
0.3010950733044005
 31
0.0
  0
LINE
  5
1CE
330
1F
100
AcDbEntity
  8
DEFAULT
100
AcDbLine
 10
41.54240377476907
 20
0.3010950733044005
 30
0.0
 11
41.54421832885475
 21
0.2958189502183602
 31
0.0
  0
LINE
  5
1CF
330
1F
100
AcDbEntity
  8
DEFAULT
100
AcDbLine
 10
41.54421832885475
 20
0.2958189502183602
 30
0.0
 11
41.54616674489424
 21
0.2905888646775474
 31
0.0
  0
LINE
  5
1D0
330
1F
100
AcDbEntity
  8
DEFAULT
100
AcDbLine
 10
41.54616674489424
 20
0.2905888646775474
 30
0.0
 11
41.54824720650787
 21
0.2854098880120874
 31
0.0
  0
LINE
  5
1D1
330
1F
100
AcDbEntity
  8
DEFAULT
100
AcDbLine
 10
41.54824720650787
 20
0.2854098880120874
 30
0.0
 11
41.55045764248622
 21
0.2802869929190254
 31
0.0
  0
LINE
  5
1D2
330
1F
100
AcDbEntity
  8
DEFAULT
100
AcDbLine
 10
41.55045764248622
 20
0.2802869929190254
 30
0.0
 11
41.55279573365144
 21
0.2752250375600597
 31
0.0
  0
LINE
  5
1D3
330
1F
100
AcDbEntity
  8
DEFAULT
100
AcDbLine
 10
41.55279573365144
 20
0.2752250375600597
 30
0.0
 11
41.55525892089938
 21
0.2702287502414343
 31
0.0
  0
LINE
  5
1D4
330
1F
100
AcDbEntity
  8
DEFAULT
100
AcDbLine
 10
41.55525892089938
 20
0.2702287502414343
 30
0.0
 11
41.55784441436452
 21
0.2653027147771631
 31
0.0
  0
LINE
  5
1D5
330
1F
100
AcDbEntity
  8
DEFAULT
100
AcDbLine
 10
41.55784441436452
 20
0.2653027147771631
 30
0.0
 11
41.56054920363963
 21
0.2604513566301161
 31
0.0
  0
LINE
  5
1D6
330
1F
100
AcDbEntity
  8
DEFAULT
100
AcDbLine
 10
41.56054920363963
 20
0.2604513566301161
 30
0.0
 11
41.5633700689736
 21
0.2556789299178215
 31
0.0
  0
LINE
  5
1D7
330
1F
100
AcDbEntity
  8
DEFAULT
100
AcDbLine
 10
41.5633700689736
 20
0.2556789299178215
 30
0.0
 11
41.56630359336261
 21
0.2509895053612358
 31
0.0
  0
LINE
  5
1D8
330
1F
100
AcDbEntity
  8
DEFAULT
100
AcDbLine
 10
41.56630359336261
 20
0.2509895053612358
 30
0.0
 11
41.569346175443
 21
0.2463869592453517
 31
0.0
  0
LINE
  5
1D9
330
1F
100
AcDbEntity
  8
DEFAULT
100
AcDbLine
 10
41.569346175443
 20
0.2463869592453517
 30
0.0
 11
41.57249404308859
 21
0.2418749634504954
 31
0.0
  0
LINE
  5
1DA
330
1F
100
AcDbEntity
  8
DEFAULT
100
AcDbLine
 10
41.57249404308859
 20
0.2418749634504954
 30
0.0
 11
41.57574326761056
 21
0.2374569766026542
 31
0.0
  0
LINE
  5
1DB
330
1F
100
AcDbEntity
  8
DEFAULT
100
AcDbLine
 10
41.57574326761056
 20
0.2374569766026542
 30
0.0
 11
41.57908977845492
 21
0.2331362363803519
 31
0.0
  0
LINE
  5
1DC
330
1F
100
AcDbEntity
  8
DEFAULT
100
AcDbLine
 10
41.57908977845492
 20
0.2331362363803519
 30
0.0
 11
41.58252937829043
 21
0.2289157530045919
 31
0.0
  0
LINE
  5
1DD
330
1F
100
AcDbEntity
  8
DEFAULT
100
AcDbLine
 10
41.58252937829043
 20
0.2289157530045919
 30
0.0
 11
41.58605775837906
 21
0.2247983039273943
 31
0.0
  0
LINE
  5
1DE
330
1F
100
AcDbEntity
  8
DEFAULT
100
AcDbLine
 10
41.58605775837906
 20
0.2247983039273943
 30
0.0
 11
41.58967051412188
 21
0.2207864297236005
 31
0.0
  0
LINE
  5
1DF
330
1F
100
AcDbEntity
  8
DEFAULT
100
AcDbLine
 10
41.58967051412188
 20
0.2207864297236005
 30
0.0
 11
41.59336316067454
 21
0.2168824311800697
 31
0.0
  0
LINE
  5
1E0
330
1F
100
AcDbEntity
  8
DEFAULT
100
AcDbLine
 10
41.59336316067454
 20
0.2168824311800697
 30
0.0
 11
41.59715005760046
 21
0.2130697871023913
 31
0.0
  0
LINE
  5
1E1
330
1F
100
AcDbEntity
  8
DEFAULT
100
AcDbLine
 10
41.59715005760046
 20
0.2130697871023913
 30
0.0
 11
41.60104727006989
 21
0.2093336294969751
 31
0.0
  0
LINE
  5
1E2
330
1F
100
AcDbEntity
  8
DEFAULT
100
AcDbLine
 10
41.60104727006989
 20
0.2093336294969751
 30
0.0
 11
41.60505263833175
 21
0.2056785128039082
 31
0.0
  0
LINE
  5
1E3
330
1F
100
AcDbEntity
  8
DEFAULT
100
AcDbLine
 10
41.60505263833175
 20
0.2056785128039082
 30
0.0
 11
41.60916376046033
 21
0.2021089187377
 31
0.0
  0
LINE
  5
1E4
330
1F
100
AcDbEntity
  8
DEFAULT
100
AcDbLine
 10
41.60916376046033
 20
0.2021089187377
 30
0.0
 11
41.61337799477732
 21
0.1986292405885783
 31
0.0
  0
LINE
  5
1E5
330
1F
100
AcDbEntity
  8
DEFAULT
100
AcDbLine
 10
41.61337799477732
 20
0.1986292405885783
 30
0.0
 11
41.61769246347323
 21
0.195243767556052
 31
0.0
  0
LINE
  5
1E6
330
1F
100
AcDbEntity
  8
DEFAULT
100
AcDbLine
 10
41.61769246347323
 20
0.195243767556052
 30
0.0
 11
41.62210405743652
 21
0.1919566692201624
 31
0.0
  0
LINE
  5
1E7
330
1F
100
AcDbEntity
  8
DEFAULT
100
AcDbLine
 10
41.62210405743652
 20
0.1919566692201624
 30
0.0
 11
41.62660944229003
 21
0.1887719802578395
 31
0.0
  0
LINE
  5
1E8
330
1F
100
AcDbEntity
  8
DEFAULT
100
AcDbLine
 10
41.62660944229003
 20
0.1887719802578395
 30
0.0
 11
41.63120506562155
 21
0.1856935855126092
 31
0.0
  0
LINE
  5
1E9
330
1F
100
AcDbEntity
  8
DEFAULT
100
AcDbLine
 10
41.63120506562155
 20
0.1856935855126092
 30
0.0
 11
41.63588716538649
 21
0.1827252055255008
 31
0.0
  0
LINE
  5
1EA
330
1F
100
AcDbEntity
  8
DEFAULT
100
AcDbLine
 10
41.63588716538649
 20
0.1827252055255008
 30
0.0
 11
41.64065177944725
 21
0.1798703826333543
 31
0.0
  0
LINE
  5
1EB
330
1F
100
AcDbEntity
  8
DEFAULT
100
AcDbLine
 10
41.64065177944725
 20
0.1798703826333543
 30
0.0
 11
41.64549475620523
 21
0.1771324677378091
 31
0.0
  0
LINE
  5
1EC
330
1F
100
AcDbEntity
  8
DEFAULT
100
AcDbLine
 10
41.64549475620523
 20
0.1771324677378091
 30
0.0
 11
41.65041176626882
 21
0.1745146078440776
 31
0.0
  0
LINE
  5
1ED
330
1F
100
AcDbEntity
  8
DEFAULT
100
AcDbLine
 10
41.65041176626882
 20
0.1745146078440776
 30
0.0
 11
41.65539831509206
 21
0.1720197344632075
 31
0.0
  0
LINE
  5
1EE
330
1F
100
AcDbEntity
  8
DEFAULT
100
AcDbLine
 10
41.65539831509206
 20
0.1720197344632075
 30
0.0
 11
41.66044975650786
 21
0.1696505529649582
 31
0.0
  0
LINE
  5
1EF
330
1F
100
AcDbEntity
  8
DEFAULT
100
AcDbLine
 10
41.66044975650786
 20
0.1696505529649582
 30
0.0
 11
41.66556130707183
 21
0.1674095329607529
 31
0.0
  0
LINE
  5
1F0
330
1F
100
AcDbEntity
  8
DEFAULT
100
AcDbLine
 10
41.66556130707183
 20
0.1674095329607529
 30
0.0
 11
41.67072806112393
 21
0.1652988997874943
 31
0.0
  0
LINE
  5
1F1
330
1F
100
AcDbEntity
  8
DEFAULT
100
AcDbLine
 10
41.67072806112393
 20
0.1652988997874943
 30
0.0
 11
41.6759450064691
 21
0.1633206271534852
 31
0.0
  0
LINE
  5
1F2
330
1F
100
AcDbEntity
  8
DEFAULT
100
AcDbLine
 10
41.6759450064691
 20
0.1633206271534852
 30
0.0
 11
41.68120704057112
 21
0.1614764309973959
 31
0.0
  0
LINE
  5
1F3
330
1F
100
AcDbEntity
  8
DEFAULT
100
AcDbLine
 10
41.68120704057112
 20
0.1614764309973959
 30
0.0
 11
41.68650898715066
 21
0.1597677646003139
 31
0.0
  0
LINE
  5
1F4
330
1F
100
AcDbEntity
  8
DEFAULT
100
AcDbLine
 10
41.68650898715066
 20
0.1597677646003139
 30
0.0
 11
41.69184561307377
 21
0.1581958149795628
 31
0.0
  0
LINE
  5
1F5
330
1F
100
AcDbEntity
  8
DEFAULT
100
AcDbLine
 10
41.69184561307377
 20
0.1581958149795628
 30
0.0
 11
41.69721164541627
 21
0.1567615005813465
 31
0.0
  0
LINE
  5
1F6
330
1F
100
AcDbEntity
  8
DEFAULT
100
AcDbLine
 10
41.69721164541627
 20
0.1567615005813465
 30
0.0
 11
41.70260178858767
 21
0.1554654702775297
 31
0.0
  0
LINE
  5
1F7
330
1F
100
AcDbEntity
  8
DEFAULT
100
AcDbLine
 10
41.70260178858767
 20
0.1554654702775297
 30
0.0
 11
41.7080107414
 21
0.1543081036601803
 31
0.0
  0
LINE
  5
1F8
330
1F
100
AcDbEntity
  8
DEFAULT
100
AcDbLine
 10
41.7080107414
 20
0.1543081036601803
 30
0.0
 11
41.71343321396788
 21
0.1532895126160326
 31
0.0
  0
LINE
  5
1F9
330
1F
100
AcDbEntity
  8
DEFAULT
100
AcDbLine
 10
41.71343321396788
 20
0.1532895126160326
 30
0.0
 11
41.71886394433029
 21
0.1524095441519535
 31
0.0
  0
LINE
  5
1FA
330
1F
100
AcDbEntity
  8
DEFAULT
100
AcDbLine
 10
41.71886394433029
 20
0.1524095441519535
 30
0.0
 11
41.72429771468794
 21
0.1516677844319443
 31
0.0
  0
LINE
  5
1FB
330
1F
100
AcDbEntity
  8
DEFAULT
100
AcDbLine
 10
41.72429771468794
 20
0.1516677844319443
 30
0.0
 11
41.72972936715666
 21
0.1510635639763347
 31
0.0
  0
LINE
  5
1FC
330
1F
100
AcDbEntity
  8
DEFAULT
100
AcDbLine
 10
41.72972936715666
 20
0.1510635639763347
 30
0.0
 11
41.73515381894303
 21
0.1505959639647427
 31
0.0
  0
LINE
  5
1FD
330
1F
100
AcDbEntity
  8
DEFAULT
100
AcDbLine
 10
41.73515381894303
 20
0.1505959639647427
 30
0.0
 11
41.74056607685591
 21
0.1502638235761907
 31
0.0
  0
LINE
  5
1FE
330
1F
100
AcDbEntity
  8
DEFAULT
100
AcDbLine
 10
41.74056607685591
 20
0.1502638235761907
 30
0.0
 11
41.74596125107611
 21
0.1500657482925665
 31
0.0
  0
LINE
  5
1FF
330
1F
100
AcDbEntity
  8
DEFAULT
100
AcDbLine
 10
41.74596125107611
 20
0.1500657482925665
 30
0.0
 11
45.44144591821659
 21
0.1500063664913303
 31
0.0
  0
LINE
  5
200
330
1F
100
AcDbEntity
  8
DEFAULT
100
AcDbLine
 10
33.85787095289232
 20
13.56899999999908
 30
0.0
 11
33.96102342498683
 21
13.59471657877219
 31
0.0
  0
LINE
  5
201
330
1F
100
AcDbEntity
  8
DEFAULT
100
AcDbLine
 10
33.96102342498683
 20
13.59471657877219
 30
0.0
 11
35.25845604860277
 21
15.90053045304955
 31
0.0
  0
ARC
  5
202
330
1F
100
AcDbEntity
  8
DEFAULT
100
AcDbCircle
 10
36.39182174518807
 20
14.69650765938566
 30
0.0
 40
1.653538233564162
100
AcDbArc
 50
85.52276358031003
 51
133.268528734856
  0
LINE
  5
203
330
1F
100
AcDbEntity
  8
DEFAULT
100
AcDbLine
 10
36.520901924889
 20
16.34500000000082
 30
0.0
 11
46.53883998089702
 21
16.34500000000082
 31
0.0
  0
ARC
  5
204
330
1F
100
AcDbEntity
  8
DEFAULT
100
AcDbCircle
 10
46.66792016059794
 20
14.69650765938564
 30
0.0
 40
1.653538233564172
100
AcDbArc
 50
46.73147126514428
 51
94.4772364196897
  0
LINE
  5
205
330
1F
100
AcDbEntity
  8
DEFAULT
100
AcDbLine
 10
47.80128585718325
 20
15.90053045304955
 30
0.0
 11
49.09871848079919
 21
13.59471657877219
 31
0.0
  0
LINE
  5
206
330
1F
100
AcDbEntity
  8
DEFAULT
100
AcDbLine
 10
49.09871848079919
 20
13.59471657877219
 30
0.0
 11
49.20187095289369
 21
13.56899999999908
 31
0.0
  0
LINE
  5
207
330
1F
100
AcDbEntity
  8
MAKE2D VISIBLE LINES
100
AcDbLine
 10
47.20258254170619
 20
0.1500003384789805
 30
0.0
 11
47.20084039377511
 21
0.1500537589046975
 31
0.0
  0
LINE
  5
208
330
1F
100
AcDbEntity
  8
MAKE2D VISIBLE LINES
100
AcDbLine
 10
47.20084039377511
 20
0.1500537589046975
 30
0.0
 11
47.1991132527483
 21
0.1501451781565354
 31
0.0
  0
LINE
  5
209
330
1F
100
AcDbEntity
  8
MAKE2D VISIBLE LINES
100
AcDbLine
 10
47.1991132527483
 20
0.1501451781565354
 30
0.0
 11
47.19740106434521
 21
0.1502740750172903
 31
0.0
  0
LINE
  5
20A
330
1F
100
AcDbEntity
  8
MAKE2D VISIBLE LINES
100
AcDbLine
 10
47.19740106434521
 20
0.1502740750172903
 30
0.0
 11
47.1957037742853
 21
0.1504399282697586
 31
0.0
  0
LINE
  5
20B
330
1F
100
AcDbEntity
  8
MAKE2D VISIBLE LINES
100
AcDbLine
 10
47.1957037742853
 20
0.1504399282697586
 30
0.0
 11
47.19402132828801
 21
0.1506422166967366
 31
0.0
  0
LINE
  5
20C
330
1F
100
AcDbEntity
  8
MAKE2D VISIBLE LINES
100
AcDbLine
 10
47.19402132828801
 20
0.1506422166967366
 30
0.0
 11
47.19235367207281
 21
0.1508804190810207
 31
0.0
  0
LINE
  5
20D
330
1F
100
AcDbEntity
  8
MAKE2D VISIBLE LINES
100
AcDbLine
 10
47.19235367207281
 20
0.1508804190810207
 30
0.0
 11
47.19070075135913
 21
0.151154014205407
 31
0.0
  0
LINE
  5
20E
330
1F
100
AcDbEntity
  8
MAKE2D VISIBLE LINES
100
AcDbLine
 10
47.19070075135913
 20
0.151154014205407
 30
0.0
 11
47.18906251186644
 21
0.1514624808526921
 31
0.0
  0
LINE
  5
20F
330
1F
100
AcDbEntity
  8
MAKE2D VISIBLE LINES
100
AcDbLine
 10
47.18906251186644
 20
0.1514624808526921
 30
0.0
 11
47.1874388993142
 21
0.1518052978056721
 31
0.0
  0
LINE
  5
210
330
1F
100
AcDbEntity
  8
MAKE2D VISIBLE LINES
100
AcDbLine
 10
47.1874388993142
 20
0.1518052978056721
 30
0.0
 11
47.18582985942184
 21
0.1521819438471433
 31
0.0
  0
LINE
  5
211
330
1F
100
AcDbEntity
  8
MAKE2D VISIBLE LINES
100
AcDbLine
 10
47.18582985942184
 20
0.1521819438471433
 30
0.0
 11
47.18423533790885
 21
0.1525918977599023
 31
0.0
  0
LINE
  5
212
330
1F
100
AcDbEntity
  8
MAKE2D VISIBLE LINES
100
AcDbLine
 10
47.18423533790885
 20
0.1525918977599023
 30
0.0
 11
47.18265528049465
 21
0.1530346383267451
 31
0.0
  0
LINE
  5
213
330
1F
100
AcDbEntity
  8
MAKE2D VISIBLE LINES
100
AcDbLine
 10
47.18265528049465
 20
0.1530346383267451
 30
0.0
 11
47.18108963289872
 21
0.1535096443304681
 31
0.0
  0
LINE
  5
214
330
1F
100
AcDbEntity
  8
MAKE2D VISIBLE LINES
100
AcDbLine
 10
47.18108963289872
 20
0.1535096443304681
 30
0.0
 11
47.17953834084049
 21
0.1540163945538677
 31
0.0
  0
LINE
  5
215
330
1F
100
AcDbEntity
  8
MAKE2D VISIBLE LINES
100
AcDbLine
 10
47.17953834084049
 20
0.1540163945538677
 30
0.0
 11
47.17800135003943
 21
0.1545543677797402
 31
0.0
  0
LINE
  5
216
330
1F
100
AcDbEntity
  8
MAKE2D VISIBLE LINES
100
AcDbLine
 10
47.17800135003943
 20
0.1545543677797402
 30
0.0
 11
47.17647860621499
 21
0.1551230427908818
 31
0.0
  0
LINE
  5
217
330
1F
100
AcDbEntity
  8
MAKE2D VISIBLE LINES
100
AcDbLine
 10
47.17647860621499
 20
0.1551230427908818
 30
0.0
 11
47.17497005508663
 21
0.1557218983700889
 31
0.0
  0
LINE
  5
218
330
1F
100
AcDbEntity
  8
MAKE2D VISIBLE LINES
100
AcDbLine
 10
47.17497005508663
 20
0.1557218983700889
 30
0.0
 11
47.17347564237379
 21
0.1563504133001578
 31
0.0
  0
LINE
  5
219
330
1F
100
AcDbEntity
  8
MAKE2D VISIBLE LINES
100
AcDbLine
 10
47.17347564237379
 20
0.1563504133001578
 30
0.0
 11
47.17199531379594
 21
0.1570080663638848
 31
0.0
  0
LINE
  5
21A
330
1F
100
AcDbEntity
  8
MAKE2D VISIBLE LINES
100
AcDbLine
 10
47.17199531379594
 20
0.1570080663638848
 30
0.0
 11
47.17052901507252
 21
0.1576943363440662
 31
0.0
  0
LINE
  5
21B
330
1F
100
AcDbEntity
  8
MAKE2D VISIBLE LINES
100
AcDbLine
 10
47.17052901507252
 20
0.1576943363440662
 30
0.0
 11
47.169076691923
 21
0.1584087020234984
 31
0.0
  0
LINE
  5
21C
330
1F
100
AcDbEntity
  8
MAKE2D VISIBLE LINES
100
AcDbLine
 10
47.169076691923
 20
0.1584087020234984
 30
0.0
 11
47.16763829006682
 21
0.1591506421849777
 31
0.0
  0
LINE
  5
21D
330
1F
100
AcDbEntity
  8
MAKE2D VISIBLE LINES
100
AcDbLine
 10
47.16763829006682
 20
0.1591506421849777
 30
0.0
 11
47.16621375522344
 21
0.1599196356113002
 31
0.0
  0
LINE
  5
21E
330
1F
100
AcDbEntity
  8
MAKE2D VISIBLE LINES
100
AcDbLine
 10
47.16621375522344
 20
0.1599196356113002
 30
0.0
 11
47.16480303311231
 21
0.1607151610852625
 31
0.0
  0
LINE
  5
21F
330
1F
100
AcDbEntity
  8
MAKE2D VISIBLE LINES
100
AcDbLine
 10
47.16480303311231
 20
0.1607151610852625
 30
0.0
 11
47.16340606945288
 21
0.1615366973896608
 31
0.0
  0
LINE
  5
220
330
1F
100
AcDbEntity
  8
MAKE2D VISIBLE LINES
100
AcDbLine
 10
47.16340606945288
 20
0.1615366973896608
 30
0.0
 11
47.16202280996462
 21
0.1623837233072914
 31
0.0
  0
LINE
  5
221
330
1F
100
AcDbEntity
  8
MAKE2D VISIBLE LINES
100
AcDbLine
 10
47.16202280996462
 20
0.1623837233072914
 30
0.0
 11
47.15929718637939
 21
0.1641521591134348
 31
0.0
  0
LINE
  5
222
330
1F
100
AcDbEntity
  8
MAKE2D VISIBLE LINES
100
AcDbLine
 10
47.15929718637939
 20
0.1641521591134348
 30
0.0
 11
47.15662572811226
 21
0.1660162987660632
 31
0.0
  0
LINE
  5
223
330
1F
100
AcDbEntity
  8
MAKE2D VISIBLE LINES
100
AcDbLine
 10
47.15662572811226
 20
0.1660162987660632
 30
0.0
 11
47.15400800091884
 21
0.1679719725275471
 31
0.0
  0
LINE
  5
224
330
1F
100
AcDbEntity
  8
MAKE2D VISIBLE LINES
100
AcDbLine
 10
47.15400800091884
 20
0.1679719725275471
 30
0.0
 11
47.15144357055477
 21
0.1700150106602571
 31
0.0
  0
LINE
  5
225
330
1F
100
AcDbEntity
  8
MAKE2D VISIBLE LINES
100
AcDbLine
 10
47.15144357055477
 20
0.1700150106602571
 30
0.0
 11
47.14893200277569
 21
0.1721412434265637
 31
0.0
  0
LINE
  5
226
330
1F
100
AcDbEntity
  8
MAKE2D VISIBLE LINES
100
AcDbLine
 10
47.14893200277569
 20
0.1721412434265637
 30
0.0
 11
47.14647286333723
 21
0.1743465010888373
 31
0.0
  0
LINE
  5
227
330
1F
100
AcDbEntity
  8
MAKE2D VISIBLE LINES
100
AcDbLine
 10
47.14647286333723
 20
0.1743465010888373
 30
0.0
 11
47.14406571799502
 21
0.1766266139094485
 31
0.0
  0
LINE
  5
228
330
1F
100
AcDbEntity
  8
MAKE2D VISIBLE LINES
100
AcDbLine
 10
47.14406571799502
 20
0.1766266139094485
 30
0.0
 11
47.1417101325047
 21
0.1789774121507678
 31
0.0
  0
LINE
  5
229
330
1F
100
AcDbEntity
  8
MAKE2D VISIBLE LINES
100
AcDbLine
 10
47.1417101325047
 20
0.1789774121507678
 30
0.0
 11
47.13940567262189
 21
0.1813947260751658
 31
0.0
  0
LINE
  5
22A
330
1F
100
AcDbEntity
  8
MAKE2D VISIBLE LINES
100
AcDbLine
 10
47.13940567262189
 20
0.1813947260751658
 30
0.0
 11
47.13715190410222
 21
0.1838743859450128
 31
0.0
  0
LINE
  5
22B
330
1F
100
AcDbEntity
  8
MAKE2D VISIBLE LINES
100
AcDbLine
 10
47.13715190410222
 20
0.1838743859450128
 30
0.0
 11
47.13494839270133
 21
0.1864122220226795
 31
0.0
  0
LINE
  5
22C
330
1F
100
AcDbEntity
  8
MAKE2D VISIBLE LINES
100
AcDbLine
 10
47.13494839270133
 20
0.1864122220226795
 30
0.0
 11
47.13279470417486
 21
0.1890040645705364
 31
0.0
  0
LINE
  5
22D
330
1F
100
AcDbEntity
  8
MAKE2D VISIBLE LINES
100
AcDbLine
 10
47.13279470417486
 20
0.1890040645705364
 30
0.0
 11
47.13069040427843
 21
0.1916457438509539
 31
0.0
  0
LINE
  5
22E
330
1F
100
AcDbEntity
  8
MAKE2D VISIBLE LINES
100
AcDbLine
 10
47.13069040427843
 20
0.1916457438509539
 30
0.0
 11
47.12863505876766
 21
0.1943330901263026
 31
0.0
  0
LINE
  5
22F
330
1F
100
AcDbEntity
  8
MAKE2D VISIBLE LINES
100
AcDbLine
 10
47.12863505876766
 20
0.1943330901263026
 30
0.0
 11
47.12662823339821
 21
0.197061933658953
 31
0.0
  0
LINE
  5
230
330
1F
100
AcDbEntity
  8
MAKE2D VISIBLE LINES
100
AcDbLine
 10
47.12662823339821
 20
0.197061933658953
 30
0.0
 11
47.12275840610575
 21
0.2026274335456409
 31
0.0
  0
LINE
  5
231
330
1F
100
AcDbEntity
  8
MAKE2D VISIBLE LINES
100
AcDbLine
 10
47.12275840610575
 20
0.2026274335456409
 30
0.0
 11
47.1190774484461
 21
0.2083088856099818
 31
0.0
  0
LINE
  5
232
330
1F
100
AcDbEntity
  8
MAKE2D VISIBLE LINES
100
AcDbLine
 10
47.1190774484461
 20
0.2083088856099818
 30
0.0
 11
47.11558192134517
 21
0.2140777895542709
 31
0.0
  0
LINE
  5
233
330
1F
100
AcDbEntity
  8
MAKE2D VISIBLE LINES
100
AcDbLine
 10
47.11558192134517
 20
0.2140777895542709
 30
0.0
 11
47.11226852525229
 21
0.2199250754941278
 31
0.0
  0
LINE
  5
234
330
1F
100
AcDbEntity
  8
MAKE2D VISIBLE LINES
100
AcDbLine
 10
47.11226852525229
 20
0.2199250754941278
 30
0.0
 11
47.10913399549764
 21
0.2258465311485034
 31
0.0
  0
LINE
  5
235
330
1F
100
AcDbEntity
  8
MAKE2D VISIBLE LINES
100
AcDbLine
 10
47.10913399549764
 20
0.2258465311485034
 30
0.0
 11
47.10617506741139
 21
0.2318379442363484
 31
0.0
  0
LINE
  5
236
330
1F
100
AcDbEntity
  8
MAKE2D VISIBLE LINES
100
AcDbLine
 10
47.10617506741139
 20
0.2318379442363484
 30
0.0
 11
47.10338847632373
 21
0.2378951024766137
 31
0.0
  0
LINE
  5
237
330
1F
100
AcDbEntity
  8
MAKE2D VISIBLE LINES
100
AcDbLine
 10
47.10338847632373
 20
0.2378951024766137
 30
0.0
 11
47.10077095756482
 21
0.2440137935882501
 31
0.0
  0
LINE
  5
238
330
1F
100
AcDbEntity
  8
MAKE2D VISIBLE LINES
100
AcDbLine
 10
47.10077095756482
 20
0.2440137935882501
 30
0.0
 11
47.09831924646485
 21
0.2501898052902083
 31
0.0
  0
LINE
  5
239
330
1F
100
AcDbEntity
  8
MAKE2D VISIBLE LINES
100
AcDbLine
 10
47.09831924646485
 20
0.2501898052902083
 30
0.0
 11
47.09603007835399
 21
0.2564189253014392
 31
0.0
  0
LINE
  5
23A
330
1F
100
AcDbEntity
  8
MAKE2D VISIBLE LINES
100
AcDbLine
 10
47.09603007835399
 20
0.2564189253014392
 30
0.0
 11
47.09390018856243
 21
0.2626969413408936
 31
0.0
  0
LINE
  5
23B
330
1F
100
AcDbEntity
  8
MAKE2D VISIBLE LINES
100
AcDbLine
 10
47.09390018856243
 20
0.2626969413408936
 30
0.0
 11
47.09192631242035
 21
0.2690196411275221
 31
0.0
  0
LINE
  5
23C
330
1F
100
AcDbEntity
  8
MAKE2D VISIBLE LINES
100
AcDbLine
 10
47.09192631242035
 20
0.2690196411275221
 30
0.0
 11
47.09010518525791
 21
0.2753828123802758
 31
0.0
  0
LINE
  5
23D
330
1F
100
AcDbEntity
  8
MAKE2D VISIBLE LINES
100
AcDbLine
 10
47.09010518525791
 20
0.2753828123802758
 30
0.0
 11
47.08843354240532
 21
0.2817822428181054
 31
0.0
  0
LINE
  5
23E
330
1F
100
AcDbEntity
  8
MAKE2D VISIBLE LINES
100
AcDbLine
 10
47.08843354240532
 20
0.2817822428181054
 30
0.0
 11
47.08690811919273
 21
0.2882137201599616
 31
0.0
  0
LINE
  5
23F
330
1F
100
AcDbEntity
  8
MAKE2D VISIBLE LINES
100
AcDbLine
 10
47.08690811919273
 20
0.2882137201599616
 30
0.0
 11
47.08552565095033
 21
0.2946730321247952
 31
0.0
  0
LINE
  5
240
330
1F
100
AcDbEntity
  8
MAKE2D VISIBLE LINES
100
AcDbLine
 10
47.08552565095033
 20
0.2946730321247952
 30
0.0
 11
47.08428287300829
 21
0.3011559664315572
 31
0.0
  0
LINE
  5
241
330
1F
100
AcDbEntity
  8
MAKE2D VISIBLE LINES
100
AcDbLine
 10
47.08428287300829
 20
0.3011559664315572
 30
0.0
 11
47.0831765206968
 21
0.3076583107991981
 31
0.0
  0
LINE
  5
242
330
1F
100
AcDbEntity
  8
MAKE2D VISIBLE LINES
100
AcDbLine
 10
47.0831765206968
 20
0.3076583107991981
 30
0.0
 11
47.08220098600335
 21
0.3141764276889448
 31
0.0
  0
LINE
  5
243
330
1F
100
AcDbEntity
  8
MAKE2D VISIBLE LINES
100
AcDbLine
 10
47.08220098600335
 20
0.3141764276889448
 30
0.0
 11
47.08134128754479
 21
0.3207089785311269
 31
0.0
  0
LINE
  5
244
330
1F
100
AcDbEntity
  8
MAKE2D VISIBLE LINES
100
AcDbLine
 10
47.08134128754479
 20
0.3207089785311269
 30
0.0
 11
47.07990010042887
 21
0.3338143267632204
 31
0.0
  0
LINE
  5
245
330
1F
100
AcDbEntity
  8
MAKE2D VISIBLE LINES
100
AcDbLine
 10
47.07990010042887
 20
0.3338143267632204
 30
0.0
 11
47.07530385619006
 21
0.3866603123101456
 31
0.0
  0
LINE
  5
246
330
1F
100
AcDbEntity
  8
MAKE2D VISIBLE LINES
100
AcDbLine
 10
47.07530385619006
 20
0.3866603123101456
 30
0.0
 11
47.07375393215256
 21
0.3999474037557408
 31
0.0
  0
LINE
  5
247
330
1F
100
AcDbEntity
  8
MAKE2D VISIBLE LINES
100
AcDbLine
 10
47.07375393215256
 20
0.3999474037557408
 30
0.0
 11
47.07282355469496
 21
0.4065980876866991
 31
0.0
  0
LINE
  5
248
330
1F
100
AcDbEntity
  8
MAKE2D VISIBLE LINES
100
AcDbLine
 10
47.07282355469496
 20
0.4065980876866991
 30
0.0
 11
47.07176646731034
 21
0.413252511986572
 31
0.0
  0
LINE
  5
249
330
1F
100
AcDbEntity
  8
MAKE2D VISIBLE LINES
100
AcDbLine
 10
47.07176646731034
 20
0.413252511986572
 30
0.0
 11
47.07056638367722
 21
0.4199067385718049
 31
0.0
  0
LINE
  5
24A
330
1F
100
AcDbEntity
  8
MAKE2D VISIBLE LINES
100
AcDbLine
 10
47.07056638367722
 20
0.4199067385718049
 30
0.0
 11
47.06921117109165
 21
0.4265441323342024
 31
0.0
  0
LINE
  5
24B
330
1F
100
AcDbEntity
  8
MAKE2D VISIBLE LINES
100
AcDbLine
 10
47.06921117109165
 20
0.4265441323342024
 30
0.0
 11
47.06768973525409
 21
0.4331448839094088
 31
0.0
  0
LINE
  5
24C
330
1F
100
AcDbEntity
  8
MAKE2D VISIBLE LINES
100
AcDbLine
 10
47.06768973525409
 20
0.4331448839094088
 30
0.0
 11
47.06599098186499
 21
0.4396891839330681
 31
0.0
  0
LINE
  5
24D
330
1F
100
AcDbEntity
  8
MAKE2D VISIBLE LINES
100
AcDbLine
 10
47.06599098186499
 20
0.4396891839330681
 30
0.0
 11
47.06410381662479
 21
0.4461572230408247
 31
0.0
  0
LINE
  5
24E
330
1F
100
AcDbEntity
  8
MAKE2D VISIBLE LINES
100
AcDbLine
 10
47.06410381662479
 20
0.4461572230408247
 30
0.0
 11
47.06201714523392
 21
0.452529191868323
 31
0.0
  0
LINE
  5
24F
330
1F
100
AcDbEntity
  8
MAKE2D VISIBLE LINES
100
AcDbLine
 10
47.06201714523392
 20
0.452529191868323
 30
0.0
 11
47.06089552776339
 21
0.455672959500614
 31
0.0
  0
LINE
  5
250
330
1F
100
AcDbEntity
  8
MAKE2D VISIBLE LINES
100
AcDbLine
 10
47.06089552776339
 20
0.455672959500614
 30
0.0
 11
47.05971987339285
 21
0.458785281051207
 31
0.0
  0
LINE
  5
251
330
1F
100
AcDbEntity
  8
MAKE2D VISIBLE LINES
100
AcDbLine
 10
47.05971987339285
 20
0.458785281051207
 30
0.0
 11
47.05848879533487
 21
0.4618636803495575
 31
0.0
  0
LINE
  5
252
330
1F
100
AcDbEntity
  8
MAKE2D VISIBLE LINES
100
AcDbLine
 10
47.05848879533487
 20
0.4618636803495575
 30
0.0
 11
47.05720090680201
 21
0.4649056812251211
 31
0.0
  0
LINE
  5
253
330
1F
100
AcDbEntity
  8
MAKE2D VISIBLE LINES
100
AcDbLine
 10
47.05720090680201
 20
0.4649056812251211
 30
0.0
 11
47.05585482100682
 21
0.4679088075073533
 31
0.0
  0
LINE
  5
254
330
1F
100
AcDbEntity
  8
MAKE2D VISIBLE LINES
100
AcDbLine
 10
47.05585482100682
 20
0.4679088075073533
 30
0.0
 11
47.05444915116185
 21
0.4708705830257095
 31
0.0
  0
LINE
  5
255
330
1F
100
AcDbEntity
  8
MAKE2D VISIBLE LINES
100
AcDbLine
 10
47.05444915116185
 20
0.4708705830257095
 30
0.0
 11
47.05298251047966
 21
0.4737885316096454
 31
0.0
  0
LINE
  5
256
330
1F
100
AcDbEntity
  8
MAKE2D VISIBLE LINES
100
AcDbLine
 10
47.05298251047966
 20
0.4737885316096454
 30
0.0
 11
47.05145351217281
 21
0.4766601770886165
 31
0.0
  0
LINE
  5
257
330
1F
100
AcDbEntity
  8
MAKE2D VISIBLE LINES
100
AcDbLine
 10
47.05145351217281
 20
0.4766601770886165
 30
0.0
 11
47.04986076945384
 21
0.4794830432920783
 31
0.0
  0
LINE
  5
258
330
1F
100
AcDbEntity
  8
MAKE2D VISIBLE LINES
100
AcDbLine
 10
47.04986076945384
 20
0.4794830432920783
 30
0.0
 11
47.04820289553533
 21
0.4822546540494863
 31
0.0
  0
LINE
  5
259
330
1F
100
AcDbEntity
  8
MAKE2D VISIBLE LINES
100
AcDbLine
 10
47.04820289553533
 20
0.4822546540494863
 30
0.0
 11
47.04647850362981
 21
0.4849725331902961
 31
0.0
  0
LINE
  5
25A
330
1F
100
AcDbEntity
  8
MAKE2D VISIBLE LINES
100
AcDbLine
 10
47.04647850362981
 20
0.4849725331902961
 30
0.0
 11
47.04468620694986
 21
0.4876342045439631
 31
0.0
  0
LINE
  5
25B
330
1F
100
AcDbEntity
  8
MAKE2D VISIBLE LINES
100
AcDbLine
 10
47.04468620694986
 20
0.4876342045439631
 30
0.0
 11
47.04282461870802
 21
0.490237191939943
 31
0.0
  0
LINE
  5
25C
330
1F
100
AcDbEntity
  8
MAKE2D VISIBLE LINES
100
AcDbLine
 10
47.04282461870802
 20
0.490237191939943
 30
0.0
 11
47.04089235211686
 21
0.4927790192076913
 31
0.0
  0
LINE
  5
25D
330
1F
100
AcDbEntity
  8
MAKE2D VISIBLE LINES
100
AcDbLine
 10
47.04089235211686
 20
0.4927790192076913
 30
0.0
 11
47.03888802038891
 21
0.4952572101766635
 31
0.0
  0
LINE
  5
25E
330
1F
100
AcDbEntity
  8
MAKE2D VISIBLE LINES
100
AcDbLine
 10
47.03888802038891
 20
0.4952572101766635
 30
0.0
 11
47.03681023673675
 21
0.497669288676315
 31
0.0
  0
LINE
  5
25F
330
1F
100
AcDbEntity
  8
MAKE2D VISIBLE LINES
100
AcDbLine
 10
47.03681023673675
 20
0.497669288676315
 30
0.0
 11
47.03465761437293
 21
0.5000127785361017
 31
0.0
  0
LINE
  5
260
330
1F
100
AcDbEntity
  8
MAKE2D VISIBLE LINES
100
AcDbLine
 10
47.03465761437293
 20
0.5000127785361017
 30
0.0
 11
47.03242876650999
 21
0.5022852035854786
 31
0.0
  0
LINE
  5
261
330
1F
100
AcDbEntity
  8
MAKE2D VISIBLE LINES
100
AcDbLine
 10
47.03242876650999
 20
0.5022852035854786
 30
0.0
 11
47.03012230636051
 21
0.5044840876539016
 31
0.0
  0
LINE
  5
262
330
1F
100
AcDbEntity
  8
MAKE2D VISIBLE LINES
100
AcDbLine
 10
47.03012230636051
 20
0.5044840876539016
 30
0.0
 11
47.02773684713702
 21
0.5066069545708263
 31
0.0
  0
LINE
  5
263
330
1F
100
AcDbEntity
  8
MAKE2D VISIBLE LINES
100
AcDbLine
 10
47.02773684713702
 20
0.5066069545708263
 30
0.0
 11
47.02527182456939
 21
0.5086519415626345
 31
0.0
  0
LINE
  5
264
330
1F
100
AcDbEntity
  8
MAKE2D VISIBLE LINES
100
AcDbLine
 10
47.02527182456939
 20
0.5086519415626345
 30
0.0
 11
47.02272996445663
 21
0.5106196394434149
 31
0.0
  0
LINE
  5
265
330
1F
100
AcDbEntity
  8
MAKE2D VISIBLE LINES
100
AcDbLine
 10
47.02272996445663
 20
0.5106196394434149
 30
0.0
 11
47.02011481511506
 21
0.5125112524241827
 31
0.0
  0
LINE
  5
266
330
1F
100
AcDbEntity
  8
MAKE2D VISIBLE LINES
100
AcDbLine
 10
47.02011481511506
 20
0.5125112524241827
 30
0.0
 11
47.01742992486102
 21
0.5143279847159529
 31
0.0
  0
LINE
  5
267
330
1F
100
AcDbEntity
  8
MAKE2D VISIBLE LINES
100
AcDbLine
 10
47.01742992486102
 20
0.5143279847159529
 30
0.0
 11
47.0146788420108
 21
0.5160710405297405
 31
0.0
  0
LINE
  5
268
330
1F
100
AcDbEntity
  8
MAKE2D VISIBLE LINES
100
AcDbLine
 10
47.0146788420108
 20
0.5160710405297405
 30
0.0
 11
47.01186511488071
 21
0.5177416240765609
 31
0.0
  0
LINE
  5
269
330
1F
100
AcDbEntity
  8
MAKE2D VISIBLE LINES
100
AcDbLine
 10
47.01186511488071
 20
0.5177416240765609
 30
0.0
 11
47.00899229178708
 21
0.519340939567429
 31
0.0
  0
LINE
  5
26A
330
1F
100
AcDbEntity
  8
MAKE2D VISIBLE LINES
100
AcDbLine
 10
47.00899229178708
 20
0.519340939567429
 30
0.0
 11
47.00606392104623
 21
0.52087019121336
 31
0.0
  0
LINE
  5
26B
330
1F
100
AcDbEntity
  8
MAKE2D VISIBLE LINES
100
AcDbLine
 10
47.00606392104623
 20
0.52087019121336
 30
0.0
 11
47.00308355097447
 21
0.522330583225369
 31
0.0
  0
LINE
  5
26C
330
1F
100
AcDbEntity
  8
MAKE2D VISIBLE LINES
100
AcDbLine
 10
47.00308355097447
 20
0.522330583225369
 30
0.0
 11
47.00005472988812
 21
0.523723319814471
 31
0.0
  0
LINE
  5
26D
330
1F
100
AcDbEntity
  8
MAKE2D VISIBLE LINES
100
AcDbLine
 10
47.00005472988812
 20
0.523723319814471
 30
0.0
 11
46.9969810061035
 21
0.5250496051916811
 31
0.0
  0
LINE
  5
26E
330
1F
100
AcDbEntity
  8
MAKE2D VISIBLE LINES
100
AcDbLine
 10
46.9969810061035
 20
0.5250496051916811
 30
0.0
 11
46.99386592793692
 21
0.5263106435680147
 31
0.0
  0
LINE
  5
26F
330
1F
100
AcDbEntity
  8
MAKE2D VISIBLE LINES
100
AcDbLine
 10
46.99386592793692
 20
0.5263106435680147
 30
0.0
 11
46.9907130437047
 21
0.5275076391544867
 31
0.0
  0
LINE
  5
270
330
1F
100
AcDbEntity
  8
MAKE2D VISIBLE LINES
100
AcDbLine
 10
46.9907130437047
 20
0.5275076391544867
 30
0.0
 11
46.98752590172315
 21
0.5286417961621122
 31
0.0
  0
LINE
  5
271
330
1F
100
AcDbEntity
  8
MAKE2D VISIBLE LINES
100
AcDbLine
 10
46.98752590172315
 20
0.5286417961621122
 30
0.0
 11
46.9843080503086
 21
0.5297143188019062
 31
0.0
  0
LINE
  5
272
330
1F
100
AcDbEntity
  8
MAKE2D VISIBLE LINES
100
AcDbLine
 10
46.9843080503086
 20
0.5297143188019062
 30
0.0
 11
46.98106303777736
 21
0.5307264112848842
 31
0.0
  0
LINE
  5
273
330
1F
100
AcDbEntity
  8
MAKE2D VISIBLE LINES
100
AcDbLine
 10
46.98106303777736
 20
0.5307264112848842
 30
0.0
 11
46.97779441244575
 21
0.5316792778220609
 31
0.0
  0
LINE
  5
274
330
1F
100
AcDbEntity
  8
MAKE2D VISIBLE LINES
100
AcDbLine
 10
46.97779441244575
 20
0.5316792778220609
 30
0.0
 11
46.97450572263007
 21
0.5325741226244518
 31
0.0
  0
LINE
  5
275
330
1F
100
AcDbEntity
  8
MAKE2D VISIBLE LINES
100
AcDbLine
 10
46.97450572263007
 20
0.5325741226244518
 30
0.0
 11
46.96788234281183
 21
0.5341945638689356
 31
0.0
  0
LINE
  5
276
330
1F
100
AcDbEntity
  8
MAKE2D VISIBLE LINES
100
AcDbLine
 10
46.96788234281183
 20
0.5341945638689356
 30
0.0
 11
46.96122128485315
 21
0.5355973687064567
 31
0.0
  0
LINE
  5
277
330
1F
100
AcDbEntity
  8
MAKE2D VISIBLE LINES
100
AcDbLine
 10
46.96122128485315
 20
0.5355973687064567
 30
0.0
 11
46.95455093528458
 21
0.536792170825136
 31
0.0
  0
LINE
  5
278
330
1F
100
AcDbEntity
  8
MAKE2D VISIBLE LINES
100
AcDbLine
 10
46.95455093528458
 20
0.536792170825136
 30
0.0
 11
46.94789968063665
 21
0.5377886039130944
 31
0.0
  0
LINE
  5
279
330
1F
100
AcDbEntity
  8
MAKE2D VISIBLE LINES
100
AcDbLine
 10
46.94789968063665
 20
0.5377886039130944
 30
0.0
 11
46.94129590743989
 21
0.5385963016584527
 31
0.0
  0
LINE
  5
27A
330
1F
100
AcDbEntity
  8
MAKE2D VISIBLE LINES
100
AcDbLine
 10
46.94129590743989
 20
0.5385963016584527
 30
0.0
 11
46.93476800222484
 21
0.5392248977493319
 31
0.0
  0
LINE
  5
27B
330
1F
100
AcDbEntity
  8
MAKE2D VISIBLE LINES
100
AcDbLine
 10
46.93476800222484
 20
0.5392248977493319
 30
0.0
 11
46.92834435152204
 21
0.5396840258738527
 31
0.0
  0
LINE
  5
27C
330
1F
100
AcDbEntity
  8
MAKE2D VISIBLE LINES
100
AcDbLine
 10
35.72052196684018
 20
0.1499814271969231
 30
0.0
 11
35.72161045570576
 21
0.1465705211954144
 31
0.0
  0
LINE
  5
27D
330
1F
100
AcDbEntity
  8
MAKE2D VISIBLE LINES
100
AcDbLine
 10
35.72161045570576
 20
0.1465705211954144
 30
0.0
 11
35.72276771955824
 21
0.1431832917789728
 31
0.0
  0
LINE
  5
27E
330
1F
100
AcDbEntity
  8
MAKE2D VISIBLE LINES
100
AcDbLine
 10
35.72276771955824
 20
0.1431832917789728
 30
0.0
 11
35.72399279118375
 21
0.1398206526999348
 31
0.0
  0
LINE
  5
27F
330
1F
100
AcDbEntity
  8
MAKE2D VISIBLE LINES
100
AcDbLine
 10
35.72399279118375
 20
0.1398206526999348
 30
0.0
 11
35.72528470336844
 21
0.1364835177106367
 31
0.0
  0
LINE
  5
280
330
1F
100
AcDbEntity
  8
MAKE2D VISIBLE LINES
100
AcDbLine
 10
35.72528470336844
 20
0.1364835177106367
 30
0.0
 11
35.72664248889846
 21
0.1331728005634149
 31
0.0
  0
LINE
  5
281
330
1F
100
AcDbEntity
  8
MAKE2D VISIBLE LINES
100
AcDbLine
 10
35.72664248889846
 20
0.1331728005634149
 30
0.0
 11
35.72806518055995
 21
0.1298894150106057
 31
0.0
  0
LINE
  5
282
330
1F
100
AcDbEntity
  8
MAKE2D VISIBLE LINES
100
AcDbLine
 10
35.72806518055995
 20
0.1298894150106057
 30
0.0
 11
35.72955181113905
 21
0.1266342748045455
 31
0.0
  0
LINE
  5
283
330
1F
100
AcDbEntity
  8
MAKE2D VISIBLE LINES
100
AcDbLine
 10
35.72955181113905
 20
0.1266342748045455
 30
0.0
 11
35.73110141342193
 21
0.1234082936975708
 31
0.0
  0
LINE
  5
284
330
1F
100
AcDbEntity
  8
MAKE2D VISIBLE LINES
100
AcDbLine
 10
35.73110141342193
 20
0.1234082936975708
 30
0.0
 11
35.73275126639089
 21
0.120138225778926
 31
0.0
  0
LINE
  5
285
330
1F
100
AcDbEntity
  8
MAKE2D VISIBLE LINES
100
AcDbLine
 10
35.73275126639089
 20
0.120138225778926
 30
0.0
 11
35.73446466249271
 21
0.1169005260683832
 31
0.0
  0
LINE
  5
286
330
1F
100
AcDbEntity
  8
MAKE2D VISIBLE LINES
100
AcDbLine
 10
35.73446466249271
 20
0.1169005260683832
 30
0.0
 11
35.73624021555167
 21
0.1136960713537858
 31
0.0
  0
LINE
  5
287
330
1F
100
AcDbEntity
  8
MAKE2D VISIBLE LINES
100
AcDbLine
 10
35.73624021555167
 20
0.1136960713537858
 30
0.0
 11
35.73807653939205
 21
0.1105257384229776
 31
0.0
  0
LINE
  5
288
330
1F
100
AcDbEntity
  8
MAKE2D VISIBLE LINES
100
AcDbLine
 10
35.73807653939205
 20
0.1105257384229776
 30
0.0
 11
35.73997224783812
 21
0.1073904040638018
 31
0.0
  0
LINE
  5
289
330
1F
100
AcDbEntity
  8
MAKE2D VISIBLE LINES
100
AcDbLine
 10
35.73997224783812
 20
0.1073904040638018
 30
0.0
 11
35.74192595471419
 21
0.1042909450641022
 31
0.0
  0
LINE
  5
28A
330
1F
100
AcDbEntity
  8
MAKE2D VISIBLE LINES
100
AcDbLine
 10
35.74192595471419
 20
0.1042909450641022
 30
0.0
 11
35.74393627384452
 21
0.1012282382117223
 31
0.0
  0
LINE
  5
28B
330
1F
100
AcDbEntity
  8
MAKE2D VISIBLE LINES
100
AcDbLine
 10
35.74393627384452
 20
0.1012282382117223
 30
0.0
 11
35.74600181905339
 21
0.0982031602945056
 31
0.0
  0
LINE
  5
28C
330
1F
100
AcDbEntity
  8
MAKE2D VISIBLE LINES
100
AcDbLine
 10
35.74600181905339
 20
0.0982031602945056
 30
0.0
 11
35.74821984165064
 21
0.0950803063709692
 31
0.0
  0
LINE
  5
28D
330
1F
100
AcDbEntity
  8
MAKE2D VISIBLE LINES
100
AcDbLine
 10
35.74821984165064
 20
0.0950803063709692
 30
0.0
 11
35.75049553191221
 21
0.0919999957008305
 31
0.0
  0
LINE
  5
28E
330
1F
100
AcDbEntity
  8
MAKE2D VISIBLE LINES
100
AcDbLine
 10
35.75049553191221
 20
0.0919999957008305
 30
0.0
 11
35.75282766016297
 21
0.0889626487899038
 31
0.0
  0
LINE
  5
28F
330
1F
100
AcDbEntity
  8
MAKE2D VISIBLE LINES
100
AcDbLine
 10
35.75282766016297
 20
0.0889626487899038
 30
0.0
 11
35.75521499672786
 21
0.0859686861440035
 31
0.0
  0
LINE
  5
290
330
1F
100
AcDbEntity
  8
MAKE2D VISIBLE LINES
100
AcDbLine
 10
35.75521499672786
 20
0.0859686861440035
 30
0.0
 11
35.75765631193177
 21
0.083018528268944
 31
0.0
  0
LINE
  5
291
330
1F
100
AcDbEntity
  8
MAKE2D VISIBLE LINES
100
AcDbLine
 10
35.75765631193177
 20
0.083018528268944
 30
0.0
 11
35.76015037609961
 21
0.0801125956705396
 31
0.0
  0
LINE
  5
292
330
1F
100
AcDbEntity
  8
MAKE2D VISIBLE LINES
100
AcDbLine
 10
35.76015037609961
 20
0.0801125956705396
 30
0.0
 11
35.76269595955628
 21
0.0772513088546048
 31
0.0
  0
LINE
  5
293
330
1F
100
AcDbEntity
  8
MAKE2D VISIBLE LINES
100
AcDbLine
 10
35.76269595955628
 20
0.0772513088546048
 30
0.0
 11
35.7652918326267
 21
0.0744350883269538
 31
0.0
  0
LINE
  5
294
330
1F
100
AcDbEntity
  8
MAKE2D VISIBLE LINES
100
AcDbLine
 10
35.7652918326267
 20
0.0744350883269538
 30
0.0
 11
35.77062952890839
 21
0.068939528159761
 31
0.0
  0
LINE
  5
295
330
1F
100
AcDbEntity
  8
MAKE2D VISIBLE LINES
100
AcDbLine
 10
35.77062952890839
 20
0.068939528159761
 30
0.0
 11
35.77615362754395
 21
0.0636292792154762
 31
0.0
  0
LINE
  5
296
330
1F
100
AcDbEntity
  8
MAKE2D VISIBLE LINES
100
AcDbLine
 10
35.77615362754395
 20
0.0636292792154762
 30
0.0
 11
35.78185429113261
 21
0.0585077055406144
 31
0.0
  0
LINE
  5
297
330
1F
100
AcDbEntity
  8
MAKE2D VISIBLE LINES
100
AcDbLine
 10
35.78185429113261
 20
0.0585077055406144
 30
0.0
 11
35.78772168227363
 21
0.0535781711816906
 31
0.0
  0
LINE
  5
298
330
1F
100
AcDbEntity
  8
MAKE2D VISIBLE LINES
100
AcDbLine
 10
35.78772168227363
 20
0.0535781711816906
 30
0.0
 11
35.79394184653488
 21
0.0486956946431721
 31
0.0
  0
LINE
  5
299
330
1F
100
AcDbEntity
  8
MAKE2D VISIBLE LINES
100
AcDbLine
 10
35.79394184653488
 20
0.0486956946431721
 30
0.0
 11
35.80032134094168
 21
0.0440248644561194
 31
0.0
  0
LINE
  5
29A
330
1F
100
AcDbEntity
  8
MAKE2D VISIBLE LINES
100
AcDbLine
 10
35.80032134094168
 20
0.0440248644561194
 30
0.0
 11
35.80685239760761
 21
0.0395692099106541
 31
0.0
  0
LINE
  5
29B
330
1F
100
AcDbEntity
  8
MAKE2D VISIBLE LINES
100
AcDbLine
 10
35.80685239760761
 20
0.0395692099106541
 30
0.0
 11
35.81352724864625
 21
0.0353322602968977
 31
0.0
  0
LINE
  5
29C
330
1F
100
AcDbEntity
  8
MAKE2D VISIBLE LINES
100
AcDbLine
 10
35.81352724864625
 20
0.0353322602968977
 30
0.0
 11
35.82033812617118
 21
0.0313175449049716
 31
0.0
  0
LINE
  5
29D
330
1F
100
AcDbEntity
  8
MAKE2D VISIBLE LINES
100
AcDbLine
 10
35.82033812617118
 20
0.0313175449049716
 30
0.0
 11
35.82727726229598
 21
0.0275285930249974
 31
0.0
  0
LINE
  5
29E
330
1F
100
AcDbEntity
  8
MAKE2D VISIBLE LINES
100
AcDbLine
 10
35.82727726229598
 20
0.0275285930249974
 30
0.0
 11
35.83433688913422
 21
0.0239689339470965
 31
0.0
  0
LINE
  5
29F
330
1F
100
AcDbEntity
  8
MAKE2D VISIBLE LINES
100
AcDbLine
 10
35.83433688913422
 20
0.0239689339470965
 30
0.0
 11
35.84150923879947
 21
0.0206420969613906
 31
0.0
  0
LINE
  5
2A0
330
1F
100
AcDbEntity
  8
MAKE2D VISIBLE LINES
100
AcDbLine
 10
35.84150923879947
 20
0.0206420969613906
 30
0.0
 11
35.84878654340533
 21
0.017551611358001
 31
0.0
  0
LINE
  5
2A1
330
1F
100
AcDbEntity
  8
MAKE2D VISIBLE LINES
100
AcDbLine
 10
35.84878654340533
 20
0.017551611358001
 30
0.0
 11
35.85616103506537
 21
0.0147010064270494
 31
0.0
  0
LINE
  5
2A2
330
1F
100
AcDbEntity
  8
MAKE2D VISIBLE LINES
100
AcDbLine
 10
35.85616103506537
 20
0.0147010064270494
 30
0.0
 11
35.86362494589316
 21
0.0120938114586572
 31
0.0
  0
LINE
  5
2A3
330
1F
100
AcDbEntity
  8
MAKE2D VISIBLE LINES
100
AcDbLine
 10
35.86362494589316
 20
0.0120938114586572
 30
0.0
 11
35.87117050800229
 21
0.0097335557429459
 31
0.0
  0
LINE
  5
2A4
330
1F
100
AcDbEntity
  8
MAKE2D VISIBLE LINES
100
AcDbLine
 10
35.87117050800229
 20
0.0097335557429459
 30
0.0
 11
35.87878995350631
 21
0.0076237685700371
 31
0.0
  0
LINE
  5
2A5
330
1F
100
AcDbEntity
  8
MAKE2D VISIBLE LINES
100
AcDbLine
 10
35.87878995350631
 20
0.0076237685700371
 30
0.0
 11
35.88647551451883
 21
0.0057679792300522
 31
0.0
  0
LINE
  5
2A6
330
1F
100
AcDbEntity
  8
MAKE2D VISIBLE LINES
100
AcDbLine
 10
35.88647551451883
 20
0.0057679792300522
 30
0.0
 11
35.89421942315341
 21
0.0041697170131128
 31
0.0
  0
LINE
  5
2A7
330
1F
100
AcDbEntity
  8
MAKE2D VISIBLE LINES
100
AcDbLine
 10
35.89421942315341
 20
0.0041697170131128
 30
0.0
 11
35.90201391152363
 21
0.0028325112093403
 31
0.0
  0
LINE
  5
2A8
330
1F
100
AcDbEntity
  8
MAKE2D VISIBLE LINES
100
AcDbLine
 10
35.90201391152363
 20
0.0028325112093403
 30
0.0
 11
37.42138539543877
 21
0.0007236378965598
 31
0.0
  0
ARC
  5
2A9
330
1F
100
AcDbEntity
  8
MAKE2D VISIBLE LINES
100
AcDbCircle
 10
37.40970483337957
 20
0.222866402270552
 30
0.0
 40
0.2224496421524157
100
AcDbArc
 50
273.0099164122446
 51
347.2869781056038
  0
LINE
  5
2AA
330
1F
100
AcDbEntity
  8
MAKE2D VISIBLE LINES
100
AcDbLine
 10
37.62670102316858
 20
0.1739123737254969
 30
0.0
 11
37.64034471588236
 21
0.3444232289715004
 31
0.0
  0
ARC
  5
2AB
330
1F
100
AcDbEntity
  8
MAKE2D VISIBLE LINES
100
AcDbCircle
 10
37.46300193354234
 20
0.361983337264462
 30
0.0
 40
0.1782100441932572
100
AcDbArc
 50
354.3451258275323
 51
85.23140777121871
  0
LINE
  5
2AC
330
1F
100
AcDbEntity
  8
DEFAULT
100
AcDbLine
 10
37.47781681684983
 20
0.5395765214916335
 30
0.0
 11
36.13432490554444
 21
0.5396840258738527
 31
0.0
  0
LINE
  5
2AD
330
1F
100
AcDbEntity
  8
DEFAULT
100
AcDbLine
 10
35.86122974577613
 20
0.1500093461830629
 30
0.0
 11
35.86008671537554
 21
0.1500093481182281
 31
0.0
  0
LINE
  5
2AE
330
1F
100
AcDbEntity
  8
MAKE2D VISIBLE LINES
100
AcDbLine
 10
35.86008671536029
 20
0.1500003384789805
 30
0.0
 11
35.86182886329136
 21
0.1500537589046975
 31
0.0
  0
LINE
  5
2AF
330
1F
100
AcDbEntity
  8
MAKE2D VISIBLE LINES
100
AcDbLine
 10
35.86182886329136
 20
0.1500537589046975
 30
0.0
 11
35.86355600431817
 21
0.1501451781565354
 31
0.0
  0
LINE
  5
2B0
330
1F
100
AcDbEntity
  8
MAKE2D VISIBLE LINES
100
AcDbLine
 10
35.86355600431817
 20
0.1501451781565354
 30
0.0
 11
35.86526819272126
 21
0.1502740750172903
 31
0.0
  0
LINE
  5
2B1
330
1F
100
AcDbEntity
  8
MAKE2D VISIBLE LINES
100
AcDbLine
 10
35.86526819272126
 20
0.1502740750172903
 30
0.0
 11
35.86696548278118
 21
0.1504399282697586
 31
0.0
  0
LINE
  5
2B2
330
1F
100
AcDbEntity
  8
MAKE2D VISIBLE LINES
100
AcDbLine
 10
35.86696548278118
 20
0.1504399282697586
 30
0.0
 11
35.86864792877846
 21
0.1506422166967366
 31
0.0
  0
LINE
  5
2B3
330
1F
100
AcDbEntity
  8
MAKE2D VISIBLE LINES
100
AcDbLine
 10
35.86864792877846
 20
0.1506422166967366
 30
0.0
 11
35.87031558499367
 21
0.1508804190810207
 31
0.0
  0
LINE
  5
2B4
330
1F
100
AcDbEntity
  8
MAKE2D VISIBLE LINES
100
AcDbLine
 10
35.87031558499367
 20
0.1508804190810207
 30
0.0
 11
35.87196850570734
 21
0.151154014205407
 31
0.0
  0
LINE
  5
2B5
330
1F
100
AcDbEntity
  8
MAKE2D VISIBLE LINES
100
AcDbLine
 10
35.87196850570734
 20
0.151154014205407
 30
0.0
 11
35.87360674520004
 21
0.1514624808526921
 31
0.0
  0
LINE
  5
2B6
330
1F
100
AcDbEntity
  8
MAKE2D VISIBLE LINES
100
AcDbLine
 10
35.87360674520004
 20
0.1514624808526921
 30
0.0
 11
35.87523035775227
 21
0.1518052978056721
 31
0.0
  0
LINE
  5
2B7
330
1F
100
AcDbEntity
  8
MAKE2D VISIBLE LINES
100
AcDbLine
 10
35.87523035775227
 20
0.1518052978056721
 30
0.0
 11
35.87683939764463
 21
0.1521819438471433
 31
0.0
  0
LINE
  5
2B8
330
1F
100
AcDbEntity
  8
MAKE2D VISIBLE LINES
100
AcDbLine
 10
35.87683939764463
 20
0.1521819438471433
 30
0.0
 11
35.87843391915763
 21
0.1525918977599023
 31
0.0
  0
LINE
  5
2B9
330
1F
100
AcDbEntity
  8
MAKE2D VISIBLE LINES
100
AcDbLine
 10
35.87843391915763
 20
0.1525918977599023
 30
0.0
 11
35.88001397657182
 21
0.1530346383267451
 31
0.0
  0
LINE
  5
2BA
330
1F
100
AcDbEntity
  8
MAKE2D VISIBLE LINES
100
AcDbLine
 10
35.88001397657182
 20
0.1530346383267451
 30
0.0
 11
35.88157962416776
 21
0.1535096443304681
 31
0.0
  0
LINE
  5
2BB
330
1F
100
AcDbEntity
  8
MAKE2D VISIBLE LINES
100
AcDbLine
 10
35.88157962416776
 20
0.1535096443304681
 30
0.0
 11
35.88313091622599
 21
0.1540163945538677
 31
0.0
  0
LINE
  5
2BC
330
1F
100
AcDbEntity
  8
MAKE2D VISIBLE LINES
100
AcDbLine
 10
35.88313091622599
 20
0.1540163945538677
 30
0.0
 11
35.88466790702704
 21
0.1545543677797402
 31
0.0
  0
LINE
  5
2BD
330
1F
100
AcDbEntity
  8
MAKE2D VISIBLE LINES
100
AcDbLine
 10
35.88466790702704
 20
0.1545543677797402
 30
0.0
 11
35.88619065085148
 21
0.1551230427908818
 31
0.0
  0
LINE
  5
2BE
330
1F
100
AcDbEntity
  8
MAKE2D VISIBLE LINES
100
AcDbLine
 10
35.88619065085148
 20
0.1551230427908818
 30
0.0
 11
35.88769920197984
 21
0.1557218983700889
 31
0.0
  0
LINE
  5
2BF
330
1F
100
AcDbEntity
  8
MAKE2D VISIBLE LINES
100
AcDbLine
 10
35.88769920197984
 20
0.1557218983700889
 30
0.0
 11
35.88919361469268
 21
0.1563504133001578
 31
0.0
  0
LINE
  5
2C0
330
1F
100
AcDbEntity
  8
MAKE2D VISIBLE LINES
100
AcDbLine
 10
35.88919361469268
 20
0.1563504133001578
 30
0.0
 11
35.89067394327054
 21
0.1570080663638848
 31
0.0
  0
LINE
  5
2C1
330
1F
100
AcDbEntity
  8
MAKE2D VISIBLE LINES
100
AcDbLine
 10
35.89067394327054
 20
0.1570080663638848
 30
0.0
 11
35.89214024199395
 21
0.1576943363440662
 31
0.0
  0
LINE
  5
2C2
330
1F
100
AcDbEntity
  8
MAKE2D VISIBLE LINES
100
AcDbLine
 10
35.89214024199395
 20
0.1576943363440662
 30
0.0
 11
35.89359256514347
 21
0.1584087020234984
 31
0.0
  0
LINE
  5
2C3
330
1F
100
AcDbEntity
  8
MAKE2D VISIBLE LINES
100
AcDbLine
 10
35.89359256514347
 20
0.1584087020234984
 30
0.0
 11
35.89503096699966
 21
0.1591506421849777
 31
0.0
  0
LINE
  5
2C4
330
1F
100
AcDbEntity
  8
MAKE2D VISIBLE LINES
100
AcDbLine
 10
35.89503096699966
 20
0.1591506421849777
 30
0.0
 11
35.89645550184304
 21
0.1599196356113002
 31
0.0
  0
LINE
  5
2C5
330
1F
100
AcDbEntity
  8
MAKE2D VISIBLE LINES
100
AcDbLine
 10
35.89645550184304
 20
0.1599196356113002
 30
0.0
 11
35.89786622395417
 21
0.1607151610852625
 31
0.0
  0
LINE
  5
2C6
330
1F
100
AcDbEntity
  8
MAKE2D VISIBLE LINES
100
AcDbLine
 10
35.89786622395417
 20
0.1607151610852625
 30
0.0
 11
35.8992631876136
 21
0.1615366973896608
 31
0.0
  0
LINE
  5
2C7
330
1F
100
AcDbEntity
  8
MAKE2D VISIBLE LINES
100
AcDbLine
 10
35.8992631876136
 20
0.1615366973896608
 30
0.0
 11
35.90064644710186
 21
0.1623837233072914
 31
0.0
  0
LINE
  5
2C8
330
1F
100
AcDbEntity
  8
MAKE2D VISIBLE LINES
100
AcDbLine
 10
35.90064644710186
 20
0.1623837233072914
 30
0.0
 11
35.90337207068708
 21
0.1641521591134348
 31
0.0
  0
LINE
  5
2C9
330
1F
100
AcDbEntity
  8
MAKE2D VISIBLE LINES
100
AcDbLine
 10
35.90337207068708
 20
0.1641521591134348
 30
0.0
 11
35.90604352895421
 21
0.1660162987660632
 31
0.0
  0
LINE
  5
2CA
330
1F
100
AcDbEntity
  8
MAKE2D VISIBLE LINES
100
AcDbLine
 10
35.90604352895421
 20
0.1660162987660632
 30
0.0
 11
35.90866125614764
 21
0.1679719725275471
 31
0.0
  0
LINE
  5
2CB
330
1F
100
AcDbEntity
  8
MAKE2D VISIBLE LINES
100
AcDbLine
 10
35.90866125614764
 20
0.1679719725275471
 30
0.0
 11
35.91122568651171
 21
0.1700150106602571
 31
0.0
  0
LINE
  5
2CC
330
1F
100
AcDbEntity
  8
MAKE2D VISIBLE LINES
100
AcDbLine
 10
35.91122568651171
 20
0.1700150106602571
 30
0.0
 11
35.91373725429079
 21
0.1721412434265637
 31
0.0
  0
LINE
  5
2CD
330
1F
100
AcDbEntity
  8
MAKE2D VISIBLE LINES
100
AcDbLine
 10
35.91373725429079
 20
0.1721412434265637
 30
0.0
 11
35.91619639372924
 21
0.1743465010888373
 31
0.0
  0
LINE
  5
2CE
330
1F
100
AcDbEntity
  8
MAKE2D VISIBLE LINES
100
AcDbLine
 10
35.91619639372924
 20
0.1743465010888373
 30
0.0
 11
35.91860353907146
 21
0.1766266139094485
 31
0.0
  0
LINE
  5
2CF
330
1F
100
AcDbEntity
  8
MAKE2D VISIBLE LINES
100
AcDbLine
 10
35.91860353907146
 20
0.1766266139094485
 30
0.0
 11
35.92095912456178
 21
0.1789774121507678
 31
0.0
  0
LINE
  5
2D0
330
1F
100
AcDbEntity
  8
MAKE2D VISIBLE LINES
100
AcDbLine
 10
35.92095912456178
 20
0.1789774121507678
 30
0.0
 11
35.92326358444458
 21
0.1813947260751658
 31
0.0
  0
LINE
  5
2D1
330
1F
100
AcDbEntity
  8
MAKE2D VISIBLE LINES
100
AcDbLine
 10
35.92326358444458
 20
0.1813947260751658
 30
0.0
 11
35.92551735296426
 21
0.1838743859450128
 31
0.0
  0
LINE
  5
2D2
330
1F
100
AcDbEntity
  8
MAKE2D VISIBLE LINES
100
AcDbLine
 10
35.92551735296426
 20
0.1838743859450128
 30
0.0
 11
35.92772086436514
 21
0.1864122220226795
 31
0.0
  0
LINE
  5
2D3
330
1F
100
AcDbEntity
  8
MAKE2D VISIBLE LINES
100
AcDbLine
 10
35.92772086436514
 20
0.1864122220226795
 30
0.0
 11
35.92987455289162
 21
0.1890040645705364
 31
0.0
  0
LINE
  5
2D4
330
1F
100
AcDbEntity
  8
MAKE2D VISIBLE LINES
100
AcDbLine
 10
35.92987455289162
 20
0.1890040645705364
 30
0.0
 11
35.93197885278805
 21
0.1916457438509539
 31
0.0
  0
LINE
  5
2D5
330
1F
100
AcDbEntity
  8
MAKE2D VISIBLE LINES
100
AcDbLine
 10
35.93197885278805
 20
0.1916457438509539
 30
0.0
 11
35.93403419829882
 21
0.1943330901263026
 31
0.0
  0
LINE
  5
2D6
330
1F
100
AcDbEntity
  8
MAKE2D VISIBLE LINES
100
AcDbLine
 10
35.93403419829882
 20
0.1943330901263026
 30
0.0
 11
35.93604102366827
 21
0.197061933658953
 31
0.0
  0
LINE
  5
2D7
330
1F
100
AcDbEntity
  8
MAKE2D VISIBLE LINES
100
AcDbLine
 10
35.93604102366827
 20
0.197061933658953
 30
0.0
 11
35.93991085096073
 21
0.2026274335456409
 31
0.0
  0
LINE
  5
2D8
330
1F
100
AcDbEntity
  8
MAKE2D VISIBLE LINES
100
AcDbLine
 10
35.93991085096073
 20
0.2026274335456409
 30
0.0
 11
35.94359180862038
 21
0.2083088856099818
 31
0.0
  0
LINE
  5
2D9
330
1F
100
AcDbEntity
  8
MAKE2D VISIBLE LINES
100
AcDbLine
 10
35.94359180862038
 20
0.2083088856099818
 30
0.0
 11
35.94708733572131
 21
0.2140777895542709
 31
0.0
  0
LINE
  5
2DA
330
1F
100
AcDbEntity
  8
MAKE2D VISIBLE LINES
100
AcDbLine
 10
35.94708733572131
 20
0.2140777895542709
 30
0.0
 11
35.95040073181418
 21
0.2199250754941278
 31
0.0
  0
LINE
  5
2DB
330
1F
100
AcDbEntity
  8
MAKE2D VISIBLE LINES
100
AcDbLine
 10
35.95040073181418
 20
0.2199250754941278
 30
0.0
 11
35.95353526156883
 21
0.2258465311485034
 31
0.0
  0
LINE
  5
2DC
330
1F
100
AcDbEntity
  8
MAKE2D VISIBLE LINES
100
AcDbLine
 10
35.95353526156883
 20
0.2258465311485034
 30
0.0
 11
35.95649418965508
 21
0.2318379442363484
 31
0.0
  0
LINE
  5
2DD
330
1F
100
AcDbEntity
  8
MAKE2D VISIBLE LINES
100
AcDbLine
 10
35.95649418965508
 20
0.2318379442363484
 30
0.0
 11
35.95928078074274
 21
0.2378951024766137
 31
0.0
  0
LINE
  5
2DE
330
1F
100
AcDbEntity
  8
MAKE2D VISIBLE LINES
100
AcDbLine
 10
35.95928078074274
 20
0.2378951024766137
 30
0.0
 11
35.96189829950166
 21
0.2440137935882501
 31
0.0
  0
LINE
  5
2DF
330
1F
100
AcDbEntity
  8
MAKE2D VISIBLE LINES
100
AcDbLine
 10
35.96189829950166
 20
0.2440137935882501
 30
0.0
 11
35.96435001060163
 21
0.2501898052902083
 31
0.0
  0
LINE
  5
2E0
330
1F
100
AcDbEntity
  8
MAKE2D VISIBLE LINES
100
AcDbLine
 10
35.96435001060163
 20
0.2501898052902083
 30
0.0
 11
35.96663917871248
 21
0.2564189253014392
 31
0.0
  0
LINE
  5
2E1
330
1F
100
AcDbEntity
  8
MAKE2D VISIBLE LINES
100
AcDbLine
 10
35.96663917871248
 20
0.2564189253014392
 30
0.0
 11
35.96876906850405
 21
0.2626969413408936
 31
0.0
  0
LINE
  5
2E2
330
1F
100
AcDbEntity
  8
MAKE2D VISIBLE LINES
100
AcDbLine
 10
35.96876906850405
 20
0.2626969413408936
 30
0.0
 11
35.97074294464613
 21
0.2690196411275221
 31
0.0
  0
LINE
  5
2E3
330
1F
100
AcDbEntity
  8
MAKE2D VISIBLE LINES
100
AcDbLine
 10
35.97074294464613
 20
0.2690196411275221
 30
0.0
 11
35.97256407180856
 21
0.2753828123802758
 31
0.0
  0
LINE
  5
2E4
330
1F
100
AcDbEntity
  8
MAKE2D VISIBLE LINES
100
AcDbLine
 10
35.97256407180856
 20
0.2753828123802758
 30
0.0
 11
35.97423571466116
 21
0.2817822428181054
 31
0.0
  0
LINE
  5
2E5
330
1F
100
AcDbEntity
  8
MAKE2D VISIBLE LINES
100
AcDbLine
 10
35.97423571466116
 20
0.2817822428181054
 30
0.0
 11
35.97576113787375
 21
0.2882137201599616
 31
0.0
  0
LINE
  5
2E6
330
1F
100
AcDbEntity
  8
MAKE2D VISIBLE LINES
100
AcDbLine
 10
35.97576113787375
 20
0.2882137201599616
 30
0.0
 11
35.97714360611614
 21
0.2946730321247952
 31
0.0
  0
LINE
  5
2E7
330
1F
100
AcDbEntity
  8
MAKE2D VISIBLE LINES
100
AcDbLine
 10
35.97714360611614
 20
0.2946730321247952
 30
0.0
 11
35.97838638405818
 21
0.3011559664315572
 31
0.0
  0
LINE
  5
2E8
330
1F
100
AcDbEntity
  8
MAKE2D VISIBLE LINES
100
AcDbLine
 10
35.97838638405818
 20
0.3011559664315572
 30
0.0
 11
35.97949273636967
 21
0.3076583107991981
 31
0.0
  0
LINE
  5
2E9
330
1F
100
AcDbEntity
  8
MAKE2D VISIBLE LINES
100
AcDbLine
 10
35.97949273636967
 20
0.3076583107991981
 30
0.0
 11
35.98046827106312
 21
0.3141764276889448
 31
0.0
  0
LINE
  5
2EA
330
1F
100
AcDbEntity
  8
MAKE2D VISIBLE LINES
100
AcDbLine
 10
35.98046827106312
 20
0.3141764276889448
 30
0.0
 11
35.98132796952169
 21
0.3207089785311269
 31
0.0
  0
LINE
  5
2EB
330
1F
100
AcDbEntity
  8
MAKE2D VISIBLE LINES
100
AcDbLine
 10
35.98132796952169
 20
0.3207089785311269
 30
0.0
 11
35.9827691566376
 21
0.3338143267632204
 31
0.0
  0
LINE
  5
2EC
330
1F
100
AcDbEntity
  8
MAKE2D VISIBLE LINES
100
AcDbLine
 10
35.9827691566376
 20
0.3338143267632204
 30
0.0
 11
35.98736540087641
 21
0.3866603123101456
 31
0.0
  0
LINE
  5
2ED
330
1F
100
AcDbEntity
  8
MAKE2D VISIBLE LINES
100
AcDbLine
 10
35.98736540087641
 20
0.3866603123101456
 30
0.0
 11
35.98891532491392
 21
0.3999474037557408
 31
0.0
  0
LINE
  5
2EE
330
1F
100
AcDbEntity
  8
MAKE2D VISIBLE LINES
100
AcDbLine
 10
35.98891532491392
 20
0.3999474037557408
 30
0.0
 11
35.98984570237151
 21
0.4065980876866991
 31
0.0
  0
LINE
  5
2EF
330
1F
100
AcDbEntity
  8
MAKE2D VISIBLE LINES
100
AcDbLine
 10
35.98984570237151
 20
0.4065980876866991
 30
0.0
 11
35.99090278975613
 21
0.413252511986572
 31
0.0
  0
LINE
  5
2F0
330
1F
100
AcDbEntity
  8
MAKE2D VISIBLE LINES
100
AcDbLine
 10
35.99090278975613
 20
0.413252511986572
 30
0.0
 11
35.99210287338926
 21
0.4199067385718049
 31
0.0
  0
LINE
  5
2F1
330
1F
100
AcDbEntity
  8
MAKE2D VISIBLE LINES
100
AcDbLine
 10
35.99210287338926
 20
0.4199067385718049
 30
0.0
 11
35.99345808597482
 21
0.4265441323342024
 31
0.0
  0
LINE
  5
2F2
330
1F
100
AcDbEntity
  8
MAKE2D VISIBLE LINES
100
AcDbLine
 10
35.99345808597482
 20
0.4265441323342024
 30
0.0
 11
35.99497952181238
 21
0.4331448839094088
 31
0.0
  0
LINE
  5
2F3
330
1F
100
AcDbEntity
  8
MAKE2D VISIBLE LINES
100
AcDbLine
 10
35.99497952181238
 20
0.4331448839094088
 30
0.0
 11
35.99667827520148
 21
0.4396891839330681
 31
0.0
  0
LINE
  5
2F4
330
1F
100
AcDbEntity
  8
MAKE2D VISIBLE LINES
100
AcDbLine
 10
35.99667827520148
 20
0.4396891839330681
 30
0.0
 11
35.99856544044169
 21
0.4461572230408247
 31
0.0
  0
LINE
  5
2F5
330
1F
100
AcDbEntity
  8
MAKE2D VISIBLE LINES
100
AcDbLine
 10
35.99856544044169
 20
0.4461572230408247
 30
0.0
 11
36.00065211183255
 21
0.452529191868323
 31
0.0
  0
LINE
  5
2F6
330
1F
100
AcDbEntity
  8
MAKE2D VISIBLE LINES
100
AcDbLine
 10
36.00065211183255
 20
0.452529191868323
 30
0.0
 11
36.00177372930308
 21
0.455672959500614
 31
0.0
  0
LINE
  5
2F7
330
1F
100
AcDbEntity
  8
MAKE2D VISIBLE LINES
100
AcDbLine
 10
36.00177372930308
 20
0.455672959500614
 30
0.0
 11
36.00294938367362
 21
0.458785281051207
 31
0.0
  0
LINE
  5
2F8
330
1F
100
AcDbEntity
  8
MAKE2D VISIBLE LINES
100
AcDbLine
 10
36.00294938367362
 20
0.458785281051207
 30
0.0
 11
36.00418046173161
 21
0.4618636803495575
 31
0.0
  0
LINE
  5
2F9
330
1F
100
AcDbEntity
  8
MAKE2D VISIBLE LINES
100
AcDbLine
 10
36.00418046173161
 20
0.4618636803495575
 30
0.0
 11
36.00546835026447
 21
0.4649056812251211
 31
0.0
  0
LINE
  5
2FA
330
1F
100
AcDbEntity
  8
MAKE2D VISIBLE LINES
100
AcDbLine
 10
36.00546835026447
 20
0.4649056812251211
 30
0.0
 11
36.00681443605966
 21
0.4679088075073533
 31
0.0
  0
LINE
  5
2FB
330
1F
100
AcDbEntity
  8
MAKE2D VISIBLE LINES
100
AcDbLine
 10
36.00681443605966
 20
0.4679088075073533
 30
0.0
 11
36.00822010590463
 21
0.4708705830257095
 31
0.0
  0
LINE
  5
2FC
330
1F
100
AcDbEntity
  8
MAKE2D VISIBLE LINES
100
AcDbLine
 10
36.00822010590463
 20
0.4708705830257095
 30
0.0
 11
36.00968674658682
 21
0.4737885316096454
 31
0.0
  0
LINE
  5
2FD
330
1F
100
AcDbEntity
  8
MAKE2D VISIBLE LINES
100
AcDbLine
 10
36.00968674658682
 20
0.4737885316096454
 30
0.0
 11
36.01121574489367
 21
0.4766601770886165
 31
0.0
  0
LINE
  5
2FE
330
1F
100
AcDbEntity
  8
MAKE2D VISIBLE LINES
100
AcDbLine
 10
36.01121574489367
 20
0.4766601770886165
 30
0.0
 11
36.01280848761263
 21
0.4794830432920783
 31
0.0
  0
LINE
  5
2FF
330
1F
100
AcDbEntity
  8
MAKE2D VISIBLE LINES
100
AcDbLine
 10
36.01280848761263
 20
0.4794830432920783
 30
0.0
 11
36.01446636153115
 21
0.4822546540494863
 31
0.0
  0
LINE
  5
300
330
1F
100
AcDbEntity
  8
MAKE2D VISIBLE LINES
100
AcDbLine
 10
36.01446636153115
 20
0.4822546540494863
 30
0.0
 11
36.01619075343666
 21
0.4849725331902961
 31
0.0
  0
LINE
  5
301
330
1F
100
AcDbEntity
  8
MAKE2D VISIBLE LINES
100
AcDbLine
 10
36.01619075343666
 20
0.4849725331902961
 30
0.0
 11
36.01798305011661
 21
0.4876342045439631
 31
0.0
  0
LINE
  5
302
330
1F
100
AcDbEntity
  8
MAKE2D VISIBLE LINES
100
AcDbLine
 10
36.01798305011661
 20
0.4876342045439631
 30
0.0
 11
36.01984463835845
 21
0.490237191939943
 31
0.0
  0
LINE
  5
303
330
1F
100
AcDbEntity
  8
MAKE2D VISIBLE LINES
100
AcDbLine
 10
36.01984463835845
 20
0.490237191939943
 30
0.0
 11
36.02177690494962
 21
0.4927790192076913
 31
0.0
  0
LINE
  5
304
330
1F
100
AcDbEntity
  8
MAKE2D VISIBLE LINES
100
AcDbLine
 10
36.02177690494962
 20
0.4927790192076913
 30
0.0
 11
36.02378123667756
 21
0.4952572101766635
 31
0.0
  0
LINE
  5
305
330
1F
100
AcDbEntity
  8
MAKE2D VISIBLE LINES
100
AcDbLine
 10
36.02378123667756
 20
0.4952572101766635
 30
0.0
 11
36.02585902032973
 21
0.497669288676315
 31
0.0
  0
LINE
  5
306
330
1F
100
AcDbEntity
  8
MAKE2D VISIBLE LINES
100
AcDbLine
 10
36.02585902032973
 20
0.497669288676315
 30
0.0
 11
36.02801164269355
 21
0.5000127785361017
 31
0.0
  0
LINE
  5
307
330
1F
100
AcDbEntity
  8
MAKE2D VISIBLE LINES
100
AcDbLine
 10
36.02801164269355
 20
0.5000127785361017
 30
0.0
 11
36.03024049055648
 21
0.5022852035854786
 31
0.0
  0
LINE
  5
308
330
1F
100
AcDbEntity
  8
MAKE2D VISIBLE LINES
100
AcDbLine
 10
36.03024049055648
 20
0.5022852035854786
 30
0.0
 11
36.03254695070596
 21
0.5044840876539016
 31
0.0
  0
LINE
  5
309
330
1F
100
AcDbEntity
  8
MAKE2D VISIBLE LINES
100
AcDbLine
 10
36.03254695070596
 20
0.5044840876539016
 30
0.0
 11
36.03493240992945
 21
0.5066069545708263
 31
0.0
  0
LINE
  5
30A
330
1F
100
AcDbEntity
  8
MAKE2D VISIBLE LINES
100
AcDbLine
 10
36.03493240992945
 20
0.5066069545708263
 30
0.0
 11
36.03739743249709
 21
0.5086519415626345
 31
0.0
  0
LINE
  5
30B
330
1F
100
AcDbEntity
  8
MAKE2D VISIBLE LINES
100
AcDbLine
 10
36.03739743249709
 20
0.5086519415626345
 30
0.0
 11
36.03993929260984
 21
0.5106196394434149
 31
0.0
  0
LINE
  5
30C
330
1F
100
AcDbEntity
  8
MAKE2D VISIBLE LINES
100
AcDbLine
 10
36.03993929260984
 20
0.5106196394434149
 30
0.0
 11
36.04255444195141
 21
0.5125112524241827
 31
0.0
  0
LINE
  5
30D
330
1F
100
AcDbEntity
  8
MAKE2D VISIBLE LINES
100
AcDbLine
 10
36.04255444195141
 20
0.5125112524241827
 30
0.0
 11
36.04523933220545
 21
0.5143279847159529
 31
0.0
  0
LINE
  5
30E
330
1F
100
AcDbEntity
  8
MAKE2D VISIBLE LINES
100
AcDbLine
 10
36.04523933220545
 20
0.5143279847159529
 30
0.0
 11
36.04799041505568
 21
0.5160710405297405
 31
0.0
  0
LINE
  5
30F
330
1F
100
AcDbEntity
  8
MAKE2D VISIBLE LINES
100
AcDbLine
 10
36.04799041505568
 20
0.5160710405297405
 30
0.0
 11
36.05080414218577
 21
0.5177416240765609
 31
0.0
  0
LINE
  5
310
330
1F
100
AcDbEntity
  8
MAKE2D VISIBLE LINES
100
AcDbLine
 10
36.05080414218577
 20
0.5177416240765609
 30
0.0
 11
36.05367696527939
 21
0.519340939567429
 31
0.0
  0
LINE
  5
311
330
1F
100
AcDbEntity
  8
MAKE2D VISIBLE LINES
100
AcDbLine
 10
36.05367696527939
 20
0.519340939567429
 30
0.0
 11
36.05660533602025
 21
0.52087019121336
 31
0.0
  0
LINE
  5
312
330
1F
100
AcDbEntity
  8
MAKE2D VISIBLE LINES
100
AcDbLine
 10
36.05660533602025
 20
0.52087019121336
 30
0.0
 11
36.05958570609201
 21
0.522330583225369
 31
0.0
  0
LINE
  5
313
330
1F
100
AcDbEntity
  8
MAKE2D VISIBLE LINES
100
AcDbLine
 10
36.05958570609201
 20
0.522330583225369
 30
0.0
 11
36.06261452717835
 21
0.523723319814471
 31
0.0
  0
LINE
  5
314
330
1F
100
AcDbEntity
  8
MAKE2D VISIBLE LINES
100
AcDbLine
 10
36.06261452717835
 20
0.523723319814471
 30
0.0
 11
36.06568825096298
 21
0.5250496051916811
 31
0.0
  0
LINE
  5
315
330
1F
100
AcDbEntity
  8
MAKE2D VISIBLE LINES
100
AcDbLine
 10
36.06568825096298
 20
0.5250496051916811
 30
0.0
 11
36.06880332912956
 21
0.5263106435680147
 31
0.0
  0
LINE
  5
316
330
1F
100
AcDbEntity
  8
MAKE2D VISIBLE LINES
100
AcDbLine
 10
36.06880332912956
 20
0.5263106435680147
 30
0.0
 11
36.07195621336177
 21
0.5275076391544867
 31
0.0
  0
LINE
  5
317
330
1F
100
AcDbEntity
  8
MAKE2D VISIBLE LINES
100
AcDbLine
 10
36.07195621336177
 20
0.5275076391544867
 30
0.0
 11
36.07514335534332
 21
0.5286417961621122
 31
0.0
  0
LINE
  5
318
330
1F
100
AcDbEntity
  8
MAKE2D VISIBLE LINES
100
AcDbLine
 10
36.07514335534332
 20
0.5286417961621122
 30
0.0
 11
36.07836120675788
 21
0.5297143188019062
 31
0.0
  0
LINE
  5
319
330
1F
100
AcDbEntity
  8
MAKE2D VISIBLE LINES
100
AcDbLine
 10
36.07836120675788
 20
0.5297143188019062
 30
0.0
 11
36.08160621928911
 21
0.5307264112848842
 31
0.0
  0
LINE
  5
31A
330
1F
100
AcDbEntity
  8
MAKE2D VISIBLE LINES
100
AcDbLine
 10
36.08160621928911
 20
0.5307264112848842
 30
0.0
 11
36.08487484462073
 21
0.5316792778220609
 31
0.0
  0
LINE
  5
31B
330
1F
100
AcDbEntity
  8
MAKE2D VISIBLE LINES
100
AcDbLine
 10
36.08487484462073
 20
0.5316792778220609
 30
0.0
 11
36.0881635344364
 21
0.5325741226244518
 31
0.0
  0
LINE
  5
31C
330
1F
100
AcDbEntity
  8
MAKE2D VISIBLE LINES
100
AcDbLine
 10
36.0881635344364
 20
0.5325741226244518
 30
0.0
 11
36.09478691425465
 21
0.5341945638689356
 31
0.0
  0
LINE
  5
31D
330
1F
100
AcDbEntity
  8
MAKE2D VISIBLE LINES
100
AcDbLine
 10
36.09478691425465
 20
0.5341945638689356
 30
0.0
 11
36.10144797221332
 21
0.5355973687064567
 31
0.0
  0
LINE
  5
31E
330
1F
100
AcDbEntity
  8
MAKE2D VISIBLE LINES
100
AcDbLine
 10
36.10144797221332
 20
0.5355973687064567
 30
0.0
 11
36.10811832178189
 21
0.536792170825136
 31
0.0
  0
LINE
  5
31F
330
1F
100
AcDbEntity
  8
MAKE2D VISIBLE LINES
100
AcDbLine
 10
36.10811832178189
 20
0.536792170825136
 30
0.0
 11
36.11476957642983
 21
0.5377886039130944
 31
0.0
  0
LINE
  5
320
330
1F
100
AcDbEntity
  8
MAKE2D VISIBLE LINES
100
AcDbLine
 10
36.11476957642983
 20
0.5377886039130944
 30
0.0
 11
36.12137334962659
 21
0.5385963016584527
 31
0.0
  0
LINE
  5
321
330
1F
100
AcDbEntity
  8
MAKE2D VISIBLE LINES
100
AcDbLine
 10
36.12137334962659
 20
0.5385963016584527
 30
0.0
 11
36.12790125484164
 21
0.5392248977493319
 31
0.0
  0
LINE
  5
322
330
1F
100
AcDbEntity
  8
MAKE2D VISIBLE LINES
100
AcDbLine
 10
36.12790125484164
 20
0.5392248977493319
 30
0.0
 11
36.13432490554444
 21
0.5396840258738527
 31
0.0
  0
LINE
  5
323
330
1F
100
AcDbEntity
  8
DEFAULT
100
AcDbLine
 10
35.86008671540795
 20
0.1500284956851952
 30
0.0
 11
35.40221983854899
 21
0.1501641144746535
 31
0.0
  0
LINE
  5
324
330
1F
100
AcDbEntity
  8
DEFAULT
100
AcDbLine
 10
35.40221983854899
 20
0.1501641144746535
 30
0.0
 11
35.36367822352459
 21
0.1511929250541355
 31
0.0
  0
LINE
  5
325
330
1F
100
AcDbEntity
  8
DEFAULT
100
AcDbLine
 10
35.36367822352459
 20
0.1511929250541355
 30
0.0
 11
35.34435384178195
 21
0.1522730620816672
 31
0.0
  0
LINE
  5
326
330
1F
100
AcDbEntity
  8
DEFAULT
100
AcDbLine
 10
35.34435384178195
 20
0.1522730620816672
 30
0.0
 11
35.32499091974331
 21
0.1538398737408699
 31
0.0
  0
LINE
  5
327
330
1F
100
AcDbEntity
  8
DEFAULT
100
AcDbLine
 10
35.32499091974331
 20
0.1538398737408699
 30
0.0
 11
35.30559101796159
 21
0.1559651924614133
 31
0.0
  0
LINE
  5
328
330
1F
100
AcDbEntity
  8
DEFAULT
100
AcDbLine
 10
35.30559101796159
 20
0.1559651924614133
 30
0.0
 11
35.28615846321478
 21
0.1587129303804849
 31
0.0
  0
LINE
  5
329
330
1F
100
AcDbEntity
  8
DEFAULT
100
AcDbLine
 10
35.28615846321478
 20
0.1587129303804849
 30
0.0
 11
35.27643201324936
 21
0.160338080201593
 31
0.0
  0
LINE
  5
32A
330
1F
100
AcDbEntity
  8
DEFAULT
100
AcDbLine
 10
35.27643201324936
 20
0.160338080201593
 30
0.0
 11
35.26670020125357
 21
0.1621393508825134
 31
0.0
  0
LINE
  5
32B
330
1F
100
AcDbEntity
  8
DEFAULT
100
AcDbLine
 10
35.26670020125357
 20
0.1621393508825134
 30
0.0
 11
35.25696428050219
 21
0.1641226247781668
 31
0.0
  0
LINE
  5
32C
330
1F
100
AcDbEntity
  8
DEFAULT
100
AcDbLine
 10
35.25696428050219
 20
0.1641226247781668
 30
0.0
 11
35.24722564954919
 21
0.1662933401388924
 31
0.0
  0
LINE
  5
32D
330
1F
100
AcDbEntity
  8
DEFAULT
100
AcDbLine
 10
35.24722564954919
 20
0.1662933401388924
 30
0.0
 11
35.23748584762625
 21
0.1686564995960634
 31
0.0
  0
LINE
  5
32E
330
1F
100
AcDbEntity
  8
DEFAULT
100
AcDbLine
 10
35.23748584762625
 20
0.1686564995960634
 30
0.0
 11
35.22774655004098
 21
0.171216678647704
 31
0.0
  0
LINE
  5
32F
330
1F
100
AcDbEntity
  8
DEFAULT
100
AcDbLine
 10
35.22774655004098
 20
0.171216678647704
 30
0.0
 11
35.21800956357541
 21
0.1739780341441052
 31
0.0
  0
LINE
  5
330
330
1F
100
AcDbEntity
  8
DEFAULT
100
AcDbLine
 10
35.21800956357541
 20
0.1739780341441052
 30
0.0
 11
35.20827682188423
 21
0.1769443127734418
 31
0.0
  0
LINE
  5
331
330
1F
100
AcDbEntity
  8
DEFAULT
100
AcDbLine
 10
35.20827682188423
 20
0.1769443127734418
 30
0.0
 11
35.19855038089327
 21
0.1801188595473883
 31
0.0
  0
LINE
  5
332
330
1F
100
AcDbEntity
  8
DEFAULT
100
AcDbLine
 10
35.19855038089327
 20
0.1801188595473883
 30
0.0
 11
35.1888324141978
 21
0.1835046262867355
 31
0.0
  0
LINE
  5
333
330
1F
100
AcDbEntity
  8
DEFAULT
100
AcDbLine
 10
35.1888324141978
 20
0.1835046262867355
 30
0.0
 11
35.17912520846092
 21
0.1871041801070063
 31
0.0
  0
LINE
  5
334
330
1F
100
AcDbEntity
  8
DEFAULT
100
AcDbLine
 10
35.17912520846092
 20
0.1871041801070063
 30
0.0
 11
35.16943115881191
 21
0.1909197119040731
 31
0.0
  0
LINE
  5
335
330
1F
100
AcDbEntity
  8
DEFAULT
100
AcDbLine
 10
35.16943115881191
 20
0.1909197119040731
 30
0.0
 11
35.1597527642446
 21
0.1949530448397732
 31
0.0
  0
LINE
  5
336
330
1F
100
AcDbEntity
  8
DEFAULT
100
AcDbLine
 10
35.1597527642446
 20
0.1949530448397732
 30
0.0
 11
35.15009262301577
 21
0.1992056428275257
 31
0.0
  0
LINE
  5
337
330
1F
100
AcDbEntity
  8
DEFAULT
100
AcDbLine
 10
35.15009262301577
 20
0.1992056428275257
 30
0.0
 11
35.14045342804346
 21
0.2036786190179475
 31
0.0
  0
LINE
  5
338
330
1F
100
AcDbEntity
  8
DEFAULT
100
AcDbLine
 10
35.14045342804346
 20
0.2036786190179475
 30
0.0
 11
35.13083796230536
 21
0.2083727442844701
 31
0.0
  0
LINE
  5
339
330
1F
100
AcDbEntity
  8
DEFAULT
100
AcDbLine
 10
35.13083796230536
 20
0.2083727442844701
 30
0.0
 11
35.12124909423721
 21
0.2132884557089555
 31
0.0
  0
LINE
  5
33A
330
1F
100
AcDbEntity
  8
DEFAULT
100
AcDbLine
 10
35.12124909423721
 20
0.2132884557089555
 30
0.0
 11
35.11168977313113
 21
0.2184258650673129
 31
0.0
  0
LINE
  5
33B
330
1F
100
AcDbEntity
  8
DEFAULT
100
AcDbLine
 10
35.11168977313113
 20
0.2184258650673129
 30
0.0
 11
35.10216302453397
 21
0.2237847673151148
 31
0.0
  0
LINE
  5
33C
330
1F
100
AcDbEntity
  8
DEFAULT
100
AcDbLine
 10
35.10216302453397
 20
0.2237847673151148
 30
0.0
 11
35.09267194564571
 21
0.2293646490732137
 31
0.0
  0
LINE
  5
33D
330
1F
100
AcDbEntity
  8
DEFAULT
100
AcDbLine
 10
35.09267194564571
 20
0.2293646490732137
 30
0.0
 11
35.08321970071781
 21
0.2351646971133581
 31
0.0
  0
LINE
  5
33E
330
1F
100
AcDbEntity
  8
DEFAULT
100
AcDbLine
 10
35.08321970071781
 20
0.2351646971133581
 30
0.0
 11
35.07380951645159
 21
0.2411838068438091
 31
0.0
  0
LINE
  5
33F
330
1F
100
AcDbEntity
  8
DEFAULT
100
AcDbLine
 10
35.07380951645159
 20
0.2411838068438091
 30
0.0
 11
35.06444467739659
 21
0.2474205907949565
 31
0.0
  0
LINE
  5
340
330
1F
100
AcDbEntity
  8
DEFAULT
100
AcDbLine
 10
35.06444467739659
 20
0.2474205907949565
 30
0.0
 11
35.05512852134892
 21
0.2538733871049355
 31
0.0
  0
LINE
  5
341
330
1F
100
AcDbEntity
  8
DEFAULT
100
AcDbLine
 10
35.05512852134892
 20
0.2538733871049355
 30
0.0
 11
35.04586443474964
 21
0.2605402680052429
 31
0.0
  0
LINE
  5
342
330
1F
100
AcDbEntity
  8
DEFAULT
100
AcDbLine
 10
35.04586443474964
 20
0.2605402680052429
 30
0.0
 11
35.03665584808312
 21
0.2674190483063534
 31
0.0
  0
LINE
  5
343
330
1F
100
AcDbEntity
  8
DEFAULT
100
AcDbLine
 10
35.03665584808312
 20
0.2674190483063534
 30
0.0
 11
35.01841908909266
 21
0.2818023301614705
 31
0.0
  0
LINE
  5
344
330
1F
100
AcDbEntity
  8
DEFAULT
100
AcDbLine
 10
35.01841908909266
 20
0.2818023301614705
 30
0.0
 11
35.00044639425676
 21
0.2970009251870654
 31
0.0
  0
LINE
  5
345
330
1F
100
AcDbEntity
  8
DEFAULT
100
AcDbLine
 10
35.00044639425676
 20
0.2970009251870654
 30
0.0
 11
34.98276632364311
 21
0.312988950243011
 31
0.0
  0
LINE
  5
346
330
1F
100
AcDbEntity
  8
DEFAULT
100
AcDbLine
 10
34.98276632364311
 20
0.312988950243011
 30
0.0
 11
34.96540770025554
 21
0.3297372180719982
 31
0.0
  0
LINE
  5
347
330
1F
100
AcDbEntity
  8
DEFAULT
100
AcDbLine
 10
34.96540770025554
 20
0.3297372180719982
 30
0.0
 11
34.94839946278181
 21
0.3472135088392593
 31
0.0
  0
LINE
  5
348
330
1F
100
AcDbEntity
  8
DEFAULT
100
AcDbLine
 10
34.94839946278181
 20
0.3472135088392593
 30
0.0
 11
34.93177051834127
 21
0.3653828416722918
 31
0.0
  0
LINE
  5
349
330
1F
100
AcDbEntity
  8
DEFAULT
100
AcDbLine
 10
34.93177051834127
 20
0.3653828416722918
 30
0.0
 11
34.91554959523257
 21
0.3842077462005816
 31
0.0
  0
LINE
  5
34A
330
1F
100
AcDbEntity
  8
DEFAULT
100
AcDbLine
 10
34.91554959523257
 20
0.3842077462005816
 30
0.0
 11
34.8997650956814
 21
0.4036485340953266
 31
0.0
  0
LINE
  5
34B
330
1F
100
AcDbEntity
  8
DEFAULT
100
AcDbLine
 10
34.8997650956814
 20
0.4036485340953266
 30
0.0
 11
34.88444494858822
 21
0.4236635706091608
 31
0.0
  0
LINE
  5
34C
330
1F
100
AcDbEntity
  8
DEFAULT
100
AcDbLine
 10
34.88444494858822
 20
0.4236635706091608
 30
0.0
 11
34.8696164622759
 21
0.4442095461158767
 31
0.0
  0
LINE
  5
34D
330
1F
100
AcDbEntity
  8
DEFAULT
100
AcDbLine
 10
34.8696164622759
 20
0.4442095461158767
 30
0.0
 11
34.85530617723751
 21
0.4652417476501499
 31
0.0
  0
LINE
  5
34E
330
1F
100
AcDbEntity
  8
DEFAULT
100
AcDbLine
 10
34.85530617723751
 20
0.4652417476501499
 30
0.0
 11
34.84153971888401
 21
0.4867143304472622
 31
0.0
  0
LINE
  5
34F
330
1F
100
AcDbEntity
  8
DEFAULT
100
AcDbLine
 10
34.84153971888401
 20
0.4867143304472622
 30
0.0
 11
34.82834165029196
 21
0.5085805894828255
 31
0.0
  0
LINE
  5
350
330
1F
100
AcDbEntity
  8
DEFAULT
100
AcDbLine
 10
34.82834165029196
 20
0.5085805894828255
 30
0.0
 11
34.81573532495122
 21
0.5307932310125042
 31
0.0
  0
LINE
  5
351
330
1F
100
AcDbEntity
  8
DEFAULT
100
AcDbLine
 10
34.81573532495122
 20
0.5307932310125042
 30
0.0
 11
34.80374273951269
 21
0.5533046441117406
 31
0.0
  0
LINE
  5
352
330
1F
100
AcDbEntity
  8
DEFAULT
100
AcDbLine
 10
34.80374273951269
 20
0.5533046441117406
 30
0.0
 11
34.79238438653599
 21
0.5760671722154768
 31
0.0
  0
LINE
  5
353
330
1F
100
AcDbEntity
  8
DEFAULT
100
AcDbLine
 10
34.79238438653599
 20
0.5760671722154768
 30
0.0
 11
34.78167910723723
 21
0.5990333846578788
 31
0.0
  0
LINE
  5
354
330
1F
100
AcDbEntity
  8
DEFAULT
100
AcDbLine
 10
34.78167910723723
 20
0.5990333846578788
 30
0.0
 11
34.77164394423667
 21
0.6221563482120602
 31
0.0
  0
LINE
  5
355
330
1F
100
AcDbEntity
  8
DEFAULT
100
AcDbLine
 10
34.77164394423667
 20
0.6221563482120602
 30
0.0
 11
34.76229399430646
 21
0.645389898629806
 31
0.0
  0
LINE
  5
356
330
1F
100
AcDbEntity
  8
DEFAULT
100
AcDbLine
 10
34.76229399430646
 20
0.645389898629806
 30
0.0
 11
34.75364226111834
 21
0.6686889121812956
 31
0.0
  0
LINE
  5
357
330
1F
100
AcDbEntity
  8
DEFAULT
100
AcDbLine
 10
34.75364226111834
 20
0.6686889121812956
 30
0.0
 11
34.74569950799136
 21
0.692009577194826
 31
0.0
  0
LINE
  5
358
330
1F
100
AcDbEntity
  8
DEFAULT
100
AcDbLine
 10
34.74569950799136
 20
0.692009577194826
 30
0.0
 11
34.73847411063961
 21
0.7153096655965365
 31
0.0
  0
LINE
  5
359
330
1F
100
AcDbEntity
  8
DEFAULT
100
AcDbLine
 10
34.73847411063961
 20
0.7153096655965365
 30
0.0
 11
34.73197190991991
 21
0.7385488044501312
 31
0.0
  0
LINE
  5
35A
330
1F
100
AcDbEntity
  8
DEFAULT
100
AcDbLine
 10
34.73197190991991
 20
0.7385488044501312
 30
0.0
 11
34.72619606457951
 21
0.7616887474966034
 31
0.0
  0
LINE
  5
35B
330
1F
100
AcDbEntity
  8
DEFAULT
100
AcDbLine
 10
34.72619606457951
 20
0.7616887474966034
 30
0.0
 11
34.72114690400389
 21
0.7846936466939579
 31
0.0
  0
LINE
  5
35C
330
1F
100
AcDbEntity
  8
DEFAULT
100
AcDbLine
 10
34.72114690400389
 20
0.7846936466939579
 30
0.0
 11
34.71682178096434
 21
0.8075303237569362
 31
0.0
  0
LINE
  5
35D
330
1F
100
AcDbEntity
  8
DEFAULT
100
AcDbLine
 10
34.71682178096434
 20
0.8075303237569362
 30
0.0
 11
34.71321492436579
 21
0.8301685416967386
 31
0.0
  0
LINE
  5
35E
330
1F
100
AcDbEntity
  8
DEFAULT
100
AcDbLine
 10
34.71321492436579
 20
0.8301685416967386
 30
0.0
 11
34.71031729199446
 21
0.8525812763607483
 31
0.0
  0
LINE
  5
35F
330
1F
100
AcDbEntity
  8
DEFAULT
100
AcDbLine
 10
34.71031729199446
 20
0.8525812763607483
 30
0.0
 11
34.70811642326559
 21
0.8747449879722553
 31
0.0
  0
LINE
  5
360
330
1F
100
AcDbEntity
  8
DEFAULT
100
AcDbLine
 10
34.70811642326559
 20
0.8747449879722553
 30
0.0
 11
34.70659629197118
 21
0.8966398926701793
 31
0.0
  0
LINE
  5
361
330
1F
100
AcDbEntity
  8
DEFAULT
100
AcDbLine
 10
34.70659629197118
 20
0.8966398926701793
 30
0.0
 11
34.70573715902765
 21
0.9182502340487936
 31
0.0
  0
LINE
  5
362
330
1F
100
AcDbEntity
  8
DEFAULT
100
AcDbLine
 10
34.70573715902765
 20
0.9182502340487936
 30
0.0
 11
34.7055154252236
 21
0.9395645546974485
 31
0.0
  0
LINE
  5
363
330
1F
100
AcDbEntity
  8
DEFAULT
100
AcDbLine
 10
34.7055154252236
 20
0.9395645546974485
 30
0.0
 11
34.70590348396752
 21
0.9605759677402946
 31
0.0
  0
LINE
  5
364
330
1F
100
AcDbEntity
  8
DEFAULT
100
AcDbLine
 10
34.70590348396752
 20
0.9605759677402946
 30
0.0
 11
34.70686957403548
 21
0.9812824283760074
 31
0.0
  0
LINE
  5
365
330
1F
100
AcDbEntity
  8
DEFAULT
100
AcDbLine
 10
34.70686957403548
 20
0.9812824283760074
 30
0.0
 11
34.70837763231884
 21
1.00168700541751
 31
0.0
  0
LINE
  5
366
330
1F
100
AcDbEntity
  8
DEFAULT
100
AcDbLine
 10
34.70837763231884
 20
1.00168700541751
 30
0.0
 11
34.71038714657202
 21
1.021798152831695
 31
0.0
  0
LINE
  5
367
330
1F
100
AcDbEntity
  8
DEFAULT
100
AcDbLine
 10
34.71038714657202
 20
1.021798152831695
 30
0.0
 11
34.71285300816012
 21
1.041629981279152
 31
0.0
  0
LINE
  5
368
330
1F
100
AcDbEntity
  8
DEFAULT
100
AcDbLine
 10
34.71285300816012
 20
1.041629981279152
 30
0.0
 11
34.71572536480674
 21
1.061202529653888
 31
0.0
  0
LINE
  5
369
330
1F
100
AcDbEntity
  8
DEFAULT
100
AcDbLine
 10
34.71572536480674
 20
1.061202529653888
 30
0.0
 11
34.71894947334162
 21
1.080542036623052
 31
0.0
  0
LINE
  5
36A
330
1F
100
AcDbEntity
  8
DEFAULT
100
AcDbLine
 10
34.71894947334162
 20
1.080542036623052
 30
0.0
 11
34.72620863541218
 21
1.11865950911731
 31
0.0
  0
LINE
  5
36B
330
1F
100
AcDbEntity
  8
DEFAULT
100
AcDbLine
 10
34.72620863541218
 20
1.11865950911731
 30
0.0
 11
37.07149161697442
 21
12.15263025880022
 31
0.0
  0
LINE
  5
36C
330
1F
100
AcDbEntity
  8
DEFAULT
100
AcDbLine
 10
37.07149161697442
 20
12.15263025880022
 30
0.0
 11
37.072777241939
 21
12.1577713843384
 31
0.0
  0
LINE
  5
36D
330
1F
100
AcDbEntity
  8
DEFAULT
100
AcDbLine
 10
37.072777241939
 20
12.1577713843384
 30
0.0
 11
37.07419251975328
 21
12.16290149436626
 31
0.0
  0
LINE
  5
36E
330
1F
100
AcDbEntity
  8
DEFAULT
100
AcDbLine
 10
37.07419251975328
 20
12.16290149436626
 30
0.0
 11
37.07573775454121
 21
12.16801579710935
 31
0.0
  0
LINE
  5
36F
330
1F
100
AcDbEntity
  8
DEFAULT
100
AcDbLine
 10
37.07573775454121
 20
12.16801579710935
 30
0.0
 11
37.07741301847142
 21
12.17310945393364
 31
0.0
  0
LINE
  5
370
330
1F
100
AcDbEntity
  8
DEFAULT
100
AcDbLine
 10
37.07741301847142
 20
12.17310945393364
 30
0.0
 11
37.07921814712161
 21
12.17817759319219
 31
0.0
  0
LINE
  5
371
330
1F
100
AcDbEntity
  8
DEFAULT
100
AcDbLine
 10
37.07921814712161
 20
12.17817759319219
 30
0.0
 11
37.08115273582476
 21
12.18321532452766
 31
0.0
  0
LINE
  5
372
330
1F
100
AcDbEntity
  8
DEFAULT
100
AcDbLine
 10
37.08115273582476
 20
12.18321532452766
 30
0.0
 11
37.0832161370456
 21
12.18821775354993
 31
0.0
  0
LINE
  5
373
330
1F
100
AcDbEntity
  8
DEFAULT
100
AcDbLine
 10
37.0832161370456
 20
12.18821775354993
 30
0.0
 11
37.08540745882681
 21
12.19317999680262
 31
0.0
  0
LINE
  5
374
330
1F
100
AcDbEntity
  8
DEFAULT
100
AcDbLine
 10
37.08540745882681
 20
12.19317999680262
 30
0.0
 11
37.08772556433757
 21
12.19809719692776
 31
0.0
  0
LINE
  5
375
330
1F
100
AcDbEntity
  8
DEFAULT
100
AcDbLine
 10
37.08772556433757
 20
12.19809719692776
 30
0.0
 11
37.09016907254668
 21
12.20296453793415
 31
0.0
  0
LINE
  5
376
330
1F
100
AcDbEntity
  8
DEFAULT
100
AcDbLine
 10
37.09016907254668
 20
12.20296453793415
 30
0.0
 11
37.09273636003526
 21
12.20777726047209
 31
0.0
  0
LINE
  5
377
330
1F
100
AcDbEntity
  8
DEFAULT
100
AcDbLine
 10
37.09273636003526
 20
12.20777726047209
 30
0.0
 11
37.09542556395206
 21
12.21253067701556
 31
0.0
  0
LINE
  5
378
330
1F
100
AcDbEntity
  8
DEFAULT
100
AcDbLine
 10
37.09542556395206
 20
12.21253067701556
 30
0.0
 11
37.09823458610695
 21
12.21722018685214
 31
0.0
  0
LINE
  5
379
330
1F
100
AcDbEntity
  8
DEFAULT
100
AcDbLine
 10
37.09823458610695
 20
12.21722018685214
 30
0.0
 11
37.10116109818605
 21
12.22184129078149
 31
0.0
  0
LINE
  5
37A
330
1F
100
AcDbEntity
  8
DEFAULT
100
AcDbLine
 10
37.10116109818605
 20
12.22184129078149
 30
0.0
 11
37.104202548064
 21
12.22638960542459
 31
0.0
  0
LINE
  5
37B
330
1F
100
AcDbEntity
  8
DEFAULT
100
AcDbLine
 10
37.104202548064
 20
12.22638960542459
 30
0.0
 11
37.10735616717767
 21
12.23086087704891
 31
0.0
  0
LINE
  5
37C
330
1F
100
AcDbEntity
  8
DEFAULT
100
AcDbLine
 10
37.10735616717767
 20
12.23086087704891
 30
0.0
 11
37.11061897891736
 21
12.23525099481798
 31
0.0
  0
LINE
  5
37D
330
1F
100
AcDbEntity
  8
DEFAULT
100
AcDbLine
 10
37.11061897891736
 20
12.23525099481798
 30
0.0
 11
37.11398780798166
 21
12.23955600337888
 31
0.0
  0
LINE
  5
37E
330
1F
100
AcDbEntity
  8
DEFAULT
100
AcDbLine
 10
37.11398780798166
 20
12.23955600337888
 30
0.0
 11
37.11745929063498
 21
12.24377211470683
 31
0.0
  0
LINE
  5
37F
330
1F
100
AcDbEntity
  8
DEFAULT
100
AcDbLine
 10
37.11745929063498
 20
12.24377211470683
 30
0.0
 11
37.12102988579763
 21
12.24789571913263
 31
0.0
  0
LINE
  5
380
330
1F
100
AcDbEntity
  8
DEFAULT
100
AcDbLine
 10
37.12102988579763
 20
12.24789571913263
 30
0.0
 11
37.12469588689323
 21
12.25192339548602
 31
0.0
  0
LINE
  5
381
330
1F
100
AcDbEntity
  8
DEFAULT
100
AcDbLine
 10
37.12469588689323
 20
12.25192339548602
 30
0.0
 11
37.12845343437051
 21
12.25585192029638
 31
0.0
  0
LINE
  5
382
330
1F
100
AcDbEntity
  8
DEFAULT
100
AcDbLine
 10
37.12845343437051
 20
12.25585192029638
 30
0.0
 11
37.13229852881317
 21
12.25967827600054
 31
0.0
  0
LINE
  5
383
330
1F
100
AcDbEntity
  8
DEFAULT
100
AcDbLine
 10
37.13229852881317
 20
12.25967827600054
 30
0.0
 11
37.13622704454629
 21
12.26339965811685
 31
0.0
  0
LINE
  5
384
330
1F
100
AcDbEntity
  8
DEFAULT
100
AcDbLine
 10
37.13622704454629
 20
12.26339965811685
 30
0.0
 11
37.14023474364566
 21
12.26701348135376
 31
0.0
  0
LINE
  5
385
330
1F
100
AcDbEntity
  8
DEFAULT
100
AcDbLine
 10
37.14023474364566
 20
12.26701348135376
 30
0.0
 11
37.14431729025409
 21
12.27051738463121
 31
0.0
  0
LINE
  5
386
330
1F
100
AcDbEntity
  8
DEFAULT
100
AcDbLine
 10
37.14431729025409
 20
12.27051738463121
 30
0.0
 11
37.14847026510837
 21
12.27390923500223
 31
0.0
  0
LINE
  5
387
330
1F
100
AcDbEntity
  8
DEFAULT
100
AcDbLine
 10
37.14847026510837
 20
12.27390923500223
 30
0.0
 11
37.1526891801805
 21
12.27718713047218
 31
0.0
  0
LINE
  5
388
330
1F
100
AcDbEntity
  8
DEFAULT
100
AcDbLine
 10
37.1526891801805
 20
12.27718713047218
 30
0.0
 11
37.15696949333869
 21
12.280349401722
 31
0.0
  0
LINE
  5
389
330
1F
100
AcDbEntity
  8
DEFAULT
100
AcDbLine
 10
37.15696949333869
 20
12.280349401722
 30
0.0
 11
37.16130662293513
 21
12.28339461275122
 31
0.0
  0
LINE
  5
38A
330
1F
100
AcDbEntity
  8
DEFAULT
100
AcDbLine
 10
37.16130662293513
 20
12.28339461275122
 30
0.0
 11
37.16569596223187
 21
12.28632156046464
 31
0.0
  0
LINE
  5
38B
330
1F
100
AcDbEntity
  8
DEFAULT
100
AcDbLine
 10
37.16569596223187
 20
12.28632156046464
 30
0.0
 11
37.1701542239951
 21
12.28914241573023
 31
0.0
  0
LINE
  5
38C
330
1F
100
AcDbEntity
  8
DEFAULT
100
AcDbLine
 10
37.1701542239951
 20
12.28914241573023
 30
0.0
 11
37.17469932110883
 21
12.29186750207304
 31
0.0
  0
LINE
  5
38D
330
1F
100
AcDbEntity
  8
DEFAULT
100
AcDbLine
 10
37.17469932110883
 20
12.29186750207304
 30
0.0
 11
37.17932828200572
 21
12.29449309937737
 31
0.0
  0
LINE
  5
38E
330
1F
100
AcDbEntity
  8
DEFAULT
100
AcDbLine
 10
37.17932828200572
 20
12.29449309937737
 30
0.0
 11
37.18403793251471
 21
12.29701560511196
 31
0.0
  0
LINE
  5
38F
330
1F
100
AcDbEntity
  8
DEFAULT
100
AcDbLine
 10
37.18403793251471
 20
12.29701560511196
 30
0.0
 11
37.18882490134634
 21
12.29943154767845
 31
0.0
  0
LINE
  5
390
330
1F
100
AcDbEntity
  8
DEFAULT
100
AcDbLine
 10
37.18882490134634
 20
12.29943154767845
 30
0.0
 11
37.1936856266093
 21
12.30173759947878
 31
0.0
  0
LINE
  5
391
330
1F
100
AcDbEntity
  8
DEFAULT
100
AcDbLine
 10
37.1936856266093
 20
12.30173759947878
 30
0.0
 11
37.19861636334355
 21
12.30393058961014
 31
0.0
  0
LINE
  5
392
330
1F
100
AcDbEntity
  8
DEFAULT
100
AcDbLine
 10
37.19861636334355
 20
12.30393058961014
 30
0.0
 11
37.20361319204687
 21
12.30600751609669
 31
0.0
  0
LINE
  5
393
330
1F
100
AcDbEntity
  8
DEFAULT
100
AcDbLine
 10
37.20361319204687
 20
12.30600751609669
 30
0.0
 11
37.20867202816223
 21
12.3079655575686
 31
0.0
  0
LINE
  5
394
330
1F
100
AcDbEntity
  8
DEFAULT
100
AcDbLine
 10
37.20867202816223
 20
12.3079655575686
 30
0.0
 11
37.21378863248422
 21
12.30980208430185
 31
0.0
  0
LINE
  5
395
330
1F
100
AcDbEntity
  8
DEFAULT
100
AcDbLine
 10
37.21378863248422
 20
12.30980208430185
 30
0.0
 11
37.21895862243422
 21
12.31151466853551
 31
0.0
  0
LINE
  5
396
330
1F
100
AcDbEntity
  8
DEFAULT
100
AcDbLine
 10
37.21895862243422
 20
12.31151466853551
 30
0.0
 11
37.22417748414536
 21
12.31310109398795
 31
0.0
  0
LINE
  5
397
330
1F
100
AcDbEntity
  8
DEFAULT
100
AcDbLine
 10
37.22417748414536
 20
12.31310109398795
 30
0.0
 11
37.22944058528996
 21
12.31455936449908
 31
0.0
  0
LINE
  5
398
330
1F
100
AcDbEntity
  8
DEFAULT
100
AcDbLine
 10
37.22944058528996
 20
12.31455936449908
 30
0.0
 11
37.23474318857541
 21
12.31588771173197
 31
0.0
  0
LINE
  5
399
330
1F
100
AcDbEntity
  8
DEFAULT
100
AcDbLine
 10
37.23474318857541
 20
12.31588771173197
 30
0.0
 11
37.24008046582703
 21
12.31708460187487
 31
0.0
  0
LINE
  5
39A
330
1F
100
AcDbEntity
  8
DEFAULT
100
AcDbLine
 10
37.24008046582703
 20
12.31708460187487
 30
0.0
 11
37.2454475125711
 21
12.3181487412923
 31
0.0
  0
LINE
  5
39B
330
1F
100
AcDbEntity
  8
DEFAULT
100
AcDbLine
 10
37.2454475125711
 20
12.3181487412923
 30
0.0
 11
37.25083936302588
 21
12.31907908108296
 31
0.0
  0
LINE
  5
39C
330
1F
100
AcDbEntity
  8
DEFAULT
100
AcDbLine
 10
37.25083936302588
 20
12.31907908108296
 30
0.0
 11
37.25625100540477
 21
12.3198748205113
 31
0.0
  0
LINE
  5
39D
330
1F
100
AcDbEntity
  8
DEFAULT
100
AcDbLine
 10
37.25625100540477
 20
12.3198748205113
 30
0.0
 11
37.26167739743266
 21
12.32053540928928
 31
0.0
  0
LINE
  5
39E
330
1F
100
AcDbEntity
  8
DEFAULT
100
AcDbLine
 10
37.26167739743266
 20
12.32053540928928
 30
0.0
 11
37.26711348197458
 21
12.3210605486947
 31
0.0
  0
LINE
  5
39F
330
1F
100
AcDbEntity
  8
DEFAULT
100
AcDbLine
 10
37.26711348197458
 20
12.3210605486947
 30
0.0
 11
37.27255420267524
 21
12.3214501915227
 31
0.0
  0
LINE
  5
3A0
330
1F
100
AcDbEntity
  8
DEFAULT
100
AcDbLine
 10
37.27255420267524
 20
12.3214501915227
 30
0.0
 11
37.27799451950854
 21
12.32170454087708
 31
0.0
  0
LINE
  5
3A1
330
1F
100
AcDbEntity
  8
DEFAULT
100
AcDbLine
 10
37.27799451950854
 20
12.32170454087708
 30
0.0
 11
37.28342942413701
 21
12.32182404781779
 31
0.0
  0
LINE
  5
3A2
330
1F
100
AcDbEntity
  8
DEFAULT
100
AcDbLine
 10
37.28342942413701
 20
12.32182404781779
 30
0.0
 11
37.28885395498497
 21
12.32180940789091
 31
0.0
  0
LINE
  5
3A3
330
1F
100
AcDbEntity
  8
DEFAULT
100
AcDbLine
 10
37.28885395498497
 20
12.32180940789091
 30
0.0
 11
37.29426321193114
 21
12.32166155657646
 31
0.0
  0
LINE
  5
3A4
330
1F
100
AcDbEntity
  8
DEFAULT
100
AcDbLine
 10
37.29426321193114
 20
12.32166155657646
 30
0.0
 11
37.29965237053295
 21
12.32138166369818
 31
0.0
  0
LINE
  5
3A5
330
1F
100
AcDbEntity
  8
DEFAULT
100
AcDbLine
 10
37.29965237053295
 20
12.32138166369818
 30
0.0
 11
37.30501669569851
 21
12.32097112684743
 31
0.0
  0
LINE
  5
3A6
330
1F
100
AcDbEntity
  8
DEFAULT
100
AcDbLine
 10
37.30501669569851
 20
12.32097112684743
 30
0.0
 11
37.31035155472988
 21
12.32043156388077
 31
0.0
  0
LINE
  5
3A7
330
1F
100
AcDbEntity
  8
DEFAULT
100
AcDbLine
 10
37.31035155472988
 20
12.32043156388077
 30
0.0
 11
37.31565242966732
 21
12.31976480455735
 31
0.0
  0
LINE
  5
3A8
330
1F
100
AcDbEntity
  8
DEFAULT
100
AcDbLine
 10
37.31565242966732
 20
12.31976480455735
 30
0.0
 11
37.32091492887235
 21
12.31897288138767
 31
0.0
  0
LINE
  5
3A9
330
1F
100
AcDbEntity
  8
DEFAULT
100
AcDbLine
 10
37.32091492887235
 20
12.31897288138767
 30
0.0
 11
37.32613479779501
 21
12.31805801977025
 31
0.0
  0
LINE
  5
3AA
330
1F
100
AcDbEntity
  8
DEFAULT
100
AcDbLine
 10
37.32613479779501
 20
12.31805801977025
 30
0.0
 11
37.33130792887957
 21
12.31702262749634
 31
0.0
  0
LINE
  5
3AB
330
1F
100
AcDbEntity
  8
DEFAULT
100
AcDbLine
 10
37.33130792887957
 20
12.31702262749634
 30
0.0
 11
37.3364547451162
 21
12.31586348772688
 31
0.0
  0
LINE
  5
3AC
330
1F
100
AcDbEntity
  8
DEFAULT
100
AcDbLine
 10
37.3364547451162
 20
12.31586348772688
 30
0.0
 11
37.34159521128581
 21
12.31457522886001
 31
0.0
  0
LINE
  5
3AD
330
1F
100
AcDbEntity
  8
DEFAULT
100
AcDbLine
 10
37.34159521128581
 20
12.31457522886001
 30
0.0
 11
37.3467245955185
 21
12.31315732280428
 31
0.0
  0
LINE
  5
3AE
330
1F
100
AcDbEntity
  8
DEFAULT
100
AcDbLine
 10
37.3467245955185
 20
12.31315732280428
 30
0.0
 11
37.35183810588468
 21
12.31160946789088
 31
0.0
  0
LINE
  5
3AF
330
1F
100
AcDbEntity
  8
DEFAULT
100
AcDbLine
 10
37.35183810588468
 20
12.31160946789088
 30
0.0
 11
37.35693090371393
 21
12.30993159443023
 31
0.0
  0
LINE
  5
3B0
330
1F
100
AcDbEntity
  8
DEFAULT
100
AcDbLine
 10
37.35693090371393
 20
12.30993159443023
 30
0.0
 11
37.36199811744422
 21
12.30812386934068
 31
0.0
  0
LINE
  5
3B1
330
1F
100
AcDbEntity
  8
DEFAULT
100
AcDbLine
 10
37.36199811744422
 20
12.30812386934068
 30
0.0
 11
37.36703485692616
 21
12.30618669979474
 31
0.0
  0
LINE
  5
3B2
330
1F
100
AcDbEntity
  8
DEFAULT
100
AcDbLine
 10
37.36703485692616
 20
12.30618669979474
 30
0.0
 11
37.37203622810208
 21
12.30412073583528
 31
0.0
  0
LINE
  5
3B3
330
1F
100
AcDbEntity
  8
DEFAULT
100
AcDbLine
 10
37.37203622810208
 20
12.30412073583528
 30
0.0
 11
37.37699734797319
 21
12.3019268719215
 31
0.0
  0
LINE
  5
3B4
330
1F
100
AcDbEntity
  8
DEFAULT
100
AcDbLine
 10
37.37699734797319
 20
12.3019268719215
 30
0.0
 11
37.38191335976467
 21
12.29960624737285
 31
0.0
  0
LINE
  5
3B5
330
1F
100
AcDbEntity
  8
DEFAULT
100
AcDbLine
 10
37.38191335976467
 20
12.29960624737285
 30
0.0
 11
37.38677944819344
 21
12.29716024568772
 31
0.0
  0
LINE
  5
3B6
330
1F
100
AcDbEntity
  8
DEFAULT
100
AcDbLine
 10
37.38677944819344
 20
12.29716024568772
 30
0.0
 11
37.3915908547423
 21
12.29459049272335
 31
0.0
  0
LINE
  5
3B7
330
1F
100
AcDbEntity
  8
DEFAULT
100
AcDbLine
 10
37.3915908547423
 20
12.29459049272335
 30
0.0
 11
37.39634289284019
 21
12.29189885373233
 31
0.0
  0
LINE
  5
3B8
330
1F
100
AcDbEntity
  8
DEFAULT
100
AcDbLine
 10
37.39634289284019
 20
12.29189885373233
 30
0.0
 11
37.40103096285038
 21
12.28908742926177
 31
0.0
  0
LINE
  5
3B9
330
1F
100
AcDbEntity
  8
DEFAULT
100
AcDbLine
 10
37.40103096285038
 20
12.28908742926177
 30
0.0
 11
37.40565056676597
 21
12.28615854993037
 31
0.0
  0
LINE
  5
3BA
330
1F
100
AcDbEntity
  8
DEFAULT
100
AcDbLine
 10
37.40565056676597
 20
12.28615854993037
 30
0.0
 11
37.41019732251616
 21
12.28311477010902
 31
0.0
  0
LINE
  5
3BB
330
1F
100
AcDbEntity
  8
DEFAULT
100
AcDbLine
 10
37.41019732251616
 20
12.28311477010902
 30
0.0
 11
37.41466697778743
 21
12.27995886053988
 31
0.0
  0
LINE
  5
3BC
330
1F
100
AcDbEntity
  8
DEFAULT
100
AcDbLine
 10
37.41466697778743
 20
12.27995886053988
 30
0.0
 11
37.41905542326895
 21
12.2766937999385
 31
0.0
  0
LINE
  5
3BD
330
1F
100
AcDbEntity
  8
DEFAULT
100
AcDbLine
 10
37.41905542326895
 20
12.2766937999385
 30
0.0
 11
37.42335870523516
 21
12.27332276563234
 31
0.0
  0
LINE
  5
3BE
330
1F
100
AcDbEntity
  8
DEFAULT
100
AcDbLine
 10
37.42335870523516
 20
12.27332276563234
 30
0.0
 11
37.42757303738524
 21
12.26984912329743
 31
0.0
  0
LINE
  5
3BF
330
1F
100
AcDbEntity
  8
DEFAULT
100
AcDbLine
 10
37.42757303738524
 20
12.26984912329743
 30
0.0
 11
37.43169481186468
 21
12.26627641586237
 31
0.0
  0
LINE
  5
3C0
330
1F
100
AcDbEntity
  8
DEFAULT
100
AcDbLine
 10
37.43169481186468
 20
12.26627641586237
 30
0.0
 11
37.43572060940282
 21
12.26260835165593
 31
0.0
  0
LINE
  5
3C1
330
1F
100
AcDbEntity
  8
DEFAULT
100
AcDbLine
 10
37.43572060940282
 20
12.26260835165593
 30
0.0
 11
37.43964720850686
 21
12.25884879188041
 31
0.0
  0
LINE
  5
3C2
330
1F
100
AcDbEntity
  8
DEFAULT
100
AcDbLine
 10
37.43964720850686
 20
12.25884879188041
 30
0.0
 11
37.44347159366318
 21
12.25500173749765
 31
0.0
  0
LINE
  5
3C3
330
1F
100
AcDbEntity
  8
DEFAULT
100
AcDbLine
 10
37.44347159366318
 20
12.25500173749765
 30
0.0
 11
37.44719096250426
 21
12.2510713156189
 31
0.0
  0
LINE
  5
3C4
330
1F
100
AcDbEntity
  8
DEFAULT
100
AcDbLine
 10
37.44719096250426
 20
12.2510713156189
 30
0.0
 11
37.45080273191025
 21
12.24706176549242
 31
0.0
  0
LINE
  5
3C5
330
1F
100
AcDbEntity
  8
DEFAULT
100
AcDbLine
 10
37.45080273191025
 20
12.24706176549242
 30
0.0
 11
37.45430454302283
 21
12.24297742418452
 31
0.0
  0
LINE
  5
3C6
330
1F
100
AcDbEntity
  8
DEFAULT
100
AcDbLine
 10
37.45430454302283
 20
12.24297742418452
 30
0.0
 11
37.4576942651596
 21
12.23882271205067
 31
0.0
  0
LINE
  5
3C7
330
1F
100
AcDbEntity
  8
DEFAULT
100
AcDbLine
 10
37.4576942651596
 20
12.23882271205067
 30
0.0
 11
37.46096999862555
 21
12.23460211809273
 31
0.0
  0
LINE
  5
3C8
330
1F
100
AcDbEntity
  8
DEFAULT
100
AcDbLine
 10
37.46096999862555
 20
12.23460211809273
 30
0.0
 11
37.46413007642909
 21
12.23032018529723
 31
0.0
  0
LINE
  5
3C9
330
1F
100
AcDbEntity
  8
DEFAULT
100
AcDbLine
 10
37.46413007642909
 20
12.23032018529723
 30
0.0
 11
37.4671730649173
 21
12.22598149604706
 31
0.0
  0
LINE
  5
3CA
330
1F
100
AcDbEntity
  8
DEFAULT
100
AcDbLine
 10
37.4671730649173
 20
12.22598149604706
 30
0.0
 11
37.47009776335545
 21
12.22159065769604
 31
0.0
  0
LINE
  5
3CB
330
1F
100
AcDbEntity
  8
DEFAULT
100
AcDbLine
 10
37.47009776335545
 20
12.22159065769604
 30
0.0
 11
37.47291633404705
 21
12.21713095124434
 31
0.0
  0
LINE
  5
3CC
330
1F
100
AcDbEntity
  8
DEFAULT
100
AcDbLine
 10
37.47291633404705
 20
12.21713095124434
 30
0.0
 11
37.4756390913381
 21
12.21258445852105
 31
0.0
  0
LINE
  5
3CD
330
1F
100
AcDbEntity
  8
DEFAULT
100
AcDbLine
 10
37.4756390913381
 20
12.21258445852105
 30
0.0
 11
37.47826231663585
 21
12.20795415299908
 31
0.0
  0
LINE
  5
3CE
330
1F
100
AcDbEntity
  8
DEFAULT
100
AcDbLine
 10
37.47826231663585
 20
12.20795415299908
 30
0.0
 11
37.48078240903585
 21
12.2032432106949
 31
0.0
  0
LINE
  5
3CF
330
1F
100
AcDbEntity
  8
DEFAULT
100
AcDbLine
 10
37.48078240903585
 20
12.2032432106949
 30
0.0
 11
37.48319589866744
 21
12.19845500467618
 31
0.0
  0
LINE
  5
3D0
330
1F
100
AcDbEntity
  8
DEFAULT
100
AcDbLine
 10
37.48319589866744
 20
12.19845500467618
 30
0.0
 11
37.48549945975798
 21
12.19359309853867
 31
0.0
  0
LINE
  5
3D1
330
1F
100
AcDbEntity
  8
DEFAULT
100
AcDbLine
 10
37.48549945975798
 20
12.19359309853867
 30
0.0
 11
37.48768992332381
 21
12.18866123886655
 31
0.0
  0
LINE
  5
3D2
330
1F
100
AcDbEntity
  8
DEFAULT
100
AcDbLine
 10
37.48768992332381
 20
12.18866123886655
 30
0.0
 11
37.48976428939763
 21
12.18366334669957
 31
0.0
  0
LINE
  5
3D3
330
1F
100
AcDbEntity
  8
DEFAULT
100
AcDbLine
 10
37.48976428939763
 20
12.18366334669957
 30
0.0
 11
37.49171973870273
 21
12.1786035080398
 31
0.0
  0
LINE
  5
3D4
330
1F
100
AcDbEntity
  8
DEFAULT
100
AcDbLine
 10
37.49171973870273
 20
12.1786035080398
 30
0.0
 11
37.49355364368744
 21
12.17348596343943
 31
0.0
  0
LINE
  5
3D5
330
1F
100
AcDbEntity
  8
DEFAULT
100
AcDbLine
 10
37.49355364368744
 20
12.17348596343943
 30
0.0
 11
37.4952635788365
 21
12.16831509672035
 31
0.0
  0
LINE
  5
3D6
330
1F
100
AcDbEntity
  8
DEFAULT
100
AcDbLine
 10
37.4952635788365
 20
12.16831509672035
 30
0.0
 11
37.49684733018133
 21
12.16309542288438
 31
0.0
  0
LINE
  5
3D7
330
1F
100
AcDbEntity
  8
DEFAULT
100
AcDbLine
 10
37.49684733018133
 20
12.16309542288438
 30
0.0
 11
37.49830290393545
 21
12.15783157528132
 31
0.0
  0
LINE
  5
3D8
330
1F
100
AcDbEntity
  8
DEFAULT
100
AcDbLine
 10
37.49830290393545
 20
12.15783157528132
 30
0.0
 11
37.49962853418936
 21
12.15252829210918
 31
0.0
  0
LINE
  5
3D9
330
1F
100
AcDbEntity
  8
DEFAULT
100
AcDbLine
 10
37.49962853418936
 20
12.15252829210918
 30
0.0
 11
37.50082268960521
 21
12.14719040232785
 31
0.0
  0
LINE
  5
3DA
330
1F
100
AcDbEntity
  8
DEFAULT
100
AcDbLine
 10
37.50082268960521
 20
12.14719040232785
 30
0.0
 11
37.50188407906053
 21
12.14182281107321
 31
0.0
  0
LINE
  5
3DB
330
1F
100
AcDbEntity
  8
DEFAULT
100
AcDbLine
 10
37.50188407906053
 20
12.14182281107321
 30
0.0
 11
37.50281165619838
 21
12.13643048466376
 31
0.0
  0
LINE
  5
3DC
330
1F
100
AcDbEntity
  8
DEFAULT
100
AcDbLine
 10
37.50281165619838
 20
12.13643048466376
 30
0.0
 11
37.50360462285114
 21
12.13101843529569
 31
0.0
  0
LINE
  5
3DD
330
1F
100
AcDbEntity
  8
DEFAULT
100
AcDbLine
 10
37.50360462285114
 20
12.13101843529569
 30
0.0
 11
37.50426243131423
 21
12.12559170552538
 31
0.0
  0
LINE
  5
3DE
330
1F
100
AcDbEntity
  8
DEFAULT
100
AcDbLine
 10
37.50426243131423
 20
12.12559170552538
 30
0.0
 11
37.50478478545656
 21
12.12015535264023
 31
0.0
  0
LINE
  5
3DF
330
1F
100
AcDbEntity
  8
DEFAULT
100
AcDbLine
 10
37.50478478545656
 20
12.12015535264023
 30
0.0
 11
37.50517164066391
 21
12.114714433019
 31
0.0
  0
LINE
  5
3E0
330
1F
100
AcDbEntity
  8
DEFAULT
100
AcDbLine
 10
37.50517164066391
 20
12.114714433019
 30
0.0
 11
37.50542320262234
 21
12.10927398658313
 31
0.0
  0
LINE
  5
3E1
330
1F
100
AcDbEntity
  8
DEFAULT
100
AcDbLine
 10
37.50542320262234
 20
12.10927398658313
 30
0.0
 11
37.5055399249577
 21
12.10383902143825
 31
0.0
  0
LINE
  5
3E2
330
1F
100
AcDbEntity
  8
DEFAULT
100
AcDbLine
 10
37.5055399249577
 20
12.10383902143825
 30
0.0
 11
37.50552250575816
 21
12.0984144988031
 31
0.0
  0
LINE
  5
3E3
330
1F
100
AcDbEntity
  8
DEFAULT
100
AcDbLine
 10
37.50552250575816
 20
12.0984144988031
 30
0.0
 11
37.50537188301415
 21
12.09300531831896
 31
0.0
  0
LINE
  5
3E4
330
1F
100
AcDbEntity
  8
DEFAULT
100
AcDbLine
 10
37.50537188301415
 20
12.09300531831896
 30
0.0
 11
37.50508922902111
 21
12.08761630382845
 31
0.0
  0
LINE
  5
3E5
330
1F
100
AcDbEntity
  8
DEFAULT
100
AcDbLine
 10
37.50508922902111
 20
12.08761630382845
 30
0.0
 11
37.50467594379619
 21
12.08225218970675
 31
0.0
  0
LINE
  5
3E6
330
1F
100
AcDbEntity
  8
DEFAULT
100
AcDbLine
 10
37.50467594379619
 20
12.08225218970675
 30
0.0
 11
37.50413364756939
 21
12.0769176078223
 31
0.0
  0
LINE
  5
3E7
330
1F
100
AcDbEntity
  8
DEFAULT
100
AcDbLine
 10
37.50413364756939
 20
12.0769176078223
 30
0.0
 11
37.50346417241435
 21
12.07161707519673
 31
0.0
  0
LINE
  5
3E8
330
1F
100
AcDbEntity
  8
DEFAULT
100
AcDbLine
 10
37.50346417241435
 20
12.07161707519673
 30
0.0
 11
37.50266955309143
 21
12.06635498242663
 31
0.0
  0
LINE
  5
3E9
330
1F
100
AcDbEntity
  8
DEFAULT
100
AcDbLine
 10
37.50266955309143
 20
12.06635498242663
 30
0.0
 11
37.50175201717865
 21
12.06113558292117
 31
0.0
  0
LINE
  5
3EA
330
1F
100
AcDbEntity
  8
DEFAULT
100
AcDbLine
 10
37.50175201717865
 20
12.06113558292117
 30
0.0
 11
35.15636868544046
 21
1.024935770497664
 31
0.0
  0
LINE
  5
3EB
330
1F
100
AcDbEntity
  8
DEFAULT
100
AcDbLine
 10
35.15636868544046
 20
1.024935770497664
 30
0.0
 11
35.15350027483814
 21
1.007465618886334
 31
0.0
  0
LINE
  5
3EC
330
1F
100
AcDbEntity
  8
DEFAULT
100
AcDbLine
 10
35.15350027483814
 20
1.007465618886334
 30
0.0
 11
35.15228273968377
 21
0.9985343759793618
 31
0.0
  0
LINE
  5
3ED
330
1F
100
AcDbEntity
  8
DEFAULT
100
AcDbLine
 10
35.15228273968377
 20
0.9985343759793618
 30
0.0
 11
35.15123576349654
 21
0.9894566920917484
 31
0.0
  0
LINE
  5
3EE
330
1F
100
AcDbEntity
  8
DEFAULT
100
AcDbLine
 10
35.15123576349654
 20
0.9894566920917484
 30
0.0
 11
35.15037689630414
 21
0.9802245711391588
 31
0.0
  0
LINE
  5
3EF
330
1F
100
AcDbEntity
  8
DEFAULT
100
AcDbLine
 10
35.15037689630414
 20
0.9802245711391588
 30
0.0
 11
35.1497221157377
 21
0.9708328567288556
 31
0.0
  0
LINE
  5
3F0
330
1F
100
AcDbEntity
  8
DEFAULT
100
AcDbLine
 10
35.1497221157377
 20
0.9708328567288556
 30
0.0
 11
35.14928587278432
 21
0.9612790978356989
 31
0.0
  0
LINE
  5
3F1
330
1F
100
AcDbEntity
  8
DEFAULT
100
AcDbLine
 10
35.14928587278432
 20
0.9612790978356989
 30
0.0
 11
35.14908113753949
 21
0.9515634144781474
 31
0.0
  0
LINE
  5
3F2
330
1F
100
AcDbEntity
  8
DEFAULT
100
AcDbLine
 10
35.14908113753949
 20
0.9515634144781474
 30
0.0
 11
35.14911944495956
 21
0.9416883633942604
 31
0.0
  0
LINE
  5
3F3
330
1F
100
AcDbEntity
  8
DEFAULT
100
AcDbLine
 10
35.14911944495956
 20
0.9416883633942604
 30
0.0
 11
35.14941094061418
 21
0.9316588037176985
 31
0.0
  0
LINE
  5
3F4
330
1F
100
AcDbEntity
  8
DEFAULT
100
AcDbLine
 10
35.14941094061418
 20
0.9316588037176985
 30
0.0
 11
35.14996442643875
 21
0.9214817626537246
 31
0.0
  0
LINE
  5
3F5
330
1F
100
AcDbEntity
  8
DEFAULT
100
AcDbLine
 10
35.14996442643875
 20
0.9214817626537246
 30
0.0
 11
35.15078740648687
 21
0.9111663011552054
 31
0.0
  0
LINE
  5
3F6
330
1F
100
AcDbEntity
  8
DEFAULT
100
AcDbLine
 10
35.15078740648687
 20
0.9111663011552054
 30
0.0
 11
35.15188613268282
 21
0.9007233795986127
 31
0.0
  0
LINE
  5
3F7
330
1F
100
AcDbEntity
  8
DEFAULT
100
AcDbLine
 10
35.15188613268282
 20
0.9007233795986127
 30
0.0
 11
35.15326565057399
 21
0.8901657234600246
 31
0.0
  0
LINE
  5
3F8
330
1F
100
AcDbEntity
  8
DEFAULT
100
AcDbLine
 10
35.15326565057399
 20
0.8901657234600246
 30
0.0
 11
35.15492984508329
 21
0.8795076889911264
 31
0.0
  0
LINE
  5
3F9
330
1F
100
AcDbEntity
  8
DEFAULT
100
AcDbLine
 10
35.15492984508329
 20
0.8795076889911264
 30
0.0
 11
35.15688148626174
 21
0.8687651288952116
 31
0.0
  0
LINE
  5
3FA
330
1F
100
AcDbEntity
  8
DEFAULT
100
AcDbLine
 10
35.15688148626174
 20
0.8687651288952116
 30
0.0
 11
35.15912227504073
 21
0.8579552580031841
 31
0.0
  0
LINE
  5
3FB
330
1F
100
AcDbEntity
  8
DEFAULT
100
AcDbLine
 10
35.15912227504073
 20
0.8579552580031841
 30
0.0
 11
35.16165288898465
 21
0.8470965189495585
 31
0.0
  0
LINE
  5
3FC
330
1F
100
AcDbEntity
  8
DEFAULT
100
AcDbLine
 10
35.16165288898465
 20
0.8470965189495585
 30
0.0
 11
35.16447302804322
 21
0.8362084478484617
 31
0.0
  0
LINE
  5
3FD
330
1F
100
AcDbEntity
  8
DEFAULT
100
AcDbLine
 10
35.16447302804322
 20
0.8362084478484617
 30
0.0
 11
35.16758146030399
 21
0.825311539969634
 31
0.0
  0
LINE
  5
3FE
330
1F
100
AcDbEntity
  8
DEFAULT
100
AcDbLine
 10
35.16758146030399
 20
0.825311539969634
 30
0.0
 11
35.17097606774482
 21
0.81442711541443
 31
0.0
  0
LINE
  5
3FF
330
1F
100
AcDbEntity
  8
DEFAULT
100
AcDbLine
 10
35.17097606774482
 20
0.81442711541443
 30
0.0
 11
35.17465389198629
 21
0.8035771847918208
 31
0.0
  0
LINE
  5
400
330
1F
100
AcDbEntity
  8
DEFAULT
100
AcDbLine
 10
35.17465389198629
 20
0.8035771847918208
 30
0.0
 11
35.17861118004414
 21
0.7927843148943937
 31
0.0
  0
LINE
  5
401
330
1F
100
AcDbEntity
  8
DEFAULT
100
AcDbLine
 10
35.17861118004414
 20
0.7927843148943937
 30
0.0
 11
35.18284343008177
 21
0.7820714943743546
 31
0.0
  0
LINE
  5
402
330
1F
100
AcDbEntity
  8
DEFAULT
100
AcDbLine
 10
35.18284343008177
 20
0.7820714943743546
 30
0.0
 11
35.18734543716267
 21
0.7714619994195292
 31
0.0
  0
LINE
  5
403
330
1F
100
AcDbEntity
  8
DEFAULT
100
AcDbLine
 10
35.18734543716267
 20
0.7714619994195292
 30
0.0
 11
35.19211133900288
 21
0.7609792594293632
 31
0.0
  0
LINE
  5
404
330
1F
100
AcDbEntity
  8
DEFAULT
100
AcDbLine
 10
35.19211133900288
 20
0.7609792594293632
 30
0.0
 11
35.19713466172342
 21
0.7506467226909245
 31
0.0
  0
LINE
  5
405
330
1F
100
AcDbEntity
  8
DEFAULT
100
AcDbLine
 10
35.19713466172342
 20
0.7506467226909245
 30
0.0
 11
35.20240836560276
 21
0.740487722054904
 31
0.0
  0
LINE
  5
406
330
1F
100
AcDbEntity
  8
DEFAULT
100
AcDbLine
 10
35.20240836560276
 20
0.740487722054904
 30
0.0
 11
35.20792489082928
 21
0.7305253406116168
 31
0.0
  0
LINE
  5
407
330
1F
100
AcDbEntity
  8
DEFAULT
100
AcDbLine
 10
35.20792489082928
 20
0.7305253406116168
 30
0.0
 11
35.21367620325371
 21
0.7207822773670034
 31
0.0
  0
LINE
  5
408
330
1F
100
AcDbEntity
  8
DEFAULT
100
AcDbLine
 10
35.21367620325371
 20
0.7207822773670034
 30
0.0
 11
35.21965384014158
 21
0.7112807129186314
 31
0.0
  0
LINE
  5
409
330
1F
100
AcDbEntity
  8
DEFAULT
100
AcDbLine
 10
35.21965384014158
 20
0.7112807129186314
 30
0.0
 11
35.22584895592568
 21
0.7020421751316955
 31
0.0
  0
LINE
  5
40A
330
1F
100
AcDbEntity
  8
DEFAULT
100
AcDbLine
 10
35.22584895592568
 20
0.7020421751316955
 30
0.0
 11
35.23225236795851
 21
0.6930874048150202
 31
0.0
  0
LINE
  5
40B
330
1F
100
AcDbEntity
  8
DEFAULT
100
AcDbLine
 10
35.23225236795851
 20
0.6930874048150202
 30
0.0
 11
35.23885460226472
 21
0.6844362213970598
 31
0.0
  0
LINE
  5
40C
330
1F
100
AcDbEntity
  8
DEFAULT
100
AcDbLine
 10
35.23885460226472
 20
0.6844362213970598
 30
0.0
 11
35.24564593929361
 21
0.6761073886019004
 31
0.0
  0
LINE
  5
40D
330
1F
100
AcDbEntity
  8
DEFAULT
100
AcDbLine
 10
35.24564593929361
 20
0.6761073886019004
 30
0.0
 11
35.25261645967153
 21
0.6681184801252606
 31
0.0
  0
LINE
  5
40E
330
1F
100
AcDbEntity
  8
DEFAULT
100
AcDbLine
 10
35.25261645967153
 20
0.6681184801252606
 30
0.0
 11
35.25616577043242
 21
0.6642566308316193
 31
0.0
  0
LINE
  5
40F
330
1F
100
AcDbEntity
  8
DEFAULT
100
AcDbLine
 10
35.25616577043242
 20
0.6642566308316193
 30
0.0
 11
35.25975608995433
 21
0.660485745310493
 31
0.0
  0
LINE
  5
410
330
1F
100
AcDbEntity
  8
DEFAULT
100
AcDbLine
 10
35.25975608995433
 20
0.660485745310493
 30
0.0
 11
35.26338614248951
 21
0.6568076257622122
 31
0.0
  0
LINE
  5
411
330
1F
100
AcDbEntity
  8
DEFAULT
100
AcDbLine
 10
35.26338614248951
 20
0.6568076257622122
 30
0.0
 11
35.26705464837985
 21
0.6532239748245853
 31
0.0
  0
LINE
  5
412
330
1F
100
AcDbEntity
  8
DEFAULT
100
AcDbLine
 10
35.26705464837985
 20
0.6532239748245853
 30
0.0
 11
35.27076032548665
 21
0.6497363913752725
 31
0.0
  0
LINE
  5
413
330
1F
100
AcDbEntity
  8
DEFAULT
100
AcDbLine
 10
35.27076032548665
 20
0.6497363913752725
 30
0.0
 11
35.27450189062039
 21
0.6463463663341615
 31
0.0
  0
LINE
  5
414
330
1F
100
AcDbEntity
  8
DEFAULT
100
AcDbLine
 10
35.27450189062039
 20
0.6463463663341615
 30
0.0
 11
35.27827806097048
 21
0.6430552784657424
 31
0.0
  0
LINE
  5
415
330
1F
100
AcDbEntity
  8
DEFAULT
100
AcDbLine
 10
35.27827806097048
 20
0.6430552784657424
 30
0.0
 11
35.28208755553505
 21
0.6398643901814829
 31
0.0
  0
LINE
  5
416
330
1F
100
AcDbEntity
  8
DEFAULT
100
AcDbLine
 10
35.28208755553505
 20
0.6398643901814829
 30
0.0
 11
35.28592909655072
 21
0.6367748433422029
 31
0.0
  0
LINE
  5
417
330
1F
100
AcDbEntity
  8
DEFAULT
100
AcDbLine
 10
35.28592909655072
 20
0.6367748433422029
 30
0.0
 11
35.28980141092234
 21
0.63378765506045
 31
0.0
  0
LINE
  5
418
330
1F
100
AcDbEntity
  8
DEFAULT
100
AcDbLine
 10
35.28980141092234
 20
0.63378765506045
 30
0.0
 11
35.29370323165273
 21
0.6309037135028741
 31
0.0
  0
LINE
  5
419
330
1F
100
AcDbEntity
  8
DEFAULT
100
AcDbLine
 10
35.29370323165273
 20
0.6309037135028741
 30
0.0
 11
35.29763329927249
 21
0.6281237736926029
 31
0.0
  0
LINE
  5
41A
330
1F
100
AcDbEntity
  8
DEFAULT
100
AcDbLine
 10
35.29763329927249
 20
0.6281237736926029
 30
0.0
 11
35.30159036326978
 21
0.6254484533116165
 31
0.0
  0
LINE
  5
41B
330
1F
100
AcDbEntity
  8
DEFAULT
100
AcDbLine
 10
35.30159036326978
 20
0.6254484533116165
 30
0.0
 11
35.30557318352001
 21
0.6228782285031227
 31
0.0
  0
LINE
  5
41C
330
1F
100
AcDbEntity
  8
DEFAULT
100
AcDbLine
 10
35.30557318352001
 20
0.6228782285031227
 30
0.0
 11
35.30958053171568
 21
0.6204134296739321
 31
0.0
  0
LINE
  5
41D
330
1F
100
AcDbEntity
  8
DEFAULT
100
AcDbLine
 10
35.30958053171568
 20
0.6204134296739321
 30
0.0
 11
35.31361119279609
 21
0.6180542372968332
 31
0.0
  0
LINE
  5
41E
330
1F
100
AcDbEntity
  8
DEFAULT
100
AcDbLine
 10
35.31361119279609
 20
0.6180542372968332
 30
0.0
 11
35.31766396637712
 21
0.6158006777129666
 31
0.0
  0
LINE
  5
41F
330
1F
100
AcDbEntity
  8
DEFAULT
100
AcDbLine
 10
35.31766396637712
 20
0.6158006777129666
 30
0.0
 11
35.32173766818103
 21
0.6136526189342015
 31
0.0
  0
LINE
  5
420
330
1F
100
AcDbEntity
  8
DEFAULT
100
AcDbLine
 10
35.32173766818103
 20
0.6136526189342015
 30
0.0
 11
35.32583113146617
 21
0.6116097664455091
 31
0.0
  0
LINE
  5
421
330
1F
100
AcDbEntity
  8
DEFAULT
100
AcDbLine
 10
35.32583113146617
 20
0.6116097664455091
 30
0.0
 11
35.32994320845677
 21
0.6096716590073394
 31
0.0
  0
LINE
  5
422
330
1F
100
AcDbEntity
  8
DEFAULT
100
AcDbLine
 10
35.32994320845677
 20
0.6096716590073394
 30
0.0
 11
35.3340727717727
 21
0.6078376644579946
 31
0.0
  0
LINE
  5
423
330
1F
100
AcDbEntity
  8
DEFAULT
100
AcDbLine
 10
35.3340727717727
 20
0.6078376644579946
 30
0.0
 11
35.33821871585926
 21
0.6061069755160051
 31
0.0
  0
LINE
  5
424
330
1F
100
AcDbEntity
  8
DEFAULT
100
AcDbLine
 10
35.33821871585926
 20
0.6061069755160051
 30
0.0
 11
35.34237995841687
 21
0.6044786055825042
 31
0.0
  0
LINE
  5
425
330
1F
100
AcDbEntity
  8
DEFAULT
100
AcDbLine
 10
35.34237995841687
 20
0.6044786055825042
 30
0.0
 11
35.34655544183094
 21
0.6029513845436035
 31
0.0
  0
LINE
  5
426
330
1F
100
AcDbEntity
  8
DEFAULT
100
AcDbLine
 10
35.34655544183094
 20
0.6029513845436035
 30
0.0
 11
35.35074413460155
 21
0.6015239545727672
 31
0.0
  0
LINE
  5
427
330
1F
100
AcDbEntity
  8
DEFAULT
100
AcDbLine
 10
35.35074413460155
 20
0.6015239545727672
 30
0.0
 11
35.35494503277324
 21
0.6001947659331881
 31
0.0
  0
LINE
  5
428
330
1F
100
AcDbEntity
  8
DEFAULT
100
AcDbLine
 10
35.35494503277324
 20
0.6001947659331881
 30
0.0
 11
35.35915716136481
 21
0.5989620727801616
 31
0.0
  0
LINE
  5
429
330
1F
100
AcDbEntity
  8
DEFAULT
100
AcDbLine
 10
35.35915716136481
 20
0.5989620727801616
 30
0.0
 11
35.36337957579898
 21
0.5978239289634615
 31
0.0
  0
LINE
  5
42A
330
1F
100
AcDbEntity
  8
DEFAULT
100
AcDbLine
 10
35.36337957579898
 20
0.5978239289634615
 30
0.0
 11
35.3676113633323
 21
0.5967781838297153
 31
0.0
  0
LINE
  5
42B
330
1F
100
AcDbEntity
  8
DEFAULT
100
AcDbLine
 10
35.3676113633323
 20
0.5967781838297153
 30
0.0
 11
35.37185164448482
 21
0.5958224780247778
 31
0.0
  0
LINE
  5
42C
330
1F
100
AcDbEntity
  8
DEFAULT
100
AcDbLine
 10
35.37185164448482
 20
0.5958224780247778
 30
0.0
 11
35.37609957446983
 21
0.5949542392961081
 31
0.0
  0
LINE
  5
42D
330
1F
100
AcDbEntity
  8
DEFAULT
100
AcDbLine
 10
35.37609957446983
 20
0.5949542392961081
 30
0.0
 11
35.38035434462373
 21
0.5941706782951428
 31
0.0
  0
LINE
  5
42E
330
1F
100
AcDbEntity
  8
DEFAULT
100
AcDbLine
 10
35.38035434462373
 20
0.5941706782951428
 30
0.0
 11
35.38461518383568
 21
0.5934687843796723
 31
0.0
  0
LINE
  5
42F
330
1F
100
AcDbEntity
  8
DEFAULT
100
AcDbLine
 10
35.38461518383568
 20
0.5934687843796723
 30
0.0
 11
35.38888135997745
 21
0.5928453214162153
 31
0.0
  0
LINE
  5
430
330
1F
100
AcDbEntity
  8
DEFAULT
100
AcDbLine
 10
35.38888135997745
 20
0.5928453214162153
 30
0.0
 11
35.39742699802894
 21
0.5918195911693087
 31
0.0
  0
LINE
  5
431
330
1F
100
AcDbEntity
  8
DEFAULT
100
AcDbLine
 10
35.39742699802894
 20
0.5918195911693087
 30
0.0
 11
35.40598623573482
 21
0.5910629291513918
 31
0.0
  0
LINE
  5
432
330
1F
100
AcDbEntity
  8
DEFAULT
100
AcDbLine
 10
35.40598623573482
 20
0.5910629291513918
 30
0.0
 11
35.4145547652778
 21
0.5905409004510906
 31
0.0
  0
LINE
  5
433
330
1F
100
AcDbEntity
  8
DEFAULT
100
AcDbLine
 10
35.4145547652778
 20
0.5905409004510906
 30
0.0
 11
35.42312903981921
 21
0.5902150593246889
 31
0.0
  0
LINE
  5
434
330
1F
100
AcDbEntity
  8
DEFAULT
100
AcDbLine
 10
35.42312903981921
 20
0.5902150593246889
 30
0.0
 11
41.29761447850988
 21
0.5895717536582716
 31
0.0
  0
LINE
  5
435
330
1F
100
AcDbEntity
  8
DEFAULT
100
AcDbLine
 10
41.29761447850988
 20
0.5895717536582716
 30
0.0
 11
41.30298142896761
 21
0.5898413570245785
 31
0.0
  0
LINE
  5
436
330
1F
100
AcDbEntity
  8
DEFAULT
100
AcDbLine
 10
41.30298142896761
 20
0.5898413570245785
 30
0.0
 11
41.30837845400833
 21
0.589980135244101
 31
0.0
  0
LINE
  5
437
330
1F
100
AcDbEntity
  8
DEFAULT
100
AcDbLine
 10
41.30837845400833
 20
0.589980135244101
 30
0.0
 11
41.31380089040514
 21
0.5899861747432166
 31
0.0
  0
LINE
  5
438
330
1F
100
AcDbEntity
  8
DEFAULT
100
AcDbLine
 10
41.31380089040514
 20
0.5899861747432166
 30
0.0
 11
41.31924394482584
 21
0.58985777876667
 31
0.0
  0
LINE
  5
439
330
1F
100
AcDbEntity
  8
DEFAULT
100
AcDbLine
 10
41.31924394482584
 20
0.58985777876667
 30
0.0
 11
41.32470270619301
 21
0.5895934773546818
 31
0.0
  0
LINE
  5
43A
330
1F
100
AcDbEntity
  8
DEFAULT
100
AcDbLine
 10
41.32470270619301
 20
0.5895934773546818
 30
0.0
 11
41.33017215890906
 21
0.5891920364889831
 31
0.0
  0
LINE
  5
43B
330
1F
100
AcDbEntity
  8
DEFAULT
100
AcDbLine
 10
41.33017215890906
 20
0.5891920364889831
 30
0.0
 11
41.33564719688186
 21
0.588652466323657
 31
0.0
  0
LINE
  5
43C
330
1F
100
AcDbEntity
  8
DEFAULT
100
AcDbLine
 10
41.33564719688186
 20
0.588652466323657
 30
0.0
 11
41.34112263827764
 21
0.5879740284222472
 31
0.0
  0
LINE
  5
43D
330
1F
100
AcDbEntity
  8
DEFAULT
100
AcDbLine
 10
41.34112263827764
 20
0.5879740284222472
 30
0.0
 11
41.34659324091947
 21
0.5871562419292826
 31
0.0
  0
LINE
  5
43E
330
1F
100
AcDbEntity
  8
DEFAULT
100
AcDbLine
 10
41.34659324091947
 20
0.5871562419292826
 30
0.0
 11
41.35205371824134
 21
0.5861988886120656
 31
0.0
  0
LINE
  5
43F
330
1F
100
AcDbEntity
  8
DEFAULT
100
AcDbLine
 10
41.35205371824134
 20
0.5861988886120656
 30
0.0
 11
41.35749875570126
 21
0.5851020167172412
 31
0.0
  0
LINE
  5
440
330
1F
100
AcDbEntity
  8
DEFAULT
100
AcDbLine
 10
41.35749875570126
 20
0.5851020167172412
 30
0.0
 11
41.36292302755035
 21
0.5838659435961668
 31
0.0
  0
LINE
  5
441
330
1F
100
AcDbEntity
  8
DEFAULT
100
AcDbLine
 10
41.36292302755035
 20
0.5838659435961668
 30
0.0
 11
41.36832121384997
 21
0.5824912570633678
 31
0.0
  0
LINE
  5
442
330
1F
100
AcDbEntity
  8
DEFAULT
100
AcDbLine
 10
41.36832121384997
 20
0.5824912570633678
 30
0.0
 11
41.37368801762496
 21
0.5809788154632024
 31
0.0
  0
LINE
  5
443
330
1F
100
AcDbEntity
  8
DEFAULT
100
AcDbLine
 10
41.37368801762496
 20
0.5809788154632024
 30
0.0
 11
41.37901818203861
 21
0.5793297464312058
 31
0.0
  0
LINE
  5
444
330
1F
100
AcDbEntity
  8
DEFAULT
100
AcDbLine
 10
41.37901818203861
 20
0.5793297464312058
 30
0.0
 11
41.38430650747334
 21
0.5775454443481797
 31
0.0
  0
LINE
  5
445
330
1F
100
AcDbEntity
  8
DEFAULT
100
AcDbLine
 10
41.38430650747334
 20
0.5775454443481797
 30
0.0
 11
41.38954786840107
 21
0.5756275664968783
 31
0.0
  0
LINE
  5
446
330
1F
100
AcDbEntity
  8
DEFAULT
100
AcDbLine
 10
41.38954786840107
 20
0.5756275664968783
 30
0.0
 11
41.3947372299287
 21
0.5735780279428639
 31
0.0
  0
LINE
  5
447
330
1F
100
AcDbEntity
  8
DEFAULT
100
AcDbLine
 10
41.3947372299287
 20
0.5735780279428639
 30
0.0
 11
41.39986966390677
 21
0.5713989951726511
 31
0.0
  0
LINE
  5
448
330
1F
100
AcDbEntity
  8
DEFAULT
100
AcDbLine
 10
41.39986966390677
 20
0.5713989951726511
 30
0.0
 11
41.40494036449298
 21
0.5690928785334187
 31
0.0
  0
LINE
  5
449
330
1F
100
AcDbEntity
  8
DEFAULT
100
AcDbLine
 10
41.40494036449298
 20
0.5690928785334187
 30
0.0
 11
41.40994466306773
 21
0.5666623235292247
 31
0.0
  0
LINE
  5
44A
330
1F
100
AcDbEntity
  8
DEFAULT
100
AcDbLine
 10
41.40994466306773
 20
0.5666623235292247
 30
0.0
 11
41.41487804240511
 21
0.5641102010386071
 31
0.0
  0
LINE
  5
44B
330
1F
100
AcDbEntity
  8
DEFAULT
100
AcDbLine
 10
41.41487804240511
 20
0.5641102010386071
 30
0.0
 11
41.41973615001017
 21
0.5614395965276214
 31
0.0
  0
LINE
  5
44C
330
1F
100
AcDbEntity
  8
DEFAULT
100
AcDbLine
 10
41.41973615001017
 20
0.5614395965276214
 30
0.0
 11
41.42451481054151
 21
0.5586537983405492
 31
0.0
  0
LINE
  5
44D
330
1F
100
AcDbEntity
  8
DEFAULT
100
AcDbLine
 10
41.42451481054151
 20
0.5586537983405492
 30
0.0
 11
41.42921003724743
 21
0.5557562851576897
 31
0.0
  0
LINE
  5
44E
330
1F
100
AcDbEntity
  8
DEFAULT
100
AcDbLine
 10
41.42921003724743
 20
0.5557562851576897
 30
0.0
 11
41.43381804235406
 21
0.5527507127156637
 31
0.0
  0
LINE
  5
44F
330
1F
100
AcDbEntity
  8
DEFAULT
100
AcDbLine
 10
41.43381804235406
 20
0.5527507127156637
 30
0.0
 11
41.43833524635369
 21
0.5496408998904972
 31
0.0
  0
LINE
  5
450
330
1F
100
AcDbEntity
  8
DEFAULT
100
AcDbLine
 10
41.43833524635369
 20
0.5496408998904972
 30
0.0
 11
41.4427582861527
 21
0.5464308142473397
 31
0.0
  0
LINE
  5
451
330
1F
100
AcDbEntity
  8
DEFAULT
100
AcDbLine
 10
41.4427582861527
 20
0.5464308142473397
 30
0.0
 11
41.44708402204915
 21
0.5431245571630172
 31
0.0
  0
LINE
  5
452
330
1F
100
AcDbEntity
  8
DEFAULT
100
AcDbLine
 10
41.44708402204915
 20
0.5431245571630172
 30
0.0
 11
41.45130954352116
 21
0.5397263486286895
 31
0.0
  0
LINE
  5
453
330
1F
100
AcDbEntity
  8
DEFAULT
100
AcDbLine
 10
41.45130954352116
 20
0.5397263486286895
 30
0.0
 11
41.45543217381809
 21
0.5362405118397465
 31
0.0
  0
LINE
  5
454
330
1F
100
AcDbEntity
  8
DEFAULT
100
AcDbLine
 10
41.45543217381809
 20
0.5362405118397465
 30
0.0
 11
41.45944947335713
 21
0.5326714576787215
 31
0.0
  0
LINE
  5
455
330
1F
100
AcDbEntity
  8
DEFAULT
100
AcDbLine
 10
41.45944947335713
 20
0.5326714576787215
 30
0.0
 11
41.46337840327319
 21
0.5290053489916431
 31
0.0
  0
LINE
  5
456
330
1F
100
AcDbEntity
  8
DEFAULT
100
AcDbLine
 10
41.46337840327319
 20
0.5290053489916431
 30
0.0
 11
41.46723432551569
 21
0.5252265922722846
 31
0.0
  0
LINE
  5
457
330
1F
100
AcDbEntity
  8
DEFAULT
100
AcDbLine
 10
41.46723432551569
 20
0.5252265922722846
 30
0.0
 11
41.47101262048266
 21
0.5213372041333008
 31
0.0
  0
LINE
  5
458
330
1F
100
AcDbEntity
  8
DEFAULT
100
AcDbLine
 10
41.47101262048266
 20
0.5213372041333008
 30
0.0
 11
41.47470873370705
 21
0.5173394455130393
 31
0.0
  0
LINE
  5
459
330
1F
100
AcDbEntity
  8
DEFAULT
100
AcDbLine
 10
41.47470873370705
 20
0.5173394455130393
 30
0.0
 11
41.47831819162341
 21
0.513235819744258
 31
0.0
  0
LINE
  5
45A
330
1F
100
AcDbEntity
  8
DEFAULT
100
AcDbLine
 10
41.47831819162341
 20
0.513235819744258
 30
0.0
 11
41.48183661733957
 21
0.5090290694234367
 31
0.0
  0
LINE
  5
45B
330
1F
100
AcDbEntity
  8
DEFAULT
100
AcDbLine
 10
41.48183661733957
 20
0.5090290694234367
 30
0.0
 11
41.4852597463086
 21
0.5047221720682298
 31
0.0
  0
LINE
  5
45C
330
1F
100
AcDbEntity
  8
DEFAULT
100
AcDbLine
 10
41.4852597463086
 20
0.5047221720682298
 30
0.0
 11
41.4885834417933
 21
0.5003183345610323
 31
0.0
  0
LINE
  5
45D
330
1F
100
AcDbEntity
  8
DEFAULT
100
AcDbLine
 10
41.4885834417933
 20
0.5003183345610323
 30
0.0
 11
41.49180371001479
 21
0.4958209863874306
 31
0.0
  0
LINE
  5
45E
330
1F
100
AcDbEntity
  8
DEFAULT
100
AcDbLine
 10
41.49180371001479
 20
0.4958209863874306
 30
0.0
 11
41.49491671487666
 21
0.4912337716893295
 31
0.0
  0
LINE
  5
45F
330
1F
100
AcDbEntity
  8
DEFAULT
100
AcDbLine
 10
41.49491671487666
 20
0.4912337716893295
 30
0.0
 11
41.49791879215764
 21
0.4865605401636436
 31
0.0
  0
LINE
  5
460
330
1F
100
AcDbEntity
  8
DEFAULT
100
AcDbLine
 10
41.49791879215764
 20
0.4865605401636436
 30
0.0
 11
41.50080646306767
 21
0.4818053368484559
 31
0.0
  0
LINE
  5
461
330
1F
100
AcDbEntity
  8
DEFAULT
100
AcDbLine
 10
41.50080646306767
 20
0.4818053368484559
 30
0.0
 11
41.50357644706729
 21
0.4769723908493045
 31
0.0
  0
LINE
  5
462
330
1F
100
AcDbEntity
  8
DEFAULT
100
AcDbLine
 10
41.50357644706729
 20
0.4769723908493045
 30
0.0
 11
41.50622567385377
 21
0.4720661030686257
 31
0.0
  0
LINE
  5
463
330
1F
100
AcDbEntity
  8
DEFAULT
100
AcDbLine
 10
41.50622567385377
 20
0.4720661030686257
 30
0.0
 11
41.50875129442551
 21
0.4670910330111676
 31
0.0
  0
LINE
  5
464
330
1F
100
AcDbEntity
  8
DEFAULT
100
AcDbLine
 10
41.50875129442551
 20
0.4670910330111676
 30
0.0
 11
41.51115069114167
 21
0.4620518847472698
 31
0.0
  0
LINE
  5
465
330
1F
100
AcDbEntity
  8
DEFAULT
100
AcDbLine
 10
41.51115069114167
 20
0.4620518847472698
 30
0.0
 11
41.51342148670434
 21
0.4569534921241228
 31
0.0
  0
LINE
  5
466
330
1F
100
AcDbEntity
  8
DEFAULT
100
AcDbLine
 10
41.51342148670434
 20
0.4569534921241228
 30
0.0
 11
41.51556155199797
 21
0.4518008033223586
 31
0.0
  0
LINE
  5
467
330
1F
100
AcDbEntity
  8
DEFAULT
100
AcDbLine
 10
41.51556155199797
 20
0.4518008033223586
 30
0.0
 11
41.51756901273286
 21
0.446598864861466
 31
0.0
  0
LINE
  5
468
330
1F
100
AcDbEntity
  8
DEFAULT
100
AcDbLine
 10
41.51756901273286
 20
0.446598864861466
 30
0.0
 11
41.51944225484836
 21
0.4413528051624757
 31
0.0
  0
LINE
  5
469
330
1F
100
AcDbEntity
  8
DEFAULT
100
AcDbLine
 10
41.51944225484836
 20
0.4413528051624757
 30
0.0
 11
41.52117992864436
 21
0.436067817780058
 31
0.0
  0
LINE
  5
46A
330
1F
100
AcDbEntity
  8
DEFAULT
100
AcDbLine
 10
41.52117992864436
 20
0.436067817780058
 30
0.0
 11
41.52278095161962
 21
0.4307491444185663
 31
0.0
  0
LINE
  5
46B
330
1F
100
AcDbEntity
  8
DEFAULT
100
AcDbLine
 10
41.52278095161962
 20
0.4307491444185663
 30
0.0
 11
41.52424451000908
 21
0.4254020578476072
 31
0.0
  0
LINE
  5
46C
330
1F
100
AcDbEntity
  8
DEFAULT
100
AcDbLine
 10
41.52424451000908
 20
0.4254020578476072
 30
0.0
 11
41.52557005902158
 21
0.4200318448324419
 31
0.0
  0
LINE
  5
46D
330
1F
100
AcDbEntity
  8
DEFAULT
100
AcDbLine
 10
41.52557005902158
 20
0.4200318448324419
 30
0.0
 11
41.5267573217938
 21
0.4146437891929232
 31
0.0
  0
LINE
  5
46E
330
1F
100
AcDbEntity
  8
DEFAULT
100
AcDbLine
 10
41.5267573217938
 20
0.4146437891929232
 30
0.0
 11
41.52780628708434
 21
0.4092431551018055
 31
0.0
  0
LINE
  5
46F
330
1F
100
AcDbEntity
  8
DEFAULT
100
AcDbLine
 10
41.52780628708434
 20
0.4092431551018055
 30
0.0
 11
41.52871720574554
 21
0.4038351707291872
 31
0.0
  0
LINE
  5
470
330
1F
100
AcDbEntity
  8
DEFAULT
100
AcDbLine
 10
41.52871720574554
 20
0.4038351707291872
 30
0.0
 11
41.52949058601816
 21
0.3984250123346501
 31
0.0
  0
LINE
  5
471
330
1F
100
AcDbEntity
  8
DEFAULT
100
AcDbLine
 10
41.52949058601816
 20
0.3984250123346501
 30
0.0
 11
41.53012718770496
 21
0.3930177889024386
 31
0.0
  0
LINE
  5
472
330
1F
100
AcDbEntity
  8
DEFAULT
100
AcDbLine
 10
41.53012718770496
 20
0.3930177889024386
 30
0.0
 11
41.53062801528679
 21
0.3876185274078991
 31
0.0
  0
LINE
  5
473
330
1F
100
AcDbEntity
  8
DEFAULT
100
AcDbLine
 10
41.53062801528679
 20
0.3876185274078991
 30
0.0
 11
41.53099431005293
 21
0.3822321587954983
 31
0.0
  0
LINE
  5
474
330
1F
100
AcDbEntity
  8
DEFAULT
100
AcDbLine
 10
41.53099431005293
 20
0.3822321587954983
 30
0.0
 11
41.53122754132277
 21
0.3768635047401968
 31
0.0
  0
LINE
  5
475
330
1F
100
AcDbEntity
  8
DEFAULT
100
AcDbLine
 10
41.53122754132277
 20
0.3768635047401968
 30
0.0
 11
41.53132957806979
 21
0.3714907557517368
 31
0.0
  0
LINE
  5
476
330
1F
100
AcDbEntity
  8
DEFAULT
100
AcDbLine
 10
41.53132957806979
 20
0.3714907557517368
 30
0.0
 11
41.531299915099
 21
0.3660920282356912
 31
0.0
  0
LINE
  5
477
330
1F
100
AcDbEntity
  8
DEFAULT
100
AcDbLine
 10
41.531299915099
 20
0.3660920282356912
 30
0.0
 11
41.53113678524915
 21
0.3606720428477735
 31
0.0
  0
LINE
  5
478
330
1F
100
AcDbEntity
  8
DEFAULT
100
AcDbLine
 10
41.53113678524915
 20
0.3606720428477735
 30
0.0
 11
41.5308386421309
 21
0.3552356435215189
 31
0.0
  0
LINE
  5
479
330
1F
100
AcDbEntity
  8
DEFAULT
100
AcDbLine
 10
41.5308386421309
 20
0.3552356435215189
 30
0.0
 11
41.53040416971322
 21
0.3497877848028703
 31
0.0
  0
LINE
  5
47A
330
1F
100
AcDbEntity
  8
DEFAULT
100
AcDbLine
 10
41.53040416971322
 20
0.3497877848028703
 30
0.0
 11
41.52983229105262
 21
0.3443335183462913
 31
0.0
  0
LINE
  5
47B
330
1F
100
AcDbEntity
  8
DEFAULT
100
AcDbLine
 10
41.52983229105262
 20
0.3443335183462913
 30
0.0
 11
41.52912217608221
 21
0.3388779786391923
 31
0.0
  0
LINE
  5
47C
330
1F
100
AcDbEntity
  8
DEFAULT
100
AcDbLine
 10
41.52912217608221
 20
0.3388779786391923
 30
0.0
 11
41.52827324838525
 21
0.3334263680303822
 31
0.0
  0
LINE
  5
47D
330
1F
100
AcDbEntity
  8
DEFAULT
100
AcDbLine
 10
41.52827324838525
 20
0.3334263680303822
 30
0.0
 11
41.52728519088303
 21
0.3279839411466114
 31
0.0
  0
LINE
  5
47E
330
1F
100
AcDbEntity
  8
DEFAULT
100
AcDbLine
 10
41.52728519088303
 20
0.3279839411466114
 30
0.0
 11
41.52615795037673
 21
0.322555988788904
 31
0.0
  0
LINE
  5
47F
330
1F
100
AcDbEntity
  8
DEFAULT
100
AcDbLine
 10
41.52615795037673
 20
0.322555988788904
 30
0.0
 11
41.52489174088984
 21
0.3171478214071609
 31
0.0
  0
LINE
  5
480
330
1F
100
AcDbEntity
  8
DEFAULT
100
AcDbLine
 10
41.52489174088984
 20
0.3171478214071609
 30
0.0
 11
41.52348704576929
 21
0.3117647522573366
 31
0.0
  0
LINE
  5
481
330
1F
100
AcDbEntity
  8
DEFAULT
100
AcDbLine
 10
41.52348704576929
 20
0.3117647522573366
 30
0.0
 11
41.52194461851217
 21
0.3064120803502183
 31
0.0
  0
LINE
  5
482
330
1F
100
AcDbEntity
  8
DEFAULT
100
AcDbLine
 10
41.52194461851217
 20
0.3064120803502183
 30
0.0
 11
41.5202654822974
 21
0.3010950733044005
 31
0.0
  0
LINE
  5
483
330
1F
100
AcDbEntity
  8
DEFAULT
100
AcDbLine
 10
41.5202654822974
 20
0.3010950733044005
 30
0.0
 11
41.51845092821171
 21
0.2958189502183602
 31
0.0
  0
LINE
  5
484
330
1F
100
AcDbEntity
  8
DEFAULT
100
AcDbLine
 10
41.51845092821171
 20
0.2958189502183602
 30
0.0
 11
41.51650251217224
 21
0.2905888646775474
 31
0.0
  0
LINE
  5
485
330
1F
100
AcDbEntity
  8
DEFAULT
100
AcDbLine
 10
41.51650251217224
 20
0.2905888646775474
 30
0.0
 11
41.51442205055859
 21
0.2854098880120874
 31
0.0
  0
LINE
  5
486
330
1F
100
AcDbEntity
  8
DEFAULT
100
AcDbLine
 10
41.51442205055859
 20
0.2854098880120874
 30
0.0
 11
41.51221161458026
 21
0.2802869929190254
 31
0.0
  0
LINE
  5
487
330
1F
100
AcDbEntity
  8
DEFAULT
100
AcDbLine
 10
41.51221161458026
 20
0.2802869929190254
 30
0.0
 11
41.50987352341502
 21
0.2752250375600597
 31
0.0
  0
LINE
  5
488
330
1F
100
AcDbEntity
  8
DEFAULT
100
AcDbLine
 10
41.50987352341502
 20
0.2752250375600597
 30
0.0
 11
41.50741033616708
 21
0.2702287502414343
 31
0.0
  0
LINE
  5
489
330
1F
100
AcDbEntity
  8
DEFAULT
100
AcDbLine
 10
41.50741033616708
 20
0.2702287502414343
 30
0.0
 11
41.50482484270194
 21
0.2653027147771631
 31
0.0
  0
LINE
  5
48A
330
1F
100
AcDbEntity
  8
DEFAULT
100
AcDbLine
 10
41.50482484270194
 20
0.2653027147771631
 30
0.0
 11
41.50212005342684
 21
0.2604513566301161
 31
0.0
  0
LINE
  5
48B
330
1F
100
AcDbEntity
  8
DEFAULT
100
AcDbLine
 10
41.50212005342684
 20
0.2604513566301161
 30
0.0
 11
41.49929918809287
 21
0.2556789299178215
 31
0.0
  0
LINE
  5
48C
330
1F
100
AcDbEntity
  8
DEFAULT
100
AcDbLine
 10
41.49929918809287
 20
0.2556789299178215
 30
0.0
 11
41.49636566370386
 21
0.2509895053612358
 31
0.0
  0
LINE
  5
48D
330
1F
100
AcDbEntity
  8
DEFAULT
100
AcDbLine
 10
41.49636566370386
 20
0.2509895053612358
 30
0.0
 11
41.49332308162346
 21
0.2463869592453517
 31
0.0
  0
LINE
  5
48E
330
1F
100
AcDbEntity
  8
DEFAULT
100
AcDbLine
 10
41.49332308162346
 20
0.2463869592453517
 30
0.0
 11
41.49017521397788
 21
0.2418749634504954
 31
0.0
  0
LINE
  5
48F
330
1F
100
AcDbEntity
  8
DEFAULT
100
AcDbLine
 10
41.49017521397788
 20
0.2418749634504954
 30
0.0
 11
41.48692598945591
 21
0.2374569766026542
 31
0.0
  0
LINE
  5
490
330
1F
100
AcDbEntity
  8
DEFAULT
100
AcDbLine
 10
41.48692598945591
 20
0.2374569766026542
 30
0.0
 11
41.48357947861155
 21
0.2331362363803519
 31
0.0
  0
LINE
  5
491
330
1F
100
AcDbEntity
  8
DEFAULT
100
AcDbLine
 10
41.48357947861155
 20
0.2331362363803519
 30
0.0
 11
41.48013987877604
 21
0.2289157530045919
 31
0.0
  0
LINE
  5
492
330
1F
100
AcDbEntity
  8
DEFAULT
100
AcDbLine
 10
41.48013987877604
 20
0.2289157530045919
 30
0.0
 11
41.47661149868741
 21
0.2247983039273943
 31
0.0
  0
LINE
  5
493
330
1F
100
AcDbEntity
  8
DEFAULT
100
AcDbLine
 10
41.47661149868741
 20
0.2247983039273943
 30
0.0
 11
41.47299874294458
 21
0.2207864297236005
 31
0.0
  0
LINE
  5
494
330
1F
100
AcDbEntity
  8
DEFAULT
100
AcDbLine
 10
41.47299874294458
 20
0.2207864297236005
 30
0.0
 11
41.46930609639194
 21
0.2168824311800697
 31
0.0
  0
LINE
  5
495
330
1F
100
AcDbEntity
  8
DEFAULT
100
AcDbLine
 10
41.46930609639194
 20
0.2168824311800697
 30
0.0
 11
41.465519199466
 21
0.2130697871023913
 31
0.0
  0
LINE
  5
496
330
1F
100
AcDbEntity
  8
DEFAULT
100
AcDbLine
 10
41.465519199466
 20
0.2130697871023913
 30
0.0
 11
41.46162198699656
 21
0.2093336294969751
 31
0.0
  0
LINE
  5
497
330
1F
100
AcDbEntity
  8
DEFAULT
100
AcDbLine
 10
41.46162198699656
 20
0.2093336294969751
 30
0.0
 11
41.45761661873469
 21
0.2056785128039082
 31
0.0
  0
LINE
  5
498
330
1F
100
AcDbEntity
  8
DEFAULT
100
AcDbLine
 10
41.45761661873469
 20
0.2056785128039082
 30
0.0
 11
41.45350549660613
 21
0.2021089187377
 31
0.0
  0
LINE
  5
499
330
1F
100
AcDbEntity
  8
DEFAULT
100
AcDbLine
 10
41.45350549660613
 20
0.2021089187377
 30
0.0
 11
41.44929126228913
 21
0.1986292405885783
 31
0.0
  0
LINE
  5
49A
330
1F
100
AcDbEntity
  8
DEFAULT
100
AcDbLine
 10
41.44929126228913
 20
0.1986292405885783
 30
0.0
 11
41.44497679359323
 21
0.195243767556052
 31
0.0
  0
LINE
  5
49B
330
1F
100
AcDbEntity
  8
DEFAULT
100
AcDbLine
 10
41.44497679359323
 20
0.195243767556052
 30
0.0
 11
41.44056519962993
 21
0.1919566692201624
 31
0.0
  0
LINE
  5
49C
330
1F
100
AcDbEntity
  8
DEFAULT
100
AcDbLine
 10
41.44056519962993
 20
0.1919566692201624
 30
0.0
 11
41.43605981477644
 21
0.1887719802578395
 31
0.0
  0
LINE
  5
49D
330
1F
100
AcDbEntity
  8
DEFAULT
100
AcDbLine
 10
41.43605981477644
 20
0.1887719802578395
 30
0.0
 11
41.4314641914449
 21
0.1856935855126092
 31
0.0
  0
LINE
  5
49E
330
1F
100
AcDbEntity
  8
DEFAULT
100
AcDbLine
 10
41.4314641914449
 20
0.1856935855126092
 30
0.0
 11
41.42678209167997
 21
0.1827252055255008
 31
0.0
  0
LINE
  5
49F
330
1F
100
AcDbEntity
  8
DEFAULT
100
AcDbLine
 10
41.42678209167997
 20
0.1827252055255008
 30
0.0
 11
41.42201747761919
 21
0.1798703826333543
 31
0.0
  0
LINE
  5
4A0
330
1F
100
AcDbEntity
  8
DEFAULT
100
AcDbLine
 10
41.42201747761919
 20
0.1798703826333543
 30
0.0
 11
41.41717450086121
 21
0.1771324677378091
 31
0.0
  0
LINE
  5
4A1
330
1F
100
AcDbEntity
  8
DEFAULT
100
AcDbLine
 10
41.41717450086121
 20
0.1771324677378091
 30
0.0
 11
41.41225749079762
 21
0.1745146078440776
 31
0.0
  0
LINE
  5
4A2
330
1F
100
AcDbEntity
  8
DEFAULT
100
AcDbLine
 10
41.41225749079762
 20
0.1745146078440776
 30
0.0
 11
41.40727094197439
 21
0.1720197344632075
 31
0.0
  0
LINE
  5
4A3
330
1F
100
AcDbEntity
  8
DEFAULT
100
AcDbLine
 10
41.40727094197439
 20
0.1720197344632075
 30
0.0
 11
41.4022195005586
 21
0.1696505529649582
 31
0.0
  0
LINE
  5
4A4
330
1F
100
AcDbEntity
  8
DEFAULT
100
AcDbLine
 10
41.4022195005586
 20
0.1696505529649582
 30
0.0
 11
41.39710794999466
 21
0.1674095329607529
 31
0.0
  0
LINE
  5
4A5
330
1F
100
AcDbEntity
  8
DEFAULT
100
AcDbLine
 10
41.39710794999466
 20
0.1674095329607529
 30
0.0
 11
41.39194119594253
 21
0.1652988997874943
 31
0.0
  0
LINE
  5
4A6
330
1F
100
AcDbEntity
  8
DEFAULT
100
AcDbLine
 10
41.39194119594253
 20
0.1652988997874943
 30
0.0
 11
41.38672425059735
 21
0.1633206271534852
 31
0.0
  0
LINE
  5
4A7
330
1F
100
AcDbEntity
  8
DEFAULT
100
AcDbLine
 10
41.38672425059735
 20
0.1633206271534852
 30
0.0
 11
41.38146221649532
 21
0.1614764309973959
 31
0.0
  0
LINE
  5
4A8
330
1F
100
AcDbEntity
  8
DEFAULT
100
AcDbLine
 10
41.38146221649532
 20
0.1614764309973959
 30
0.0
 11
41.37616026991579
 21
0.1597677646003139
 31
0.0
  0
LINE
  5
4A9
330
1F
100
AcDbEntity
  8
DEFAULT
100
AcDbLine
 10
41.37616026991579
 20
0.1597677646003139
 30
0.0
 11
41.37082364399267
 21
0.1581958149795628
 31
0.0
  0
LINE
  5
4AA
330
1F
100
AcDbEntity
  8
DEFAULT
100
AcDbLine
 10
41.37082364399267
 20
0.1581958149795628
 30
0.0
 11
41.36545761165018
 21
0.1567615005813465
 31
0.0
  0
LINE
  5
4AB
330
1F
100
AcDbEntity
  8
DEFAULT
100
AcDbLine
 10
41.36545761165018
 20
0.1567615005813465
 30
0.0
 11
41.36006746847878
 21
0.1554654702775297
 31
0.0
  0
LINE
  5
4AC
330
1F
100
AcDbEntity
  8
DEFAULT
100
AcDbLine
 10
41.36006746847878
 20
0.1554654702775297
 30
0.0
 11
41.35465851566646
 21
0.1543081036601803
 31
0.0
  0
LINE
  5
4AD
330
1F
100
AcDbEntity
  8
DEFAULT
100
AcDbLine
 10
41.35465851566646
 20
0.1543081036601803
 30
0.0
 11
41.34923604309857
 21
0.1532895126160326
 31
0.0
  0
LINE
  5
4AE
330
1F
100
AcDbEntity
  8
DEFAULT
100
AcDbLine
 10
41.34923604309857
 20
0.1532895126160326
 30
0.0
 11
41.34380531273617
 21
0.1524095441519535
 31
0.0
  0
LINE
  5
4AF
330
1F
100
AcDbEntity
  8
DEFAULT
100
AcDbLine
 10
41.34380531273617
 20
0.1524095441519535
 30
0.0
 11
41.33837154237852
 21
0.1516677844319443
 31
0.0
  0
LINE
  5
4B0
330
1F
100
AcDbEntity
  8
DEFAULT
100
AcDbLine
 10
41.33837154237852
 20
0.1516677844319443
 30
0.0
 11
41.33293988990979
 21
0.1510635639763347
 31
0.0
  0
LINE
  5
4B1
330
1F
100
AcDbEntity
  8
DEFAULT
100
AcDbLine
 10
41.33293988990979
 20
0.1510635639763347
 30
0.0
 11
41.32751543812342
 21
0.1505959639647427
 31
0.0
  0
LINE
  5
4B2
330
1F
100
AcDbEntity
  8
DEFAULT
100
AcDbLine
 10
41.32751543812342
 20
0.1505959639647427
 30
0.0
 11
41.32210318021055
 21
0.1502638235761907
 31
0.0
  0
LINE
  5
4B3
330
1F
100
AcDbEntity
  8
DEFAULT
100
AcDbLine
 10
41.32210318021055
 20
0.1502638235761907
 30
0.0
 11
41.31670800599035
 21
0.1500657482925665
 31
0.0
  0
LINE
  5
4B4
330
1F
100
AcDbEntity
  8
DEFAULT
100
AcDbLine
 10
41.31670800599035
 20
0.1500657482925665
 30
0.0
 11
37.62122333884989
 21
0.1500063664913303
 31
0.0
  0
LINE
  5
4B5
330
1F
100
AcDbEntity
  8
DEFAULT
100
AcDbLine
 10
37.33995730000537
 20
12.31500000983878
 30
0.0
 11
45.72390908156133
 21
12.31501028275518
 31
0.0
  0
LINE
  5
4B6
330
1F
100
AcDbEntity
  8
DEFAULT
100
AcDbLine
 10
47.20143951129035
 20
0.1500093461830629
 30
0.0
 11
47.20258254169093
 21
0.1500093481182281
 31
0.0
  0
LINE
  5
4B8
330
1F
100
AcDbEntity
  8
MAKE2D VISIBLE LINES - TANGENT
100
AcDbLine
 10
41.52987095289301
 20
17.75104158725987
 30
0.0
 11
41.529870952893
 21
17.76285753597068
 31
0.0
  0
ARC
  5
4B9
330
1F
100
AcDbEntity
  8
DEFAULT
100
AcDbCircle
 10
37.59312121239808
 20
17.35331676961763
 30
0.0
 40
5.037062829116757
100
AcDbArc
 50
241.4750564420006
 51
269.7699351567295
  0
ARC
  5
4BA
330
1F
100
AcDbEntity
  8
DEFAULT
100
AcDbCircle
 10
9.438939948088013
 20
-38.76781520323324
 30
0.0
 40
57.7531507108892
100
AcDbArc
 50
63.52278273005544
 51
64.98752611978178
  0
LINE
  5
4BB
330
1F
100
AcDbEntity
  8
DEFAULT
100
AcDbLine
 10
33.85787095289232
 20
13.56899999999908
 30
0.0
 11
34.21666006324067
 21
15.02268545648076
 31
0.0
  0
LINE
  5
4BC
330
1F
100
AcDbEntity
  8
DEFAULT
100
AcDbLine
 10
34.21666006324067
 20
15.02268545648076
 30
0.0
 11
35.24754086657609
 21
17.28845780012131
 31
0.0
  0
ARC
  5
4BD
330
1F
100
AcDbEntity
  8
DEFAULT
100
AcDbCircle
 10
36.33566348924017
 20
16.27593624734045
 30
0.0
 40
1.486341393085425
100
AcDbArc
 50
82.9700119659394
 51
137.0611551291728
  0
LINE
  5
4BE
330
1F
100
AcDbEntity
  8
DEFAULT
100
AcDbLine
 10
36.51757505154638
 20
17.75110366844845
 30
0.0
 11
46.54216685423963
 21
17.75110366844845
 31
0.0
  0
ARC
  5
4BF
330
1F
100
AcDbEntity
  8
DEFAULT
100
AcDbCircle
 10
46.72407841654584
 20
16.27593624734045
 30
0.0
 40
1.48634139308542
100
AcDbArc
 50
42.9388448708273
 51
97.02998803406062
  0
LINE
  5
4C0
330
1F
100
AcDbEntity
  8
DEFAULT
100
AcDbLine
 10
47.81220103920992
 20
17.28845780012131
 30
0.0
 11
48.84308184254535
 21
15.02268545648076
 31
0.0
  0
LINE
  5
4C1
330
1F
100
AcDbEntity
  8
DEFAULT
100
AcDbLine
 10
48.84308184254535
 20
15.02268545648076
 30
0.0
 11
49.20187095289369
 21
13.56899999999908
 31
0.0
  0
ARC
  5
4C2
330
1F
100
AcDbEntity
  8
DEFAULT
100
AcDbCircle
 10
73.62080195769799
 20
-38.76781520323324
 30
0.0
 40
57.7531507108892
100
AcDbArc
 50
115.0124738802177
 51
116.477217269944
  0
ARC
  5
4C3
330
1F
100
AcDbEntity
  8
DEFAULT
100
AcDbCircle
 10
45.46662069338795
 20
17.35331676961756
 30
0.0
 40
5.037062829116679
100
AcDbArc
 50
270.2300648432703
 51
298.5249435579997
  0
LINE
  5
4C4
330
1F
100
AcDbEntity
  8
DEFAULT
100
AcDbLine
 10
45.58485244021664
 20
0.5395765214916335
 30
0.0
 11
46.92834435152204
 21
0.5396840258738527
 31
0.0
  0
ARC
  5
4C5
330
1F
100
AcDbEntity
  8
MAKE2D VISIBLE LINES
100
AcDbCircle
 10
26.22449269986303
 20
37.9779531632248
 30
0.0
 40
1.278231354952732
100
AcDbArc
 50
358.0714135012411
 51
72.55338210395644
  0
LINE
  5
4C6
330
1F
100
AcDbEntity
  8
MAKE2D VISIBLE LINES
100
AcDbLine
 10
26.60772831432903
 20
39.19738166075517
 30
0.0
 11
24.50997267884862
 21
39.73616790015838
 31
0.0
  0
LINE
  5
4C7
330
1F
100
AcDbEntity
  8
MAKE2D VISIBLE LINES
100
AcDbLine
 10
24.50997267884862
 20
39.73616790015838
 30
0.0
 11
23.4534302796613
 21
39.97426695721485
 31
0.0
  0
LINE
  5
4C8
330
1F
100
AcDbEntity
  8
MAKE2D VISIBLE LINES
100
AcDbLine
 10
23.4534302796613
 20
39.97426695721485
 30
0.0
 11
22.92272988460915
 21
40.07934425244013
 31
0.0
  0
LINE
  5
4C9
330
1F
100
AcDbEntity
  8
MAKE2D VISIBLE LINES
100
AcDbLine
 10
22.92272988460915
 20
40.07934425244013
 30
0.0
 11
22.39021457826213
 21
40.17276435683804
 31
0.0
  0
LINE
  5
4CA
330
1F
100
AcDbEntity
  8
MAKE2D VISIBLE LINES
100
AcDbLine
 10
22.39021457826213
 20
40.17276435683804
 30
0.0
 11
21.85580357568467
 21
40.25326112908085
 31
0.0
  0
LINE
  5
4CB
330
1F
100
AcDbEntity
  8
MAKE2D VISIBLE LINES
100
AcDbLine
 10
21.85580357568467
 20
40.25326112908085
 30
0.0
 11
21.31967929516665
 21
40.32153096840614
 31
0.0
  0
LINE
  5
4CC
330
1F
100
AcDbEntity
  8
MAKE2D VISIBLE LINES
100
AcDbLine
 10
21.31967929516665
 20
40.32153096840614
 30
0.0
 11
20.78208995580428
 21
40.37876090919279
 31
0.0
  0
LINE
  5
4CD
330
1F
100
AcDbEntity
  8
MAKE2D VISIBLE LINES
100
AcDbLine
 10
20.78208995580428
 20
40.37876090919279
 30
0.0
 11
20.24328377669379
 21
40.4261379858197
 31
0.0
  0
LINE
  5
4CE
330
1F
100
AcDbEntity
  8
MAKE2D VISIBLE LINES
100
AcDbLine
 10
20.24328377669379
 20
40.4261379858197
 30
0.0
 11
19.16301377561335
 21
40.4960816841099
 31
0.0
  0
LINE
  5
4CF
330
1F
100
AcDbEntity
  8
MAKE2D VISIBLE LINES
100
AcDbLine
 10
19.16301377561335
 20
40.4960816841099
 30
0.0
 11
18.08085504469511
 21
40.54085833830786
 31
0.0
  0
LINE
  5
4D0
330
1F
100
AcDbEntity
  8
MAKE2D VISIBLE LINES
100
AcDbLine
 10
18.08085504469511
 20
40.54085833830786
 30
0.0
 11
13.75100000000444
 21
40.59796675646561
 31
0.0
  0
LINE
  5
4D1
330
1F
100
AcDbEntity
  8
MAKE2D VISIBLE LINES
100
AcDbLine
 10
13.75100000000444
 20
40.59796675646561
 30
0.0
 11
9.421144955313757
 21
40.54085833830786
 31
0.0
  0
LINE
  5
4D2
330
1F
100
AcDbEntity
  8
MAKE2D VISIBLE LINES
100
AcDbLine
 10
9.421144955313757
 20
40.54085833830786
 30
0.0
 11
8.33898622439552
 21
40.4960816841099
 31
0.0
  0
LINE
  5
4D3
330
1F
100
AcDbEntity
  8
MAKE2D VISIBLE LINES
100
AcDbLine
 10
8.33898622439552
 20
40.4960816841099
 30
0.0
 11
7.258716223315077
 21
40.4261379858197
 31
0.0
  0
LINE
  5
4D4
330
1F
100
AcDbEntity
  8
MAKE2D VISIBLE LINES
100
AcDbLine
 10
7.258716223315077
 20
40.4261379858197
 30
0.0
 11
6.719910044204588
 21
40.37876090919279
 31
0.0
  0
LINE
  5
4D5
330
1F
100
AcDbEntity
  8
MAKE2D VISIBLE LINES
100
AcDbLine
 10
6.719910044204588
 20
40.37876090919279
 30
0.0
 11
6.182320704842219
 21
40.32153096840614
 31
0.0
  0
LINE
  5
4D6
330
1F
100
AcDbEntity
  8
MAKE2D VISIBLE LINES
100
AcDbLine
 10
6.182320704842219
 20
40.32153096840614
 30
0.0
 11
5.646196424324194
 21
40.25326112908085
 31
0.0
  0
LINE
  5
4D7
330
1F
100
AcDbEntity
  8
MAKE2D VISIBLE LINES
100
AcDbLine
 10
5.646196424324194
 20
40.25326112908085
 30
0.0
 11
5.111785421746737
 21
40.17276435683804
 31
0.0
  0
LINE
  5
4D8
330
1F
100
AcDbEntity
  8
MAKE2D VISIBLE LINES
100
AcDbLine
 10
5.111785421746737
 20
40.17276435683804
 30
0.0
 11
4.579270115399715
 21
40.07934425244013
 31
0.0
  0
LINE
  5
4D9
330
1F
100
AcDbEntity
  8
MAKE2D VISIBLE LINES
100
AcDbLine
 10
4.579270115399715
 20
40.07934425244013
 30
0.0
 11
4.04856972034757
 21
39.97426695721485
 31
0.0
  0
LINE
  5
4DA
330
1F
100
AcDbEntity
  8
MAKE2D VISIBLE LINES
100
AcDbLine
 10
4.04856972034757
 20
39.97426695721485
 30
0.0
 11
2.992027321160248
 21
39.73616790015838
 31
0.0
  0
LINE
  5
4DB
330
1F
100
AcDbEntity
  8
MAKE2D VISIBLE LINES
100
AcDbLine
 10
2.992027321160248
 20
39.73616790015838
 30
0.0
 11
0.8942716856798398
 21
39.19738166075517
 31
0.0
  0
ARC
  5
4DC
330
1F
100
AcDbEntity
  8
MAKE2D VISIBLE LINES
100
AcDbCircle
 10
1.277507300145855
 20
37.9779531632248
 30
0.0
 40
1.278231354952744
100
AcDbArc
 50
107.446617896044
 51
181.9285864987585
  0
ARC
  5
4DD
330
1F
100
AcDbEntity
  8
MAKE2D VISIBLE LINES
100
AcDbCircle
 10
26.22449269986302
 20
27.9323752256804
 30
0.0
 40
1.278231354952739
100
AcDbArc
 50
287.4466178960438
 51
1.928586498759174
  0
LINE
  5
4DE
330
1F
100
AcDbEntity
  8
MAKE2D VISIBLE LINES
100
AcDbLine
 10
26.60772831432903
 20
26.71294672815003
 30
0.0
 11
24.50997267884862
 21
26.17416048874683
 31
0.0
  0
LINE
  5
4DF
330
1F
100
AcDbEntity
  8
MAKE2D VISIBLE LINES
100
AcDbLine
 10
24.50997267884862
 20
26.17416048874683
 30
0.0
 11
23.4534302796613
 21
25.93606143169036
 31
0.0
  0
LINE
  5
4E0
330
1F
100
AcDbEntity
  8
MAKE2D VISIBLE LINES
100
AcDbLine
 10
23.4534302796613
 20
25.93606143169036
 30
0.0
 11
22.92272988460915
 21
25.83098413646508
 31
0.0
  0
LINE
  5
4E1
330
1F
100
AcDbEntity
  8
MAKE2D VISIBLE LINES
100
AcDbLine
 10
22.92272988460915
 20
25.83098413646508
 30
0.0
 11
22.39021457826213
 21
25.73756403206717
 31
0.0
  0
LINE
  5
4E2
330
1F
100
AcDbEntity
  8
MAKE2D VISIBLE LINES
100
AcDbLine
 10
22.39021457826213
 20
25.73756403206717
 30
0.0
 11
21.85580357568467
 21
25.65706725982436
 31
0.0
  0
LINE
  5
4E3
330
1F
100
AcDbEntity
  8
MAKE2D VISIBLE LINES
100
AcDbLine
 10
21.85580357568467
 20
25.65706725982436
 30
0.0
 11
21.31967929516665
 21
25.58879742049907
 31
0.0
  0
LINE
  5
4E4
330
1F
100
AcDbEntity
  8
MAKE2D VISIBLE LINES
100
AcDbLine
 10
21.31967929516665
 20
25.58879742049907
 30
0.0
 11
20.78208995580428
 21
25.53156747971242
 31
0.0
  0
LINE
  5
4E5
330
1F
100
AcDbEntity
  8
MAKE2D VISIBLE LINES
100
AcDbLine
 10
20.78208995580428
 20
25.53156747971242
 30
0.0
 11
20.24328377669379
 21
25.48419040308551
 31
0.0
  0
LINE
  5
4E6
330
1F
100
AcDbEntity
  8
MAKE2D VISIBLE LINES
100
AcDbLine
 10
20.24328377669379
 20
25.48419040308551
 30
0.0
 11
19.16301377561335
 21
25.41424670479532
 31
0.0
  0
LINE
  5
4E7
330
1F
100
AcDbEntity
  8
MAKE2D VISIBLE LINES
100
AcDbLine
 10
19.16301377561335
 20
25.41424670479532
 30
0.0
 11
18.08085504469511
 21
25.36947005059734
 31
0.0
  0
LINE
  5
4E8
330
1F
100
AcDbEntity
  8
MAKE2D VISIBLE LINES
100
AcDbLine
 10
18.08085504469511
 20
25.36947005059734
 30
0.0
 11
13.75100000000444
 21
25.3123616324396
 31
0.0
  0
LINE
  5
4E9
330
1F
100
AcDbEntity
  8
MAKE2D VISIBLE LINES
100
AcDbLine
 10
13.75100000000444
 20
25.3123616324396
 30
0.0
 11
9.421144955313757
 21
25.36947005059734
 31
0.0
  0
LINE
  5
4EA
330
1F
100
AcDbEntity
  8
MAKE2D VISIBLE LINES
100
AcDbLine
 10
9.421144955313757
 20
25.36947005059734
 30
0.0
 11
8.33898622439552
 21
25.41424670479532
 31
0.0
  0
LINE
  5
4EB
330
1F
100
AcDbEntity
  8
MAKE2D VISIBLE LINES
100
AcDbLine
 10
8.33898622439552
 20
25.41424670479532
 30
0.0
 11
7.258716223315077
 21
25.48419040308551
 31
0.0
  0
LINE
  5
4EC
330
1F
100
AcDbEntity
  8
MAKE2D VISIBLE LINES
100
AcDbLine
 10
7.258716223315077
 20
25.48419040308551
 30
0.0
 11
6.719910044204588
 21
25.53156747971242
 31
0.0
  0
LINE
  5
4ED
330
1F
100
AcDbEntity
  8
MAKE2D VISIBLE LINES
100
AcDbLine
 10
6.719910044204588
 20
25.53156747971242
 30
0.0
 11
6.182320704842219
 21
25.58879742049907
 31
0.0
  0
LINE
  5
4EE
330
1F
100
AcDbEntity
  8
MAKE2D VISIBLE LINES
100
AcDbLine
 10
6.182320704842219
 20
25.58879742049907
 30
0.0
 11
5.646196424324194
 21
25.65706725982436
 31
0.0
  0
LINE
  5
4EF
330
1F
100
AcDbEntity
  8
MAKE2D VISIBLE LINES
100
AcDbLine
 10
5.646196424324194
 20
25.65706725982436
 30
0.0
 11
5.111785421746737
 21
25.73756403206717
 31
0.0
  0
LINE
  5
4F0
330
1F
100
AcDbEntity
  8
MAKE2D VISIBLE LINES
100
AcDbLine
 10
5.111785421746737
 20
25.73756403206717
 30
0.0
 11
4.579270115399715
 21
25.83098413646508
 31
0.0
  0
LINE
  5
4F1
330
1F
100
AcDbEntity
  8
MAKE2D VISIBLE LINES
100
AcDbLine
 10
4.579270115399715
 20
25.83098413646508
 30
0.0
 11
4.04856972034757
 21
25.93606143169036
 31
0.0
  0
LINE
  5
4F2
330
1F
100
AcDbEntity
  8
MAKE2D VISIBLE LINES
100
AcDbLine
 10
4.04856972034757
 20
25.93606143169036
 30
0.0
 11
2.992027321160248
 21
26.17416048874683
 31
0.0
  0
LINE
  5
4F3
330
1F
100
AcDbEntity
  8
MAKE2D VISIBLE LINES
100
AcDbLine
 10
2.992027321160248
 20
26.17416048874683
 30
0.0
 11
0.8942716856798398
 21
26.71294672815003
 31
0.0
  0
ARC
  5
4F4
330
1F
100
AcDbEntity
  8
MAKE2D VISIBLE LINES
100
AcDbCircle
 10
1.277507300145847
 20
27.9323752256804
 30
0.0
 40
1.278231354952738
100
AcDbArc
 50
178.071413501241
 51
252.5533821039563
  0
LINE
  5
4F5
330
1F
100
AcDbEntity
  8
DEFAULT
100
AcDbLine
 10
27.0043944892909
 20
37.93826265781156
 30
0.0
 11
27.0043944892909
 21
27.97206573109365
 31
0.0
  0
ARC
  5
4F6
330
1F
100
AcDbEntity
  8
DEFAULT
100
AcDbCircle
 10
25.72701344571492
 20
27.92963470320733
 30
0.0
 40
1.278085569363314
100
AcDbArc
 50
286.1572586326298
 51
1.902506124162595
  0
LINE
  5
4F7
330
1F
100
AcDbEntity
  8
DEFAULT
100
AcDbLine
 10
26.08267228692685
 20
26.70203154612336
 30
0.0
 11
24.87248044666566
 21
26.42279008043861
 31
0.0
  0
LINE
  5
4F8
330
1F
100
AcDbEntity
  8
DEFAULT
100
AcDbLine
 10
24.87248044666566
 20
26.42279008043861
 30
0.0
 11
23.65567151114576
 21
26.17381469442493
 31
0.0
  0
LINE
  5
4F9
330
1F
100
AcDbEntity
  8
DEFAULT
100
AcDbLine
 10
23.65567151114576
 20
26.17381469442493
 30
0.0
 11
23.04433145814861
 21
26.06353456904633
 31
0.0
  0
LINE
  5
4FA
330
1F
100
AcDbEntity
  8
DEFAULT
100
AcDbLine
 10
23.04433145814861
 20
26.06353456904633
 30
0.0
 11
22.43103352197364
 21
25.96500447950464
 31
0.0
  0
LINE
  5
4FB
330
1F
100
AcDbEntity
  8
DEFAULT
100
AcDbLine
 10
22.43103352197364
 20
25.96500447950464
 30
0.0
 11
21.81587766621239
 21
25.8802474066206
 31
0.0
  0
LINE
  5
4FC
330
1F
100
AcDbEntity
  8
DEFAULT
100
AcDbLine
 10
21.81587766621239
 20
25.8802474066206
 30
0.0
 11
21.19896385445638
 21
25.81128633121497
 31
0.0
  0
LINE
  5
4FD
330
1F
100
AcDbEntity
  8
DEFAULT
100
AcDbLine
 10
21.19896385445638
 20
25.81128633121497
 30
0.0
 11
20.58044529383071
 21
25.75935920022016
 31
0.0
  0
LINE
  5
4FE
330
1F
100
AcDbEntity
  8
DEFAULT
100
AcDbLine
 10
20.58044529383071
 20
25.75935920022016
 30
0.0
 11
19.96068816559474
 21
25.72256382501531
 31
0.0
  0
LINE
  5
4FF
330
1F
100
AcDbEntity
  8
DEFAULT
100
AcDbLine
 10
19.96068816559474
 20
25.72256382501531
 30
0.0
 11
18.71913590546355
 21
25.68361945193876
 31
0.0
  0
LINE
  5
500
330
1F
100
AcDbEntity
  8
DEFAULT
100
AcDbLine
 10
18.71913590546355
 20
25.68361945193876
 30
0.0
 11
13.75100000000444
 21
25.67115074278794
 31
0.0
  0
LINE
  5
501
330
1F
100
AcDbEntity
  8
DEFAULT
100
AcDbLine
 10
13.75100000000444
 20
25.67115074278794
 30
0.0
 11
8.782864094545326
 21
25.68361945193876
 31
0.0
  0
LINE
  5
502
330
1F
100
AcDbEntity
  8
DEFAULT
100
AcDbLine
 10
8.782864094545326
 20
25.68361945193876
 30
0.0
 11
7.541311834414136
 21
25.72256382501531
 31
0.0
  0
LINE
  5
503
330
1F
100
AcDbEntity
  8
DEFAULT
100
AcDbLine
 10
7.541311834414136
 20
25.72256382501531
 30
0.0
 11
6.92155470617816
 21
25.75935920022016
 31
0.0
  0
LINE
  5
504
330
1F
100
AcDbEntity
  8
DEFAULT
100
AcDbLine
 10
6.92155470617816
 20
25.75935920022016
 30
0.0
 11
6.303036145552491
 21
25.81128633121497
 31
0.0
  0
LINE
  5
505
330
1F
100
AcDbEntity
  8
DEFAULT
100
AcDbLine
 10
6.303036145552491
 20
25.81128633121497
 30
0.0
 11
5.686122333796482
 21
25.8802474066206
 31
0.0
  0
LINE
  5
506
330
1F
100
AcDbEntity
  8
DEFAULT
100
AcDbLine
 10
5.686122333796482
 20
25.8802474066206
 30
0.0
 11
5.070966478035228
 21
25.96500447950464
 31
0.0
  0
LINE
  5
507
330
1F
100
AcDbEntity
  8
DEFAULT
100
AcDbLine
 10
5.070966478035228
 20
25.96500447950464
 30
0.0
 11
4.45766854186026
 21
26.06353456904633
 31
0.0
  0
LINE
  5
508
330
1F
100
AcDbEntity
  8
DEFAULT
100
AcDbLine
 10
4.45766854186026
 20
26.06353456904633
 30
0.0
 11
3.846328488863107
 21
26.17381469442493
 31
0.0
  0
LINE
  5
509
330
1F
100
AcDbEntity
  8
DEFAULT
100
AcDbLine
 10
3.846328488863107
 20
26.17381469442493
 30
0.0
 11
2.629519553343216
 21
26.42279008043861
 31
0.0
  0
LINE
  5
50A
330
1F
100
AcDbEntity
  8
DEFAULT
100
AcDbLine
 10
2.629519553343216
 20
26.42279008043861
 30
0.0
 11
1.419327713082019
 21
26.70203154612336
 31
0.0
  0
ARC
  5
50B
330
1F
100
AcDbEntity
  8
DEFAULT
100
AcDbCircle
 10
1.774986554293928
 20
27.92963470320732
 30
0.0
 40
1.278085569363299
100
AcDbArc
 50
178.0974938758372
 51
253.8427413673708
  0
LINE
  5
50C
330
1F
100
AcDbEntity
  8
DEFAULT
100
AcDbLine
 10
0.4976055107179675
 20
27.97206573109365
 30
0.0
 11
0.4976055107179675
 21
37.93826265781156
 31
0.0
  0
ARC
  5
50D
330
1F
100
AcDbEntity
  8
DEFAULT
100
AcDbCircle
 10
1.774986554293942
 20
37.98069368569788
 30
0.0
 40
1.278085569363309
100
AcDbArc
 50
106.1572586326297
 51
181.9025061241624
  0
LINE
  5
50E
330
1F
100
AcDbEntity
  8
DEFAULT
100
AcDbLine
 10
1.419327713082019
 20
39.20829684278185
 30
0.0
 11
2.629519553343216
 21
39.48753830846659
 31
0.0
  0
LINE
  5
50F
330
1F
100
AcDbEntity
  8
DEFAULT
100
AcDbLine
 10
2.629519553343216
 20
39.48753830846659
 30
0.0
 11
3.846328488863107
 21
39.73651369448028
 31
0.0
  0
LINE
  5
510
330
1F
100
AcDbEntity
  8
DEFAULT
100
AcDbLine
 10
3.846328488863107
 20
39.73651369448028
 30
0.0
 11
4.45766854186026
 21
39.84679381985888
 31
0.0
  0
LINE
  5
511
330
1F
100
AcDbEntity
  8
DEFAULT
100
AcDbLine
 10
4.45766854186026
 20
39.84679381985888
 30
0.0
 11
5.070966478035228
 21
39.94532390940057
 31
0.0
  0
LINE
  5
512
330
1F
100
AcDbEntity
  8
DEFAULT
100
AcDbLine
 10
5.070966478035228
 20
39.94532390940057
 30
0.0
 11
5.686122333796482
 21
40.0300809822846
 31
0.0
  0
LINE
  5
513
330
1F
100
AcDbEntity
  8
DEFAULT
100
AcDbLine
 10
5.686122333796482
 20
40.0300809822846
 30
0.0
 11
6.303036145552491
 21
40.09904205769024
 31
0.0
  0
LINE
  5
514
330
1F
100
AcDbEntity
  8
DEFAULT
100
AcDbLine
 10
6.303036145552491
 20
40.09904205769024
 30
0.0
 11
6.92155470617816
 21
40.15096918868505
 31
0.0
  0
LINE
  5
515
330
1F
100
AcDbEntity
  8
DEFAULT
100
AcDbLine
 10
6.92155470617816
 20
40.15096918868505
 30
0.0
 11
7.541311834414136
 21
40.1877645638899
 31
0.0
  0
LINE
  5
516
330
1F
100
AcDbEntity
  8
DEFAULT
100
AcDbLine
 10
7.541311834414136
 20
40.1877645638899
 30
0.0
 11
8.782864094545326
 21
40.22670893696645
 31
0.0
  0
LINE
  5
517
330
1F
100
AcDbEntity
  8
DEFAULT
100
AcDbLine
 10
8.782864094545326
 20
40.22670893696645
 30
0.0
 11
13.75100000000444
 21
40.23917764611727
 31
0.0
  0
LINE
  5
518
330
1F
100
AcDbEntity
  8
DEFAULT
100
AcDbLine
 10
13.75100000000444
 20
40.23917764611727
 30
0.0
 11
18.71913590546355
 21
40.22670893696645
 31
0.0
  0
LINE
  5
519
330
1F
100
AcDbEntity
  8
DEFAULT
100
AcDbLine
 10
18.71913590546355
 20
40.22670893696645
 30
0.0
 11
19.96068816559474
 21
40.18776456388989
 31
0.0
  0
LINE
  5
51A
330
1F
100
AcDbEntity
  8
DEFAULT
100
AcDbLine
 10
19.96068816559474
 20
40.18776456388989
 30
0.0
 11
20.58044529383071
 21
40.15096918868505
 31
0.0
  0
LINE
  5
51B
330
1F
100
AcDbEntity
  8
DEFAULT
100
AcDbLine
 10
20.58044529383071
 20
40.15096918868505
 30
0.0
 11
21.19896385445638
 21
40.09904205769024
 31
0.0
  0
LINE
  5
51C
330
1F
100
AcDbEntity
  8
DEFAULT
100
AcDbLine
 10
21.19896385445638
 20
40.09904205769024
 30
0.0
 11
21.81587766621239
 21
40.03008098228462
 31
0.0
  0
LINE
  5
51D
330
1F
100
AcDbEntity
  8
DEFAULT
100
AcDbLine
 10
21.81587766621239
 20
40.03008098228462
 30
0.0
 11
22.43103352197364
 21
39.94532390940057
 31
0.0
  0
LINE
  5
51E
330
1F
100
AcDbEntity
  8
DEFAULT
100
AcDbLine
 10
22.43103352197364
 20
39.94532390940057
 30
0.0
 11
23.04433145814861
 21
39.84679381985888
 31
0.0
  0
LINE
  5
51F
330
1F
100
AcDbEntity
  8
DEFAULT
100
AcDbLine
 10
23.04433145814861
 20
39.84679381985888
 30
0.0
 11
23.65567151114576
 21
39.73651369448028
 31
0.0
  0
LINE
  5
520
330
1F
100
AcDbEntity
  8
DEFAULT
100
AcDbLine
 10
23.65567151114576
 20
39.73651369448028
 30
0.0
 11
24.87248044666566
 21
39.48753830846659
 31
0.0
  0
LINE
  5
521
330
1F
100
AcDbEntity
  8
DEFAULT
100
AcDbLine
 10
24.87248044666566
 20
39.48753830846659
 30
0.0
 11
26.08267228692685
 21
39.20829684278185
 31
0.0
  0
ARC
  5
522
330
1F
100
AcDbEntity
  8
DEFAULT
100
AcDbCircle
 10
25.72701344571494
 20
37.98069368569789
 30
0.0
 40
1.278085569363294
100
AcDbArc
 50
358.0974938758369
 51
73.84274136737058
  0
LINE
  5
523
330
1F
100
AcDbEntity
  8
DEFAULT
100
AcDbLine
 10
27.50200000000235
 20
37.93493578446895
 30
0.0
 11
27.50200000000235
 21
27.97539260443626
 31
0.0
  0
LINE
  5
524
330
1F
100
AcDbEntity
  8
DEFAULT
100
AcDbLine
 10
0.0000000000065157
 20
37.93493578446895
 30
0.0
 11
0.0000000000065157
 21
27.97539260443626
 31
0.0
  0
LINE
  5
525
330
1F
100
AcDbEntity
  8
DEFAULT
100
AcDbLine
 10
4.627791039688983
 20
0.1490611256411667
 30
0.0
 11
4.535992404217232
 21
0.1490611256411667
 31
0.0
  0
ARC
  5
526
330
1F
100
AcDbEntity
  8
DEFAULT
100
AcDbCircle
 10
4.746683632055413
 20
0.8599766868251498
 30
0.0
 40
0.7414794188792417
100
AcDbArc
 50
156.144550733338
 51
253.4919653053347
  0
LINE
  5
527
330
1F
100
AcDbEntity
  8
DEFAULT
100
AcDbLine
 10
4.068549764228733
 20
1.159853638136725
 30
0.0
 11
6.860288701547682
 21
11.36570067743508
 31
0.0
  0
ARC
  5
528
330
1F
100
AcDbEntity
  8
DEFAULT
100
AcDbCircle
 10
8.083101872067903
 20
11.07170731929653
 30
0.0
 40
1.257658198648304
100
AcDbArc
 50
83.46779442146921
 51
166.4813108167771
  0
LINE
  5
529
330
1F
100
AcDbEntity
  8
DEFAULT
100
AcDbLine
 10
4.826431755964858
 20
0.1490611256411667
 30
0.0
 11
4.627791039688983
 21
0.1490611256411667
 31
0.0
  0
LINE
  5
52A
330
1F
100
AcDbEntity
  8
DEFAULT
100
AcDbLine
 10
4.83298881582268
 20
0.1490611256411667
 30
0.0
 11
4.826431755964858
 21
0.1490611256411667
 31
0.0
  0
LINE
  5
52B
330
1F
100
AcDbEntity
  8
DEFAULT
100
AcDbLine
 10
22.87477013306055
 20
0.1490611256411667
 30
0.0
 11
22.96656876853229
 21
0.1490611256411667
 31
0.0
  0
ARC
  5
52C
330
1F
100
AcDbEntity
  8
DEFAULT
100
AcDbCircle
 10
22.75587754069412
 20
0.8599766868251479
 30
0.0
 40
0.7414794188792374
100
AcDbArc
 50
286.5080346946647
 51
23.85544926666239
  0
LINE
  5
52D
330
1F
100
AcDbEntity
  8
DEFAULT
100
AcDbLine
 10
23.4340114085208
 20
1.159853638136725
 30
0.0
 11
20.64227247120185
 21
11.36570067743508
 31
0.0
  0
ARC
  5
52E
330
1F
100
AcDbEntity
  8
DEFAULT
100
AcDbCircle
 10
19.41945930068162
 20
11.07170731929653
 30
0.0
 40
1.257658198648309
100
AcDbArc
 50
13.51868918322301
 51
96.53220557853061
  0
LINE
  5
52F
330
1F
100
AcDbEntity
  8
DEFAULT
100
AcDbLine
 10
22.67612941678467
 20
0.1490611256411667
 30
0.0
 11
22.87477013306055
 21
0.1490611256411667
 31
0.0
  0
LINE
  5
530
330
1F
100
AcDbEntity
  8
DEFAULT
100
AcDbLine
 10
22.66957235692909
 20
0.1490611256411667
 30
0.0
 11
22.67612941678467
 21
0.1490611256411667
 31
0.0
  0
LINE
  5
531
330
1F
100
AcDbEntity
  8
DEFAULT
100
AcDbLine
 10
19.27638599614214
 20
12.32120088636899
 30
0.0
 11
8.226175176607388
 21
12.32120088636899
 31
0.0
  0
LINE
  5
532
330
1F
100
AcDbEntity
  8
DEFAULT
100
AcDbLine
 10
8.233085564269702
 20
11.88122147040557
 30
0.0
 11
19.26947560847982
 21
11.88122147040557
 31
0.0
  0
ARC
  5
533
330
1F
100
AcDbEntity
  8
DEFAULT
100
AcDbCircle
 10
22.43071092880119
 20
0.8899060973521312
 30
0.0
 40
0.5987117519091789
100
AcDbArc
 50
329.7323017696682
 51
15.29626466749854
  0
LINE
  5
534
330
1F
100
AcDbEntity
  8
DEFAULT
100
AcDbLine
 10
23.00821308897435
 20
1.047852344124528
 30
0.0
 11
20.23012441750753
 21
11.20543596329456
 31
0.0
  0
ARC
  5
535
330
1F
100
AcDbEntity
  8
DEFAULT
100
AcDbCircle
 10
19.36803265783928
 20
11.0006352864707
 30
0.0
 40
0.8860843748286159
100
AcDbArc
 50
13.36360837777673
 51
96.38608687157138
  0
ARC
  5
536
330
1F
100
AcDbEntity
  8
DEFAULT
100
AcDbCircle
 10
4.840987236297917
 20
0.2274008848639535
 30
0.0
 40
0.2270837574941284
100
AcDbArc
 50
199.893739523025
 51
266.5964967465561
  0
LINE
  5
537
330
1F
100
AcDbEntity
  8
DEFAULT
100
AcDbLine
 10
4.827505861955569
 20
0.0007176577308163
 30
0.0
 11
6.006970911549047
 21
0.0007253920228606
 31
0.0
  0
LINE
  5
538
330
1F
100
AcDbEntity
  8
DEFAULT
100
AcDbLine
 10
6.006970911549047
 20
0.0007253920228606
 30
0.0
 11
6.212491539914858
 21
0.1751640507716349
 31
0.0
  0
LINE
  5
539
330
1F
100
AcDbEntity
  8
DEFAULT
100
AcDbLine
 10
6.212491539914858
 20
0.1751640507716349
 30
0.0
 11
6.227286142051764
 21
0.3696358159120923
 31
0.0
  0
LINE
  5
53A
330
1F
100
AcDbEntity
  8
DEFAULT
100
AcDbLine
 10
6.227286142051764
 20
0.3696358159120923
 30
0.0
 11
6.092417651701965
 21
0.5391315323802862
 31
0.0
  0
LINE
  5
53B
330
1F
100
AcDbEntity
  8
DEFAULT
100
AcDbLine
 10
6.092417651701965
 20
0.5391315323802862
 30
0.0
 11
5.128567387058439
 21
0.5398384307433535
 31
0.0
  0
LINE
  5
53C
330
1F
100
AcDbEntity
  8
DEFAULT
100
AcDbLine
 10
5.128567387058439
 20
0.5398384307433535
 30
0.0
 11
5.020847612930144
 21
0.4737735847721058
 31
0.0
  0
ARC
  5
53D
330
1F
100
AcDbEntity
  8
DEFAULT
100
AcDbCircle
 10
7.157263811122672
 20
0.3042013995137063
 30
0.0
 40
2.143135296222038
100
AcDbArc
 50
175.4618185593474
 51
178.7755013490993
  0
ARC
  5
53E
330
1F
100
AcDbEntity
  8
DEFAULT
100
AcDbCircle
 10
4.797246479693463
 20
0.3546462684716725
 30
0.0
 40
0.2174210978195092
100
AcDbArc
 50
309.9622404119159
 51
358.7755013490985
  0
ARC
  5
53F
330
1F
100
AcDbEntity
  8
DEFAULT
100
AcDbCircle
 10
4.829710285892862
 20
0.3159055892599393
 30
0.0
 40
0.1668766724222554
100
AcDbArc
 50
268.8742703731718
 51
309.9622404119162
  0
ARC
  5
540
330
1F
100
AcDbEntity
  8
DEFAULT
100
AcDbCircle
 10
22.66157393645161
 20
0.2274008848639513
 30
0.0
 40
0.2270837574941235
100
AcDbArc
 50
273.4035032534429
 51
340.1062604769751
  0
LINE
  5
541
330
1F
100
AcDbEntity
  8
DEFAULT
100
AcDbLine
 10
22.67505531079396
 20
0.0007176577308163
 30
0.0
 11
21.49559026120048
 21
0.0007253920228606
 31
0.0
  0
LINE
  5
542
330
1F
100
AcDbEntity
  8
DEFAULT
100
AcDbLine
 10
21.49559026120048
 20
0.0007253920228606
 30
0.0
 11
21.29006963283467
 21
0.1751640507716349
 31
0.0
  0
LINE
  5
543
330
1F
100
AcDbEntity
  8
DEFAULT
100
AcDbLine
 10
21.29006963283467
 20
0.1751640507716349
 30
0.0
 11
21.27527503069776
 21
0.3696358159120923
 31
0.0
  0
LINE
  5
544
330
1F
100
AcDbEntity
  8
DEFAULT
100
AcDbLine
 10
21.27527503069776
 20
0.3696358159120923
 30
0.0
 11
21.41014352104756
 21
0.5391315323802862
 31
0.0
  0
LINE
  5
545
330
1F
100
AcDbEntity
  8
DEFAULT
100
AcDbLine
 10
21.41014352104756
 20
0.5391315323802862
 30
0.0
 11
22.37399378569109
 21
0.5398384307433535
 31
0.0
  0
LINE
  5
546
330
1F
100
AcDbEntity
  8
DEFAULT
100
AcDbLine
 10
22.37399378569109
 20
0.5398384307433535
 30
0.0
 11
22.48171355981938
 21
0.4737735847721058
 31
0.0
  0
ARC
  5
547
330
1F
100
AcDbEntity
  8
DEFAULT
100
AcDbCircle
 10
20.34529736162686
 20
0.3042013995137063
 30
0.0
 40
2.143135296222038
100
AcDbArc
 50
1.224498650900702
 51
4.538181440652643
  0
ARC
  5
548
330
1F
100
AcDbEntity
  8
DEFAULT
100
AcDbCircle
 10
22.70531469305606
 20
0.3546462684716725
 30
0.0
 40
0.2174210978195092
100
AcDbArc
 50
181.2244986509014
 51
230.0377595880841
  0
ARC
  5
549
330
1F
100
AcDbEntity
  8
DEFAULT
100
AcDbCircle
 10
22.67285088685666
 20
0.3159055892599393
 30
0.0
 40
0.1668766724222554
100
AcDbArc
 50
230.0377595880838
 51
271.1257296268282
  0
LINE
  5
54A
330
1F
100
AcDbEntity
  8
DEFAULT
100
AcDbLine
 10
22.67612941678467
 20
0.1490611256411667
 30
0.0
 11
22.66957235692915
 21
0.1490611256411667
 31
0.0
  0
ARC
  5
54B
330
1F
100
AcDbEntity
  8
DEFAULT
100
AcDbCircle
 10
5.071850243948337
 20
0.8899060973521312
 30
0.0
 40
0.5987117519091789
100
AcDbArc
 50
164.7037353325015
 51
210.2676982303317
  0
LINE
  5
54C
330
1F
100
AcDbEntity
  8
DEFAULT
100
AcDbLine
 10
4.494348083775172
 20
1.047852344124528
 30
0.0
 11
7.272436755241997
 21
11.20543596329456
 31
0.0
  0
ARC
  5
54D
330
1F
100
AcDbEntity
  8
DEFAULT
100
AcDbCircle
 10
8.134528514910249
 20
11.0006352864707
 30
0.0
 40
0.886084374828615
100
AcDbArc
 50
83.61391312842862
 51
166.6363916222232
  0
LINE
  5
54E
330
1F
100
AcDbEntity
  8
DEFAULT
100
AcDbLine
 10
6.206468319617764
 20
0.1501442167224875
 30
0.0
 11
21.29557609570018
 21
0.1499994894256815
 31
0.0
  0
LINE
  5
54F
330
1F
100
AcDbEntity
  8
DEFAULT
100
AcDbLine
 10
4.554754966640423
 20
0.5881309557980101
 30
0.0
 11
22.9478062061091
 21
0.588293862020018
 31
0.0
  0
LINE
  5
550
330
1F
100
AcDbEntity
  8
MAKE2D VISIBLE LINES - TANGENT
100
AcDbLine
 10
7.961844430624431
 20
12.31499984463349
 30
0.0
 11
7.820652377692833
 21
12.3176611359297
 31
0.0
  0
LINE
  5
551
330
1F
100
AcDbEntity
  8
MAKE2D VISIBLE LINES - TANGENT
100
AcDbLine
 10
7.820652377692833
 20
12.3176611359297
 30
0.0
 11
7.679648495000868
 21
12.32424377075778
 31
0.0
  0
LINE
  5
552
330
1F
100
AcDbEntity
  8
MAKE2D VISIBLE LINES - TANGENT
100
AcDbLine
 10
7.679648495000868
 20
12.32424377075778
 30
0.0
 11
7.53890617343222
 21
12.33466684563016
 31
0.0
  0
LINE
  5
553
330
1F
100
AcDbEntity
  8
MAKE2D VISIBLE LINES - TANGENT
100
AcDbLine
 10
7.53890617343222
 20
12.33466684563016
 30
0.0
 11
7.39849880387057
 21
12.34884945705927
 31
0.0
  0
LINE
  5
554
330
1F
100
AcDbEntity
  8
MAKE2D VISIBLE LINES - TANGENT
100
AcDbLine
 10
7.39849880387057
 20
12.34884945705927
 30
0.0
 11
7.258499777199598
 21
12.36671070155755
 31
0.0
  0
LINE
  5
555
330
1F
100
AcDbEntity
  8
MAKE2D VISIBLE LINES - TANGENT
100
AcDbLine
 10
7.258499777199598
 20
12.36671070155755
 30
0.0
 11
7.118982484302987
 21
12.38816967563744
 31
0.0
  0
LINE
  5
556
330
1F
100
AcDbEntity
  8
MAKE2D VISIBLE LINES - TANGENT
100
AcDbLine
 10
7.118982484302987
 20
12.38816967563744
 30
0.0
 11
6.980020316064417
 21
12.41314547581137
 31
0.0
  0
LINE
  5
557
330
1F
100
AcDbEntity
  8
MAKE2D VISIBLE LINES - TANGENT
100
AcDbLine
 10
6.980020316064417
 20
12.41314547581137
 30
0.0
 11
6.841686663367568
 21
12.44155719859178
 31
0.0
  0
LINE
  5
558
330
1F
100
AcDbEntity
  8
MAKE2D VISIBLE LINES - TANGENT
100
AcDbLine
 10
6.841686663367568
 20
12.44155719859178
 30
0.0
 11
6.704054917096124
 21
12.47332394049109
 31
0.0
  0
LINE
  5
559
330
1F
100
AcDbEntity
  8
MAKE2D VISIBLE LINES - TANGENT
100
AcDbLine
 10
6.704054917096124
 20
12.47332394049109
 30
0.0
 11
6.567198468133764
 21
12.50836479802175
 31
0.0
  0
LINE
  5
55A
330
1F
100
AcDbEntity
  8
MAKE2D VISIBLE LINES - TANGENT
100
AcDbLine
 10
6.567198468133764
 20
12.50836479802175
 30
0.0
 11
6.431190707364171
 21
12.54659886769619
 31
0.0
  0
LINE
  5
55B
330
1F
100
AcDbEntity
  8
MAKE2D VISIBLE LINES - TANGENT
100
AcDbLine
 10
6.431190707364171
 20
12.54659886769619
 30
0.0
 11
6.296105025671025
 21
12.58794524602685
 31
0.0
  0
LINE
  5
55C
330
1F
100
AcDbEntity
  8
MAKE2D VISIBLE LINES - TANGENT
100
AcDbLine
 10
6.296105025671025
 20
12.58794524602685
 30
0.0
 11
6.162014813938007
 21
12.63232302952616
 31
0.0
  0
LINE
  5
55D
330
1F
100
AcDbEntity
  8
MAKE2D VISIBLE LINES - TANGENT
100
AcDbLine
 10
6.162014813938007
 20
12.63232302952616
 30
0.0
 11
6.028993463048798
 21
12.67965131470656
 31
0.0
  0
LINE
  5
55E
330
1F
100
AcDbEntity
  8
MAKE2D VISIBLE LINES - TANGENT
100
AcDbLine
 10
6.028993463048798
 20
12.67965131470656
 30
0.0
 11
5.897114363887081
 21
12.72984919808047
 31
0.0
  0
LINE
  5
55F
330
1F
100
AcDbEntity
  8
MAKE2D VISIBLE LINES - TANGENT
100
AcDbLine
 10
5.897114363887081
 20
12.72984919808047
 30
0.0
 11
5.766450907336536
 21
12.78283577616035
 31
0.0
  0
LINE
  5
560
330
1F
100
AcDbEntity
  8
MAKE2D VISIBLE LINES - TANGENT
100
AcDbLine
 10
5.766450907336536
 20
12.78283577616035
 30
0.0
 11
5.637051292483331
 21
12.83851515537172
 31
0.0
  0
LINE
  5
561
330
1F
100
AcDbEntity
  8
MAKE2D VISIBLE LINES - TANGENT
100
AcDbLine
 10
5.637051292483331
 20
12.83851515537172
 30
0.0
 11
5.508862951223589
 21
12.89673148179256
 31
0.0
  0
LINE
  5
562
330
1F
100
AcDbEntity
  8
MAKE2D VISIBLE LINES - TANGENT
100
AcDbLine
 10
5.508862951223589
 20
12.89673148179256
 30
0.0
 11
5.25580904987893
 21
13.02009160022691
 31
0.0
  0
LINE
  5
563
330
1F
100
AcDbEntity
  8
MAKE2D VISIBLE LINES - TANGENT
100
AcDbLine
 10
5.25580904987893
 20
13.02009160022691
 30
0.0
 11
5.006667124091436
 21
13.15154937939199
 31
0.0
  0
LINE
  5
564
330
1F
100
AcDbEntity
  8
MAKE2D VISIBLE LINES - TANGENT
100
AcDbLine
 10
5.006667124091436
 20
13.15154937939199
 30
0.0
 11
4.760815094649979
 21
13.28973806721638
 31
0.0
  0
LINE
  5
565
330
1F
100
AcDbEntity
  8
MAKE2D VISIBLE LINES - TANGENT
100
AcDbLine
 10
4.760815094649979
 20
13.28973806721638
 30
0.0
 11
4.276492407960683
 21
13.58084116055741
 31
0.0
  0
LINE
  5
566
330
1F
100
AcDbEntity
  8
MAKE2D VISIBLE LINES - TANGENT
100
AcDbLine
 10
4.276492407960683
 20
13.58084116055741
 30
0.0
 11
1.893678725602897
 21
15.09727310109861
 31
0.0
  0
LINE
  5
567
330
1F
100
AcDbEntity
  8
MAKE2D VISIBLE LINES - TANGENT
100
AcDbLine
 10
1.893678725602897
 20
15.09727310109861
 30
0.0
 11
0.0
 21
16.34500000000089
 31
0.0
  0
LINE
  5
568
330
1F
100
AcDbEntity
  8
MAKE2D VISIBLE LINES - TANGENT
100
AcDbLine
 10
0.0
 20
16.34500000000089
 30
0.0
 11
0.4981139249939497
 21
17.75114445730263
 31
0.0
  0
ARC
  5
569
330
1F
100
AcDbEntity
  8
MAKE2D VISIBLE LINES - TANGENT
100
AcDbCircle
 10
0.7061440896376181
 20
16.12397288656494
 30
0.0
 40
1.640415761329612
100
AcDbArc
 50
61.43046150003048
 51
97.28561141720796
  0
LINE
  5
56A
330
1F
100
AcDbEntity
  8
MAKE2D VISIBLE LINES - TANGENT
100
AcDbLine
 10
1.490631929589822
 20
17.5646472769064
 30
0.0
 11
3.721862973250342
 21
16.50191148032463
 31
0.0
  0
LINE
  5
56B
330
1F
100
AcDbEntity
  8
MAKE2D VISIBLE LINES - TANGENT
100
AcDbLine
 10
3.721862973250342
 20
16.50191148032463
 30
0.0
 11
4.192213607973743
 21
16.29063129271341
 31
0.0
  0
LINE
  5
56C
330
1F
100
AcDbEntity
  8
MAKE2D VISIBLE LINES - TANGENT
100
AcDbLine
 10
4.192213607973743
 20
16.29063129271341
 30
0.0
 11
4.643985601129893
 21
16.09802315840703
 31
0.0
  0
LINE
  5
56D
330
1F
100
AcDbEntity
  8
MAKE2D VISIBLE LINES - TANGENT
100
AcDbLine
 10
4.643985601129893
 20
16.09802315840703
 30
0.0
 11
5.082805701980172
 21
15.9244302928381
 31
0.0
  0
LINE
  5
56E
330
1F
100
AcDbEntity
  8
MAKE2D VISIBLE LINES - TANGENT
100
AcDbLine
 10
5.082805701980172
 20
15.9244302928381
 30
0.0
 11
5.298775782208162
 21
15.84503388547127
 31
0.0
  0
LINE
  5
56F
330
1F
100
AcDbEntity
  8
MAKE2D VISIBLE LINES - TANGENT
100
AcDbLine
 10
5.298775782208162
 20
15.84503388547127
 30
0.0
 11
5.51306710150735
 21
15.77075611899421
 31
0.0
  0
LINE
  5
570
330
1F
100
AcDbEntity
  8
MAKE2D VISIBLE LINES - TANGENT
100
AcDbLine
 10
5.51306710150735
 20
15.77075611899421
 30
0.0
 11
5.72606047707848
 21
15.70174427532026
 31
0.0
  0
LINE
  5
571
330
1F
100
AcDbEntity
  8
MAKE2D VISIBLE LINES - TANGENT
100
AcDbLine
 10
5.72606047707848
 20
15.70174427532026
 30
0.0
 11
5.938078228203354
 21
15.63814013246596
 31
0.0
  0
LINE
  5
572
330
1F
100
AcDbEntity
  8
MAKE2D VISIBLE LINES - TANGENT
100
AcDbLine
 10
5.938078228203354
 20
15.63814013246596
 30
0.0
 11
6.149388826113201
 21
15.58006983533379
 31
0.0
  0
LINE
  5
573
330
1F
100
AcDbEntity
  8
MAKE2D VISIBLE LINES - TANGENT
100
AcDbLine
 10
6.149388826113201
 20
15.58006983533379
 30
0.0
 11
6.360211543857041
 21
15.5276337664949
 31
0.0
  0
LINE
  5
574
330
1F
100
AcDbEntity
  8
MAKE2D VISIBLE LINES - TANGENT
100
AcDbLine
 10
6.360211543857041
 20
15.5276337664949
 30
0.0
 11
6.570721106170058
 21
15.48089641697188
 31
0.0
  0
LINE
  5
575
330
1F
100
AcDbEntity
  8
MAKE2D VISIBLE LINES - TANGENT
100
AcDbLine
 10
6.570721106170058
 20
15.48089641697188
 30
0.0
 11
6.781052339341968
 21
15.43987625702147
 31
0.0
  0
LINE
  5
576
330
1F
100
AcDbEntity
  8
MAKE2D VISIBLE LINES - TANGENT
100
AcDbLine
 10
6.781052339341968
 20
15.43987625702147
 30
0.0
 11
6.991304821085379
 21
15.40453560691738
 31
0.0
  0
LINE
  5
577
330
1F
100
AcDbEntity
  8
MAKE2D VISIBLE LINES - TANGENT
100
AcDbLine
 10
6.991304821085379
 20
15.40453560691738
 30
0.0
 11
7.20154753040417
 21
15.37477050773296
 31
0.0
  0
LINE
  5
578
330
1F
100
AcDbEntity
  8
MAKE2D VISIBLE LINES - TANGENT
100
AcDbLine
 10
7.20154753040417
 20
15.37477050773296
 30
0.0
 11
7.41182349746185
 21
15.35040059212402
 31
0.0
  0
LINE
  5
579
330
1F
100
AcDbEntity
  8
MAKE2D VISIBLE LINES - TANGENT
100
AcDbLine
 10
7.41182349746185
 20
15.35040059212402
 30
0.0
 11
7.622154453449927
 21
15.3311589551115
 31
0.0
  0
LINE
  5
57A
330
1F
100
AcDbEntity
  8
MAKE2D VISIBLE LINES - TANGENT
100
AcDbLine
 10
7.622154453449927
 20
15.3311589551115
 30
0.0
 11
7.832545480456285
 21
15.31668202486431
 31
0.0
  0
LINE
  5
57B
330
1F
100
AcDbEntity
  8
MAKE2D VISIBLE LINES - TANGENT
100
AcDbLine
 10
7.832545480456285
 20
15.31668202486431
 30
0.0
 11
8.042989661333541
 21
15.30649943348198
 31
0.0
  0
LINE
  5
57C
330
1F
100
AcDbEntity
  8
MAKE2D VISIBLE LINES - TANGENT
100
AcDbLine
 10
8.042989661333541
 20
15.30649943348198
 30
0.0
 11
8.463977719145102
 21
15.29654104006003
 31
0.0
  0
LINE
  5
57D
330
1F
100
AcDbEntity
  8
MAKE2D VISIBLE LINES - TANGENT
100
AcDbLine
 10
8.463977719145102
 20
15.29654104006003
 30
0.0
 11
8.884999999998266
 21
15.29499999999999
 31
0.0
  0
LINE
  5
57E
330
1F
100
AcDbEntity
  8
MAKE2D VISIBLE LINES - TANGENT
100
AcDbLine
 10
8.884999999998266
 20
15.29499999999999
 30
0.0
 11
18.61699999999792
 21
15.29499999999999
 31
0.0
  0
LINE
  5
57F
330
1F
100
AcDbEntity
  8
MAKE2D VISIBLE LINES - TANGENT
100
AcDbLine
 10
18.61699999999792
 20
15.29499999999999
 30
0.0
 11
19.03802228085108
 21
15.29654104006003
 31
0.0
  0
LINE
  5
580
330
1F
100
AcDbEntity
  8
MAKE2D VISIBLE LINES - TANGENT
100
AcDbLine
 10
19.03802228085108
 20
15.29654104006003
 30
0.0
 11
19.45901033866264
 21
15.30649943348198
 31
0.0
  0
LINE
  5
581
330
1F
100
AcDbEntity
  8
MAKE2D VISIBLE LINES - TANGENT
100
AcDbLine
 10
19.45901033866264
 20
15.30649943348198
 30
0.0
 11
19.6694545195399
 21
15.31668202486431
 31
0.0
  0
LINE
  5
582
330
1F
100
AcDbEntity
  8
MAKE2D VISIBLE LINES - TANGENT
100
AcDbLine
 10
19.6694545195399
 20
15.31668202486431
 30
0.0
 11
19.87984554654626
 21
15.3311589551115
 31
0.0
  0
LINE
  5
583
330
1F
100
AcDbEntity
  8
MAKE2D VISIBLE LINES - TANGENT
100
AcDbLine
 10
19.87984554654626
 20
15.3311589551115
 30
0.0
 11
20.09017650253434
 21
15.35040059212402
 31
0.0
  0
LINE
  5
584
330
1F
100
AcDbEntity
  8
MAKE2D VISIBLE LINES - TANGENT
100
AcDbLine
 10
20.09017650253434
 20
15.35040059212402
 30
0.0
 11
20.30045246959202
 21
15.37477050773296
 31
0.0
  0
LINE
  5
585
330
1F
100
AcDbEntity
  8
MAKE2D VISIBLE LINES - TANGENT
100
AcDbLine
 10
20.30045246959202
 20
15.37477050773296
 30
0.0
 11
20.51069517891081
 21
15.40453560691738
 31
0.0
  0
LINE
  5
586
330
1F
100
AcDbEntity
  8
MAKE2D VISIBLE LINES - TANGENT
100
AcDbLine
 10
20.51069517891081
 20
15.40453560691738
 30
0.0
 11
20.72094766065422
 21
15.43987625702147
 31
0.0
  0
LINE
  5
587
330
1F
100
AcDbEntity
  8
MAKE2D VISIBLE LINES - TANGENT
100
AcDbLine
 10
20.72094766065422
 20
15.43987625702147
 30
0.0
 11
20.93127889382612
 21
15.48089641697188
 31
0.0
  0
LINE
  5
588
330
1F
100
AcDbEntity
  8
MAKE2D VISIBLE LINES - TANGENT
100
AcDbLine
 10
20.93127889382612
 20
15.48089641697188
 30
0.0
 11
21.14178845613914
 21
15.5276337664949
 31
0.0
  0
LINE
  5
589
330
1F
100
AcDbEntity
  8
MAKE2D VISIBLE LINES - TANGENT
100
AcDbLine
 10
21.14178845613914
 20
15.5276337664949
 30
0.0
 11
21.35261117388298
 21
15.58006983533379
 31
0.0
  0
LINE
  5
58A
330
1F
100
AcDbEntity
  8
MAKE2D VISIBLE LINES - TANGENT
100
AcDbLine
 10
21.35261117388298
 20
15.58006983533379
 30
0.0
 11
21.56392177179283
 21
15.63814013246596
 31
0.0
  0
LINE
  5
58B
330
1F
100
AcDbEntity
  8
MAKE2D VISIBLE LINES - TANGENT
100
AcDbLine
 10
21.56392177179283
 20
15.63814013246596
 30
0.0
 11
21.7759395229177
 21
15.70174427532026
 31
0.0
  0
LINE
  5
58C
330
1F
100
AcDbEntity
  8
MAKE2D VISIBLE LINES - TANGENT
100
AcDbLine
 10
21.7759395229177
 20
15.70174427532026
 30
0.0
 11
21.98893289848883
 21
15.77075611899421
 31
0.0
  0
LINE
  5
58D
330
1F
100
AcDbEntity
  8
MAKE2D VISIBLE LINES - TANGENT
100
AcDbLine
 10
21.98893289848883
 20
15.77075611899421
 30
0.0
 11
22.20322421778802
 21
15.84503388547127
 31
0.0
  0
LINE
  5
58E
330
1F
100
AcDbEntity
  8
MAKE2D VISIBLE LINES - TANGENT
100
AcDbLine
 10
22.20322421778802
 20
15.84503388547127
 30
0.0
 11
22.41919429801602
 21
15.9244302928381
 31
0.0
  0
LINE
  5
58F
330
1F
100
AcDbEntity
  8
MAKE2D VISIBLE LINES - TANGENT
100
AcDbLine
 10
22.41919429801602
 20
15.9244302928381
 30
0.0
 11
22.8580143988663
 21
16.09802315840703
 31
0.0
  0
LINE
  5
590
330
1F
100
AcDbEntity
  8
MAKE2D VISIBLE LINES - TANGENT
100
AcDbLine
 10
22.8580143988663
 20
16.09802315840703
 30
0.0
 11
23.30978639202245
 21
16.29063129271341
 31
0.0
  0
LINE
  5
591
330
1F
100
AcDbEntity
  8
MAKE2D VISIBLE LINES - TANGENT
100
AcDbLine
 10
23.30978639202245
 20
16.29063129271341
 30
0.0
 11
23.78013702674585
 21
16.50191148032463
 31
0.0
  0
LINE
  5
592
330
1F
100
AcDbEntity
  8
MAKE2D VISIBLE LINES - TANGENT
100
AcDbLine
 10
23.78013702674585
 20
16.50191148032463
 30
0.0
 11
26.01136807040636
 21
17.5646472769064
 31
0.0
  0
ARC
  5
593
330
1F
100
AcDbEntity
  8
MAKE2D VISIBLE LINES - TANGENT
100
AcDbCircle
 10
26.79585591035857
 20
16.12397288656495
 30
0.0
 40
1.64041576132961
100
AcDbArc
 50
82.71438858279195
 51
118.5695384999696
  0
LINE
  5
594
330
1F
100
AcDbEntity
  8
MAKE2D VISIBLE LINES - TANGENT
100
AcDbLine
 10
27.00388607500224
 20
17.75114445730263
 30
0.0
 11
27.50199999999619
 21
16.34500000000089
 31
0.0
  0
LINE
  5
595
330
1F
100
AcDbEntity
  8
MAKE2D VISIBLE LINES - TANGENT
100
AcDbLine
 10
27.50199999999619
 20
16.34500000000089
 30
0.0
 11
23.70413564387414
 21
13.88246686367862
 31
0.0
  0
LINE
  5
596
330
1F
100
AcDbEntity
  8
MAKE2D VISIBLE LINES - TANGENT
100
AcDbLine
 10
23.70413564387414
 20
13.88246686367862
 30
0.0
 11
23.2255075920355
 21
13.58084116055741
 31
0.0
  0
LINE
  5
597
330
1F
100
AcDbEntity
  8
MAKE2D VISIBLE LINES - TANGENT
100
AcDbLine
 10
23.2255075920355
 20
13.58084116055741
 30
0.0
 11
22.74118490534621
 21
13.28973806721638
 31
0.0
  0
LINE
  5
598
330
1F
100
AcDbEntity
  8
MAKE2D VISIBLE LINES - TANGENT
100
AcDbLine
 10
22.74118490534621
 20
13.28973806721638
 30
0.0
 11
22.49533287590475
 21
13.15154937939199
 31
0.0
  0
LINE
  5
599
330
1F
100
AcDbEntity
  8
MAKE2D VISIBLE LINES - TANGENT
100
AcDbLine
 10
22.49533287590475
 20
13.15154937939199
 30
0.0
 11
22.24619095011725
 21
13.02009160022691
 31
0.0
  0
LINE
  5
59A
330
1F
100
AcDbEntity
  8
MAKE2D VISIBLE LINES - TANGENT
100
AcDbLine
 10
22.24619095011725
 20
13.02009160022691
 30
0.0
 11
21.9931370487726
 21
12.89673148179256
 31
0.0
  0
LINE
  5
59B
330
1F
100
AcDbEntity
  8
MAKE2D VISIBLE LINES - TANGENT
100
AcDbLine
 10
21.9931370487726
 20
12.89673148179256
 30
0.0
 11
21.86494870751285
 21
12.83851515537172
 31
0.0
  0
LINE
  5
59C
330
1F
100
AcDbEntity
  8
MAKE2D VISIBLE LINES - TANGENT
100
AcDbLine
 10
21.86494870751285
 20
12.83851515537172
 30
0.0
 11
21.73554909265965
 21
12.78283577616035
 31
0.0
  0
LINE
  5
59D
330
1F
100
AcDbEntity
  8
MAKE2D VISIBLE LINES - TANGENT
100
AcDbLine
 10
21.73554909265965
 20
12.78283577616035
 30
0.0
 11
21.6048856361091
 21
12.72984919808047
 31
0.0
  0
LINE
  5
59E
330
1F
100
AcDbEntity
  8
MAKE2D VISIBLE LINES - TANGENT
100
AcDbLine
 10
21.6048856361091
 20
12.72984919808047
 30
0.0
 11
21.47300653694739
 21
12.67965131470656
 31
0.0
  0
LINE
  5
59F
330
1F
100
AcDbEntity
  8
MAKE2D VISIBLE LINES - TANGENT
100
AcDbLine
 10
21.47300653694739
 20
12.67965131470656
 30
0.0
 11
21.33998518605818
 21
12.63232302952616
 31
0.0
  0
LINE
  5
5A0
330
1F
100
AcDbEntity
  8
MAKE2D VISIBLE LINES - TANGENT
100
AcDbLine
 10
21.33998518605818
 20
12.63232302952616
 30
0.0
 11
21.20589497432516
 21
12.58794524602685
 31
0.0
  0
LINE
  5
5A1
330
1F
100
AcDbEntity
  8
MAKE2D VISIBLE LINES - TANGENT
100
AcDbLine
 10
21.20589497432516
 20
12.58794524602685
 30
0.0
 11
21.07080929263201
 21
12.54659886769619
 31
0.0
  0
LINE
  5
5A2
330
1F
100
AcDbEntity
  8
MAKE2D VISIBLE LINES - TANGENT
100
AcDbLine
 10
21.07080929263201
 20
12.54659886769619
 30
0.0
 11
20.93480153186242
 21
12.50836479802175
 31
0.0
  0
LINE
  5
5A3
330
1F
100
AcDbEntity
  8
MAKE2D VISIBLE LINES - TANGENT
100
AcDbLine
 10
20.93480153186242
 20
12.50836479802175
 30
0.0
 11
20.79794508290006
 21
12.47332394049109
 31
0.0
  0
LINE
  5
5A4
330
1F
100
AcDbEntity
  8
MAKE2D VISIBLE LINES - TANGENT
100
AcDbLine
 10
20.79794508290006
 20
12.47332394049109
 30
0.0
 11
20.66031333662862
 21
12.44155719859178
 31
0.0
  0
LINE
  5
5A5
330
1F
100
AcDbEntity
  8
MAKE2D VISIBLE LINES - TANGENT
100
AcDbLine
 10
20.66031333662862
 20
12.44155719859178
 30
0.0
 11
20.52197968393177
 21
12.41314547581137
 31
0.0
  0
LINE
  5
5A6
330
1F
100
AcDbEntity
  8
MAKE2D VISIBLE LINES - TANGENT
100
AcDbLine
 10
20.52197968393177
 20
12.41314547581137
 30
0.0
 11
20.3830175156932
 21
12.38816967563744
 31
0.0
  0
LINE
  5
5A7
330
1F
100
AcDbEntity
  8
MAKE2D VISIBLE LINES - TANGENT
100
AcDbLine
 10
20.3830175156932
 20
12.38816967563744
 30
0.0
 11
20.24350022279659
 21
12.36671070155755
 31
0.0
  0
LINE
  5
5A8
330
1F
100
AcDbEntity
  8
MAKE2D VISIBLE LINES - TANGENT
100
AcDbLine
 10
20.24350022279659
 20
12.36671070155755
 30
0.0
 11
20.10350119612562
 21
12.34884945705927
 31
0.0
  0
LINE
  5
5A9
330
1F
100
AcDbEntity
  8
MAKE2D VISIBLE LINES - TANGENT
100
AcDbLine
 10
20.10350119612562
 20
12.34884945705927
 30
0.0
 11
19.96309382656397
 21
12.33466684563016
 31
0.0
  0
LINE
  5
5AA
330
1F
100
AcDbEntity
  8
MAKE2D VISIBLE LINES - TANGENT
100
AcDbLine
 10
19.96309382656397
 20
12.33466684563016
 30
0.0
 11
19.82235150499532
 21
12.32424377075778
 31
0.0
  0
LINE
  5
5AB
330
1F
100
AcDbEntity
  8
MAKE2D VISIBLE LINES - TANGENT
100
AcDbLine
 10
19.82235150499532
 20
12.32424377075778
 30
0.0
 11
19.68134762230336
 21
12.3176611359297
 31
0.0
  0
LINE
  5
5AC
330
1F
100
AcDbEntity
  8
MAKE2D VISIBLE LINES - TANGENT
100
AcDbLine
 10
19.68134762230336
 20
12.3176611359297
 30
0.0
 11
19.54015556937176
 21
12.31499984463349
 31
0.0
  0
ENDSEC
  0
SECTION
  2
OBJECTS
  0
DICTIONARY
  5
C
330
0
100
AcDbDictionary
281
     1
  3
ACAD_GROUP
350
D
  3
ACAD_LAYOUT
350
1A
  3
ACAD_MLEADERSTYLE
350
5AE
  3
ACAD_MLINESTYLE
350
17
  3
ACAD_PLOTSETTINGS
350
19
  3
ACAD_PLOTSTYLENAME
350
E
  3
ACAD_TABLESTYLE
350
5AD
  3
ACAD_VISUALSTYLE
350
2A
  0
DICTIONARY
  5
D
102
{ACAD_REACTORS
330
C
102
}
330
C
100
AcDbDictionary
281
     1
  0
DICTIONARY
  5
1A
102
{ACAD_REACTORS
330
C
102
}
330
C
100
AcDbDictionary
281
     1
  3
Layout1
350
1E
  3
Layout2
350
26
  3
Model
350
22
  0
DICTIONARY
  5
5AE
102
{ACAD_REACTORS
330
C
102
}
330
C
100
AcDbDictionary
281
     1
  0
DICTIONARY
  5
17
102
{ACAD_REACTORS
330
C
102
}
330
C
100
AcDbDictionary
281
     1
  3
Standard
350
18
  0
DICTIONARY
  5
19
102
{ACAD_REACTORS
330
C
102
}
330
C
100
AcDbDictionary
281
     1
  0
ACDBDICTIONARYWDFLT
  5
E
102
{ACAD_REACTORS
330
C
102
}
330
C
100
AcDbDictionary
281
     1
  3
Normal
350
F
100
AcDbDictionaryWithDefault
340
F
  0
DICTIONARY
  5
5AD
102
{ACAD_REACTORS
330
C
102
}
330
C
100
AcDbDictionary
281
     1
  0
DICTIONARY
  5
2A
102
{ACAD_REACTORS
330
C
102
}
330
C
100
AcDbDictionary
281
     1
  3
2dWireframe
350
2F
  3
3D Hidden
350
31
  3
3dWireframe
350
30
  3
Basic
350
32
  3
Brighten
350
36
  3
ColorChange
350
3A
  3
Conceptual
350
34
  3
Dim
350
35
  3
Facepattern
350
39
  3
Flat
350
2B
  3
FlatWithEdges
350
2C
  3
Gouraud
350
2D
  3
GouraudWithEdges
350
2E
  3
Linepattern
350
38
  3
Realistic
350
33
  3
Thicken
350
37
  0
LAYOUT
  5
1E
102
{ACAD_REACTORS
330
1A
102
}
330
1A
100
AcDbPlotSettings
  1

  2
none_device
  4

  6

 40
0.0
 41
0.0
 42
0.0
 43
0.0
 44
0.0
 45
0.0
 46
0.0
 47
0.0
 48
0.0
 49
0.0
140
0.0
141
0.0
142
1.0
143
1.0
 70
   688
 72
     0
 73
     0
 74
     5
  7

 75
    16
 76
     0
 77
     2
 78
   300
147
1.0
148
0.0
149
0.0
100
AcDbLayout
  1
Layout1
 70
     1
 71
     1
 10
0.0
 20
0.0
 11
12.0
 21
9.0
 12
0.0
 22
0.0
 32
0.0
 14
1.000000000000000E+20
 24
1.000000000000000E+20
 34
1.000000000000000E+20
 15
-1.000000000000000E+20
 25
-1.000000000000000E+20
 35
-1.000000000000000E+20
146
0.0
 13
0.0
 23
0.0
 33
0.0
 16
1.0
 26
0.0
 36
0.0
 17
0.0
 27
1.0
 37
0.0
 76
     0
330
1B
  0
LAYOUT
  5
26
102
{ACAD_REACTORS
330
1A
102
}
330
1A
100
AcDbPlotSettings
  1

  2
none_device
  4

  6

 40
0.0
 41
0.0
 42
0.0
 43
0.0
 44
0.0
 45
0.0
 46
0.0
 47
0.0
 48
0.0
 49
0.0
140
0.0
141
0.0
142
1.0
143
1.0
 70
   688
 72
     0
 73
     0
 74
     5
  7

 75
    16
 76
     0
 77
     2
 78
   300
147
1.0
148
0.0
149
0.0
100
AcDbLayout
  1
Layout2
 70
     1
 71
     2
 10
0.0
 20
0.0
 11
0.0
 21
0.0
 12
0.0
 22
0.0
 32
0.0
 14
0.0
 24
0.0
 34
0.0
 15
0.0
 25
0.0
 35
0.0
146
0.0
 13
0.0
 23
0.0
 33
0.0
 16
1.0
 26
0.0
 36
0.0
 17
0.0
 27
1.0
 37
0.0
 76
     0
330
23
  0
LAYOUT
  5
22
102
{ACAD_REACTORS
330
1A
102
}
330
1A
100
AcDbPlotSettings
  1

  2
none_device
  4

  6

 40
0.0
 41
0.0
 42
0.0
 43
0.0
 44
0.0
 45
0.0
 46
0.0
 47
0.0
 48
0.0
 49
0.0
140
0.0
141
0.0
142
1.0
143
1.0
 70
  1712
 72
     0
 73
     0
 74
     0
  7

 75
     0
 76
     0
 77
     2
 78
   300
147
1.0
148
0.0
149
0.0
100
AcDbLayout
  1
Model
 70
     1
 71
     0
 10
0.0
 20
0.0
 11
12.0
 21
9.0
 12
0.0
 22
0.0
 32
0.0
 14
-0.000724054806891
 24
0.000717657730816
 34
0.0
 15
49.2018709528942
 25
40.59796675646561
 35
0.0
146
0.0
 13
0.0
 23
0.0
 33
0.0
 16
1.0
 26
0.0
 36
0.0
 17
0.0
 27
1.0
 37
0.0
 76
     0
330
1F
331
29
  0
MLINESTYLE
  5
18
102
{ACAD_REACTORS
330
17
102
}
330
17
100
AcDbMlineStyle
  2
Standard
 70
     0
  3

 62
   256
 51
90.0
 52
90.0
 71
     2
 49
0.5
 62
   256
  6
BYLAYER
 49
-0.5
 62
   256
  6
BYLAYER
  0
ACDBPLACEHOLDER
  5
F
102
{ACAD_REACTORS
330
E
102
}
330
E
  0
VISUALSTYLE
  5
2F
102
{ACAD_REACTORS
330
2A
102
}
330
2A
100
AcDbVisualStyle
  2
2dWireframe
 70
     4
 71
     0
 72
     2
 73
     0
 90
        0
 40
-0.6
 41
-30.0
 62
     5
 63
     7
421
 16777215
 74
     1
 91
        4
 64
     7
 65
   257
 75
     1
175
     1
 42
1.0
 92
        0
 66
   257
 43
1.0
 76
     1
 77
     6
 78
     2
 67
     7
 79
     5
170
     0
171
     0
290
     0
174
     0
 93
        1
 44
0.0
173
     0
291
     0
 45
0.0
1001
ACAD
1000
AcDbSavedByObjectVersion
1070
     0
  0
VISUALSTYLE
  5
31
102
{ACAD_REACTORS
330
2A
102
}
330
2A
100
AcDbVisualStyle
  2
3D Hidden
 70
     6
 71
     1
 72
     2
 73
     2
 90
        0
 40
-0.6
 41
-30.0
 62
     5
 63
     7
421
 16777215
 74
     2
 91
        2
 64
     7
 65
   257
 75
     2
175
     1
 42
40.0
 92
        0
 66
   257
 43
1.0
 76
     1
 77
     6
 78
     2
 67
     7
 79
     3
170
     0
171
     0
290
     0
174
     0
 93
        1
 44
0.0
173
     0
291
     0
 45
0.0
1001
ACAD
1000
AcDbSavedByObjectVersion
1070
     0
  0
VISUALSTYLE
  5
30
102
{ACAD_REACTORS
330
2A
102
}
330
2A
100
AcDbVisualStyle
  2
3dWireframe
 70
     5
 71
     0
 72
     2
 73
     0
 90
        0
 40
-0.6
 41
-30.0
 62
     5
 63
     7
421
 16777215
 74
     1
 91
        4
 64
     7
 65
   257
 75
     1
175
     1
 42
1.0
 92
        0
 66
   257
 43
1.0
 76
     1
 77
     6
 78
     2
 67
     7
 79
     5
170
     0
171
     0
290
     0
174
     0
 93
        1
 44
0.0
173
     0
291
     0
 45
0.0
1001
ACAD
1000
AcDbSavedByObjectVersion
1070
     0
  0
VISUALSTYLE
  5
32
102
{ACAD_REACTORS
330
2A
102
}
330
2A
100
AcDbVisualStyle
  2
Basic
 70
     7
 71
     1
 72
     0
 73
     1
 90
        0
 40
-0.6
 41
-30.0
 62
     5
 63
     7
421
 16777215
 74
     0
 91
        4
 64
     7
 65
   257
 75
     1
175
     1
 42
1.0
 92
        8
 66
     7
 43
1.0
 76
     1
 77
     6
 78
     2
 67
     7
 79
     5
170
     0
171
     0
290
     0
174
     0
 93
        1
 44
0.0
173
     0
291
     1
 45
0.0
1001
ACAD
1000
AcDbSavedByObjectVersion
1070
     0
  0
VISUALSTYLE
  5
36
102
{ACAD_REACTORS
330
2A
102
}
330
2A
100
AcDbVisualStyle
  2
Brighten
 70
    12
 71
     2
 72
     2
 73
     0
 90
        0
 40
-0.6
 41
-30.0
 62
     5
 63
     7
421
 16777215
 74
     1
 91
        4
 64
     7
 65
   257
 75
     1
175
     1
 42
1.0
 92
        8
 66
     7
 43
1.0
 76
     1
 77
     6
 78
     2
 67
     7
 79
     5
170
     0
171
     0
290
     0
174
     0
 93
        1
 44
50.0
173
     0
291
     1
 45
0.0
1001
ACAD
1000
AcDbSavedByObjectVersion
1070
     0
  0
VISUALSTYLE
  5
3A
102
{ACAD_REACTORS
330
2A
102
}
330
2A
100
AcDbVisualStyle
  2
ColorChange
 70
    16
 71
     2
 72
     2
 73
     3
 90
        0
 40
-0.6
 41
-30.0
 62
     5
 63
     8
421
  8421504
 74
     1
 91
        4
 64
     7
 65
   257
 75
     1
175
     1
 42
1.0
 92
        8
 66
     8
424
  8421504
 43
1.0
 76
     1
 77
     6
 78
     2
 67
     7
 79
     5
170
     0
171
     0
290
     0
174
     0
 93
        1
 44
0.0
173
     0
291
     1
 45
0.0
1001
ACAD
1000
AcDbSavedByObjectVersion
1070
     0
  0
VISUALSTYLE
  5
34
102
{ACAD_REACTORS
330
2A
102
}
330
2A
100
AcDbVisualStyle
  2
Conceptual
 70
     9
 71
     3
 72
     2
 73
     0
 90
        0
 40
-0.6
 41
-30.0
 62
     5
 63
     7
421
 16777215
 74
     2
 91
        2
 64
     7
 65
   257
 75
     1
175
     1
 42
40.0
 92
        8
 66
     7
 43
1.0
 76
     1
 77
     6
 78
     2
 67
     7
 79
     3
170
     0
171
     0
290
     0
174
     0
 93
        1
 44
0.0
173
     0
291
     0
 45
0.0
1001
ACAD
1000
AcDbSavedByObjectVersion
1070
     0
  0
VISUALSTYLE
  5
35
102
{ACAD_REACTORS
330
2A
102
}
330
2A
100
AcDbVisualStyle
  2
Dim
 70
    11
 71
     2
 72
     2
 73
     0
 90
        0
 40
-0.6
 41
-30.0
 62
     5
 63
     7
421
 16777215
 74
     1
 91
        4
 64
     7
 65
   257
 75
     1
175
     1
 42
1.0
 92
        8
 66
     7
 43
1.0
 76
     1
 77
     6
 78
     2
 67
     7
 79
     5
170
     0
171
     0
290
     0
174
     0
 93
        1
 44
-50.0
173
     0
291
     1
 45
0.0
1001
ACAD
1000
AcDbSavedByObjectVersion
1070
     0
  0
VISUALSTYLE
  5
39
102
{ACAD_REACTORS
330
2A
102
}
330
2A
100
AcDbVisualStyle
  2
Facepattern
 70
    15
 71
     2
 72
     2
 73
     0
 90
        0
 40
-0.6
 41
-30.0
 62
     5
 63
     7
421
 16777215
 74
     1
 91
        4
 64
     7
 65
   257
 75
     1
175
     1
 42
1.0
 92
        8
 66
     7
 43
1.0
 76
     1
 77
     6
 78
     2
 67
     7
 79
     5
170
     0
171
     0
290
     0
174
     0
 93
        1
 44
0.0
173
     0
291
     1
 45
0.0
1001
ACAD
1000
AcDbSavedByObjectVersion
1070
     0
  0
VISUALSTYLE
  5
2B
102
{ACAD_REACTORS
330
2A
102
}
330
2A
100
AcDbVisualStyle
  2
Flat
 70
     0
 71
     2
 72
     1
 73
     1
 90
        2
 40
-0.6
 41
30.0
 62
     5
 63
     7
421
 16777215
 74
     0
 91
        4
 64
     7
 65
   257
 75
     1
175
     1
 42
1.0
 92
        8
 66
     7
 43
1.0
 76
     1
 77
     6
 78
     2
 67
     7
 79
     5
170
     0
171
     0
290
     0
174
     0
 93
       13
 44
0.0
173
     0
291
     1
 45
0.0
1001
ACAD
1000
AcDbSavedByObjectVersion
1070
     0
  0
VISUALSTYLE
  5
2C
102
{ACAD_REACTORS
330
2A
102
}
330
2A
100
AcDbVisualStyle
  2
FlatWithEdges
 70
     1
 71
     2
 72
     1
 73
     1
 90
        2
 40
-0.6
 41
30.0
 62
     5
 63
     7
421
 16777215
 74
     1
 91
        4
 64
     7
 65
   257
 75
     1
175
     1
 42
1.0
 92
        0
 66
   257
 43
1.0
 76
     1
 77
     6
 78
     2
 67
     7
 79
     5
170
     0
171
     0
290
     0
174
     0
 93
       13
 44
0.0
173
     0
291
     1
 45
0.0
1001
ACAD
1000
AcDbSavedByObjectVersion
1070
     0
  0
VISUALSTYLE
  5
2D
102
{ACAD_REACTORS
330
2A
102
}
330
2A
100
AcDbVisualStyle
  2
Gouraud
 70
     2
 71
     2
 72
     2
 73
     1
 90
        2
 40
-0.6
 41
30.0
 62
     5
 63
     7
421
 16777215
 74
     0
 91
        4
 64
     7
 65
   257
 75
     1
175
     1
 42
1.0
 92
        0
 66
     7
 43
1.0
 76
     1
 77
     6
 78
     2
 67
     7
 79
     5
170
     0
171
     0
290
     0
174
     0
 93
       13
 44
0.0
173
     0
291
     1
 45
0.0
1001
ACAD
1000
AcDbSavedByObjectVersion
1070
     0
  0
VISUALSTYLE
  5
2E
102
{ACAD_REACTORS
330
2A
102
}
330
2A
100
AcDbVisualStyle
  2
GouraudWithEdges
 70
     3
 71
     2
 72
     2
 73
     1
 90
        2
 40
-0.6
 41
30.0
 62
     5
 63
     7
421
 16777215
 74
     1
 91
        4
 64
     7
 65
   257
 75
     1
175
     1
 42
1.0
 92
        0
 66
   257
 43
1.0
 76
     1
 77
     6
 78
     2
 67
     7
 79
     5
170
     0
171
     0
290
     0
174
     0
 93
       13
 44
0.0
173
     0
291
     1
 45
0.0
1001
ACAD
1000
AcDbSavedByObjectVersion
1070
     0
  0
VISUALSTYLE
  5
38
102
{ACAD_REACTORS
330
2A
102
}
330
2A
100
AcDbVisualStyle
  2
Linepattern
 70
    14
 71
     2
 72
     2
 73
     0
 90
        0
 40
-0.6
 41
-30.0
 62
     5
 63
     7
421
 16777215
 74
     1
 91
        4
 64
     7
 65
   257
 75
     7
175
     7
 42
1.0
 92
        8
 66
     7
 43
1.0
 76
     1
 77
     6
 78
     2
 67
     7
 79
     5
170
     0
171
     0
290
     0
174
     0
 93
        1
 44
0.0
173
     0
291
     1
 45
0.0
1001
ACAD
1000
AcDbSavedByObjectVersion
1070
     0
  0
VISUALSTYLE
  5
33
102
{ACAD_REACTORS
330
2A
102
}
330
2A
100
AcDbVisualStyle
  2
Realistic
 70
     8
 71
     2
 72
     2
 73
     0
 90
        0
 40
-0.6
 41
-30.0
 62
     5
 63
     7
421
 16777215
 74
     1
 91
        0
 64
     7
 65
   257
 75
     1
175
     1
 42
1.0
 92
        8
 66
     8
424
  7895160
 43
1.0
 76
     1
 77
     6
 78
     2
 67
     7
 79
     5
170
     0
171
     0
290
     0
174
     0
 93
       13
 44
0.0
173
     0
291
     0
 45
0.0
1001
ACAD
1000
AcDbSavedByObjectVersion
1070
     0
  0
VISUALSTYLE
  5
37
102
{ACAD_REACTORS
330
2A
102
}
330
2A
100
AcDbVisualStyle
  2
Thicken
 70
    13
 71
     2
 72
     2
 73
     0
 90
        0
 40
-0.6
 41
-30.0
 62
     5
 63
     7
421
 16777215
 74
     1
 91
        4
 64
     7
 65
   257
 75
     1
175
     1
 42
1.0
 92
       12
 66
     7
 43
1.0
 76
     1
 77
     6
 78
     2
 67
     7
 79
     5
170
     0
171
     0
290
     0
174
     0
 93
        1
 44
0.0
173
     0
291
     1
 45
0.0
1001
ACAD
1000
AcDbSavedByObjectVersion
1070
     0
  0
ENDSEC
  0
EOF
