  0
SECTION
  2
HEADER
  9
$ACADVER
  1
AC1015
  9
$ACADMAINTVER
 70
     6
  9
$DWGCODEPAGE
  3
ANSI_1252
  9
$INSBASE
 10
0.0
 20
0.0
 30
0.0
  9
$EXTMIN
 10
1.489738678252042
 20
0.0000000000000001
 30
0.0
  9
$EXTMAX
 10
73.9104713446146
 20
80.83880958866095
 30
0.0
  9
$LIMMIN
 10
0.0
 20
0.0
  9
$LIMMAX
 10
12.0
 20
9.0
  9
$ORTHOMODE
 70
     0
  9
$REGENMODE
 70
     1
  9
$FILLMODE
 70
     1
  9
$QTEXTMODE
 70
     0
  9
$MIRRTEXT
 70
     1
  9
$LTSCALE
 40
0.0393700787401575
  9
$ATTMODE
 70
     1
  9
$TEXTSIZE
 40
0.2
  9
$TRACEWID
 40
0.05
  9
$TEXTSTYLE
  7
Standard
  9
$CLAYER
  8
DEFAULT
  9
$CELTYPE
  6
ByLayer
  9
$CECOLOR
 62
   256
  9
$CELTSCALE
 40
1.0
  9
$DISPSILH
 70
     0
  9
$DIMSCALE
 40
1.0
  9
$DIMASZ
 40
0.18
  9
$DIMEXO
 40
0.0625
  9
$DIMDLI
 40
0.38
  9
$DIMRND
 40
0.0
  9
$DIMDLE
 40
0.0
  9
$DIMEXE
 40
0.18
  9
$DIMTP
 40
0.0
  9
$DIMTM
 40
0.0
  9
$DIMTXT
 40
0.18
  9
$DIMCEN
 40
0.09
  9
$DIMTSZ
 40
0.0
  9
$DIMTOL
 70
     0
  9
$DIMLIM
 70
     0
  9
$DIMTIH
 70
     1
  9
$DIMTOH
 70
     1
  9
$DIMSE1
 70
     0
  9
$DIMSE2
 70
     0
  9
$DIMTAD
 70
     0
  9
$DIMZIN
 70
     0
  9
$DIMBLK
  1

  9
$DIMASO
 70
     1
  9
$DIMSHO
 70
     1
  9
$DIMPOST
  1

  9
$DIMAPOST
  1

  9
$DIMALT
 70
     0
  9
$DIMALTD
 70
     2
  9
$DIMALTF
 40
25.4
  9
$DIMLFAC
 40
1.0
  9
$DIMTOFL
 70
     0
  9
$DIMTVP
 40
0.0
  9
$DIMTIX
 70
     0
  9
$DIMSOXD
 70
     0
  9
$DIMSAH
 70
     0
  9
$DIMBLK1
  1

  9
$DIMBLK2
  1

  9
$DIMSTYLE
  2
Standard
  9
$DIMCLRD
 70
     0
  9
$DIMCLRE
 70
     0
  9
$DIMCLRT
 70
     0
  9
$DIMTFAC
 40
1.0
  9
$DIMGAP
 40
0.09
  9
$DIMJUST
 70
     0
  9
$DIMSD1
 70
     0
  9
$DIMSD2
 70
     0
  9
$DIMTOLJ
 70
     1
  9
$DIMTZIN
 70
     0
  9
$DIMALTZ
 70
     0
  9
$DIMALTTZ
 70
     0
  9
$DIMUPT
 70
     0
  9
$DIMDEC
 70
     4
  9
$DIMTDEC
 70
     4
  9
$DIMALTU
 70
     2
  9
$DIMALTTD
 70
     2
  9
$DIMTXSTY
  7
Standard
  9
$DIMAUNIT
 70
     0
  9
$DIMADEC
 70
     0
  9
$DIMALTRND
 40
0.0
  9
$DIMAZIN
 70
     0
  9
$DIMDSEP
 70
    46
  9
$DIMATFIT
 70
     3
  9
$DIMFRAC
 70
     0
  9
$DIMLDRBLK
  1

  9
$DIMLUNIT
 70
     2
  9
$DIMLWD
 70
    -2
  9
$DIMLWE
 70
    -2
  9
$DIMTMOVE
 70
     2
  9
$LUNITS
 70
     2
  9
$LUPREC
 70
     3
  9
$SKETCHINC
 40
0.1
  9
$FILLETRAD
 40
0.5
  9
$AUNITS
 70
     0
  9
$AUPREC
 70
     0
  9
$MENU
  1
.
  9
$ELEVATION
 40
0.0
  9
$PELEVATION
 40
0.0
  9
$THICKNESS
 40
0.0
  9
$LIMCHECK
 70
     0
  9
$CHAMFERA
 40
0.5
  9
$CHAMFERB
 40
0.5
  9
$CHAMFERC
 40
1.0
  9
$CHAMFERD
 40
0.0
  9
$SKPOLY
 70
     0
  9
$TDCREATE
 40
2455355.582521933
  9
$TDUCREATE
 40
2455355.7491886
  9
$TDUPDATE
 40
2455355.582521944
  9
$TDUUPDATE
 40
2455355.749188611
  9
$TDINDWG
 40
0.0000000116
  9
$TDUSRTIMER
 40
0.0000000116
  9
$USRTIMER
 70
     1
  9
$ANGBASE
 50
0.0
  9
$ANGDIR
 70
     0
  9
$PDMODE
 70
     0
  9
$PDSIZE
 40
0.0
  9
$PLINEWID
 40
0.0
  9
$SPLFRAME
 70
     0
  9
$SPLINETYPE
 70
     6
  9
$SPLINESEGS
 70
     8
  9
$HANDSEED
  5
7B
  9
$SURFTAB1
 70
     6
  9
$SURFTAB2
 70
     6
  9
$SURFTYPE
 70
     6
  9
$SURFU
 70
     6
  9
$SURFV
 70
     6
  9
$UCSBASE
  2

  9
$UCSNAME
  2

  9
$UCSORG
 10
0.0
 20
0.0
 30
0.0
  9
$UCSXDIR
 10
1.0
 20
0.0
 30
0.0
  9
$UCSYDIR
 10
0.0
 20
1.0
 30
0.0
  9
$UCSORTHOREF
  2

  9
$UCSORTHOVIEW
 70
     0
  9
$UCSORGTOP
 10
0.0
 20
0.0
 30
0.0
  9
$UCSORGBOTTOM
 10
0.0
 20
0.0
 30
0.0
  9
$UCSORGLEFT
 10
0.0
 20
0.0
 30
0.0
  9
$UCSORGRIGHT
 10
0.0
 20
0.0
 30
0.0
  9
$UCSORGFRONT
 10
0.0
 20
0.0
 30
0.0
  9
$UCSORGBACK
 10
0.0
 20
0.0
 30
0.0
  9
$PUCSBASE
  2

  9
$PUCSNAME
  2

  9
$PUCSORG
 10
0.0
 20
0.0
 30
0.0
  9
$PUCSXDIR
 10
1.0
 20
0.0
 30
0.0
  9
$PUCSYDIR
 10
0.0
 20
1.0
 30
0.0
  9
$PUCSORTHOREF
  2

  9
$PUCSORTHOVIEW
 70
     0
  9
$PUCSORGTOP
 10
0.0
 20
0.0
 30
0.0
  9
$PUCSORGBOTTOM
 10
0.0
 20
0.0
 30
0.0
  9
$PUCSORGLEFT
 10
0.0
 20
0.0
 30
0.0
  9
$PUCSORGRIGHT
 10
0.0
 20
0.0
 30
0.0
  9
$PUCSORGFRONT
 10
0.0
 20
0.0
 30
0.0
  9
$PUCSORGBACK
 10
0.0
 20
0.0
 30
0.0
  9
$USERI1
 70
     0
  9
$USERI2
 70
     0
  9
$USERI3
 70
     0
  9
$USERI4
 70
     0
  9
$USERI5
 70
     0
  9
$USERR1
 40
0.0
  9
$USERR2
 40
0.0
  9
$USERR3
 40
0.0
  9
$USERR4
 40
0.0
  9
$USERR5
 40
0.0
  9
$WORLDVIEW
 70
     1
  9
$SHADEDGE
 70
     3
  9
$SHADEDIF
 70
    70
  9
$TILEMODE
 70
     1
  9
$MAXACTVP
 70
    64
  9
$PINSBASE
 10
0.0
 20
0.0
 30
0.0
  9
$PLIMCHECK
 70
     0
  9
$PEXTMIN
 10
1.000000000000000E+20
 20
1.000000000000000E+20
 30
1.000000000000000E+20
  9
$PEXTMAX
 10
-1.000000000000000E+20
 20
-1.000000000000000E+20
 30
-1.000000000000000E+20
  9
$PLIMMIN
 10
0.0
 20
0.0
  9
$PLIMMAX
 10
12.0
 20
9.0
  9
$UNITMODE
 70
     0
  9
$VISRETAIN
 70
     1
  9
$PLINEGEN
 70
     0
  9
$PSLTSCALE
 70
     1
  9
$TREEDEPTH
 70
  3020
  9
$CMLSTYLE
  2
Standard
  9
$CMLJUST
 70
     0
  9
$CMLSCALE
 40
1.0
  9
$PROXYGRAPHICS
 70
     1
  9
$MEASUREMENT
 70
     0
  9
$CELWEIGHT
370
    -1
  9
$ENDCAPS
280
     0
  9
$JOINSTYLE
280
     0
  9
$LWDISPLAY
290
     0
  9
$INSUNITS
 70
     1
  9
$HYPERLINKBASE
  1

  9
$STYLESHEET
  1

  9
$XEDIT
290
     1
  9
$CEPSNTYPE
380
     0
  9
$PSTYLEMODE
290
     1
  9
$FINGERPRINTGUID
  2
{FD12761F-24AD-4EB5-9500-DD3AB073794A}
  9
$VERSIONGUID
  2
{FAEB1C32-E019-11D5-929B-00C0DF256EC4}
  9
$EXTNAMES
290
     1
  9
$PSVPSCALE
 40
0.0
  9
$OLESTARTUP
290
     0
  0
ENDSEC
  0
SECTION
  2
CLASSES
  0
CLASS
  1
ACDBDICTIONARYWDFLT
  2
AcDbDictionaryWithDefault
  3
ObjectDBX Classes
 90
        0
280
     0
281
     0
  0
CLASS
  1
VISUALSTYLE
  2
AcDbVisualStyle
  3
ObjectDBX Classes
 90
     4095
280
     0
281
     0
  0
CLASS
  1
ACDBPLACEHOLDER
  2
AcDbPlaceHolder
  3
ObjectDBX Classes
 90
        0
280
     0
281
     0
  0
CLASS
  1
LAYOUT
  2
AcDbLayout
  3
ObjectDBX Classes
 90
        0
280
     0
281
     0
  0
ENDSEC
  0
SECTION
  2
TABLES
  0
TABLE
  2
VPORT
  5
8
330
0
100
AcDbSymbolTable
 70
     1
  0
VPORT
  5
29
330
8
100
AcDbSymbolTableRecord
100
AcDbViewportTableRecord
  2
*Active
 70
     0
 10
0.0
 20
0.0
 11
1.0
 21
1.0
 12
37.70010501143332
 22
40.41940479433048
 13
0.0
 23
0.0
 14
0.5
 24
0.5
 15
0.5
 25
0.5
 16
0.0
 26
0.0
 36
1.0
 17
0.0
 27
0.0
 37
0.0
 40
82.45558578043418
 41
0.8958658970223237
 42
50.0
 43
0.0
 44
0.0
 50
0.0
 51
0.0
 71
     0
 72
   100
 73
     1
 74
     3
 75
     0
 76
     0
 77
     0
 78
     0
281
     0
 65
     1
110
0.0
120
0.0
130
0.0
111
1.0
121
0.0
131
0.0
112
0.0
122
1.0
132
0.0
 79
     0
146
0.0
  0
ENDTAB
  0
TABLE
  2
LTYPE
  5
5
330
0
100
AcDbSymbolTable
 70
     1
  0
LTYPE
  5
14
330
5
100
AcDbSymbolTableRecord
100
AcDbLinetypeTableRecord
  2
ByBlock
 70
     0
  3

 72
    65
 73
     0
 40
0.0
  0
LTYPE
  5
15
330
5
100
AcDbSymbolTableRecord
100
AcDbLinetypeTableRecord
  2
ByLayer
 70
     0
  3

 72
    65
 73
     0
 40
0.0
  0
LTYPE
  5
16
330
5
100
AcDbSymbolTableRecord
100
AcDbLinetypeTableRecord
  2
Continuous
 70
     0
  3
Solid line
 72
    65
 73
     0
 40
0.0
  0
ENDTAB
  0
TABLE
  2
LAYER
  5
2
330
0
100
AcDbSymbolTable
 70
     3
  0
LAYER
  5
10
330
2
100
AcDbSymbolTableRecord
100
AcDbLayerTableRecord
  2
0
 70
     0
 62
     7
  6
Continuous
370
    -3
390
F
  0
LAYER
  5
3B
330
2
100
AcDbSymbolTableRecord
100
AcDbLayerTableRecord
  2
MAKE2D VISIBLE LINES
 70
     0
 62
     7
  6
Continuous
370
    -3
390
F
  0
LAYER
  5
3F
330
2
100
AcDbSymbolTableRecord
100
AcDbLayerTableRecord
  2
DEFAULT
 70
     0
 62
     7
  6
Continuous
370
    -3
390
F
  0
ENDTAB
  0
TABLE
  2
STYLE
  5
3
330
0
100
AcDbSymbolTable
 70
     1
  0
STYLE
  5
11
330
3
100
AcDbSymbolTableRecord
100
AcDbTextStyleTableRecord
  2
Standard
 70
     0
 40
0.0
 41
1.0
 50
0.0
 71
     0
 42
0.2
  3
txt
  4

  0
ENDTAB
  0
TABLE
  2
VIEW
  5
6
330
0
100
AcDbSymbolTable
 70
     0
  0
ENDTAB
  0
TABLE
  2
UCS
  5
7
330
0
100
AcDbSymbolTable
 70
     0
  0
ENDTAB
  0
TABLE
  2
APPID
  5
9
330
0
100
AcDbSymbolTable
 70
     1
  0
APPID
  5
12
330
9
100
AcDbSymbolTableRecord
100
AcDbRegAppTableRecord
  2
ACAD
 70
     0
  0
ENDTAB
  0
TABLE
  2
DIMSTYLE
  5
A
330
0
100
AcDbSymbolTable
 70
     1
100
AcDbDimStyleTable
  0
DIMSTYLE
105
27
330
A
100
AcDbSymbolTableRecord
100
AcDbDimStyleTableRecord
  2
Standard
 70
     0
340
11
  0
ENDTAB
  0
TABLE
  2
BLOCK_RECORD
  5
1
330
0
100
AcDbSymbolTable
 70
     1
  0
BLOCK_RECORD
  5
1F
330
1
100
AcDbSymbolTableRecord
100
AcDbBlockTableRecord
  2
*Model_Space
340
22
  0
BLOCK_RECORD
  5
1B
330
1
100
AcDbSymbolTableRecord
100
AcDbBlockTableRecord
  2
*Paper_Space
340
1E
  0
BLOCK_RECORD
  5
23
330
1
100
AcDbSymbolTableRecord
100
AcDbBlockTableRecord
  2
*Paper_Space0
340
26
  0
ENDTAB
  0
ENDSEC
  0
SECTION
  2
BLOCKS
  0
BLOCK
  5
20
330
1F
100
AcDbEntity
  8
0
100
AcDbBlockBegin
  2
*Model_Space
 70
     0
 10
0.0
 20
0.0
 30
0.0
  3
*Model_Space
  1

  0
ENDBLK
  5
21
330
1F
100
AcDbEntity
  8
0
100
AcDbBlockEnd
  0
BLOCK
  5
1C
330
1B
100
AcDbEntity
 67
     1
  8
0
100
AcDbBlockBegin
  2
*Paper_Space
 70
     0
 10
0.0
 20
0.0
 30
0.0
  3
*Paper_Space
  1

  0
ENDBLK
  5
1D
330
1B
100
AcDbEntity
 67
     1
  8
0
100
AcDbBlockEnd
  0
BLOCK
  5
24
330
23
100
AcDbEntity
  8
0
100
AcDbBlockBegin
  2
*Paper_Space0
 70
     0
 10
0.0
 20
0.0
 30
0.0
  3
*Paper_Space0
  1

  0
ENDBLK
  5
25
330
23
100
AcDbEntity
  8
0
100
AcDbBlockEnd
  0
ENDSEC
  0
SECTION
  2
ENTITIES
  0
LINE
  5
3C
330
1F
100
AcDbEntity
  8
MAKE2D VISIBLE LINES
100
AcDbLine
 10
70.81532148673837
 20
0.5905511811022114
 30
0.0
 11
46.51362068101055
 21
0.5905511811023992
 31
0.0
  0
LINE
  5
3D
330
1F
100
AcDbEntity
  8
MAKE2D VISIBLE LINES
100
AcDbLine
 10
51.82271432107295
 20
0.0000000000000001
 30
0.0
 11
47.30095000050621
 21
0.0000000000000001
 31
0.0
  0
SPLINE
  5
3E
330
1F
100
AcDbEntity
  8
MAKE2D VISIBLE LINES
100
AcDbSpline
210
0.0
220
0.0
230
1.0
 70
     8
 71
     3
 72
    20
 73
    16
 74
     0
 42
0.0000000001
 43
0.0000000001
 40
0.0
 40
0.0
 40
0.0
 40
0.0
 40
1.0
 40
2.0
 40
3.0
 40
4.0
 40
5.0
 40
6.0
 40
7.0
 40
8.0
 40
9.0
 40
10.0
 40
11.0
 40
12.0
 40
13.0
 40
13.0
 40
13.0
 40
13.0
 10
44.55193363083121
 20
37.73555798068166
 30
0.0
 10
45.14379733451243
 20
37.38470503888821
 30
0.0
 10
45.82071991344974
 20
36.14460610031358
 30
0.0
 10
46.87024075463036
 20
34.39380447779513
 30
0.0
 10
47.76923614760004
 20
32.53674036821641
 30
0.0
 10
48.60358548940285
 20
30.65782765071871
 30
0.0
 10
49.37299806467628
 20
28.74924562893005
 30
0.0
 10
50.08884651805526
 20
26.82074983769263
 30
0.0
 10
50.75085031370149
 20
24.87237858302126
 30
0.0
 10
51.35740182178431
 20
22.90813706054409
 30
0.0
 10
51.85237227895549
 20
20.9032185456205
 30
0.0
 10
52.19591105978519
 20
18.90004942921093
 30
0.0
 10
52.22530267537282
 20
16.72593103479123
 30
0.0
 10
50.64784095003209
 20
15.27401106237338
 30
0.0
 10
49.14438017002674
 20
14.87596839243907
 30
0.0
 10
49.1884731417599
 20
14.06725330435212
 30
0.0
  0
POLYLINE
  5
40
330
1F
100
AcDbEntity
  8
DEFAULT
100
AcDb2dPolyline
 66
     1
 10
0.0
 20
0.0
 30
0.0
  0
VERTEX
  5
41
330
40
100
AcDbEntity
  8
DEFAULT
100
AcDbVertex
100
AcDb2dVertex
 10
44.53782943249125
 20
37.82790956976678
 30
0.0
  0
VERTEX
  5
42
330
40
100
AcDbEntity
  8
DEFAULT
100
AcDbVertex
100
AcDb2dVertex
 10
51.81427482391085
 20
0.6829027701875974
 30
0.0
  0
SEQEND
  5
43
330
40
100
AcDbEntity
  8
DEFAULT
  0
SPLINE
  5
44
330
1F
100
AcDbEntity
  8
MAKE2D VISIBLE LINES
100
AcDbSpline
210
0.0
220
0.0
230
1.0
 70
    24
 71
     2
 72
     6
 73
     3
 74
     0
 42
0.0000000001
 43
0.0000000001
 40
0.0
 40
0.0
 40
0.0
 40
13.732845370739
 40
13.732845370739
 40
13.732845370739
 10
49.1884731417599
 20
14.06725330435216
 30
0.0
 10
50.50846763586034
 20
7.328902242727258
 30
0.0
 10
51.82846212996078
 20
0.5905511811023582
 30
0.0
  0
SPLINE
  5
45
330
1F
100
AcDbEntity
  8
MAKE2D VISIBLE LINES
100
AcDbSpline
210
0.0
220
0.0
230
1.0
 70
     8
 71
     3
 72
    20
 73
    16
 74
     0
 42
0.0000000001
 43
0.0000000001
 40
0.0
 40
0.0
 40
0.0
 40
0.0
 40
1.0
 40
2.0
 40
3.0
 40
4.0
 40
5.0
 40
6.0
 40
7.0
 40
8.0
 40
9.0
 40
10.0
 40
11.0
 40
12.0
 40
13.0
 40
13.0
 40
13.0
 40
13.0
 10
73.9104713446146
 20
15.33372076966533
 30
0.0
 10
73.53512158948418
 20
15.87625335545519
 30
0.0
 10
72.23321366155896
 20
16.28202342883702
 30
0.0
 10
70.32707510744113
 20
16.56943764002764
 30
0.0
 10
68.37413495943936
 20
16.6790804037386
 30
0.0
 10
66.42775786325016
 20
16.72091665947029
 30
0.0
 10
64.47862591675333
 20
16.70668634619339
 30
0.0
 10
62.53088531100518
 20
16.6544066294936
 30
0.0
 10
60.58415307640739
 20
16.56809334715474
 30
0.0
 10
58.63914173861075
 20
16.4520392440515
 30
0.0
 10
56.69575445193458
 20
16.30516254386338
 30
0.0
 10
54.75724802377617
 20
16.11931103144556
 30
0.0
 10
52.81826061496336
 20
15.88293692818461
 30
0.0
 10
50.91769579147676
 20
15.52552799340396
 30
0.0
 10
49.64559281089656
 20
15.0821477848025
 30
0.0
 10
49.25986506696772
 20
14.53366011717912
 30
0.0
  0
LINE
  5
46
330
1F
100
AcDbEntity
  8
DEFAULT
100
AcDbLine
 10
40.81184467037743
 20
37.73555798068166
 30
0.0
 11
48.08842453180826
 21
0.5905511811023871
 31
0.0
  0
LINE
  5
47
330
1F
100
AcDbEntity
  8
MAKE2D VISIBLE LINES
100
AcDbLine
 10
65.5061555913641
 20
0.0000000000000001
 30
0.0
 11
70.02791991193082
 21
0.0000000000000001
 31
0.0
  0
SPLINE
  5
48
330
1F
100
AcDbEntity
  8
MAKE2D VISIBLE LINES
100
AcDbSpline
210
0.0
220
0.0
230
1.0
 70
    24
 71
     2
 72
     6
 73
     3
 74
     0
 42
0.0000000001
 43
0.0000000001
 40
0.0
 40
0.0
 40
0.0
 40
0.5905511811023629
 40
0.5905511811023629
 40
0.5905511811023629
 10
65.5061555913641
 20
0.590551181102363
 30
0.0
 10
65.5061555913641
 20
0.2952755905511816
 30
0.0
 10
65.5061555913641
 20
0.0000000000000001
 30
0.0
  0
SPLINE
  5
49
330
1F
100
AcDbEntity
  8
MAKE2D VISIBLE LINES
100
AcDbSpline
210
0.0
220
0.0
230
1.0
 70
    12
 71
     2
 72
     6
 73
     3
 74
     0
 42
0.0000000001
 43
0.0000000001
 40
0.0
 40
0.0
 40
0.0
 40
0.8245650009409343
 40
0.8245650009409343
 40
0.8245650009409343
 10
70.81532148673834
 20
0.5905511811023693
 30
0.0
 41
1.0
 10
71.31085276499226
 20
0.5905511811027986
 30
0.0
 41
0.7660444431181237
 10
71.3969008684363
 20
1.078554225787623
 30
0.0
 41
1.0
  0
SPLINE
  5
4A
330
1F
100
AcDbEntity
  8
MAKE2D VISIBLE LINES
100
AcDbSpline
210
0.0
220
0.0
230
1.0
 70
    24
 71
     2
 72
     6
 73
     3
 74
     0
 42
0.0000000001
 43
0.0000000001
 40
0.0
 40
0.0
 40
0.0
 40
3.740088960453804
 40
3.740088960453804
 40
3.740088960453804
 10
40.81184467037743
 20
37.73555798068166
 30
0.0
 10
42.68188915060432
 20
37.73555798068166
 30
0.0
 10
44.55193363083121
 20
37.73555798068166
 30
0.0
  0
SPLINE
  5
4B
330
1F
100
AcDbEntity
  8
MAKE2D VISIBLE LINES
100
AcDbSpline
210
0.0
220
0.0
230
1.0
 70
    24
 71
     2
 72
     6
 73
     3
 74
     0
 42
0.0000000001
 43
0.0000000001
 40
0.0
 40
0.0
 40
0.0
 40
0.5905511811023629
 40
0.5905511811023629
 40
0.5905511811023629
 10
70.02791991193082
 20
0.0000000000000001
 30
0.0
 10
70.02791991193082
 20
0.2952755905511816
 30
0.0
 10
70.02791991193082
 20
0.590551181102363
 30
0.0
  0
SPLINE
  5
4C
330
1F
100
AcDbEntity
  8
MAKE2D VISIBLE LINES
100
AcDbSpline
210
0.0
220
0.0
230
1.0
 70
    24
 71
     2
 72
     6
 73
     3
 74
     0
 42
0.0000000001
 43
0.0000000001
 40
0.0
 40
0.0
 40
0.0
 40
14.47507546551677
 40
14.47507546551677
 40
14.47507546551677
 10
71.3969008684363
 20
1.078554225787624
 30
0.0
 10
72.65368610652546
 20
8.206137497726479
 30
0.0
 10
73.9104713446146
 20
15.33372076966533
 30
0.0
  0
SPLINE
  5
4D
330
1F
100
AcDbEntity
  8
MAKE2D VISIBLE LINES
100
AcDbSpline
210
0.0
220
0.0
230
1.0
 70
    24
 71
     2
 72
     6
 73
     3
 74
     0
 42
0.0000000001
 43
0.0000000001
 40
0.0
 40
0.0
 40
0.0
 40
0.5905509356892085
 40
0.5905509356892085
 40
0.5905509356892085
 10
51.82271432107292
 20
0.0000000000000001
 30
0.0
 10
51.82271432107292
 20
0.2952754678446043
 30
0.0
 10
51.82271432107292
 20
0.5905509356892086
 30
0.0
  0
SPLINE
  5
4E
330
1F
100
AcDbEntity
  8
MAKE2D VISIBLE LINES
100
AcDbSpline
210
0.0
220
0.0
230
1.0
 70
    24
 71
     2
 72
     6
 73
     3
 74
     0
 42
0.0000000001
 43
0.0000000001
 40
0.0
 40
0.0
 40
0.0
 40
37.58007157811466
 40
37.58007157811466
 40
37.58007157811466
 10
46.51362068101055
 20
0.5905511811023992
 30
0.0
 10
43.66273267569399
 20
19.16305458089203
 30
0.0
 10
40.81184467037743
 20
37.73555798068166
 30
0.0
  0
SPLINE
  5
4F
330
1F
100
AcDbEntity
  8
MAKE2D VISIBLE LINES
100
AcDbSpline
210
0.0
220
0.0
230
1.0
 70
    24
 71
     2
 72
     6
 73
     3
 74
     0
 42
0.0000000001
 43
0.0000000001
 40
0.0
 40
0.0
 40
0.0
 40
0.5905511811023629
 40
0.5905511811023629
 40
0.5905511811023629
 10
47.30095000050618
 20
0.590551181102363
 30
0.0
 10
47.30095000050618
 20
0.2952755905511816
 30
0.0
 10
47.30095000050618
 20
0.0000000000000001
 30
0.0
  0
POLYLINE
  5
50
330
1F
100
AcDbEntity
  8
DEFAULT
100
AcDb2dPolyline
 66
     1
 10
0.0
 20
0.0
 30
0.0
  0
VERTEX
  5
51
330
50
100
AcDbEntity
  8
DEFAULT
100
AcDbVertex
100
AcDb2dVertex
 10
32.27810393339981
 20
35.86731835827231
 30
0.0
  0
VERTEX
  5
52
330
50
100
AcDbEntity
  8
DEFAULT
100
AcDbVertex
100
AcDb2dVertex
 10
32.94944581748834
 20
15.85038203633925
 30
0.0
  0
SEQEND
  5
53
330
50
100
AcDbEntity
  8
DEFAULT
  0
SPLINE
  5
54
330
1F
100
AcDbEntity
  8
DEFAULT
100
AcDbSpline
210
0.0
220
0.0
230
1.0
 70
     8
 71
     3
 72
     8
 73
     4
 74
     0
 42
0.0000000001
 43
0.0000000001
 40
0.0
 40
0.0
 40
0.0
 40
0.0
 40
1.0
 40
1.0
 40
1.0
 40
1.0
 10
32.94944581748834
 20
15.85038203633925
 30
0.0
 10
32.97163378334798
 20
15.18881805554557
 30
0.0
 10
32.97727198220217
 20
14.52391686780109
 30
0.0
 10
32.91556746508714
 20
13.8648631832805
 30
0.0
  0
POLYLINE
  5
55
330
1F
100
AcDbEntity
  8
DEFAULT
100
AcDb2dPolyline
 66
     1
 10
0.0
 20
0.0
 30
0.0
  0
VERTEX
  5
56
330
55
100
AcDbEntity
  8
DEFAULT
100
AcDbVertex
100
AcDb2dVertex
 10
32.91556746508714
 20
13.8648631832805
 30
0.0
  0
VERTEX
  5
57
330
55
100
AcDbEntity
  8
DEFAULT
100
AcDbVertex
100
AcDb2dVertex
 10
31.72301250429094
 20
1.127420648223961
 30
0.0
  0
SEQEND
  5
58
330
55
100
AcDbEntity
  8
DEFAULT
  0
SPLINE
  5
59
330
1F
100
AcDbEntity
  8
MAKE2D VISIBLE LINES
100
AcDbSpline
210
0.0
220
0.0
230
1.0
 70
    24
 71
     2
 72
     6
 73
     3
 74
     0
 42
0.0000000001
 43
0.0000000001
 40
0.0
 40
0.0
 40
0.0
 40
0.5905511811023632
 40
0.5905511811023632
 40
0.5905511811023632
 10
6.79835544873654
 20
0.0000000000000003
 30
0.0
 10
6.79835544873654
 20
0.2952755905511819
 30
0.0
 10
6.79835544873654
 20
0.5905511811023635
 30
0.0
  0
LINE
  5
5A
330
1F
100
AcDbEntity
  8
MAKE2D VISIBLE LINES
100
AcDbLine
 10
2.277272864467125
 20
0.0000000000000003
 30
0.0
 11
6.798355448736543
 21
0.0000000000000003
 31
0.0
  0
SPLINE
  5
5B
330
1F
100
AcDbEntity
  8
MAKE2D VISIBLE LINES
100
AcDbSpline
210
0.0
220
0.0
230
1.0
 70
    24
 71
     3
 72
     9
 73
     5
 74
     0
 42
0.0000000001
 43
0.0000000001
 40
0.0
 40
0.0
 40
0.0
 40
0.0
 40
0.000005467904385
 40
29.64517304716269
 40
29.64517304716269
 40
29.64517304716269
 40
29.64517304716269
 10
31.13490078960615
 20
0.5905511811290676
 30
0.0
 10
31.13490988938239
 20
0.5905511811286278
 30
0.0
 10
21.2531855862848
 20
0.5905511811254643
 30
0.0
 10
11.37146118558435
 20
0.590551181124843
 30
0.0
 10
1.489738678252223
 20
0.5905511811226279
 30
0.0
  0
LINE
  5
5C
330
1F
100
AcDbEntity
  8
MAKE2D VISIBLE LINES
100
AcDbLine
 10
1.489738678252281
 20
0.5905511811223576
 30
0.0
 11
1.489738678252042
 21
37.73555801133038
 31
0.0
  0
SPLINE
  5
5D
330
1F
100
AcDbEntity
  8
MAKE2D VISIBLE LINES
100
AcDbSpline
210
0.0
220
0.0
230
1.0
 70
     8
 71
     3
 72
    28
 73
    24
 74
     0
 42
0.0000000001
 43
0.0000000001
 40
0.0
 40
0.0
 40
0.0
 40
0.0
 40
1.0
 40
2.0
 40
3.0
 40
4.0
 40
5.0
 40
6.0
 40
7.0
 40
8.0
 40
9.0
 40
10.0
 40
11.0
 40
12.0
 40
13.0
 40
13.0
 40
13.0
 40
14.8677658977724
 40
17.04956027658197
 40
21.41033304734796
 40
25.15071599688686
 40
33.87880848512437
 40
37.52240687310419
 40
37.52240687310419
 40
37.52240687310419
 40
37.52240687310419
 10
32.96876984493881
 20
14.6718975487871
 30
0.0
 10
32.99904184983622
 20
14.86796129654
 30
0.0
 10
32.90201714725546
 20
15.28104226849104
 30
0.0
 10
32.38417936862387
 20
15.6178622237968
 30
0.0
 10
31.85106182858062
 20
15.86439643172919
 30
0.0
 10
31.28675619207752
 20
16.05231678699606
 30
0.0
 10
30.71517649720419
 20
16.20716845129122
 30
0.0
 10
30.13599317477966
 20
16.3334448349964
 30
0.0
 10
29.55289455861219
 20
16.43884242101312
 30
0.0
 10
28.96664995203119
 20
16.52532584604473
 30
0.0
 10
28.37818891896088
 20
16.59490738426788
 30
0.0
 10
27.78804339362545
 20
16.64844201420943
 30
0.0
 10
27.1966693033407
 20
16.68572461374397
 30
0.0
 10
26.60451911441735
 20
16.70844626402821
 30
0.0
 10
26.20947735053864
 20
16.7101390338153
 30
0.0
 10
26.0119790845919
 20
16.71178315654441
 30
0.0
 10
25.38941310689465
 20
16.71801825030419
 30
0.0
 10
24.03960894888679
 20
16.72954968852873
 30
0.0
 10
21.23620807940659
 20
16.7459855307502
 30
0.0
 10
17.80855708714359
 20
16.75251771850269
 30
0.0
 10
12.19880809166303
 20
16.74473378778812
 30
0.0
 10
6.828163457359768
 20
16.72095767883189
 30
0.0
 10
2.704272057083841
 20
16.71309178225248
 30
0.0
 10
1.489738678252266
 20
16.71308850638105
 30
0.0
  0
SPLINE
  5
5E
330
1F
100
AcDbEntity
  8
MAKE2D VISIBLE LINES
100
AcDbSpline
210
0.0
220
0.0
230
1.0
 70
    12
 71
     3
 72
    23
 73
    19
 74
     0
 42
0.0000000001
 43
0.0000000001
 40
-24.5235367559373
 40
-24.5235367559373
 40
-24.5235367559373
 40
-24.5235367559373
 40
0.0
 40
0.0
 40
0.0
 40
1.0
 40
2.0
 40
3.0
 40
4.0
 40
5.0
 40
6.0
 40
7.0
 40
8.0
 40
9.0
 40
10.0
 40
11.0
 40
12.0
 40
13.0
 40
13.0
 40
13.0
 40
13.0
 10
1.489738678252245
 20
15.33371735391953
 30
0.0
 41
1.0
 10
9.664250930231345
 20
15.33371735134349
 30
0.0
 41
1.0
 10
17.83876318221045
 20
15.33371791934617
 30
0.0
 41
1.0
 10
26.01327543418954
 20
15.33371905792759
 30
0.0
 41
1.0
 10
26.20172805967799
 20
15.33374147506135
 30
0.0
 41
1.0
 10
26.57863361188706
 20
15.33366168892261
 30
0.0
 41
1.0
 10
27.14399095398267
 20
15.33237456893033
 30
0.0
 41
1.0
 10
27.70934083597551
 20
15.32925342155531
 30
0.0
 41
1.0
 10
28.27467727764559
 20
15.32396238324135
 30
0.0
 41
1.0
 10
28.83997537867384
 20
15.31607053760744
 30
0.0
 41
1.0
 10
29.40525625741096
 20
15.3051603527946
 30
0.0
 41
1.0
 10
29.97033005131724
 20
15.29040476587696
 30
0.0
 41
1.0
 10
30.53573030429084
 20
15.27144071829267
 30
0.0
 41
1.0
 10
31.09914734345922
 20
15.24431844480088
 30
0.0
 41
1.0
 10
31.66855560824617
 20
15.2145881689819
 30
0.0
 41
1.0
 10
32.21263018868573
 20
15.14356020629106
 30
0.0
 41
1.0
 10
32.84259962881401
 20
15.12670290700431
 30
0.0
 41
1.0
 10
33.01095787631961
 20
14.76553336845706
 30
0.0
 41
1.0
 10
32.96494688651392
 20
14.56926170204945
 30
0.0
 41
1.0
  0
SPLINE
  5
5F
330
1F
100
AcDbEntity
  8
MAKE2D VISIBLE LINES
100
AcDbSpline
210
0.0
220
0.0
230
1.0
 70
    12
 71
     3
 72
    18
 73
    14
 74
     0
 42
0.0000000001
 43
0.0000000001
 40
0.0
 40
0.0
 40
0.0
 40
0.0
 40
0.7421544789908606
 40
1.566332969541145
 40
3.560497199967823
 40
5.781863111476668
 40
6.523047445550961
 40
8.071905988930874
 40
12.05982774072636
 40
12.98964945711916
 40
12.98964945711916
 40
12.98964945711916
 40
16.61994885722703
 40
16.61994885722703
 40
16.61994885722703
 40
16.61994885722703
 10
32.64793146628833
 20
54.53903334828335
 30
0.0
 41
1.0
 10
32.69346271543535
 20
54.7822240206119
 30
0.0
 41
1.0
 10
32.77373518361608
 20
55.29824207801655
 30
0.0
 41
1.0
 10
32.89588481646668
 20
56.47927445966297
 30
0.0
 41
1.0
 10
32.9652693772973
 20
58.15843428547141
 30
0.0
 41
1.0
 10
32.97390941806005
 20
59.8106380111883
 30
0.0
 41
1.0
 10
32.97358042276326
 20
61.3144691889034
 30
0.0
 41
1.0
 10
32.97078488241621
 20
63.40710377704237
 30
0.0
 41
1.0
 10
32.9665044475454
 20
65.56264914655603
 30
0.0
 41
1.0
 10
32.96355325920538
 20
67.20188583443166
 30
0.0
 41
1.0
 10
32.96327620139618
 20
67.51182851797529
 30
0.0
 41
1.0
 10
32.96219449342833
 20
68.7219278512121
 30
0.0
 41
0.9999999724704063
 10
32.96076502396976
 20
69.93202682360109
 30
0.0
 41
0.9999999724704063
 10
32.95898779313853
 20
71.14212533521507
 30
0.0
 41
1.0
  0
POLYLINE
  5
60
330
1F
100
AcDbEntity
  8
DEFAULT
100
AcDb2dPolyline
 66
     1
 10
0.0
 20
0.0
 30
0.0
  0
VERTEX
  5
61
330
60
100
AcDbEntity
  8
DEFAULT
100
AcDbVertex
100
AcDb2dVertex
 10
32.27810397963152
 20
80.47282245319906
 30
0.0
  0
VERTEX
  5
62
330
60
100
AcDbEntity
  8
DEFAULT
100
AcDbVertex
100
AcDb2dVertex
 10
32.96817862866489
 20
76.38210158048102
 30
0.0
  0
SEQEND
  5
63
330
60
100
AcDbEntity
  8
DEFAULT
  0
SPLINE
  5
64
330
1F
100
AcDbEntity
  8
MAKE2D VISIBLE LINES
100
AcDbSpline
210
0.0
220
0.0
230
1.0
 70
     8
 71
     3
 72
    20
 73
    16
 74
     0
 42
0.0000000001
 43
0.0000000001
 40
0.0
 40
0.0
 40
0.0
 40
0.0
 40
1.324479812176416
 40
2.513532832219253
 40
3.573832110838721
 40
4.526635532906982
 40
5.348344989997436
 40
6.120914223309962
 40
6.762136499910313
 40
7.100434077027464
 40
7.587091295078698
 40
7.710752169098355
 40
7.782672458299325
 40
7.873533973617392
 40
7.978889973570269
 40
7.978889973570269
 40
7.978889973570269
 40
7.978889973570269
 10
25.8366307803581
 20
69.46152761492428
 30
0.0
 10
26.2781239678905
 20
69.46011257247665
 30
0.0
 10
27.11615671678505
 20
69.48048348676346
 30
0.0
 10
28.30250293670471
 20
69.60075339911168
 30
0.0
 10
29.35058898656234
 20
69.81033606145394
 30
0.0
 10
30.25028000693748
 20
70.10637261615088
 30
0.0
 10
31.01228472382977
 20
70.4860797639725
 30
0.0
 10
31.61864476346986
 20
70.92438724893583
 30
0.0
 10
32.02801243464032
 20
71.34328220830636
 30
0.0
 10
32.33151713685908
 20
71.7266132341276
 30
0.0
 10
32.51158885744439
 20
71.98669967101202
 30
0.0
 10
32.64623282668865
 20
72.16994482384393
 30
0.0
 10
32.70733316013197
 20
72.24341967910917
 30
0.0
 10
32.76625813754389
 20
72.31053714374346
 30
0.0
 10
32.81196641899159
 20
72.35753353133092
 30
0.0
 10
32.83948661490703
 20
72.37941908613524
 30
0.0
  0
SPLINE
  5
65
330
1F
100
AcDbEntity
  8
MAKE2D VISIBLE LINES
100
AcDbSpline
210
0.0
220
0.0
230
1.0
 70
    12
 71
     2
 72
     6
 73
     3
 74
     0
 42
0.0000000001
 43
0.0000000001
 40
0.0
 40
0.0
 40
0.0
 40
0.4816833045556748
 40
0.4816833045556748
 40
0.4816833045556748
 10
32.89592564563358
 20
56.73120832055155
 30
0.0
 41
1.0
 10
32.91000841862552
 20
56.97164242246647
 30
0.0
 41
0.9999718086608141
 10
32.92047896841971
 20
57.21226089525231
 30
0.0
 41
1.0
  0
SPLINE
  5
66
330
1F
100
AcDbEntity
  8
MAKE2D VISIBLE LINES
100
AcDbSpline
210
0.0
220
0.0
230
1.0
 70
     8
 71
     3
 72
    13
 73
     9
 74
     0
 42
0.0000000001
 43
0.0000000001
 40
0.0
 40
0.0
 40
0.0
 40
0.0
 40
3.184783807485474
 40
6.147291912910337
 40
11.98619750794595
 40
17.97922765793273
 40
21.05257346007612
 40
24.58698733142136
 40
24.58698733142136
 40
24.58698733142136
 40
24.58698733142136
 10
26.01327547595234
 20
49.21166804175848
 30
0.0
 10
24.96061688595199
 20
49.07426364827371
 30
0.0
 10
22.92636265068924
 20
48.82723087553719
 30
0.0
 10
18.95210583004789
 20
48.41558776972315
 30
0.0
 10
14.03481297463397
 20
48.03203413768806
 30
0.0
 10
9.070248360128158
 20
47.81831884641911
 30
0.0
 10
4.870505825907461
 20
47.74389542579165
 30
0.0
 10
2.667869050017305
 20
47.73948834139055
 30
0.0
 10
1.489738720014977
 20
47.74010897822158
 30
0.0
  0
SPLINE
  5
67
330
1F
100
AcDbEntity
  8
MAKE2D VISIBLE LINES
100
AcDbSpline
210
0.0
220
0.0
230
1.0
 70
    24
 71
     2
 72
     6
 73
     3
 74
     0
 42
0.0000000001
 43
0.0000000001
 40
0.0
 40
0.0
 40
0.0
 40
24.34689206034321
 40
24.34689206034321
 40
24.34689206034321
 10
1.489738720014834
 20
77.09864669800666
 30
0.0
 10
13.66318475018644
 20
77.0986466950047
 30
0.0
 10
25.83663078035804
 20
77.09864669200275
 30
0.0
  0
SPLINE
  5
68
330
1F
100
AcDbEntity
  8
MAKE2D VISIBLE LINES
100
AcDbSpline
210
0.0
220
0.0
230
1.0
 70
    12
 71
     3
 72
    10
 73
     6
 74
     0
 42
0.0000000001
 43
0.0000000001
 40
-76.8722339844704
 40
-76.8722339844704
 40
-76.8722339844704
 40
-76.8722339844704
 40
-38.39140786405092
 40
-38.39140786405092
 40
0.0
 40
0.0
 40
0.0
 40
0.0
 10
32.27810397963152
 20
80.47282245319906
 30
0.0
 41
1.0
 10
32.26140203268594
 20
80.57037700023213
 30
0.0
 41
1.0
 10
32.04771359918773
 20
80.66569783789203
 30
0.0
 41
1.0
 10
31.30456549443043
 20
80.80315263923671
 30
0.0
 41
1.0
 10
30.81109021218123
 20
80.83880457837569
 30
0.0
 41
1.0
 10
30.31066540044707
 20
80.83880486329909
 30
0.0
 41
1.0
  0
SPLINE
  5
69
330
1F
100
AcDbEntity
  8
MAKE2D VISIBLE LINES
100
AcDbSpline
210
0.0
220
0.0
230
1.0
 70
     8
 71
     3
 72
    19
 73
    15
 74
     0
 42
0.0000000001
 43
0.0000000001
 40
0.0
 40
0.0
 40
0.0
 40
0.0
 40
2.250981113692362
 40
4.500874791148756
 40
4.632737376162681
 40
4.764580268403987
 40
4.895325123855378
 40
5.034534188922523
 40
5.591966160641393
 40
6.04566547884643
 40
6.221119641274703
 40
6.354036614009507
 40
6.454011311672331
 40
6.523254644945586
 40
6.523254644945586
 40
6.523254644945586
 40
6.523254644945586
 10
25.83663078035804
 20
77.09864669200275
 30
0.0
 10
26.58695809843215
 20
77.09870885789616
 30
0.0
 10
28.08724869959686
 20
77.098486904065
 30
0.0
 10
29.63149603594666
 20
77.09883389498196
 30
0.0
 10
30.4693604088238
 20
77.09836742774434
 30
0.0
 10
30.60082362186657
 20
77.09450669217318
 30
0.0
 10
30.73465026948434
 20
77.0901476245837
 30
0.0
 10
31.01016374427873
 20
77.07644550440759
 30
0.0
 10
31.39228489679815
 20
77.04309252205059
 30
0.0
 10
31.78290999480172
 20
76.9775324165947
 30
0.0
 10
32.02772355277467
 20
76.90847141643738
 30
0.0
 10
32.15386271783747
 20
76.85672742940469
 30
0.0
 10
32.2398381649753
 20
76.8028795283937
 30
0.0
 10
32.27414267809531
 20
76.755920949119
 30
0.0
 10
32.27810397757074
 20
76.73266498489468
 30
0.0
  0
SPLINE
  5
6A
330
1F
100
AcDbEntity
  8
MAKE2D VISIBLE LINES
100
AcDbSpline
210
0.0
220
0.0
230
1.0
 70
    24
 71
     2
 72
     6
 73
     3
 74
     0
 42
0.0000000001
 43
0.0000000001
 40
0.0
 40
0.0
 40
0.0
 40
3.719302578952693
 40
3.719302578952693
 40
3.719302578952693
 10
32.96816777394549
 20
72.66279838125186
 30
0.0
 10
32.96816777394549
 20
74.52244967072821
 30
0.0
 10
32.96816777394549
 20
76.38210096020455
 30
0.0
  0
SPLINE
  5
6B
330
1F
100
AcDbEntity
  8
MAKE2D VISIBLE LINES
100
AcDbSpline
210
0.0
220
0.0
230
1.0
 70
     8
 71
     3
 72
    19
 73
    15
 74
     0
 42
0.0000000001
 43
0.0000000001
 40
0.0
 40
0.0
 40
0.0
 40
0.0
 40
0.1724115126533683
 40
0.3630428146526849
 40
0.6843474692029033
 40
0.9335150306647455
 40
1.02836424847409
 40
1.092901712427595
 40
1.092901712427595
 40
1.092901712427595
 40
1.112309936292933
 40
1.129454105819784
 40
1.160051920749049
 40
1.23312776896579
 40
1.23312776896579
 40
1.23312776896579
 40
1.23312776896579
 10
32.95898779313918
 20
71.14212533520163
 30
0.0
 10
32.95883684306383
 20
71.1995994076972
 30
0.0
 10
32.95763299969869
 20
71.32060026893384
 30
0.0
 10
32.95209467432803
 20
71.54867190338166
 30
0.0
 10
32.93968255298724
 20
71.80208275035903
 30
0.0
 10
32.91954476874865
 20
72.02305061545292
 30
0.0
 10
32.8980220458652
 20
72.15759203043706
 30
0.0
 10
32.88512857319758
 20
72.20922685328156
 30
0.0
 10
32.87778350660923
 20
72.22946254229976
 30
0.0
 10
32.87556280633702
 20
72.23552644058293
 30
0.0
 10
32.8708545461349
 20
72.24680755688595
 30
0.0
 10
32.86092800534128
 20
72.26683470184904
 30
0.0
 10
32.83696370394279
 20
72.29973250711325
 30
0.0
 10
32.80675408794249
 20
72.31828341867194
 30
0.0
 10
32.785259834466
 20
72.32935211005108
 30
0.0
  0
SPLINE
  5
6C
330
1F
100
AcDbEntity
  8
MAKE2D VISIBLE LINES
100
AcDbSpline
210
0.0
220
0.0
230
1.0
 70
     8
 71
     3
 72
    20
 73
    16
 74
     0
 42
0.0000000001
 43
0.0000000001
 40
0.0
 40
0.0
 40
0.0
 40
0.0
 40
1.0
 40
2.0
 40
3.0
 40
4.0
 40
5.0
 40
6.0
 40
7.0
 40
8.0
 40
9.0
 40
10.0
 40
11.0
 40
12.0
 40
13.0
 40
13.0
 40
13.0
 40
13.0
 10
32.64793146628843
 20
54.53903334828394
 30
0.0
 10
32.60402272335072
 20
54.30488056044209
 30
0.0
 10
32.50141321405261
 20
53.83927537677486
 30
0.0
 10
32.29196963523531
 20
53.15512437368716
 30
0.0
 10
32.012035004875
 20
52.49626802794435
 30
0.0
 10
31.65249436877404
 20
51.87660193439751
 30
0.0
 10
31.20693828196248
 20
51.31533218558939
 30
0.0
 10
30.68488352998287
 20
50.82439027060001
 30
0.0
 10
30.0991012267565
 20
50.41220869180064
 30
0.0
 10
29.46799453560027
 20
50.07430491904306
 30
0.0
 10
28.80546356803402
 20
49.80407469995064
 30
0.0
 10
28.1222799674539
 20
49.59224748041108
 30
0.0
 10
27.42598025547695
 20
49.42943290065445
 30
0.0
 10
26.72178450942935
 20
49.30604181035632
 30
0.0
 10
26.24952002910815
 20
49.24239213894822
 30
0.0
 10
26.01327547595234
 20
49.21166804175848
 30
0.0
  0
LINE
  5
6D
330
1F
100
AcDbEntity
  8
MAKE2D VISIBLE LINES
100
AcDbLine
 10
1.489738720015008
 20
80.83880958866095
 30
0.0
 11
1.48973872001504
 21
47.74010897822158
 31
0.0
  0
SPLINE
  5
6E
330
1F
100
AcDbEntity
  8
MAKE2D VISIBLE LINES
100
AcDbSpline
210
0.0
220
0.0
230
1.0
 70
    12
 71
     3
 72
    25
 73
    21
 74
     0
 42
0.0000000001
 43
0.0000000001
 40
-0.1923445324607494
 40
-0.1923445324607494
 40
-0.1923445324607494
 40
-0.1923445324607494
 40
0.0
 40
0.0
 40
0.0
 40
0.063102076557993
 40
0.096356750720748
 40
0.119078995566618
 40
0.1320870683665563
 40
0.1900970156453766
 40
0.1900970156453766
 40
0.1900970156453766
 40
2.819209020326702
 40
7.304343766305299
 40
11.78947851228391
 40
16.27461325826251
 40
20.7597480042412
 40
20.7597480042412
 40
20.7597480042412
 40
24.77242449529737
 40
24.77242449529737
 40
24.77242449529737
 40
24.77242449529737
 10
32.85074602434022
 20
72.28010299460666
 30
0.0
 41
1.0
 10
32.85851125258481
 20
72.30460390387863
 30
0.0
 41
0.9985766411563873
 10
32.86786007904634
 20
72.32854534845985
 30
0.0
 41
0.9985766411563873
 10
32.87875258352034
 20
72.35182509654976
 30
0.0
 41
1.0
 10
32.88767992601142
 20
72.3709048485756
 30
0.0
 41
1.0
 10
32.90280962605559
 20
72.39917190539606
 30
0.0
 41
1.0
 10
32.92129257353037
 20
72.43438731299597
 30
0.0
 41
1.0
 10
32.93436532646999
 20
72.45332404053138
 30
0.0
 41
1.0
 10
32.94881772887797
 20
72.48113364338221
 30
0.0
 41
1.0
 10
32.95378144263614
 20
72.50465999630376
 30
0.0
 41
1.0
 10
32.95694434855029
 20
72.52364679984063
 30
0.0
 41
1.0
 10
32.95801308147352
 20
72.53017640190927
 30
0.0
 41
1.0
 10
32.95966532742364
 20
72.5478438237451
 30
0.0
 41
1.0
 10
32.96379910938834
 20
72.5766359379734
 30
0.0
 41
1.0
 10
32.96609107608585
 20
72.61016891291402
 30
0.0
 41
1.0
 10
32.96709502254064
 20
72.64365471830061
 30
0.0
 41
1.0
 10
32.95692070877641
 20
72.76649243087263
 30
0.0
 41
1.0
 10
32.95503800015589
 20
72.77749964181487
 30
0.0
 41
1.0
 10
32.72953254166149
 20
74.09591191401653
 30
0.0
 41
0.9999999962832291
 10
32.50388786662678
 20
75.4143003666097
 30
0.0
 41
0.9999999962832291
 10
32.27810397756778
 20
76.73266498489394
 30
0.0
 41
1.0
  0
LINE
  5
6F
330
1F
100
AcDbEntity
  8
MAKE2D VISIBLE LINES
100
AcDbLine
 10
30.31066540044707
 20
80.83880486329909
 30
0.0
 11
1.489738720015328
 21
80.83880958866092
 31
0.0
  0
SPLINE
  5
70
330
1F
100
AcDbEntity
  8
MAKE2D VISIBLE LINES
100
AcDbSpline
210
0.0
220
0.0
230
1.0
 70
    24
 71
     2
 72
     6
 73
     3
 74
     0
 42
0.0000000001
 43
0.0000000001
 40
0.0
 40
0.0
 40
0.0
 40
24.34689206034307
 40
24.34689206034307
 40
24.34689206034307
 10
1.489738720015026
 20
69.46160106724938
 30
0.0
 10
13.66318475018656
 20
69.46160106724938
 30
0.0
 10
25.83663078035809
 20
69.46160106724938
 30
0.0
  0
SPLINE
  5
71
330
1F
100
AcDbEntity
  8
MAKE2D VISIBLE LINES
100
AcDbSpline
210
0.0
220
0.0
230
1.0
 70
    24
 71
     2
 72
     6
 73
     3
 74
     0
 42
0.0000000001
 43
0.0000000001
 40
0.0
 40
0.0
 40
0.0
 40
0.5905511811023632
 40
0.5905511811023632
 40
0.5905511811023632
 10
25.25593895731834
 20
0.5905511811023635
 30
0.0
 10
25.25593895731834
 20
0.2952755905511819
 30
0.0
 10
25.25593895731834
 20
0.0000000000000003
 30
0.0
  0
LINE
  5
72
330
1F
100
AcDbEntity
  8
MAKE2D VISIBLE LINES
100
AcDbLine
 10
25.25593895731833
 20
0.0000000000000003
 30
0.0
 11
29.77702154158752
 21
0.0000000000000003
 31
0.0
  0
SPLINE
  5
73
330
1F
100
AcDbEntity
  8
MAKE2D VISIBLE LINES
100
AcDbSpline
210
0.0
220
0.0
230
1.0
 70
    24
 71
     2
 72
     6
 73
     3
 74
     0
 42
0.0000000001
 43
0.0000000001
 40
0.0
 40
0.0
 40
0.0
 40
24.3468920603432
 40
24.3468920603432
 40
24.3468920603432
 10
1.489738678252042
 20
37.73555801133038
 30
0.0
 10
13.66318470842364
 20
37.73555799600605
 30
0.0
 10
25.83663073859525
 20
37.73555798068172
 30
0.0
  0
SPLINE
  5
74
330
1F
100
AcDbEntity
  8
MAKE2D VISIBLE LINES
100
AcDbSpline
210
0.0
220
0.0
230
1.0
 70
    12
 71
     2
 72
     6
 73
     3
 74
     0
 42
0.0000000001
 43
0.0000000001
 40
0.0
 40
0.0
 40
0.0
 40
0.8738621841353421
 40
0.8738621841353421
 40
0.8738621841353421
 10
31.13490630214552
 20
0.5905511811301735
 30
0.0
 41
1.0
 10
31.67399158312411
 20
0.5905512578470583
 30
0.0
 41
0.738556298809955
 10
31.72301096961355
 20
1.127403229917553
 30
0.0
 41
1.0
  0
SPLINE
  5
75
330
1F
100
AcDbEntity
  8
MAKE2D VISIBLE LINES
100
AcDbSpline
210
0.0
220
0.0
230
1.0
 70
    24
 71
     2
 72
     6
 73
     3
 74
     0
 42
0.0000000001
 43
0.0000000001
 40
0.0
 40
0.0
 40
0.0
 40
0.5905511811023632
 40
0.5905511811023632
 40
0.5905511811023632
 10
29.77770327788505
 20
0.0000000000000003
 30
0.0
 10
29.77770327788505
 20
0.2952755905511819
 30
0.0
 10
29.77770327788505
 20
0.5905511811023635
 30
0.0
  0
SPLINE
  5
76
330
1F
100
AcDbEntity
  8
MAKE2D VISIBLE LINES
100
AcDbSpline
210
0.0
220
0.0
230
1.0
 70
    24
 71
     2
 72
     6
 73
     3
 74
     0
 42
0.0000000001
 43
0.0000000001
 40
0.0
 40
0.0
 40
0.0
 40
0.5905511811023629
 40
0.5905511811023629
 40
0.5905511811023629
 10
2.276591128169859
 20
0.5905511811023633
 30
0.0
 10
2.276591128169859
 20
0.2952755905511818
 30
0.0
 10
2.276591128169859
 20
0.0000000000000003
 30
0.0
  0
SPLINE
  5
77
330
1F
100
AcDbEntity
  8
MAKE2D VISIBLE LINES
100
AcDbSpline
210
0.0
220
0.0
230
1.0
 70
     8
 71
     3
 72
    19
 73
    15
 74
     0
 42
0.0000000001
 43
0.0000000001
 40
0.0
 40
0.0
 40
0.0
 40
0.0
 40
3.894324579778458
 40
4.115266492256044
 40
4.225355341262762
 40
4.335682330182519
 40
4.412864165069888
 40
4.500878762533932
 40
4.765528258741432
 40
5.041791230202339
 40
5.657124117880454
 40
6.269120808821402
 40
6.86761344968055
 40
7.473803455867556
 40
7.473803455867556
 40
7.473803455867556
 40
7.473803455867556
 10
25.83663073859525
 20
37.73555798068172
 30
0.0
 10
27.1347391893407
 20
37.73555994666421
 30
0.0
 10
28.50649391233886
 20
37.73555386311939
 30
0.0
 10
29.91494662715291
 20
37.73556158876302
 30
0.0
 10
30.06206154218209
 20
37.73545414669574
 30
0.0
 10
30.16127625651407
 20
37.73598714807669
 30
0.0
 10
30.25308364910242
 20
37.73511672920647
 30
0.0
 10
30.39643378458301
 20
37.7360828688812
 30
0.0
 10
30.60586779688595
 20
37.72012033730852
 30
0.0
 10
30.9833698079526
 20
37.63764699690849
 30
0.0
 10
31.44286086200765
 20
37.42303493687382
 30
0.0
 10
31.89420065935406
 20
37.00347841267104
 30
0.0
 10
32.19309909736666
 20
36.46841103920727
 30
0.0
 10
32.2714026037959
 20
36.06924918217362
 30
0.0
 10
32.27810393580795
 20
35.86731841766547
 30
0.0
  0
ENDSEC
  0
SECTION
  2
OBJECTS
  0
DICTIONARY
  5
C
330
0
100
AcDbDictionary
281
     1
  3
ACAD_GROUP
350
D
  3
ACAD_LAYOUT
350
1A
  3
ACAD_MLEADERSTYLE
350
7A
  3
ACAD_MLINESTYLE
350
17
  3
ACAD_PLOTSETTINGS
350
19
  3
ACAD_PLOTSTYLENAME
350
E
  3
ACAD_VISUALSTYLE
350
2A
  3
AcDbVariableDictionary
350
78
  0
DICTIONARY
  5
D
102
{ACAD_REACTORS
330
C
102
}
330
C
100
AcDbDictionary
281
     1
  0
DICTIONARY
  5
1A
102
{ACAD_REACTORS
330
C
102
}
330
C
100
AcDbDictionary
281
     1
  3
Layout1
350
1E
  3
Layout2
350
26
  3
Model
350
22
  0
DICTIONARY
  5
7A
102
{ACAD_REACTORS
330
C
102
}
330
C
100
AcDbDictionary
281
     1
  0
DICTIONARY
  5
17
102
{ACAD_REACTORS
330
C
102
}
330
C
100
AcDbDictionary
281
     1
  3
Standard
350
18
  0
DICTIONARY
  5
19
102
{ACAD_REACTORS
330
C
102
}
330
C
100
AcDbDictionary
281
     1
  0
ACDBDICTIONARYWDFLT
  5
E
102
{ACAD_REACTORS
330
C
102
}
330
C
100
AcDbDictionary
281
     1
  3
Normal
350
F
100
AcDbDictionaryWithDefault
340
F
  0
DICTIONARY
  5
2A
102
{ACAD_REACTORS
330
C
102
}
330
C
100
AcDbDictionary
281
     1
  3
2dWireframe
350
2F
  3
3D Hidden
350
31
  3
3dWireframe
350
30
  3
Basic
350
32
  3
Brighten
350
36
  3
ColorChange
350
3A
  3
Conceptual
350
34
  3
Dim
350
35
  3
Facepattern
350
39
  3
Flat
350
2B
  3
FlatWithEdges
350
2C
  3
Gouraud
350
2D
  3
GouraudWithEdges
350
2E
  3
Linepattern
350
38
  3
Realistic
350
33
  3
Thicken
350
37
  0
DICTIONARY
  5
78
102
{ACAD_REACTORS
330
C
102
}
330
C
100
AcDbDictionary
281
     1
  0
LAYOUT
  5
1E
102
{ACAD_REACTORS
330
1A
102
}
330
1A
100
AcDbPlotSettings
  1

  2
none_device
  4

  6

 40
0.0
 41
0.0
 42
0.0
 43
0.0
 44
0.0
 45
0.0
 46
0.0
 47
0.0
 48
0.0
 49
0.0
140
0.0
141
0.0
142
1.0
143
1.0
 70
   688
 72
     0
 73
     0
 74
     5
  7

 75
    16
147
1.0
148
0.0
149
0.0
100
AcDbLayout
  1
Layout1
 70
     1
 71
     1
 10
0.0
 20
0.0
 11
12.0
 21
9.0
 12
0.0
 22
0.0
 32
0.0
 14
1.000000000000000E+20
 24
1.000000000000000E+20
 34
1.000000000000000E+20
 15
-1.000000000000000E+20
 25
-1.000000000000000E+20
 35
-1.000000000000000E+20
146
0.0
 13
0.0
 23
0.0
 33
0.0
 16
1.0
 26
0.0
 36
0.0
 17
0.0
 27
1.0
 37
0.0
 76
     0
330
1B
  0
LAYOUT
  5
26
102
{ACAD_REACTORS
330
1A
102
}
330
1A
100
AcDbPlotSettings
  1

  2
none_device
  4

  6

 40
0.0
 41
0.0
 42
0.0
 43
0.0
 44
0.0
 45
0.0
 46
0.0
 47
0.0
 48
0.0
 49
0.0
140
0.0
141
0.0
142
1.0
143
1.0
 70
   688
 72
     0
 73
     0
 74
     5
  7

 75
    16
147
1.0
148
0.0
149
0.0
100
AcDbLayout
  1
Layout2
 70
     1
 71
     2
 10
0.0
 20
0.0
 11
0.0
 21
0.0
 12
0.0
 22
0.0
 32
0.0
 14
0.0
 24
0.0
 34
0.0
 15
0.0
 25
0.0
 35
0.0
146
0.0
 13
0.0
 23
0.0
 33
0.0
 16
1.0
 26
0.0
 36
0.0
 17
0.0
 27
1.0
 37
0.0
 76
     0
330
23
  0
LAYOUT
  5
22
102
{ACAD_REACTORS
330
1A
102
}
330
1A
100
AcDbPlotSettings
  1

  2
none_device
  4

  6

 40
0.0
 41
0.0
 42
0.0
 43
0.0
 44
0.0
 45
0.0
 46
0.0
 47
0.0
 48
0.0
 49
0.0
140
0.0
141
0.0
142
1.0
143
1.0
 70
  1712
 72
     0
 73
     0
 74
     0
  7

 75
     0
147
1.0
148
0.0
149
0.0
100
AcDbLayout
  1
Model
 70
     1
 71
     0
 10
0.0
 20
0.0
 11
12.0
 21
9.0
 12
0.0
 22
0.0
 32
0.0
 14
1.489738678252042
 24
0.0000000000000001
 34
0.0
 15
73.9104713446146
 25
80.83880958866095
 35
0.0
146
0.0
 13
0.0
 23
0.0
 33
0.0
 16
1.0
 26
0.0
 36
0.0
 17
0.0
 27
1.0
 37
0.0
 76
     0
330
1F
331
29
  0
MLINESTYLE
  5
18
102
{ACAD_REACTORS
330
17
102
}
330
17
100
AcDbMlineStyle
  2
Standard
 70
     0
  3

 62
   256
 51
90.0
 52
90.0
 71
     2
 49
0.5
 62
   256
  6
BYLAYER
 49
-0.5
 62
   256
  6
BYLAYER
  0
ACDBPLACEHOLDER
  5
F
102
{ACAD_REACTORS
330
E
102
}
330
E
  0
VISUALSTYLE
  5
2F
102
{ACAD_REACTORS
330
2A
102
}
330
2A
100
AcDbVisualStyle
  2
2dWireframe
 70
     4
 71
     0
 72
     2
 73
     0
 90
        0
 40
-0.6
 41
-30.0
 62
     5
 63
     7
 74
     1
 91
        4
 64
     7
 65
   257
 75
     1
175
     1
 42
1.0
 92
        0
 66
   257
 43
1.0
 76
     1
 77
     6
 78
     2
 67
     7
 79
     5
170
     0
171
     0
290
     0
174
     0
 93
        1
 44
0.0
173
     0
291
     0
 45
0.0
1001
ACAD
1000
AcDbSavedByObjectVersion
1070
     0
  0
VISUALSTYLE
  5
31
102
{ACAD_REACTORS
330
2A
102
}
330
2A
100
AcDbVisualStyle
  2
3D Hidden
 70
     6
 71
     1
 72
     2
 73
     2
 90
        0
 40
-0.6
 41
-30.0
 62
     5
 63
     7
 74
     2
 91
        2
 64
     7
 65
   257
 75
     2
175
     1
 42
40.0
 92
        0
 66
   257
 43
1.0
 76
     1
 77
     6
 78
     2
 67
     7
 79
     3
170
     0
171
     0
290
     0
174
     0
 93
        1
 44
0.0
173
     0
291
     0
 45
0.0
1001
ACAD
1000
AcDbSavedByObjectVersion
1070
     0
  0
VISUALSTYLE
  5
30
102
{ACAD_REACTORS
330
2A
102
}
330
2A
100
AcDbVisualStyle
  2
3dWireframe
 70
     5
 71
     0
 72
     2
 73
     0
 90
        0
 40
-0.6
 41
-30.0
 62
     5
 63
     7
 74
     1
 91
        4
 64
     7
 65
   257
 75
     1
175
     1
 42
1.0
 92
        0
 66
   257
 43
1.0
 76
     1
 77
     6
 78
     2
 67
     7
 79
     5
170
     0
171
     0
290
     0
174
     0
 93
        1
 44
0.0
173
     0
291
     0
 45
0.0
1001
ACAD
1000
AcDbSavedByObjectVersion
1070
     0
  0
VISUALSTYLE
  5
32
102
{ACAD_REACTORS
330
2A
102
}
330
2A
100
AcDbVisualStyle
  2
Basic
 70
     7
 71
     1
 72
     0
 73
     1
 90
        0
 40
-0.6
 41
-30.0
 62
     5
 63
     7
 74
     0
 91
        4
 64
     7
 65
   257
 75
     1
175
     1
 42
1.0
 92
        8
 66
     7
 43
1.0
 76
     1
 77
     6
 78
     2
 67
     7
 79
     5
170
     0
171
     0
290
     0
174
     0
 93
        1
 44
0.0
173
     0
291
     1
 45
0.0
1001
ACAD
1000
AcDbSavedByObjectVersion
1070
     0
  0
VISUALSTYLE
  5
36
102
{ACAD_REACTORS
330
2A
102
}
330
2A
100
AcDbVisualStyle
  2
Brighten
 70
    12
 71
     2
 72
     2
 73
     0
 90
        0
 40
-0.6
 41
-30.0
 62
     5
 63
     7
 74
     1
 91
        4
 64
     7
 65
   257
 75
     1
175
     1
 42
1.0
 92
        8
 66
     7
 43
1.0
 76
     1
 77
     6
 78
     2
 67
     7
 79
     5
170
     0
171
     0
290
     0
174
     0
 93
        1
 44
50.0
173
     0
291
     1
 45
0.0
1001
ACAD
1000
AcDbSavedByObjectVersion
1070
     0
  0
VISUALSTYLE
  5
3A
102
{ACAD_REACTORS
330
2A
102
}
330
2A
100
AcDbVisualStyle
  2
ColorChange
 70
    16
 71
     2
 72
     2
 73
     3
 90
        0
 40
-0.6
 41
-30.0
 62
     5
 63
     8
 74
     1
 91
        4
 64
     7
 65
   257
 75
     1
175
     1
 42
1.0
 92
        8
 66
     8
 43
1.0
 76
     1
 77
     6
 78
     2
 67
     7
 79
     5
170
     0
171
     0
290
     0
174
     0
 93
        1
 44
0.0
173
     0
291
     1
 45
0.0
1001
ACAD
1000
AcDbSavedByObjectVersion
1070
     0
  0
VISUALSTYLE
  5
34
102
{ACAD_REACTORS
330
2A
102
}
330
2A
100
AcDbVisualStyle
  2
Conceptual
 70
     9
 71
     3
 72
     2
 73
     0
 90
        0
 40
-0.6
 41
-30.0
 62
     5
 63
     7
 74
     2
 91
        2
 64
     7
 65
   257
 75
     1
175
     1
 42
40.0
 92
        8
 66
     7
 43
1.0
 76
     1
 77
     6
 78
     2
 67
     7
 79
     3
170
     0
171
     0
290
     0
174
     0
 93
        1
 44
0.0
173
     0
291
     0
 45
0.0
1001
ACAD
1000
AcDbSavedByObjectVersion
1070
     0
  0
VISUALSTYLE
  5
35
102
{ACAD_REACTORS
330
2A
102
}
330
2A
100
AcDbVisualStyle
  2
Dim
 70
    11
 71
     2
 72
     2
 73
     0
 90
        0
 40
-0.6
 41
-30.0
 62
     5
 63
     7
 74
     1
 91
        4
 64
     7
 65
   257
 75
     1
175
     1
 42
1.0
 92
        8
 66
     7
 43
1.0
 76
     1
 77
     6
 78
     2
 67
     7
 79
     5
170
     0
171
     0
290
     0
174
     0
 93
        1
 44
-50.0
173
     0
291
     1
 45
0.0
1001
ACAD
1000
AcDbSavedByObjectVersion
1070
     0
  0
VISUALSTYLE
  5
39
102
{ACAD_REACTORS
330
2A
102
}
330
2A
100
AcDbVisualStyle
  2
Facepattern
 70
    15
 71
     2
 72
     2
 73
     0
 90
        0
 40
-0.6
 41
-30.0
 62
     5
 63
     7
 74
     1
 91
        4
 64
     7
 65
   257
 75
     1
175
     1
 42
1.0
 92
        8
 66
     7
 43
1.0
 76
     1
 77
     6
 78
     2
 67
     7
 79
     5
170
     0
171
     0
290
     0
174
     0
 93
        1
 44
0.0
173
     0
291
     1
 45
0.0
1001
ACAD
1000
AcDbSavedByObjectVersion
1070
     0
  0
VISUALSTYLE
  5
2B
102
{ACAD_REACTORS
330
2A
102
}
330
2A
100
AcDbVisualStyle
  2
Flat
 70
     0
 71
     2
 72
     1
 73
     1
 90
        2
 40
-0.6
 41
30.0
 62
     5
 63
     7
 74
     0
 91
        4
 64
     7
 65
   257
 75
     1
175
     1
 42
1.0
 92
        8
 66
     7
 43
1.0
 76
     1
 77
     6
 78
     2
 67
     7
 79
     5
170
     0
171
     0
290
     0
174
     0
 93
       13
 44
0.0
173
     0
291
     1
 45
0.0
1001
ACAD
1000
AcDbSavedByObjectVersion
1070
     0
  0
VISUALSTYLE
  5
2C
102
{ACAD_REACTORS
330
2A
102
}
330
2A
100
AcDbVisualStyle
  2
FlatWithEdges
 70
     1
 71
     2
 72
     1
 73
     1
 90
        2
 40
-0.6
 41
30.0
 62
     5
 63
     7
 74
     1
 91
        4
 64
     7
 65
   257
 75
     1
175
     1
 42
1.0
 92
        0
 66
   257
 43
1.0
 76
     1
 77
     6
 78
     2
 67
     7
 79
     5
170
     0
171
     0
290
     0
174
     0
 93
       13
 44
0.0
173
     0
291
     1
 45
0.0
1001
ACAD
1000
AcDbSavedByObjectVersion
1070
     0
  0
VISUALSTYLE
  5
2D
102
{ACAD_REACTORS
330
2A
102
}
330
2A
100
AcDbVisualStyle
  2
Gouraud
 70
     2
 71
     2
 72
     2
 73
     1
 90
        2
 40
-0.6
 41
30.0
 62
     5
 63
     7
 74
     0
 91
        4
 64
     7
 65
   257
 75
     1
175
     1
 42
1.0
 92
        0
 66
     7
 43
1.0
 76
     1
 77
     6
 78
     2
 67
     7
 79
     5
170
     0
171
     0
290
     0
174
     0
 93
       13
 44
0.0
173
     0
291
     1
 45
0.0
1001
ACAD
1000
AcDbSavedByObjectVersion
1070
     0
  0
VISUALSTYLE
  5
2E
102
{ACAD_REACTORS
330
2A
102
}
330
2A
100
AcDbVisualStyle
  2
GouraudWithEdges
 70
     3
 71
     2
 72
     2
 73
     1
 90
        2
 40
-0.6
 41
30.0
 62
     5
 63
     7
 74
     1
 91
        4
 64
     7
 65
   257
 75
     1
175
     1
 42
1.0
 92
        0
 66
   257
 43
1.0
 76
     1
 77
     6
 78
     2
 67
     7
 79
     5
170
     0
171
     0
290
     0
174
     0
 93
       13
 44
0.0
173
     0
291
     1
 45
0.0
1001
ACAD
1000
AcDbSavedByObjectVersion
1070
     0
  0
VISUALSTYLE
  5
38
102
{ACAD_REACTORS
330
2A
102
}
330
2A
100
AcDbVisualStyle
  2
Linepattern
 70
    14
 71
     2
 72
     2
 73
     0
 90
        0
 40
-0.6
 41
-30.0
 62
     5
 63
     7
 74
     1
 91
        4
 64
     7
 65
   257
 75
     7
175
     7
 42
1.0
 92
        8
 66
     7
 43
1.0
 76
     1
 77
     6
 78
     2
 67
     7
 79
     5
170
     0
171
     0
290
     0
174
     0
 93
        1
 44
0.0
173
     0
291
     1
 45
0.0
1001
ACAD
1000
AcDbSavedByObjectVersion
1070
     0
  0
VISUALSTYLE
  5
33
102
{ACAD_REACTORS
330
2A
102
}
330
2A
100
AcDbVisualStyle
  2
Realistic
 70
     8
 71
     2
 72
     2
 73
     0
 90
        0
 40
-0.6
 41
-30.0
 62
     5
 63
     7
 74
     1
 91
        0
 64
     7
 65
   257
 75
     1
175
     1
 42
1.0
 92
        8
 66
     8
 43
1.0
 76
     1
 77
     6
 78
     2
 67
     7
 79
     5
170
     0
171
     0
290
     0
174
     0
 93
       13
 44
0.0
173
     0
291
     0
 45
0.0
1001
ACAD
1000
AcDbSavedByObjectVersion
1070
     0
  0
VISUALSTYLE
  5
37
102
{ACAD_REACTORS
330
2A
102
}
330
2A
100
AcDbVisualStyle
  2
Thicken
 70
    13
 71
     2
 72
     2
 73
     0
 90
        0
 40
-0.6
 41
-30.0
 62
     5
 63
     7
 74
     1
 91
        4
 64
     7
 65
   257
 75
     1
175
     1
 42
1.0
 92
       12
 66
     7
 43
1.0
 76
     1
 77
     6
 78
     2
 67
     7
 79
     5
170
     0
171
     0
290
     0
174
     0
 93
        1
 44
0.0
173
     0
291
     1
 45
0.0
1001
ACAD
1000
AcDbSavedByObjectVersion
1070
     0
  0
ENDSEC
  0
EOF
