  0
SECTION
  2
HEADER
  9
$ACADVER
  1
AC1015
  9
$ACADMAINTVER
 70
     6
  9
$DWGCODEPAGE
  3
ANSI_1252
  9
$INSBASE
 10
0.0
 20
0.0
 30
0.0
  9
$EXTMIN
 10
0.0000003318202297
 20
0.0000000000000001
 30
0.0
  9
$EXTMAX
 10
98.40744451955999
 20
82.86251008396735
 30
0.0
  9
$LIMMIN
 10
0.0
 20
0.0
  9
$LIMMAX
 10
12.0
 20
9.0
  9
$ORTHOMODE
 70
     0
  9
$REGENMODE
 70
     1
  9
$FILLMODE
 70
     1
  9
$QTEXTMODE
 70
     0
  9
$MIRRTEXT
 70
     1
  9
$LTSCALE
 40
0.0393700787401575
  9
$ATTMODE
 70
     1
  9
$TEXTSIZE
 40
0.2
  9
$TRACEWID
 40
0.05
  9
$TEXTSTYLE
  7
Standard
  9
$CLAYER
  8
DEFAULT
  9
$CELTYPE
  6
ByLayer
  9
$CECOLOR
 62
   256
  9
$CELTSCALE
 40
1.0
  9
$DISPSILH
 70
     0
  9
$DIMSCALE
 40
1.0
  9
$DIMASZ
 40
0.18
  9
$DIMEXO
 40
0.0625
  9
$DIMDLI
 40
0.38
  9
$DIMRND
 40
0.0
  9
$DIMDLE
 40
0.0
  9
$DIMEXE
 40
0.18
  9
$DIMTP
 40
0.0
  9
$DIMTM
 40
0.0
  9
$DIMTXT
 40
0.18
  9
$DIMCEN
 40
0.09
  9
$DIMTSZ
 40
0.0
  9
$DIMTOL
 70
     0
  9
$DIMLIM
 70
     0
  9
$DIMTIH
 70
     1
  9
$DIMTOH
 70
     1
  9
$DIMSE1
 70
     0
  9
$DIMSE2
 70
     0
  9
$DIMTAD
 70
     0
  9
$DIMZIN
 70
     0
  9
$DIMBLK
  1

  9
$DIMASO
 70
     1
  9
$DIMSHO
 70
     1
  9
$DIMPOST
  1

  9
$DIMAPOST
  1

  9
$DIMALT
 70
     0
  9
$DIMALTD
 70
     2
  9
$DIMALTF
 40
25.4
  9
$DIMLFAC
 40
1.0
  9
$DIMTOFL
 70
     0
  9
$DIMTVP
 40
0.0
  9
$DIMTIX
 70
     0
  9
$DIMSOXD
 70
     0
  9
$DIMSAH
 70
     0
  9
$DIMBLK1
  1

  9
$DIMBLK2
  1

  9
$DIMSTYLE
  2
Standard
  9
$DIMCLRD
 70
     0
  9
$DIMCLRE
 70
     0
  9
$DIMCLRT
 70
     0
  9
$DIMTFAC
 40
1.0
  9
$DIMGAP
 40
0.09
  9
$DIMJUST
 70
     0
  9
$DIMSD1
 70
     0
  9
$DIMSD2
 70
     0
  9
$DIMTOLJ
 70
     1
  9
$DIMTZIN
 70
     0
  9
$DIMALTZ
 70
     0
  9
$DIMALTTZ
 70
     0
  9
$DIMUPT
 70
     0
  9
$DIMDEC
 70
     4
  9
$DIMTDEC
 70
     4
  9
$DIMALTU
 70
     2
  9
$DIMALTTD
 70
     2
  9
$DIMTXSTY
  7
Standard
  9
$DIMAUNIT
 70
     0
  9
$DIMADEC
 70
     0
  9
$DIMALTRND
 40
0.0
  9
$DIMAZIN
 70
     0
  9
$DIMDSEP
 70
    46
  9
$DIMATFIT
 70
     3
  9
$DIMFRAC
 70
     0
  9
$DIMLDRBLK
  1

  9
$DIMLUNIT
 70
     2
  9
$DIMLWD
 70
    -2
  9
$DIMLWE
 70
    -2
  9
$DIMTMOVE
 70
     2
  9
$LUNITS
 70
     2
  9
$LUPREC
 70
     3
  9
$SKETCHINC
 40
0.1
  9
$FILLETRAD
 40
0.5
  9
$AUNITS
 70
     0
  9
$AUPREC
 70
     0
  9
$MENU
  1
.
  9
$ELEVATION
 40
0.0
  9
$PELEVATION
 40
0.0
  9
$THICKNESS
 40
0.0
  9
$LIMCHECK
 70
     0
  9
$CHAMFERA
 40
0.5
  9
$CHAMFERB
 40
0.5
  9
$CHAMFERC
 40
1.0
  9
$CHAMFERD
 40
0.0
  9
$SKPOLY
 70
     0
  9
$TDCREATE
 40
2455355.571422789
  9
$TDUCREATE
 40
2455355.738089456
  9
$TDUPDATE
 40
2455355.571422801
  9
$TDUUPDATE
 40
2455355.738089467
  9
$TDINDWG
 40
0.0000000116
  9
$TDUSRTIMER
 40
0.0000000116
  9
$USRTIMER
 70
     1
  9
$ANGBASE
 50
0.0
  9
$ANGDIR
 70
     0
  9
$PDMODE
 70
     0
  9
$PDSIZE
 40
0.0
  9
$PLINEWID
 40
0.0
  9
$SPLFRAME
 70
     0
  9
$SPLINETYPE
 70
     6
  9
$SPLINESEGS
 70
     8
  9
$HANDSEED
  5
7F
  9
$SURFTAB1
 70
     6
  9
$SURFTAB2
 70
     6
  9
$SURFTYPE
 70
     6
  9
$SURFU
 70
     6
  9
$SURFV
 70
     6
  9
$UCSBASE
  2

  9
$UCSNAME
  2

  9
$UCSORG
 10
0.0
 20
0.0
 30
0.0
  9
$UCSXDIR
 10
1.0
 20
0.0
 30
0.0
  9
$UCSYDIR
 10
0.0
 20
1.0
 30
0.0
  9
$UCSORTHOREF
  2

  9
$UCSORTHOVIEW
 70
     0
  9
$UCSORGTOP
 10
0.0
 20
0.0
 30
0.0
  9
$UCSORGBOTTOM
 10
0.0
 20
0.0
 30
0.0
  9
$UCSORGLEFT
 10
0.0
 20
0.0
 30
0.0
  9
$UCSORGRIGHT
 10
0.0
 20
0.0
 30
0.0
  9
$UCSORGFRONT
 10
0.0
 20
0.0
 30
0.0
  9
$UCSORGBACK
 10
0.0
 20
0.0
 30
0.0
  9
$PUCSBASE
  2

  9
$PUCSNAME
  2

  9
$PUCSORG
 10
0.0
 20
0.0
 30
0.0
  9
$PUCSXDIR
 10
1.0
 20
0.0
 30
0.0
  9
$PUCSYDIR
 10
0.0
 20
1.0
 30
0.0
  9
$PUCSORTHOREF
  2

  9
$PUCSORTHOVIEW
 70
     0
  9
$PUCSORGTOP
 10
0.0
 20
0.0
 30
0.0
  9
$PUCSORGBOTTOM
 10
0.0
 20
0.0
 30
0.0
  9
$PUCSORGLEFT
 10
0.0
 20
0.0
 30
0.0
  9
$PUCSORGRIGHT
 10
0.0
 20
0.0
 30
0.0
  9
$PUCSORGFRONT
 10
0.0
 20
0.0
 30
0.0
  9
$PUCSORGBACK
 10
0.0
 20
0.0
 30
0.0
  9
$USERI1
 70
     0
  9
$USERI2
 70
     0
  9
$USERI3
 70
     0
  9
$USERI4
 70
     0
  9
$USERI5
 70
     0
  9
$USERR1
 40
0.0
  9
$USERR2
 40
0.0
  9
$USERR3
 40
0.0
  9
$USERR4
 40
0.0
  9
$USERR5
 40
0.0
  9
$WORLDVIEW
 70
     1
  9
$SHADEDGE
 70
     3
  9
$SHADEDIF
 70
    70
  9
$TILEMODE
 70
     1
  9
$MAXACTVP
 70
    64
  9
$PINSBASE
 10
0.0
 20
0.0
 30
0.0
  9
$PLIMCHECK
 70
     0
  9
$PEXTMIN
 10
1.000000000000000E+20
 20
1.000000000000000E+20
 30
1.000000000000000E+20
  9
$PEXTMAX
 10
-1.000000000000000E+20
 20
-1.000000000000000E+20
 30
-1.000000000000000E+20
  9
$PLIMMIN
 10
0.0
 20
0.0
  9
$PLIMMAX
 10
12.0
 20
9.0
  9
$UNITMODE
 70
     0
  9
$VISRETAIN
 70
     1
  9
$PLINEGEN
 70
     0
  9
$PSLTSCALE
 70
     1
  9
$TREEDEPTH
 70
  3020
  9
$CMLSTYLE
  2
Standard
  9
$CMLJUST
 70
     0
  9
$CMLSCALE
 40
1.0
  9
$PROXYGRAPHICS
 70
     1
  9
$MEASUREMENT
 70
     0
  9
$CELWEIGHT
370
    -1
  9
$ENDCAPS
280
     0
  9
$JOINSTYLE
280
     0
  9
$LWDISPLAY
290
     0
  9
$INSUNITS
 70
     1
  9
$HYPERLINKBASE
  1

  9
$STYLESHEET
  1

  9
$XEDIT
290
     1
  9
$CEPSNTYPE
380
     0
  9
$PSTYLEMODE
290
     1
  9
$FINGERPRINTGUID
  2
{516980DB-40D1-4DCC-AD38-5D45E602F216}
  9
$VERSIONGUID
  2
{FAEB1C32-E019-11D5-929B-00C0DF256EC4}
  9
$EXTNAMES
290
     1
  9
$PSVPSCALE
 40
0.0
  9
$OLESTARTUP
290
     0
  0
ENDSEC
  0
SECTION
  2
CLASSES
  0
CLASS
  1
ACDBDICTIONARYWDFLT
  2
AcDbDictionaryWithDefault
  3
ObjectDBX Classes
 90
        0
280
     0
281
     0
  0
CLASS
  1
VISUALSTYLE
  2
AcDbVisualStyle
  3
ObjectDBX Classes
 90
     4095
280
     0
281
     0
  0
CLASS
  1
ACDBPLACEHOLDER
  2
AcDbPlaceHolder
  3
ObjectDBX Classes
 90
        0
280
     0
281
     0
  0
CLASS
  1
LAYOUT
  2
AcDbLayout
  3
ObjectDBX Classes
 90
        0
280
     0
281
     0
  0
ENDSEC
  0
SECTION
  2
TABLES
  0
TABLE
  2
VPORT
  5
8
330
0
100
AcDbSymbolTable
 70
     1
  0
VPORT
  5
29
330
8
100
AcDbSymbolTableRecord
100
AcDbViewportTableRecord
  2
*Active
 70
     0
 10
0.0
 20
0.0
 11
1.0
 21
1.0
 12
49.20372242569011
 22
41.43125504198368
 13
0.0
 23
0.0
 14
0.5
 24
0.5
 15
0.5
 25
0.5
 16
0.0
 26
0.0
 36
1.0
 17
0.0
 27
0.0
 37
0.0
 40
84.5197602856467
 41
1.187599121581282
 42
50.0
 43
0.0
 44
0.0
 50
0.0
 51
0.0
 71
     0
 72
   100
 73
     1
 74
     3
 75
     0
 76
     0
 77
     0
 78
     0
281
     0
 65
     1
110
0.0
120
0.0
130
0.0
111
1.0
121
0.0
131
0.0
112
0.0
122
1.0
132
0.0
 79
     0
146
0.0
  0
ENDTAB
  0
TABLE
  2
LTYPE
  5
5
330
0
100
AcDbSymbolTable
 70
     1
  0
LTYPE
  5
14
330
5
100
AcDbSymbolTableRecord
100
AcDbLinetypeTableRecord
  2
ByBlock
 70
     0
  3

 72
    65
 73
     0
 40
0.0
  0
LTYPE
  5
15
330
5
100
AcDbSymbolTableRecord
100
AcDbLinetypeTableRecord
  2
ByLayer
 70
     0
  3

 72
    65
 73
     0
 40
0.0
  0
LTYPE
  5
16
330
5
100
AcDbSymbolTableRecord
100
AcDbLinetypeTableRecord
  2
Continuous
 70
     0
  3
Solid line
 72
    65
 73
     0
 40
0.0
  0
ENDTAB
  0
TABLE
  2
LAYER
  5
2
330
0
100
AcDbSymbolTable
 70
     3
  0
LAYER
  5
10
330
2
100
AcDbSymbolTableRecord
100
AcDbLayerTableRecord
  2
0
 70
     0
 62
     7
  6
Continuous
370
    -3
390
F
  0
LAYER
  5
3B
330
2
100
AcDbSymbolTableRecord
100
AcDbLayerTableRecord
  2
MAKE2D VISIBLE LINES
 70
     0
 62
     7
  6
Continuous
370
    -3
390
F
  0
LAYER
  5
43
330
2
100
AcDbSymbolTableRecord
100
AcDbLayerTableRecord
  2
DEFAULT
 70
     0
 62
     7
  6
Continuous
370
    -3
390
F
  0
ENDTAB
  0
TABLE
  2
STYLE
  5
3
330
0
100
AcDbSymbolTable
 70
     1
  0
STYLE
  5
11
330
3
100
AcDbSymbolTableRecord
100
AcDbTextStyleTableRecord
  2
Standard
 70
     0
 40
0.0
 41
1.0
 50
0.0
 71
     0
 42
0.2
  3
txt
  4

  0
ENDTAB
  0
TABLE
  2
VIEW
  5
6
330
0
100
AcDbSymbolTable
 70
     0
  0
ENDTAB
  0
TABLE
  2
UCS
  5
7
330
0
100
AcDbSymbolTable
 70
     0
  0
ENDTAB
  0
TABLE
  2
APPID
  5
9
330
0
100
AcDbSymbolTable
 70
     1
  0
APPID
  5
12
330
9
100
AcDbSymbolTableRecord
100
AcDbRegAppTableRecord
  2
ACAD
 70
     0
  0
ENDTAB
  0
TABLE
  2
DIMSTYLE
  5
A
330
0
100
AcDbSymbolTable
 70
     1
100
AcDbDimStyleTable
  0
DIMSTYLE
105
27
330
A
100
AcDbSymbolTableRecord
100
AcDbDimStyleTableRecord
  2
Standard
 70
     0
340
11
  0
ENDTAB
  0
TABLE
  2
BLOCK_RECORD
  5
1
330
0
100
AcDbSymbolTable
 70
     1
  0
BLOCK_RECORD
  5
1F
330
1
100
AcDbSymbolTableRecord
100
AcDbBlockTableRecord
  2
*Model_Space
340
22
  0
BLOCK_RECORD
  5
1B
330
1
100
AcDbSymbolTableRecord
100
AcDbBlockTableRecord
  2
*Paper_Space
340
1E
  0
BLOCK_RECORD
  5
23
330
1
100
AcDbSymbolTableRecord
100
AcDbBlockTableRecord
  2
*Paper_Space0
340
26
  0
ENDTAB
  0
ENDSEC
  0
SECTION
  2
BLOCKS
  0
BLOCK
  5
20
330
1F
100
AcDbEntity
  8
0
100
AcDbBlockBegin
  2
*Model_Space
 70
     0
 10
0.0
 20
0.0
 30
0.0
  3
*Model_Space
  1

  0
ENDBLK
  5
21
330
1F
100
AcDbEntity
  8
0
100
AcDbBlockEnd
  0
BLOCK
  5
1C
330
1B
100
AcDbEntity
 67
     1
  8
0
100
AcDbBlockBegin
  2
*Paper_Space
 70
     0
 10
0.0
 20
0.0
 30
0.0
  3
*Paper_Space
  1

  0
ENDBLK
  5
1D
330
1B
100
AcDbEntity
 67
     1
  8
0
100
AcDbBlockEnd
  0
BLOCK
  5
24
330
23
100
AcDbEntity
  8
0
100
AcDbBlockBegin
  2
*Paper_Space0
 70
     0
 10
0.0
 20
0.0
 30
0.0
  3
*Paper_Space0
  1

  0
ENDBLK
  5
25
330
23
100
AcDbEntity
  8
0
100
AcDbBlockEnd
  0
ENDSEC
  0
SECTION
  2
ENTITIES
  0
SPLINE
  5
3C
330
1F
100
AcDbEntity
  8
MAKE2D VISIBLE LINES
100
AcDbSpline
210
0.0
220
0.0
230
1.0
 70
    12
 71
     3
 72
    10
 73
     6
 74
     0
 42
0.0000000001
 43
0.0000000001
 40
-991.805024956769
 40
-991.805024956769
 40
-991.805024956769
 40
-991.805024956769
 40
-953.4173034664603
 40
-953.4173034664603
 40
-914.932790972298
 40
-914.932790972298
 40
-914.932790972298
 40
-914.932790972298
 10
52.44036825333854
 20
82.86250620677203
 30
0.0
 41
1.0
 10
52.94075434964238
 20
82.86250592215907
 30
0.0
 41
1.0
 10
53.43392458621226
 20
82.8268768286568
 30
0.0
 41
1.0
 10
54.17709760511406
 20
82.68949890469398
 30
0.0
 41
1.0
 10
54.39110207080208
 20
82.59409477960028
 30
0.0
 41
1.0
 10
54.40780683252301
 20
82.49652379667214
 30
0.0
 41
1.0
  0
SPLINE
  5
3D
330
1F
100
AcDbEntity
  8
MAKE2D VISIBLE LINES
100
AcDbSpline
210
0.0
220
0.0
230
1.0
 70
    24
 71
     2
 72
     6
 73
     3
 74
     0
 42
0.0000000001
 43
0.0000000001
 40
0.0
 40
0.0
 40
0.0
 40
3.719302602671661
 40
3.719302602671661
 40
3.719302602671661
 10
55.09787062683696
 20
78.40580230367678
 30
0.0
 10
55.09787062683696
 20
76.54615100234095
 30
0.0
 10
55.09787062683696
 20
74.68649970100512
 30
0.0
  0
SPLINE
  5
3E
330
1F
100
AcDbEntity
  8
MAKE2D VISIBLE LINES
100
AcDbSpline
210
0.0
220
0.0
230
1.0
 70
     8
 71
     3
 72
    21
 73
    17
 74
     0
 42
0.0000000001
 43
0.0000000001
 40
0.0
 40
0.0
 40
0.0
 40
0.0
 40
0.0692433332732656
 40
0.1692180309360712
 40
0.3021350036708763
 40
0.477589166099081
 40
0.9312884843041641
 40
1.488720456023021
 40
2.022379853796804
 40
2.187572383644987
 40
2.407988157629341
 40
2.628930065521109
 40
6.523254644945553
 40
6.523254644945553
 40
6.523254644945553
 40
54.48958599682337
 40
54.48958599682337
 40
54.48958599682337
 40
54.48958599682337
 10
54.4078068304622
 20
78.75636632836782
 30
0.0
 10
54.40384473710442
 20
78.7796262413705
 30
0.0
 10
54.36954270746637
 20
78.82657246837059
 30
0.0
 10
54.28356292629088
 20
78.8804419225761
 30
0.0
 10
54.15743071759385
 20
78.93215134123403
 30
0.0
 10
53.9126039231659
 20
79.00127781808072
 30
0.0
 10
53.5220062462022
 20
79.06670457595138
 30
0.0
 10
53.00880027890277
 20
79.11175445499364
 30
0.0
 10
52.59002029717524
 20
79.12315175461214
 30
0.0
 10
52.28361270636621
 20
79.12214830693006
 30
0.0
 10
52.08142405075546
 20
79.12237550933105
 30
0.0
 10
50.63619815804677
 20
79.12231489030154
 30
0.0
 10
49.26444140325518
 20
79.12236480229618
 30
0.0
 10
47.9663336332495
 20
79.12234803547591
 30
0.0
 10
31.97755651595805
 20
79.12235408731651
 30
0.0
 10
15.98877939866659
 20
79.12236013915712
 30
0.0
 10
0.0000022813751315
 20
79.12236619099772
 30
0.0
  0
SPLINE
  5
3F
330
1F
100
AcDbEntity
  8
MAKE2D VISIBLE LINES
100
AcDbSpline
210
0.0
220
0.0
230
1.0
 70
     8
 71
     3
 72
    23
 73
    19
 74
     0
 42
0.0000000001
 43
0.0000000001
 40
0.0
 40
0.0
 40
0.0
 40
0.0
 40
1.0
 40
2.0
 40
3.0
 40
4.0
 40
5.0
 40
6.0
 40
7.0
 40
8.0
 40
9.0
 40
10.0
 40
11.0
 40
12.0
 40
13.0
 40
13.0
 40
13.0
 40
60.96633135186747
 40
60.96633135186747
 40
60.96633135186747
 40
60.96633135186747
 10
55.00562540150918
 20
74.42541930986775
 30
0.0
 10
54.83998104311897
 20
74.30175100275113
 30
0.0
 10
54.61031925413769
 20
73.95543879256695
 30
0.0
 10
54.2441241904383
 20
73.4600297020892
 30
0.0
 10
53.81540506491299
 20
73.01330292902529
 30
0.0
 10
53.32531412069784
 20
72.63593970929148
 30
0.0
 10
52.78979487674854
 20
72.32702481478827
 30
0.0
 10
52.22309259370596
 20
72.08082466755403
 30
0.0
 10
51.63593416660705
 20
71.88930153701094
 30
0.0
 10
51.03593420673963
 20
71.74365514747666
 30
0.0
 10
50.42797138546933
 20
71.63668438669868
 30
0.0
 10
49.81533416983841
 20
71.56159403639904
 30
0.0
 10
49.20001972148147
 20
71.51374119946536
 30
0.0
 10
48.58340239506781
 20
71.48851950776645
 30
0.0
 10
48.17201354621926
 20
71.48457064445233
 30
0.0
 10
47.96633363324951
 20
71.48526568455989
 30
0.0
 10
31.97755651596036
 20
71.48527792661385
 30
0.0
 10
15.9887793986712
 20
71.48529016866779
 30
0.0
 10
0.0000022813820486
 20
71.48530241072174
 30
0.0
  0
LINE
  5
40
330
1F
100
AcDbEntity
  8
MAKE2D VISIBLE LINES
100
AcDbLine
 10
0.0000022813828702
 20
49.76388635191748
 30
0.0
 11
0.0000022814062273
 21
82.86250554190286
 31
0.0
  0
SPLINE
  5
41
330
1F
100
AcDbEntity
  8
MAKE2D VISIBLE LINES
100
AcDbSpline
210
0.0
220
0.0
230
1.0
 70
    12
 71
     3
 72
    39
 73
    35
 74
     0
 42
0.0000000001
 43
0.0000000001
 40
-4.105444736992813
 40
-4.105444736992813
 40
-4.105444736992813
 40
-4.105444736992813
 40
-0.0000000000000004
 40
-0.0000000000000004
 40
-0.0000000000000004
 40
3.380933822934134
 40
4.247693069037963
 40
5.46652215388116
 40
7.660574065535271
 40
9.589715693783157
 40
11.15035824913802
 40
11.15035824913802
 40
11.15035824913802
 40
11.82569342489298
 40
12.46203133859142
 40
13.63248422141987
 40
14.73175544650153
 40
15.8480774433018
 40
15.8480774433018
 40
15.8480774433018
 40
16.26199096478646
 40
16.6986871816958
 40
17.63922174247054
 40
18.70273827649959
 40
20.10281938346404
 40
20.10281938346404
 40
20.10281938346404
 40
26.12067785687436
 40
32.13859052052281
 40
44.47515515842053
 40
56.51091510545771
 40
62.37836859993075
 40
65.23690048045029
 40
68.24580758821523
 40
68.24580758821523
 40
68.24580758821523
 40
68.24580758821523
 10
55.09105071590965
 20
73.1671627477333
 30
0.0
 41
1.0
 10
55.09236618540492
 20
71.79868179646652
 30
0.0
 41
0.9999999933871142
 10
55.09387440511181
 20
70.43020104405774
 30
0.0
 41
0.9999999933871142
 10
55.09557537500041
 20
69.06172051765576
 30
0.0
 41
1.0
 10
55.09697616142044
 20
67.93474645864023
 30
0.0
 41
1.0
 10
55.09976309027134
 20
66.51884264845788
 30
0.0
 41
1.0
 10
55.10266417978529
 20
64.69668302247607
 30
0.0
 41
1.0
 10
55.10222719468942
 20
63.27011946125743
 30
0.0
 41
1.0
 10
55.0803835608294
 20
61.48946706842275
 30
0.0
 41
1.0
 10
54.96000690396358
 20
59.59738435417751
 30
0.0
 41
1.0
 10
54.77564638564869
 20
58.44701447236677
 30
0.0
 41
1.0
 10
54.65529991654
 20
57.9407565026144
 30
0.0
 41
1.0
 10
54.60318904514579
 20
57.72188980092138
 30
0.0
 41
1.0
 10
54.48775094358822
 20
57.29948466245823
 30
0.0
 41
1.0
 10
54.20539442432302
 20
56.52162045405324
 30
0.0
 41
1.0
 10
53.75120105610377
 20
55.65964093515232
 30
0.0
 41
1.0
 10
53.0055689088376
 20
54.80166772586868
 30
0.0
 41
1.0
 10
52.39796762353898
 20
54.37269400789636
 30
0.0
 41
1.0
 10
52.07384254918289
 20
54.19039822586544
 30
0.0
 41
1.0
 10
51.95358558779532
 20
54.1227106091602
 30
0.0
 41
1.0
 10
51.70136474787105
 20
53.99294611213094
 30
0.0
 41
1.0
 10
51.15253445205458
 20
53.75672791786702
 30
0.0
 41
1.0
 10
50.37634837264935
 20
53.50864321325464
 30
0.0
 41
1.0
 10
49.26589694060826
 20
53.27072824582053
 30
0.0
 41
1.0
 10
48.45246230668361
 20
53.15579752107097
 30
0.0
 41
1.0
 10
47.99016190003505
 20
53.09223329751074
 30
0.0
 41
1.0
 10
46.00299628716855
 20
52.81829863689267
 30
0.0
 41
1.0
 10
42.0239622622811
 20
52.30460574151709
 30
0.0
 41
1.0
 10
33.95000975878939
 20
51.40047282655546
 30
0.0
 41
1.0
 10
23.85609483708524
 20
50.52853619358827
 30
0.0
 41
1.0
 10
13.78867045795364
 20
49.99827504106847
 30
0.0
 41
1.0
 10
6.870174674317161
 20
49.81638738909623
 30
0.0
 41
1.0
 10
2.958798642892972
 20
49.76834247459742
 30
0.0
 41
1.0
 10
1.002968984188942
 20
49.76336816074306
 30
0.0
 41
1.0
 10
0.000002281382915
 20
49.76388635191748
 30
0.0
 41
1.0
  0
LINE
  5
42
330
1F
100
AcDbEntity
  8
MAKE2D VISIBLE LINES
100
AcDbLine
 10
0.0000022813745248
 20
82.86250554190275
 30
0.0
 11
52.44036825333821
 21
82.86251008396735
 31
0.0
  0
POLYLINE
  5
44
330
1F
100
AcDbEntity
  8
DEFAULT
100
AcDb2dPolyline
 66
     1
 10
0.0
 20
0.0
 30
0.0
  0
VERTEX
  5
45
330
44
100
AcDbEntity
  8
DEFAULT
100
AcDbVertex
100
AcDb2dVertex
 10
54.40780683252301
 20
82.49652379667214
 30
0.0
  0
VERTEX
  5
46
330
44
100
AcDbEntity
  8
DEFAULT
100
AcDbVertex
100
AcDb2dVertex
 10
55.09787062683696
 20
78.40580230367678
 30
0.0
  0
SEQEND
  5
47
330
44
100
AcDbEntity
  8
DEFAULT
  0
SPLINE
  5
48
330
1F
100
AcDbEntity
  8
MAKE2D VISIBLE LINES
100
AcDbSpline
210
0.0
220
0.0
230
1.0
 70
    12
 71
     3
 72
    23
 73
    19
 74
     0
 42
0.0000000001
 43
0.0000000001
 40
0.0
 40
0.0
 40
0.0
 40
0.0
 40
1.0
 40
2.0
 40
3.0
 40
4.0
 40
5.0
 40
6.0
 40
7.0
 40
8.0
 40
9.0
 40
10.0
 40
11.0
 40
12.0
 40
13.0
 40
13.0
 40
13.0
 40
13.07523418295382
 40
13.07523418295382
 40
13.07523418295382
 40
13.07523418295382
 10
54.97974690798134
 20
74.31596281382872
 30
0.0
 41
1.0
 10
54.98431206061193
 20
74.32543895338392
 30
0.0
 41
1.0
 10
54.99344706869164
 20
74.34438943224484
 30
0.0
 41
1.0
 10
55.00714068143706
 20
74.37281772977758
 30
0.0
 41
1.0
 10
55.02087904657345
 20
74.40122991780032
 30
0.0
 41
1.0
 10
55.03579814269798
 20
74.4290358352317
 30
0.0
 41
1.0
 10
55.05022083689244
 20
74.45712311094502
 30
0.0
 41
1.0
 10
55.06859729180224
 20
74.48298235232369
 30
0.0
 41
1.0
 10
55.07996419188985
 20
74.5126235743947
 30
0.0
 41
1.0
 10
55.08656667789472
 20
74.54354411952193
 30
0.0
 41
1.0
 10
55.0898450270081
 20
74.57493731957837
 30
0.0
 41
1.0
 10
55.09406352063964
 20
74.60621932894483
 30
0.0
 41
1.0
 10
55.09592941583114
 20
74.63773711182552
 30
0.0
 41
1.0
 10
55.09678688265966
 20
74.66928300759736
 30
0.0
 41
1.0
 10
55.09636930644954
 20
74.69032341911472
 30
0.0
 41
1.0
 10
55.09594057557983
 20
74.70083272636478
 30
0.0
 41
1.0
 10
55.09491781642763
 20
74.72590320981415
 30
0.0
 41
0.9989422577666393
 10
55.09248498483785
 20
74.75087632550132
 30
0.0
 41
0.9989422577666393
 10
55.08864980073667
 20
74.77567282806878
 30
0.0
 41
1.0
  0
SPLINE
  5
49
330
1F
100
AcDbEntity
  8
MAKE2D VISIBLE LINES
100
AcDbSpline
210
0.0
220
0.0
230
1.0
 70
     8
 71
     3
 72
     9
 73
     5
 74
     0
 42
0.0000000001
 43
0.0000000001
 40
0.0
 40
0.0
 40
0.0
 40
0.0
 40
3.893849246533472
 40
4.038503357546547
 40
4.038503357546547
 40
4.038503357546547
 40
4.038503357546547
 10
54.4078068304622
 20
78.75636632836782
 30
0.0
 10
54.62689917161572
 20
77.47704112788216
 30
0.0
 10
54.85387563130816
 20
76.1501474947429
 30
0.0
 10
55.08127428892227
 20
74.82332391058569
 30
0.0
 10
55.08864980073668
 20
74.77567282806879
 30
0.0
  0
SPLINE
  5
4A
330
1F
100
AcDbEntity
  8
MAKE2D VISIBLE LINES
100
AcDbSpline
210
0.0
220
0.0
230
1.0
 70
     8
 71
     3
 72
    17
 73
    13
 74
     0
 42
0.0000000001
 43
0.0000000001
 40
0.0
 40
0.0
 40
0.0
 40
0.0
 40
0.0209322633752947
 40
0.039872327058009
 40
0.073079079401071
 40
0.1481674554661329
 40
0.1481674554661329
 40
0.1481674554661329
 40
0.2139344235295434
 40
0.3061416993363375
 40
0.5566237861801473
 40
1.235348994949061
 40
1.235348994949061
 40
1.235348994949061
 40
1.235348994949061
 10
54.92159576636406
 20
74.35982520133555
 30
0.0
 10
54.9277462968094
 20
74.35663706873657
 30
0.0
 10
54.93942936487871
 20
74.3499986617195
 30
0.0
 10
54.95953512584828
 20
74.33655758209466
 30
0.0
 10
54.99135177785859
 20
74.30751784420747
 30
0.0
 10
55.00498297536411
 20
74.27279983991261
 30
0.0
 10
55.01277929771716
 20
74.24929332545673
 30
0.0
 10
55.01949690152079
 20
74.22841013700574
 30
0.0
 10
55.03151477335575
 20
74.17709226839446
 30
0.0
 10
55.05255058914074
 20
74.04249828261982
 30
0.0
 10
55.0828045541821
 20
73.7032305965565
 30
0.0
 10
55.09021971405699
 20
73.39337596240358
 30
0.0
 10
55.09105071590896
 20
73.16716274754617
 30
0.0
  0
SPLINE
  5
4B
330
1F
100
AcDbEntity
  8
MAKE2D VISIBLE LINES
100
AcDbSpline
210
0.0
220
0.0
230
1.0
 70
    24
 71
     2
 72
     6
 73
     3
 74
     0
 42
0.0000000001
 43
0.0000000001
 40
0.0
 40
0.0
 40
0.0
 40
0.5905511811023629
 40
0.5905511811023629
 40
0.5905511811023629
 10
71.79792317545156
 20
0.590551181102363
 30
0.0
 10
71.79792317545156
 20
0.2952755905511816
 30
0.0
 10
71.79792317545156
 20
0.0000000000000001
 30
0.0
  0
SPLINE
  5
4C
330
1F
100
AcDbEntity
  8
MAKE2D VISIBLE LINES
100
AcDbSpline
210
0.0
220
0.0
230
1.0
 70
    24
 71
     2
 72
     6
 73
     3
 74
     0
 42
0.0000000001
 43
0.0000000001
 40
0.0
 40
0.0
 40
0.0
 40
0.5905509356892085
 40
0.5905509356892085
 40
0.5905509356892085
 10
76.3196874960183
 20
0.0000000000000001
 30
0.0
 10
76.3196874960183
 20
0.2952754678446043
 30
0.0
 10
76.3196874960183
 20
0.5905509356892086
 30
0.0
  0
SPLINE
  5
4D
330
1F
100
AcDbEntity
  8
MAKE2D VISIBLE LINES
100
AcDbSpline
210
0.0
220
0.0
230
1.0
 70
    24
 71
     2
 72
     6
 73
     3
 74
     0
 42
0.0000000001
 43
0.0000000001
 40
0.0
 40
0.0
 40
0.0
 40
37.58007157811466
 40
37.58007157811466
 40
37.58007157811466
 10
71.01059385595593
 20
0.5905511811023992
 30
0.0
 10
68.15970585063937
 20
19.16305458089203
 30
0.0
 10
65.3088178453228
 20
37.73555798068166
 30
0.0
  0
SPLINE
  5
4E
330
1F
100
AcDbEntity
  8
MAKE2D VISIBLE LINES
100
AcDbSpline
210
0.0
220
0.0
230
1.0
 70
    24
 71
     2
 72
     6
 73
     3
 74
     0
 42
0.0000000001
 43
0.0000000001
 40
0.0
 40
0.0
 40
0.0
 40
3.740088960453804
 40
3.740088960453804
 40
3.740088960453804
 10
65.3088178453228
 20
37.73555798068166
 30
0.0
 10
67.1788623255497
 20
37.73555798068166
 30
0.0
 10
69.0489068057766
 20
37.73555798068166
 30
0.0
  0
SPLINE
  5
4F
330
1F
100
AcDbEntity
  8
MAKE2D VISIBLE LINES
100
AcDbSpline
210
0.0
220
0.0
230
1.0
 70
    24
 71
     2
 72
     6
 73
     3
 74
     0
 42
0.0000000001
 43
0.0000000001
 40
0.0
 40
0.0
 40
0.0
 40
14.47507546551677
 40
14.47507546551677
 40
14.47507546551677
 10
95.89387404338169
 20
1.078554225787624
 30
0.0
 10
97.15065928147084
 20
8.206137497726479
 30
0.0
 10
98.40744451955999
 20
15.33372076966533
 30
0.0
  0
SPLINE
  5
50
330
1F
100
AcDbEntity
  8
MAKE2D VISIBLE LINES
100
AcDbSpline
210
0.0
220
0.0
230
1.0
 70
    24
 71
     2
 72
     6
 73
     3
 74
     0
 42
0.0000000001
 43
0.0000000001
 40
0.0
 40
0.0
 40
0.0
 40
0.5905511811023629
 40
0.5905511811023629
 40
0.5905511811023629
 10
94.5248930868762
 20
0.0000000000000001
 30
0.0
 10
94.5248930868762
 20
0.2952755905511816
 30
0.0
 10
94.5248930868762
 20
0.590551181102363
 30
0.0
  0
SPLINE
  5
51
330
1F
100
AcDbEntity
  8
MAKE2D VISIBLE LINES
100
AcDbSpline
210
0.0
220
0.0
230
1.0
 70
     8
 71
     3
 72
    20
 73
    16
 74
     0
 42
0.0000000001
 43
0.0000000001
 40
0.0
 40
0.0
 40
0.0
 40
0.0
 40
1.0
 40
2.0
 40
3.0
 40
4.0
 40
5.0
 40
6.0
 40
7.0
 40
8.0
 40
9.0
 40
10.0
 40
11.0
 40
12.0
 40
13.0
 40
13.0
 40
13.0
 40
13.0
 10
69.0489068057766
 20
37.73555798068166
 30
0.0
 10
69.64077050945781
 20
37.38470503888821
 30
0.0
 10
70.31769308839512
 20
36.14460610031358
 30
0.0
 10
71.36721392957574
 20
34.39380447779513
 30
0.0
 10
72.26620932254542
 20
32.53674036821641
 30
0.0
 10
73.10055866434823
 20
30.65782765071871
 30
0.0
 10
73.86997123962166
 20
28.74924562893005
 30
0.0
 10
74.58581969300064
 20
26.82074983769263
 30
0.0
 10
75.24782348864687
 20
24.87237858302126
 30
0.0
 10
75.85437499672969
 20
22.90813706054409
 30
0.0
 10
76.34934545390087
 20
20.9032185456205
 30
0.0
 10
76.69288423473057
 20
18.90004942921093
 30
0.0
 10
76.7222758503182
 20
16.72593103479123
 30
0.0
 10
75.14481412497747
 20
15.27401106237338
 30
0.0
 10
73.64135334497212
 20
14.87596839243907
 30
0.0
 10
73.68544631670528
 20
14.06725330435212
 30
0.0
  0
SPLINE
  5
52
330
1F
100
AcDbEntity
  8
MAKE2D VISIBLE LINES
100
AcDbSpline
210
0.0
220
0.0
230
1.0
 70
    24
 71
     2
 72
     6
 73
     3
 74
     0
 42
0.0000000001
 43
0.0000000001
 40
0.0
 40
0.0
 40
0.0
 40
0.5905511811023629
 40
0.5905511811023629
 40
0.5905511811023629
 10
90.00312876630949
 20
0.590551181102363
 30
0.0
 10
90.00312876630949
 20
0.2952755905511816
 30
0.0
 10
90.00312876630949
 20
0.0000000000000001
 30
0.0
  0
SPLINE
  5
53
330
1F
100
AcDbEntity
  8
MAKE2D VISIBLE LINES
100
AcDbSpline
210
0.0
220
0.0
230
1.0
 70
    12
 71
     2
 72
     6
 73
     3
 74
     0
 42
0.0000000001
 43
0.0000000001
 40
0.0
 40
0.0
 40
0.0
 40
0.8245650009409343
 40
0.8245650009409343
 40
0.8245650009409343
 10
95.31229466168372
 20
0.5905511811023693
 30
0.0
 41
1.0
 10
95.80782593993764
 20
0.5905511811027986
 30
0.0
 41
0.7660444431181237
 10
95.89387404338169
 20
1.078554225787623
 30
0.0
 41
1.0
  0
SPLINE
  5
54
330
1F
100
AcDbEntity
  8
MAKE2D VISIBLE LINES
100
AcDbSpline
210
0.0
220
0.0
230
1.0
 70
     8
 71
     3
 72
    20
 73
    16
 74
     0
 42
0.0000000001
 43
0.0000000001
 40
0.0
 40
0.0
 40
0.0
 40
0.0
 40
1.0
 40
2.0
 40
3.0
 40
4.0
 40
5.0
 40
6.0
 40
7.0
 40
8.0
 40
9.0
 40
10.0
 40
11.0
 40
12.0
 40
13.0
 40
13.0
 40
13.0
 40
13.0
 10
98.40744451955999
 20
15.33372076966533
 30
0.0
 10
98.03209476442956
 20
15.87625335545519
 30
0.0
 10
96.73018683650434
 20
16.28202342883702
 30
0.0
 10
94.82404828238651
 20
16.56943764002764
 30
0.0
 10
92.87110813438474
 20
16.6790804037386
 30
0.0
 10
90.92473103819555
 20
16.72091665947029
 30
0.0
 10
88.97559909169871
 20
16.70668634619339
 30
0.0
 10
87.02785848595056
 20
16.6544066294936
 30
0.0
 10
85.08112625135277
 20
16.56809334715474
 30
0.0
 10
83.13611491355613
 20
16.4520392440515
 30
0.0
 10
81.19272762687996
 20
16.30516254386338
 30
0.0
 10
79.25422119872155
 20
16.11931103144556
 30
0.0
 10
77.31523378990875
 20
15.88293692818461
 30
0.0
 10
75.41466896642214
 20
15.52552799340396
 30
0.0
 10
74.14256598584194
 20
15.0821477848025
 30
0.0
 10
73.7568382419131
 20
14.53366011717912
 30
0.0
  0
LINE
  5
55
330
1F
100
AcDbEntity
  8
MAKE2D VISIBLE LINES
100
AcDbLine
 10
76.31968749601833
 20
0.0000000000000001
 30
0.0
 11
71.79792317545159
 21
0.0000000000000001
 31
0.0
  0
LINE
  5
56
330
1F
100
AcDbEntity
  8
MAKE2D VISIBLE LINES
100
AcDbLine
 10
90.00312876630949
 20
0.0000000000000001
 30
0.0
 11
94.5248930868762
 21
0.0000000000000001
 31
0.0
  0
LINE
  5
57
330
1F
100
AcDbEntity
  8
MAKE2D VISIBLE LINES
100
AcDbLine
 10
95.31229466168375
 20
0.5905511811022114
 30
0.0
 11
71.01059385595593
 21
0.5905511811023992
 31
0.0
  0
SPLINE
  5
58
330
1F
100
AcDbEntity
  8
MAKE2D VISIBLE LINES
100
AcDbSpline
210
0.0
220
0.0
230
1.0
 70
    24
 71
     2
 72
     6
 73
     3
 74
     0
 42
0.0000000001
 43
0.0000000001
 40
0.0
 40
0.0
 40
0.0
 40
13.732845370739
 40
13.732845370739
 40
13.732845370739
 10
73.68544631670528
 20
14.06725330435216
 30
0.0
 10
75.00544081080572
 20
7.328902242727258
 30
0.0
 10
76.32543530490616
 20
0.5905511811023582
 30
0.0
  0
LINE
  5
59
330
1F
100
AcDbEntity
  8
DEFAULT
100
AcDbLine
 10
65.3088178453228
 20
37.73555798068166
 30
0.0
 11
72.58539770675364
 21
0.5905511811023871
 31
0.0
  0
POLYLINE
  5
5A
330
1F
100
AcDbEntity
  8
DEFAULT
100
AcDb2dPolyline
 66
     1
 10
0.0
 20
0.0
 30
0.0
  0
VERTEX
  5
5B
330
5A
100
AcDbEntity
  8
DEFAULT
100
AcDbVertex
100
AcDb2dVertex
 10
69.03480260743663
 20
37.82790956976678
 30
0.0
  0
VERTEX
  5
5C
330
5A
100
AcDbEntity
  8
DEFAULT
100
AcDbVertex
100
AcDb2dVertex
 10
76.31124799885623
 20
0.6829027701875974
 30
0.0
  0
SEQEND
  5
5D
330
5A
100
AcDbEntity
  8
DEFAULT
  0
SPLINE
  5
5E
330
1F
100
AcDbEntity
  8
DEFAULT
100
AcDbSpline
210
0.0
220
0.0
230
1.0
 70
     8
 71
     3
 72
     8
 73
     4
 74
     0
 42
0.0000000001
 43
0.0000000001
 40
0.0
 40
0.0
 40
0.0
 40
0.0
 40
1.0
 40
1.0
 40
1.0
 40
1.0
 10
55.09564416473276
 20
15.24349114998341
 30
0.0
 10
55.10507058193124
 20
14.96085225688109
 30
0.0
 10
55.11742546111026
 20
14.67667915028864
 30
0.0
 10
55.09105348530134
 20
14.39511544501533
 30
0.0
  0
POLYLINE
  5
5F
330
1F
100
AcDbEntity
  8
DEFAULT
100
AcDb2dPolyline
 66
     1
 10
0.0
 20
0.0
 30
0.0
  0
VERTEX
  5
60
330
5F
100
AcDbEntity
  8
DEFAULT
100
AcDbVertex
100
AcDb2dVertex
 10
55.09564416473276
 20
15.24349114998341
 30
0.0
  0
VERTEX
  5
61
330
5F
100
AcDbEntity
  8
DEFAULT
100
AcDbVertex
100
AcDb2dVertex
 10
54.40780959985459
 20
35.86731841766543
 30
0.0
  0
SEQEND
  5
62
330
5F
100
AcDbEntity
  8
DEFAULT
  0
POLYLINE
  5
63
330
1F
100
AcDbEntity
  8
DEFAULT
100
AcDb2dPolyline
 66
     1
 10
0.0
 20
0.0
 30
0.0
  0
VERTEX
  5
64
330
63
100
AcDbEntity
  8
DEFAULT
100
AcDbVertex
100
AcDb2dVertex
 10
55.09105348530134
 20
14.39511544501533
 30
0.0
  0
VERTEX
  5
65
330
63
100
AcDbEntity
  8
DEFAULT
100
AcDbVertex
100
AcDb2dVertex
 10
53.8483343961859
 20
1.127069323616117
 30
0.0
  0
SEQEND
  5
66
330
63
100
AcDbEntity
  8
DEFAULT
  0
SPLINE
  5
67
330
1F
100
AcDbEntity
  8
MAKE2D VISIBLE LINES
100
AcDbSpline
210
0.0
220
0.0
230
1.0
 70
     8
 71
     3
 72
    20
 73
    16
 74
     0
 42
0.0000000001
 43
0.0000000001
 40
0.0
 40
0.0
 40
0.0
 40
0.0
 40
1.0
 40
2.0
 40
3.0
 40
4.0
 40
5.0
 40
6.0
 40
7.0
 40
8.0
 40
9.0
 40
10.0
 40
11.0
 40
12.0
 40
13.0
 40
13.0
 40
13.0
 40
13.0
 10
55.09838082139591
 20
14.68384830224542
 30
0.0
 10
55.16196659818127
 20
14.91281451051644
 30
0.0
 10
54.7601720279439
 20
15.09338157528246
 30
0.0
 10
54.21864626889845
 20
15.16632756102473
 30
0.0
 10
53.64986657718737
 20
15.22395791486159
 30
0.0
 10
53.08597019362535
 20
15.25832512367734
 30
0.0
 10
52.51986359743828
 20
15.28348203393673
 30
0.0
 10
51.95394058664022
 20
15.30105717620516
 30
0.0
 10
51.38776436900263
 20
15.31357101885421
 30
0.0
 10
50.82154995150264
 20
15.32220311168665
 30
0.0
 10
50.25529042270136
 20
15.32787169918767
 30
0.0
 10
49.68901612873866
 20
15.33132698762673
 30
0.0
 10
49.12273369497931
 20
15.33309038391386
 30
0.0
 10
48.55644930838308
 20
15.33371097233005
 30
0.0
 10
48.17892618732544
 20
15.33372387384821
 30
0.0
 10
47.99016466942744
 20
15.33372076966488
 30
0.0
  0
SPLINE
  5
68
330
1F
100
AcDbEntity
  8
MAKE2D VISIBLE LINES
100
AcDbSpline
210
0.0
220
0.0
230
1.0
 70
     8
 71
     3
 72
    20
 73
    16
 74
     0
 42
0.0000000001
 43
0.0000000001
 40
0.0
 40
0.0
 40
0.0
 40
0.0
 40
1.0
 40
2.0
 40
3.0
 40
4.0
 40
5.0
 40
6.0
 40
7.0
 40
8.0
 40
9.0
 40
10.0
 40
11.0
 40
12.0
 40
13.0
 40
13.0
 40
13.0
 40
13.0
 10
47.9901647382579
 20
16.71308723359485
 30
0.0
 10
48.19135181627797
 20
16.71087808733534
 30
0.0
 10
48.59374630224869
 20
16.70571898396909
 30
0.0
 10
49.19697201738295
 20
16.68304456424577
 30
0.0
 10
49.79956155333362
 20
16.64745745962432
 30
0.0
 10
50.40121589821639
 20
16.59842591812719
 30
0.0
 10
51.00151544617524
 20
16.53491036144738
 30
0.0
 10
51.59998296291686
 20
16.45577365816538
 30
0.0
 10
52.19564760310549
 20
16.35785060601521
 30
0.0
 10
52.78757448527379
 20
16.23849056295476
 30
0.0
 10
53.37237607246475
 20
16.0894740315073
 30
0.0
 10
53.94827791891841
 20
15.90303610710963
 30
0.0
 10
54.4942417439342
 20
15.65197835089929
 30
0.0
 10
55.00614691532569
 20
15.29794491666152
 30
0.0
 10
55.12814680712557
 20
14.88493237102
 30
0.0
 10
55.0988148560406
 20
14.68383418495478
 30
0.0
  0
LINE
  5
69
330
1F
100
AcDbEntity
  8
MAKE2D VISIBLE LINES
100
AcDbLine
 10
0.0000003318202297
 20
0.5905511885221306
 30
0.0
 11
0.0000050507752523
 21
15.33372077707876
 31
0.0
  0
SPLINE
  5
6A
330
1F
100
AcDbEntity
  8
MAKE2D VISIBLE LINES
100
AcDbSpline
210
0.0
220
0.0
230
1.0
 70
    12
 71
     3
 72
   108
 73
   104
 74
     0
 42
0.0000000001
 43
0.0000000001
 40
0.0
 40
0.0
 40
0.0
 40
0.0
 40
0.0000064337618824
 40
0.0000064337618824
 40
0.0000064337618824
 40
23.08310467950173
 40
23.08310467950173
 40
23.08310467950173
 40
23.09083399521816
 40
23.09083399521816
 40
23.09083399521816
 40
23.11112293168767
 40
23.11112293168767
 40
23.11112293168767
 40
23.12851051187802
 40
23.12851051187802
 40
23.12851051187802
 40
23.15240162170966
 40
23.15240162170966
 40
23.15240162170966
 40
23.22587828195148
 40
23.22587828195148
 40
23.22587828195148
 40
23.34628875009599
 40
23.34628875009599
 40
23.34628875009599
 40
23.42985472302229
 40
23.42985472302229
 40
23.42985472302229
 40
23.532641968055
 40
23.532641968055
 40
23.532641968055
 40
23.80769401721776
 40
23.80769401721776
 40
23.80769401721776
 40
23.98562185298037
 40
23.98562185298037
 40
23.98562185298037
 40
24.19361599154374
 40
24.19361599154374
 40
24.19361599154374
 40
24.43303734668288
 40
24.43303734668288
 40
24.43303734668288
 40
24.70436677922788
 40
24.70436677922788
 40
24.70436677922788
 40
25.00692030523035
 40
25.00692030523035
 40
25.00692030523035
 40
25.33871051530701
 40
25.33871051530701
 40
25.33871051530701
 40
25.69645828007282
 40
25.69645828007282
 40
25.69645828007282
 40
26.07614593532796
 40
26.07614593532796
 40
26.07614593532796
 40
26.88553073776943
 40
26.88553073776943
 40
26.88553073776943
 40
27.74085978075684
 40
27.74085978075684
 40
27.74085978075684
 40
39.04181475420705
 40
39.04181475420705
 40
39.04181475420705
 40
44.29413631795683
 40
46.58870111825695
 40
49.97787888478683
 40
52.73952587566691
 40
55.21549485181686
 40
63.433021683167
 40
117.7353628060869
 40
202.471798821887
 40
202.471798821887
 40
202.471798821887
 40
354.4530144621989
 40
354.4530144621989
 40
354.4530144621989
 40
506.4331672081109
 40
506.4331672081109
 40
506.4331672081109
 40
658.412310082275
 40
658.412310082275
 40
658.412310082275
 40
810.390672382126
 40
810.390672382126
 40
810.390672382126
 40
822.3478649719623
 40
822.3478649719623
 40
822.3478649719623
 40
898.3132381653281
 40
898.3132381653281
 40
898.3132381653281
 40
936.301364304931
 40
936.301364304931
 40
936.301364304931
 40
955.3011038466963
 40
955.3011038466963
 40
955.3011038466963
 40
974.3141915839224
 40
974.3141915839224
 40
974.3141915839224
 40
974.3141915839224
 10
53.26023492355287
 20
0.590551181370472
 30
0.0
 41
1.0
 10
53.26023706814019
 20
0.5905511813707361
 30
0.0
 41
1.0
 10
53.26023921272744
 20
0.5905511813710196
 30
0.0
 41
1.0
 10
53.26024135731475
 20
0.5905511813713215
 30
0.0
 41
1.0
 10
53.26033508577194
 20
0.5905511813846281
 30
0.0
 41
1.0
 10
53.26012181011866
 20
0.5905511813979915
 30
0.0
 41
1.0
 10
53.25889162158317
 20
0.59055118141148
 30
0.0
 41
1.0
 10
53.256315183011
 20
0.5905511814857516
 30
0.0
 41
1.0
 10
53.25373874443891
 20
0.5905511815079777
 30
0.0
 41
0.9999999999999998
 10
53.25116230586674
 20
0.5905511815302046
 30
0.0
 41
1.0
 10
53.24439932704355
 20
0.5905511807846704
 30
0.0
 41
0.9999999999999998
 10
53.23763634822041
 20
0.5905511808043078
 30
0.0
 41
1.0
 10
53.23087336939723
 20
0.5905511808239458
 30
0.0
 41
1.0
 10
53.22507750933379
 20
0.5905511826360816
 30
0.0
 41
1.0
 10
53.21928164927034
 20
0.5905511826444854
 30
0.0
 41
0.9999999999999998
 10
53.21348578920689
 20
0.5905511826528891
 30
0.0
 41
1.0
 10
53.20552208592966
 20
0.590551182636204
 30
0.0
 41
0.9999999999999999
 10
53.19755838265247
 20
0.5905511826447316
 30
0.0
 41
1.0
 10
53.18959467937525
 20
0.5905511826532577
 30
0.0
 41
1.0
 10
53.16510245929467
 20
0.5905511677460625
 30
0.0
 41
1.0
 10
53.14061023921401
 20
0.5905511677656078
 30
0.0
 41
0.9999999999999998
 10
53.11611801913342
 20
0.5905511677851536
 30
0.0
 41
1.0
 10
53.07598119641856
 20
0.5905511379449557
 30
0.0
 41
0.9999999999999998
 10
53.03584437370377
 20
0.5905511379657159
 30
0.0
 41
1.0
 10
52.99570755098891
 20
0.5905511379864776
 30
0.0
 41
1.0
 10
52.96785222668014
 20
0.5905511379345315
 30
0.0
 41
1.0
 10
52.93999690237138
 20
0.5905511379448682
 30
0.0
 41
0.9999999999999998
 10
52.91214157806262
 20
0.5905511379552054
 30
0.0
 41
1.0
 10
52.87787916305172
 20
0.590551376353725
 30
0.0
 41
1.0
 10
52.8436167480408
 20
0.5905513763646765
 30
0.0
 41
1.0
 10
52.8093543330299
 20
0.5905513763756282
 30
0.0
 41
1.0
 10
52.71767031664228
 20
0.5905513763681352
 30
0.0
 41
1.0
 10
52.62598630025476
 20
0.5905513763934964
 30
0.0
 41
1.0
 10
52.53430228386715
 20
0.5905513764188582
 30
0.0
 41
1.0
 10
52.47499300527963
 20
0.5905513763559921
 30
0.0
 41
1.0
 10
52.41568372669204
 20
0.5905513763692102
 30
0.0
 41
1.0
 10
52.35637444810453
 20
0.590551376382429
 30
0.0
 41
1.0
 10
52.28704306858342
 20
0.5905513763568273
 30
0.0
 41
1.0
 10
52.21771168906228
 20
0.590551376370882
 30
0.0
 41
0.9999999999999998
 10
52.14838030954117
 20
0.5905513763849359
 30
0.0
 41
1.0
 10
52.06857319116142
 20
0.5905494690090246
 30
0.0
 41
1.0
 10
51.98876607278176
 20
0.5905494690239083
 30
0.0
 41
0.9999999999999998
 10
51.90895895440202
 20
0.5905494690387921
 30
0.0
 41
1.0
 10
51.81851581022039
 20
0.5905494690098317
 30
0.0
 41
0.9999999999999998
 10
51.72807266603866
 20
0.590549469025523
 30
0.0
 41
1.0
 10
51.63762952185702
 20
0.5905494690412143
 30
0.0
 41
1.0
 10
51.53677834652286
 20
0.5905532837078559
 30
0.0
 41
1.0
 10
51.43592717118871
 20
0.590553283724305
 30
0.0
 41
0.9999999999999998
 10
51.33507599585455
 20
0.5905532837407547
 30
0.0
 41
1.0
 10
51.22447925916235
 20
0.5905532837085338
 30
0.0
 41
0.9999999999999998
 10
51.11388252247009
 20
0.5905532837256598
 30
0.0
 41
1.0
 10
51.00328578577789
 20
0.5905532837427876
 30
0.0
 41
1.0
 10
50.88403653085594
 20
0.5905456543145661
 30
0.0
 41
1.0
 10
50.76478727593404
 20
0.5905456543322558
 30
0.0
 41
0.9999999999999998
 10
50.64553802101209
 20
0.590545654349947
 30
0.0
 41
1.0
 10
50.51897546926035
 20
0.590545654315003
 30
0.0
 41
1.0
 10
50.39241291750868
 20
0.5905456543331306
 30
0.0
 41
1.0
 10
50.26585036575695
 20
0.5905456543512586
 30
0.0
 41
1.0
 10
49.99605543160979
 20
0.590545654334378
 30
0.0
 41
1.0
 10
49.72626049746263
 20
0.5905456543718806
 30
0.0
 41
1.0
 10
49.45646556331548
 20
0.5905456544093837
 30
0.0
 41
1.0
 10
49.17135588231966
 20
0.5905761719130758
 30
0.0
 41
0.9999999999999999
 10
48.88624620132388
 20
0.5905761719511514
 30
0.0
 41
1.0
 10
48.60113652032807
 20
0.5905761719892272
 30
0.0
 41
1.0
 10
48.4547401801031
 20
0.5905511823809316
 30
0.0
 41
1.0
 10
48.30807640926371
 20
0.5905511824000195
 30
0.0
 41
1.0
 10
48.16128946869225
 20
0.5905511824190838
 30
0.0
 41
1.0
 10
48.09306713253554
 20
0.5905511824279442
 30
0.0
 41
1.0
 10
47.99500091138995
 20
0.5905511824406683
 30
0.0
 41
1.0
 10
47.85284827265443
 20
0.5905511824590975
 30
0.0
 41
1.0
 10
47.74305084274076
 20
0.5905511824733255
 30
0.0
 41
1.0
 10
47.63088820623781
 20
0.5905511824878599
 30
0.0
 41
1.0
 10
47.45594256610127
 20
0.5905511825105226
 30
0.0
 41
1.0
 10
46.61078845088353
 20
0.5905511826199924
 30
0.0
 41
1.0
 10
44.69507337419873
 20
0.5905511828678288
 30
0.0
 41
1.0
 10
42.88443914381476
 20
0.5905511831014366
 30
0.0
 41
1.0
 10
41.78033887857075
 20
0.5905511832436582
 30
0.0
 41
1.0
 10
39.80005181833992
 20
0.5905511834987437
 30
0.0
 41
1.0
 10
37.81776904377556
 20
0.5905511837533431
 30
0.0
 41
1.0
 10
35.83379236506714
 20
0.5905511840074286
 30
0.0
 41
1.0
 10
33.84982944248452
 20
0.5905511842615122
 30
0.0
 41
1.0
 10
31.86417161159634
 20
0.5905511845150814
 30
0.0
 41
1.0
 10
29.87709791443768
 20
0.5905511847681048
 30
0.0
 41
1.0
 10
27.89003744279583
 20
0.5905511850211264
 30
0.0
 41
1.0
 10
25.90156064409847
 20
0.5905511852736022
 30
0.0
 41
1.0
 10
23.9119312004574
 20
0.590551185525494
 30
0.0
 41
1.0
 10
21.92231234232531
 20
0.5905511857773845
 30
0.0
 41
1.0
 10
19.93154031271128
 20
0.5905511860286919
 30
0.0
 41
1.0
 10
17.93987178960788
 20
0.5905511862793674
 30
0.0
 41
1.0
 10
13.9541409263291
 20
0.590820313001705
 30
0.0
 41
1.0
 10
9.968410063050362
 20
0.5908203135034104
 30
0.0
 41
0.9999999999999998
 10
5.982679199771589
 20
0.5908203140051154
 30
0.0
 41
1.0
 10
4.985906926058605
 20
0.5905511878989821
 30
0.0
 41
1.0
 10
3.989051544631276
 20
0.5905511880226672
 30
0.0
 41
1.0
 10
2.992159130454628
 20
0.5905511881461426
 30
0.0
 41
1.0
 10
2.493641528092891
 20
0.5905511882078892
 30
0.0
 41
1.0
 10
1.995114885563332
 20
0.5905511882695834
 30
0.0
 41
1.0
 10
1.496585188250393
 20
0.5905511883312294
 30
0.0
 41
1.0
 10
1.247245824268487
 20
0.5905511883620617
 30
0.0
 41
1.0
 10
0.997905710057946
 20
0.5905511883928821
 30
0.0
 41
1.0
 10
0.7485654220205147
 20
0.5905511884236933
 30
0.0
 41
1.0
 10
0.4990499439160496
 20
0.5905511884545261
 30
0.0
 41
1.0
 10
0.2495343163144206
 20
0.5905511884853495
 30
0.0
 41
1.0
 10
0.0000187361708335
 20
0.590551188516171
 30
0.0
 41
1.0
  0
SPLINE
  5
6B
330
1F
100
AcDbEntity
  8
MAKE2D VISIBLE LINES
100
AcDbSpline
210
0.0
220
0.0
230
1.0
 70
    24
 71
     2
 72
     6
 73
     3
 74
     0
 42
0.0000000001
 43
0.0000000001
 40
0.0
 40
0.0
 40
0.0
 40
0.5905511811023629
 40
0.5905511811023629
 40
0.5905511811023629
 10
5.309170946145119
 20
0.590551181102363
 30
0.0
 10
5.309170946145119
 20
0.2952755905511816
 30
0.0
 10
5.309170946145119
 20
0.0000000000000001
 30
0.0
  0
LINE
  5
6C
330
1F
100
AcDbEntity
  8
MAKE2D VISIBLE LINES
100
AcDbLine
 10
5.309170946145142
 20
0.0000000000000001
 30
0.0
 11
0.7880883618757658
 21
0.0000000000000001
 31
0.0
  0
POLYLINE
  5
6D
330
1F
100
AcDbEntity
  8
MAKE2D VISIBLE LINES
100
AcDb2dPolyline
 66
     1
 10
0.0
 20
0.0
 30
0.0
  0
VERTEX
  5
6E
330
6D
100
AcDbEntity
  8
MAKE2D VISIBLE LINES
100
AcDbVertex
100
AcDb2dVertex
 10
47.38770273969698
 20
0.0000000000000151
 30
0.0
  0
VERTEX
  5
6F
330
6D
100
AcDbEntity
  8
MAKE2D VISIBLE LINES
100
AcDbVertex
100
AcDb2dVertex
 10
51.90878531754635
 20
0.0000000000000001
 30
0.0
  0
VERTEX
  5
70
330
6D
100
AcDbEntity
  8
MAKE2D VISIBLE LINES
100
AcDbVertex
100
AcDb2dVertex
 10
47.56067127050548
 20
0.0000000000000001
 30
0.0
  0
SEQEND
  5
71
330
6D
100
AcDbEntity
  8
MAKE2D VISIBLE LINES
  0
SPLINE
  5
72
330
1F
100
AcDbEntity
  8
MAKE2D VISIBLE LINES
100
AcDbSpline
210
0.0
220
0.0
230
1.0
 70
    24
 71
     2
 72
     6
 73
     3
 74
     0
 42
0.0000000001
 43
0.0000000001
 40
0.0
 40
0.0
 40
0.0
 40
0.5905511811023629
 40
0.5905511811023629
 40
0.5905511811023629
 10
47.38770273969698
 20
0.0000000000000001
 30
0.0
 10
47.38770273969698
 20
0.2952755905511816
 30
0.0
 10
47.38770273969698
 20
0.590551181102363
 30
0.0
  0
SPLINE
  5
73
330
1F
100
AcDbEntity
  8
MAKE2D VISIBLE LINES
100
AcDbSpline
210
0.0
220
0.0
230
1.0
 70
    24
 71
     2
 72
     6
 73
     3
 74
     0
 42
0.0000000001
 43
0.0000000001
 40
0.0
 40
0.0
 40
0.0
 40
47.99015961865219
 40
47.99015961865219
 40
47.99015961865219
 10
47.99016466942744
 20
15.33372076966488
 30
0.0
 10
23.99508486010135
 20
15.33372077337182
 30
0.0
 10
0.0000050507752523
 20
15.33372077707876
 30
0.0
  0
SPLINE
  5
74
330
1F
100
AcDbEntity
  8
MAKE2D VISIBLE LINES
100
AcDbSpline
210
0.0
220
0.0
230
1.0
 70
    24
 71
     2
 72
     6
 73
     3
 74
     0
 42
0.0000000001
 43
0.0000000001
 40
0.0
 40
0.0
 40
0.0
 40
0.5905511811023629
 40
0.5905511811023629
 40
0.5905511811023629
 10
51.90946706026379
 20
0.590551181102363
 30
0.0
 10
51.90946706026379
 20
0.2952755905511816
 30
0.0
 10
51.90946706026379
 20
0.0000000000000001
 30
0.0
  0
SPLINE
  5
75
330
1F
100
AcDbEntity
  8
MAKE2D VISIBLE LINES
100
AcDbSpline
210
0.0
220
0.0
230
1.0
 70
    24
 71
     2
 72
     6
 73
     3
 74
     0
 42
0.0000000001
 43
0.0000000001
 40
0.0
 40
0.0
 40
0.0
 40
0.5905511811023629
 40
0.5905511811023629
 40
0.5905511811023629
 10
0.7874066255782761
 20
0.0000000000000001
 30
0.0
 10
0.7874066255782761
 20
0.2952755905511816
 30
0.0
 10
0.7874066255782761
 20
0.590551181102363
 30
0.0
  0
SPLINE
  5
76
330
1F
100
AcDbEntity
  8
MAKE2D VISIBLE LINES
100
AcDbSpline
210
0.0
220
0.0
230
1.0
 70
    12
 71
     2
 72
     6
 73
     3
 74
     0
 42
0.0000000001
 43
0.0000000001
 40
0.0
 40
0.0
 40
0.0
 40
0.8717076030502974
 40
0.8717076030502974
 40
0.8717076030502974
 10
53.8483343961859
 20
1.127069323616117
 30
0.0
 41
1.0
 10
53.79918889724326
 20
0.5922098313593087
 30
0.0
 41
0.7397867729593282
 10
53.26207883898405
 20
0.5905539810252628
 30
0.0
 41
1.0
  0
SPLINE
  5
77
330
1F
100
AcDbEntity
  8
MAKE2D VISIBLE LINES
100
AcDbSpline
210
0.0
220
0.0
230
1.0
 70
     8
 71
     3
 72
    11
 73
     7
 74
     0
 42
0.0000000001
 43
0.0000000001
 40
0.0
 40
0.0
 40
0.0
 40
0.0
 40
7.866881032137004
 40
24.87817249877002
 40
31.73690500512295
 40
47.99064458130206
 40
47.99064458130206
 40
47.99064458130206
 40
47.99064458130206
 10
0.0000050507750817
 20
16.71308850638097
 30
0.0
 10
2.622300190411049
 20
16.71336693688163
 30
0.0
 10
10.91501012080336
 20
16.73114119577662
 30
0.0
 10
21.49384851597548
 20
16.78799984835543
 30
0.0
 10
34.86842186613358
 20
16.81146744184578
 30
0.0
 10
42.57261305083097
 20
16.77740167413852
 30
0.0
 10
47.99016466942733
 20
16.71308850638087
 30
0.0
  0
SPLINE
  5
78
330
1F
100
AcDbEntity
  8
MAKE2D VISIBLE LINES
100
AcDbSpline
210
0.0
220
0.0
230
1.0
 70
    24
 71
     2
 72
     6
 73
     3
 74
     0
 42
0.0000000001
 43
0.0000000001
 40
0.0
 40
0.0
 40
0.0
 40
1.378770922160294
 40
1.378770922160294
 40
1.378770922160294
 10
0.0000050507752523
 20
15.33372077707876
 30
0.0
 10
0.0000050507779405
 20
16.02310623815891
 30
0.0
 10
0.0000050507806288
 20
16.71249169923906
 30
0.0
  0
SPLINE
  5
79
330
1F
100
AcDbEntity
  8
MAKE2D VISIBLE LINES
100
AcDbSpline
210
0.0
220
0.0
230
1.0
 70
     8
 71
     3
 72
    19
 73
    15
 74
     0
 42
0.0000000001
 43
0.0000000001
 40
0.0
 40
0.0
 40
0.0
 40
0.0
 40
0.6061900061870487
 40
1.20468264704618
 40
1.816679337987149
 40
2.432012225665281
 40
2.697199409937116
 40
2.972924693333689
 40
3.049926476643417
 40
3.138121125685099
 40
3.248448114604861
 40
3.358536963611582
 40
3.579478876089161
 40
7.473803455867619
 40
7.473803455867619
 40
7.473803455867619
 40
7.473803455867619
 10
54.40780959985459
 20
35.86731841766543
 30
0.0
 10
54.40110839488279
 20
36.06925061528059
 30
0.0
 10
54.32280450670842
 20
36.46840816671766
 30
0.0
 10
54.0239066709455
 20
37.0034823295037
 30
0.0
 10
53.57256590144399
 20
37.42302791759992
 30
0.0
 10
53.11646122672528
 20
37.63607772623043
 30
0.0
 10
52.73925649461552
 20
37.71954617222851
 30
0.0
 10
52.53350283016084
 20
37.73588266134352
 30
0.0
 10
52.38645976398366
 20
37.73512595906216
 30
0.0
 10
52.29465344026671
 20
37.73599138766443
 30
0.0
 10
52.19176707502493
 20
37.73545649726669
 30
0.0
 10
52.04465230797964
 20
37.73556139146378
 30
0.0
 10
50.6361995555306
 20
37.73555410579198
 30
0.0
 10
49.26444486379404
 20
37.73555982619391
 30
0.0
 10
47.96633640264189
 20
37.73555798068173
 30
0.0
  0
SPLINE
  5
7A
330
1F
100
AcDbEntity
  8
MAKE2D VISIBLE LINES
100
AcDbSpline
210
0.0
220
0.0
230
1.0
 70
    24
 71
     2
 72
     6
 73
     3
 74
     0
 42
0.0000000001
 43
0.0000000001
 40
0.0
 40
0.0
 40
0.0
 40
47.96633135187437
 40
47.96633135187437
 40
47.96633135187437
 10
47.96633640264189
 20
37.73555798068173
 30
0.0
 10
23.9831707267047
 20
37.73555801853773
 30
0.0
 10
0.0000050507675136
 20
37.73555805639373
 30
0.0
  0
SPLINE
  5
7B
330
1F
100
AcDbEntity
  8
MAKE2D VISIBLE LINES
100
AcDbSpline
210
0.0
220
0.0
230
1.0
 70
    24
 71
     2
 72
     6
 73
     3
 74
     0
 42
0.0000000001
 43
0.0000000001
 40
0.0
 40
0.0
 40
0.0
 40
21.02306635794937
 40
21.02306635794937
 40
21.02306635794937
 10
0.000005050773979
 20
16.71249169844436
 30
0.0
 10
0.0000050507707463
 20
27.22402487741904
 30
0.0
 10
0.0000050507675136
 20
37.73555805639373
 30
0.0
  0
ENDSEC
  0
SECTION
  2
OBJECTS
  0
DICTIONARY
  5
C
330
0
100
AcDbDictionary
281
     1
  3
ACAD_GROUP
350
D
  3
ACAD_LAYOUT
350
1A
  3
ACAD_MLEADERSTYLE
350
7E
  3
ACAD_MLINESTYLE
350
17
  3
ACAD_PLOTSETTINGS
350
19
  3
ACAD_PLOTSTYLENAME
350
E
  3
ACAD_VISUALSTYLE
350
2A
  3
AcDbVariableDictionary
350
7C
  0
DICTIONARY
  5
D
102
{ACAD_REACTORS
330
C
102
}
330
C
100
AcDbDictionary
281
     1
  0
DICTIONARY
  5
1A
102
{ACAD_REACTORS
330
C
102
}
330
C
100
AcDbDictionary
281
     1
  3
Layout1
350
1E
  3
Layout2
350
26
  3
Model
350
22
  0
DICTIONARY
  5
7E
102
{ACAD_REACTORS
330
C
102
}
330
C
100
AcDbDictionary
281
     1
  0
DICTIONARY
  5
17
102
{ACAD_REACTORS
330
C
102
}
330
C
100
AcDbDictionary
281
     1
  3
Standard
350
18
  0
DICTIONARY
  5
19
102
{ACAD_REACTORS
330
C
102
}
330
C
100
AcDbDictionary
281
     1
  0
ACDBDICTIONARYWDFLT
  5
E
102
{ACAD_REACTORS
330
C
102
}
330
C
100
AcDbDictionary
281
     1
  3
Normal
350
F
100
AcDbDictionaryWithDefault
340
F
  0
DICTIONARY
  5
2A
102
{ACAD_REACTORS
330
C
102
}
330
C
100
AcDbDictionary
281
     1
  3
2dWireframe
350
2F
  3
3D Hidden
350
31
  3
3dWireframe
350
30
  3
Basic
350
32
  3
Brighten
350
36
  3
ColorChange
350
3A
  3
Conceptual
350
34
  3
Dim
350
35
  3
Facepattern
350
39
  3
Flat
350
2B
  3
FlatWithEdges
350
2C
  3
Gouraud
350
2D
  3
GouraudWithEdges
350
2E
  3
Linepattern
350
38
  3
Realistic
350
33
  3
Thicken
350
37
  0
DICTIONARY
  5
7C
102
{ACAD_REACTORS
330
C
102
}
330
C
100
AcDbDictionary
281
     1
  0
LAYOUT
  5
1E
102
{ACAD_REACTORS
330
1A
102
}
330
1A
100
AcDbPlotSettings
  1

  2
none_device
  4

  6

 40
0.0
 41
0.0
 42
0.0
 43
0.0
 44
0.0
 45
0.0
 46
0.0
 47
0.0
 48
0.0
 49
0.0
140
0.0
141
0.0
142
1.0
143
1.0
 70
   688
 72
     0
 73
     0
 74
     5
  7

 75
    16
147
1.0
148
0.0
149
0.0
100
AcDbLayout
  1
Layout1
 70
     1
 71
     1
 10
0.0
 20
0.0
 11
12.0
 21
9.0
 12
0.0
 22
0.0
 32
0.0
 14
1.000000000000000E+20
 24
1.000000000000000E+20
 34
1.000000000000000E+20
 15
-1.000000000000000E+20
 25
-1.000000000000000E+20
 35
-1.000000000000000E+20
146
0.0
 13
0.0
 23
0.0
 33
0.0
 16
1.0
 26
0.0
 36
0.0
 17
0.0
 27
1.0
 37
0.0
 76
     0
330
1B
  0
LAYOUT
  5
26
102
{ACAD_REACTORS
330
1A
102
}
330
1A
100
AcDbPlotSettings
  1

  2
none_device
  4

  6

 40
0.0
 41
0.0
 42
0.0
 43
0.0
 44
0.0
 45
0.0
 46
0.0
 47
0.0
 48
0.0
 49
0.0
140
0.0
141
0.0
142
1.0
143
1.0
 70
   688
 72
     0
 73
     0
 74
     5
  7

 75
    16
147
1.0
148
0.0
149
0.0
100
AcDbLayout
  1
Layout2
 70
     1
 71
     2
 10
0.0
 20
0.0
 11
0.0
 21
0.0
 12
0.0
 22
0.0
 32
0.0
 14
0.0
 24
0.0
 34
0.0
 15
0.0
 25
0.0
 35
0.0
146
0.0
 13
0.0
 23
0.0
 33
0.0
 16
1.0
 26
0.0
 36
0.0
 17
0.0
 27
1.0
 37
0.0
 76
     0
330
23
  0
LAYOUT
  5
22
102
{ACAD_REACTORS
330
1A
102
}
330
1A
100
AcDbPlotSettings
  1

  2
none_device
  4

  6

 40
0.0
 41
0.0
 42
0.0
 43
0.0
 44
0.0
 45
0.0
 46
0.0
 47
0.0
 48
0.0
 49
0.0
140
0.0
141
0.0
142
1.0
143
1.0
 70
  1712
 72
     0
 73
     0
 74
     0
  7

 75
     0
147
1.0
148
0.0
149
0.0
100
AcDbLayout
  1
Model
 70
     1
 71
     0
 10
0.0
 20
0.0
 11
12.0
 21
9.0
 12
0.0
 22
0.0
 32
0.0
 14
0.0000003318202297
 24
0.0000000000000001
 34
0.0
 15
98.40744451955999
 25
82.86251008396735
 35
0.0
146
0.0
 13
0.0
 23
0.0
 33
0.0
 16
1.0
 26
0.0
 36
0.0
 17
0.0
 27
1.0
 37
0.0
 76
     0
330
1F
331
29
  0
MLINESTYLE
  5
18
102
{ACAD_REACTORS
330
17
102
}
330
17
100
AcDbMlineStyle
  2
Standard
 70
     0
  3

 62
   256
 51
90.0
 52
90.0
 71
     2
 49
0.5
 62
   256
  6
BYLAYER
 49
-0.5
 62
   256
  6
BYLAYER
  0
ACDBPLACEHOLDER
  5
F
102
{ACAD_REACTORS
330
E
102
}
330
E
  0
VISUALSTYLE
  5
2F
102
{ACAD_REACTORS
330
2A
102
}
330
2A
100
AcDbVisualStyle
  2
2dWireframe
 70
     4
 71
     0
 72
     2
 73
     0
 90
        0
 40
-0.6
 41
-30.0
 62
     5
 63
     7
 74
     1
 91
        4
 64
     7
 65
   257
 75
     1
175
     1
 42
1.0
 92
        0
 66
   257
 43
1.0
 76
     1
 77
     6
 78
     2
 67
     7
 79
     5
170
     0
171
     0
290
     0
174
     0
 93
        1
 44
0.0
173
     0
291
     0
 45
0.0
1001
ACAD
1000
AcDbSavedByObjectVersion
1070
     0
  0
VISUALSTYLE
  5
31
102
{ACAD_REACTORS
330
2A
102
}
330
2A
100
AcDbVisualStyle
  2
3D Hidden
 70
     6
 71
     1
 72
     2
 73
     2
 90
        0
 40
-0.6
 41
-30.0
 62
     5
 63
     7
 74
     2
 91
        2
 64
     7
 65
   257
 75
     2
175
     1
 42
40.0
 92
        0
 66
   257
 43
1.0
 76
     1
 77
     6
 78
     2
 67
     7
 79
     3
170
     0
171
     0
290
     0
174
     0
 93
        1
 44
0.0
173
     0
291
     0
 45
0.0
1001
ACAD
1000
AcDbSavedByObjectVersion
1070
     0
  0
VISUALSTYLE
  5
30
102
{ACAD_REACTORS
330
2A
102
}
330
2A
100
AcDbVisualStyle
  2
3dWireframe
 70
     5
 71
     0
 72
     2
 73
     0
 90
        0
 40
-0.6
 41
-30.0
 62
     5
 63
     7
 74
     1
 91
        4
 64
     7
 65
   257
 75
     1
175
     1
 42
1.0
 92
        0
 66
   257
 43
1.0
 76
     1
 77
     6
 78
     2
 67
     7
 79
     5
170
     0
171
     0
290
     0
174
     0
 93
        1
 44
0.0
173
     0
291
     0
 45
0.0
1001
ACAD
1000
AcDbSavedByObjectVersion
1070
     0
  0
VISUALSTYLE
  5
32
102
{ACAD_REACTORS
330
2A
102
}
330
2A
100
AcDbVisualStyle
  2
Basic
 70
     7
 71
     1
 72
     0
 73
     1
 90
        0
 40
-0.6
 41
-30.0
 62
     5
 63
     7
 74
     0
 91
        4
 64
     7
 65
   257
 75
     1
175
     1
 42
1.0
 92
        8
 66
     7
 43
1.0
 76
     1
 77
     6
 78
     2
 67
     7
 79
     5
170
     0
171
     0
290
     0
174
     0
 93
        1
 44
0.0
173
     0
291
     1
 45
0.0
1001
ACAD
1000
AcDbSavedByObjectVersion
1070
     0
  0
VISUALSTYLE
  5
36
102
{ACAD_REACTORS
330
2A
102
}
330
2A
100
AcDbVisualStyle
  2
Brighten
 70
    12
 71
     2
 72
     2
 73
     0
 90
        0
 40
-0.6
 41
-30.0
 62
     5
 63
     7
 74
     1
 91
        4
 64
     7
 65
   257
 75
     1
175
     1
 42
1.0
 92
        8
 66
     7
 43
1.0
 76
     1
 77
     6
 78
     2
 67
     7
 79
     5
170
     0
171
     0
290
     0
174
     0
 93
        1
 44
50.0
173
     0
291
     1
 45
0.0
1001
ACAD
1000
AcDbSavedByObjectVersion
1070
     0
  0
VISUALSTYLE
  5
3A
102
{ACAD_REACTORS
330
2A
102
}
330
2A
100
AcDbVisualStyle
  2
ColorChange
 70
    16
 71
     2
 72
     2
 73
     3
 90
        0
 40
-0.6
 41
-30.0
 62
     5
 63
     8
 74
     1
 91
        4
 64
     7
 65
   257
 75
     1
175
     1
 42
1.0
 92
        8
 66
     8
 43
1.0
 76
     1
 77
     6
 78
     2
 67
     7
 79
     5
170
     0
171
     0
290
     0
174
     0
 93
        1
 44
0.0
173
     0
291
     1
 45
0.0
1001
ACAD
1000
AcDbSavedByObjectVersion
1070
     0
  0
VISUALSTYLE
  5
34
102
{ACAD_REACTORS
330
2A
102
}
330
2A
100
AcDbVisualStyle
  2
Conceptual
 70
     9
 71
     3
 72
     2
 73
     0
 90
        0
 40
-0.6
 41
-30.0
 62
     5
 63
     7
 74
     2
 91
        2
 64
     7
 65
   257
 75
     1
175
     1
 42
40.0
 92
        8
 66
     7
 43
1.0
 76
     1
 77
     6
 78
     2
 67
     7
 79
     3
170
     0
171
     0
290
     0
174
     0
 93
        1
 44
0.0
173
     0
291
     0
 45
0.0
1001
ACAD
1000
AcDbSavedByObjectVersion
1070
     0
  0
VISUALSTYLE
  5
35
102
{ACAD_REACTORS
330
2A
102
}
330
2A
100
AcDbVisualStyle
  2
Dim
 70
    11
 71
     2
 72
     2
 73
     0
 90
        0
 40
-0.6
 41
-30.0
 62
     5
 63
     7
 74
     1
 91
        4
 64
     7
 65
   257
 75
     1
175
     1
 42
1.0
 92
        8
 66
     7
 43
1.0
 76
     1
 77
     6
 78
     2
 67
     7
 79
     5
170
     0
171
     0
290
     0
174
     0
 93
        1
 44
-50.0
173
     0
291
     1
 45
0.0
1001
ACAD
1000
AcDbSavedByObjectVersion
1070
     0
  0
VISUALSTYLE
  5
39
102
{ACAD_REACTORS
330
2A
102
}
330
2A
100
AcDbVisualStyle
  2
Facepattern
 70
    15
 71
     2
 72
     2
 73
     0
 90
        0
 40
-0.6
 41
-30.0
 62
     5
 63
     7
 74
     1
 91
        4
 64
     7
 65
   257
 75
     1
175
     1
 42
1.0
 92
        8
 66
     7
 43
1.0
 76
     1
 77
     6
 78
     2
 67
     7
 79
     5
170
     0
171
     0
290
     0
174
     0
 93
        1
 44
0.0
173
     0
291
     1
 45
0.0
1001
ACAD
1000
AcDbSavedByObjectVersion
1070
     0
  0
VISUALSTYLE
  5
2B
102
{ACAD_REACTORS
330
2A
102
}
330
2A
100
AcDbVisualStyle
  2
Flat
 70
     0
 71
     2
 72
     1
 73
     1
 90
        2
 40
-0.6
 41
30.0
 62
     5
 63
     7
 74
     0
 91
        4
 64
     7
 65
   257
 75
     1
175
     1
 42
1.0
 92
        8
 66
     7
 43
1.0
 76
     1
 77
     6
 78
     2
 67
     7
 79
     5
170
     0
171
     0
290
     0
174
     0
 93
       13
 44
0.0
173
     0
291
     1
 45
0.0
1001
ACAD
1000
AcDbSavedByObjectVersion
1070
     0
  0
VISUALSTYLE
  5
2C
102
{ACAD_REACTORS
330
2A
102
}
330
2A
100
AcDbVisualStyle
  2
FlatWithEdges
 70
     1
 71
     2
 72
     1
 73
     1
 90
        2
 40
-0.6
 41
30.0
 62
     5
 63
     7
 74
     1
 91
        4
 64
     7
 65
   257
 75
     1
175
     1
 42
1.0
 92
        0
 66
   257
 43
1.0
 76
     1
 77
     6
 78
     2
 67
     7
 79
     5
170
     0
171
     0
290
     0
174
     0
 93
       13
 44
0.0
173
     0
291
     1
 45
0.0
1001
ACAD
1000
AcDbSavedByObjectVersion
1070
     0
  0
VISUALSTYLE
  5
2D
102
{ACAD_REACTORS
330
2A
102
}
330
2A
100
AcDbVisualStyle
  2
Gouraud
 70
     2
 71
     2
 72
     2
 73
     1
 90
        2
 40
-0.6
 41
30.0
 62
     5
 63
     7
 74
     0
 91
        4
 64
     7
 65
   257
 75
     1
175
     1
 42
1.0
 92
        0
 66
     7
 43
1.0
 76
     1
 77
     6
 78
     2
 67
     7
 79
     5
170
     0
171
     0
290
     0
174
     0
 93
       13
 44
0.0
173
     0
291
     1
 45
0.0
1001
ACAD
1000
AcDbSavedByObjectVersion
1070
     0
  0
VISUALSTYLE
  5
2E
102
{ACAD_REACTORS
330
2A
102
}
330
2A
100
AcDbVisualStyle
  2
GouraudWithEdges
 70
     3
 71
     2
 72
     2
 73
     1
 90
        2
 40
-0.6
 41
30.0
 62
     5
 63
     7
 74
     1
 91
        4
 64
     7
 65
   257
 75
     1
175
     1
 42
1.0
 92
        0
 66
   257
 43
1.0
 76
     1
 77
     6
 78
     2
 67
     7
 79
     5
170
     0
171
     0
290
     0
174
     0
 93
       13
 44
0.0
173
     0
291
     1
 45
0.0
1001
ACAD
1000
AcDbSavedByObjectVersion
1070
     0
  0
VISUALSTYLE
  5
38
102
{ACAD_REACTORS
330
2A
102
}
330
2A
100
AcDbVisualStyle
  2
Linepattern
 70
    14
 71
     2
 72
     2
 73
     0
 90
        0
 40
-0.6
 41
-30.0
 62
     5
 63
     7
 74
     1
 91
        4
 64
     7
 65
   257
 75
     7
175
     7
 42
1.0
 92
        8
 66
     7
 43
1.0
 76
     1
 77
     6
 78
     2
 67
     7
 79
     5
170
     0
171
     0
290
     0
174
     0
 93
        1
 44
0.0
173
     0
291
     1
 45
0.0
1001
ACAD
1000
AcDbSavedByObjectVersion
1070
     0
  0
VISUALSTYLE
  5
33
102
{ACAD_REACTORS
330
2A
102
}
330
2A
100
AcDbVisualStyle
  2
Realistic
 70
     8
 71
     2
 72
     2
 73
     0
 90
        0
 40
-0.6
 41
-30.0
 62
     5
 63
     7
 74
     1
 91
        0
 64
     7
 65
   257
 75
     1
175
     1
 42
1.0
 92
        8
 66
     8
 43
1.0
 76
     1
 77
     6
 78
     2
 67
     7
 79
     5
170
     0
171
     0
290
     0
174
     0
 93
       13
 44
0.0
173
     0
291
     0
 45
0.0
1001
ACAD
1000
AcDbSavedByObjectVersion
1070
     0
  0
VISUALSTYLE
  5
37
102
{ACAD_REACTORS
330
2A
102
}
330
2A
100
AcDbVisualStyle
  2
Thicken
 70
    13
 71
     2
 72
     2
 73
     0
 90
        0
 40
-0.6
 41
-30.0
 62
     5
 63
     7
 74
     1
 91
        4
 64
     7
 65
   257
 75
     1
175
     1
 42
1.0
 92
       12
 66
     7
 43
1.0
 76
     1
 77
     6
 78
     2
 67
     7
 79
     5
170
     0
171
     0
290
     0
174
     0
 93
        1
 44
0.0
173
     0
291
     1
 45
0.0
1001
ACAD
1000
AcDbSavedByObjectVersion
1070
     0
  0
ENDSEC
  0
EOF
