  0
SECTION
  2
HEADER
  9
$ACADVER
  1
AC1015
  9
$ACADMAINTVER
 70
     6
  9
$DWGCODEPAGE
  3
ANSI_1252
  9
$INSBASE
 10
0.0
 20
0.0
 30
0.0
  9
$EXTMIN
 10
-0.0000000000000249
 20
0.0000000000000018
 30
0.0
  9
$EXTMAX
 10
105.1501715982415
 20
98.77518566115647
 30
0.0
  9
$LIMMIN
 10
0.0
 20
0.0
  9
$LIMMAX
 10
12.0
 20
9.0
  9
$ORTHOMODE
 70
     0
  9
$REGENMODE
 70
     1
  9
$FILLMODE
 70
     1
  9
$QTEXTMODE
 70
     0
  9
$MIRRTEXT
 70
     1
  9
$LTSCALE
 40
0.0393700787401575
  9
$ATTMODE
 70
     1
  9
$TEXTSIZE
 40
0.2
  9
$TRACEWID
 40
0.05
  9
$TEXTSTYLE
  7
Standard
  9
$CLAYER
  8
0
  9
$CELTYPE
  6
ByLayer
  9
$CECOLOR
 62
   256
  9
$CELTSCALE
 40
1.0
  9
$DISPSILH
 70
     0
  9
$DIMSCALE
 40
1.0
  9
$DIMASZ
 40
0.18
  9
$DIMEXO
 40
0.0625
  9
$DIMDLI
 40
0.38
  9
$DIMRND
 40
0.0
  9
$DIMDLE
 40
0.0
  9
$DIMEXE
 40
0.18
  9
$DIMTP
 40
0.0
  9
$DIMTM
 40
0.0
  9
$DIMTXT
 40
0.18
  9
$DIMCEN
 40
0.09
  9
$DIMTSZ
 40
0.0
  9
$DIMTOL
 70
     0
  9
$DIMLIM
 70
     0
  9
$DIMTIH
 70
     1
  9
$DIMTOH
 70
     1
  9
$DIMSE1
 70
     0
  9
$DIMSE2
 70
     0
  9
$DIMTAD
 70
     0
  9
$DIMZIN
 70
     0
  9
$DIMBLK
  1

  9
$DIMASO
 70
     1
  9
$DIMSHO
 70
     1
  9
$DIMPOST
  1

  9
$DIMAPOST
  1

  9
$DIMALT
 70
     0
  9
$DIMALTD
 70
     2
  9
$DIMALTF
 40
25.4
  9
$DIMLFAC
 40
1.0
  9
$DIMTOFL
 70
     0
  9
$DIMTVP
 40
0.0
  9
$DIMTIX
 70
     0
  9
$DIMSOXD
 70
     0
  9
$DIMSAH
 70
     0
  9
$DIMBLK1
  1

  9
$DIMBLK2
  1

  9
$DIMSTYLE
  2
Standard
  9
$DIMCLRD
 70
     0
  9
$DIMCLRE
 70
     0
  9
$DIMCLRT
 70
     0
  9
$DIMTFAC
 40
1.0
  9
$DIMGAP
 40
0.09
  9
$DIMJUST
 70
     0
  9
$DIMSD1
 70
     0
  9
$DIMSD2
 70
     0
  9
$DIMTOLJ
 70
     1
  9
$DIMTZIN
 70
     0
  9
$DIMALTZ
 70
     0
  9
$DIMALTTZ
 70
     0
  9
$DIMUPT
 70
     0
  9
$DIMDEC
 70
     4
  9
$DIMTDEC
 70
     4
  9
$DIMALTU
 70
     2
  9
$DIMALTTD
 70
     2
  9
$DIMTXSTY
  7
Standard
  9
$DIMAUNIT
 70
     0
  9
$DIMADEC
 70
     0
  9
$DIMALTRND
 40
0.0
  9
$DIMAZIN
 70
     0
  9
$DIMDSEP
 70
    46
  9
$DIMATFIT
 70
     3
  9
$DIMFRAC
 70
     0
  9
$DIMLDRBLK
  1

  9
$DIMLUNIT
 70
     2
  9
$DIMLWD
 70
    -2
  9
$DIMLWE
 70
    -2
  9
$DIMTMOVE
 70
     2
  9
$LUNITS
 70
     2
  9
$LUPREC
 70
     3
  9
$SKETCHINC
 40
0.1
  9
$FILLETRAD
 40
0.5
  9
$AUNITS
 70
     0
  9
$AUPREC
 70
     0
  9
$MENU
  1
.
  9
$ELEVATION
 40
0.0
  9
$PELEVATION
 40
0.0
  9
$THICKNESS
 40
0.0
  9
$LIMCHECK
 70
     0
  9
$CHAMFERA
 40
0.5
  9
$CHAMFERB
 40
0.5
  9
$CHAMFERC
 40
1.0
  9
$CHAMFERD
 40
0.0
  9
$SKPOLY
 70
     0
  9
$TDCREATE
 40
2455355.554104329
  9
$TDUCREATE
 40
2455355.720770996
  9
$TDUPDATE
 40
2455355.55410434
  9
$TDUUPDATE
 40
2455355.720771007
  9
$TDINDWG
 40
0.0000000116
  9
$TDUSRTIMER
 40
0.0000000116
  9
$USRTIMER
 70
     1
  9
$ANGBASE
 50
0.0
  9
$ANGDIR
 70
     0
  9
$PDMODE
 70
     0
  9
$PDSIZE
 40
0.0
  9
$PLINEWID
 40
0.0
  9
$SPLFRAME
 70
     0
  9
$SPLINETYPE
 70
     6
  9
$SPLINESEGS
 70
     8
  9
$HANDSEED
  5
83
  9
$SURFTAB1
 70
     6
  9
$SURFTAB2
 70
     6
  9
$SURFTYPE
 70
     6
  9
$SURFU
 70
     6
  9
$SURFV
 70
     6
  9
$UCSBASE
  2

  9
$UCSNAME
  2

  9
$UCSORG
 10
0.0
 20
0.0
 30
0.0
  9
$UCSXDIR
 10
1.0
 20
0.0
 30
0.0
  9
$UCSYDIR
 10
0.0
 20
1.0
 30
0.0
  9
$UCSORTHOREF
  2

  9
$UCSORTHOVIEW
 70
     0
  9
$UCSORGTOP
 10
0.0
 20
0.0
 30
0.0
  9
$UCSORGBOTTOM
 10
0.0
 20
0.0
 30
0.0
  9
$UCSORGLEFT
 10
0.0
 20
0.0
 30
0.0
  9
$UCSORGRIGHT
 10
0.0
 20
0.0
 30
0.0
  9
$UCSORGFRONT
 10
0.0
 20
0.0
 30
0.0
  9
$UCSORGBACK
 10
0.0
 20
0.0
 30
0.0
  9
$PUCSBASE
  2

  9
$PUCSNAME
  2

  9
$PUCSORG
 10
0.0
 20
0.0
 30
0.0
  9
$PUCSXDIR
 10
1.0
 20
0.0
 30
0.0
  9
$PUCSYDIR
 10
0.0
 20
1.0
 30
0.0
  9
$PUCSORTHOREF
  2

  9
$PUCSORTHOVIEW
 70
     0
  9
$PUCSORGTOP
 10
0.0
 20
0.0
 30
0.0
  9
$PUCSORGBOTTOM
 10
0.0
 20
0.0
 30
0.0
  9
$PUCSORGLEFT
 10
0.0
 20
0.0
 30
0.0
  9
$PUCSORGRIGHT
 10
0.0
 20
0.0
 30
0.0
  9
$PUCSORGFRONT
 10
0.0
 20
0.0
 30
0.0
  9
$PUCSORGBACK
 10
0.0
 20
0.0
 30
0.0
  9
$USERI1
 70
     0
  9
$USERI2
 70
     0
  9
$USERI3
 70
     0
  9
$USERI4
 70
     0
  9
$USERI5
 70
     0
  9
$USERR1
 40
0.0
  9
$USERR2
 40
0.0
  9
$USERR3
 40
0.0
  9
$USERR4
 40
0.0
  9
$USERR5
 40
0.0
  9
$WORLDVIEW
 70
     1
  9
$SHADEDGE
 70
     3
  9
$SHADEDIF
 70
    70
  9
$TILEMODE
 70
     1
  9
$MAXACTVP
 70
    64
  9
$PINSBASE
 10
0.0
 20
0.0
 30
0.0
  9
$PLIMCHECK
 70
     0
  9
$PEXTMIN
 10
1.000000000000000E+20
 20
1.000000000000000E+20
 30
1.000000000000000E+20
  9
$PEXTMAX
 10
-1.000000000000000E+20
 20
-1.000000000000000E+20
 30
-1.000000000000000E+20
  9
$PLIMMIN
 10
0.0
 20
0.0
  9
$PLIMMAX
 10
12.0
 20
9.0
  9
$UNITMODE
 70
     0
  9
$VISRETAIN
 70
     1
  9
$PLINEGEN
 70
     0
  9
$PSLTSCALE
 70
     1
  9
$TREEDEPTH
 70
  3020
  9
$CMLSTYLE
  2
Standard
  9
$CMLJUST
 70
     0
  9
$CMLSCALE
 40
1.0
  9
$PROXYGRAPHICS
 70
     1
  9
$MEASUREMENT
 70
     0
  9
$CELWEIGHT
370
    -1
  9
$ENDCAPS
280
     0
  9
$JOINSTYLE
280
     0
  9
$LWDISPLAY
290
     0
  9
$INSUNITS
 70
     1
  9
$HYPERLINKBASE
  1

  9
$STYLESHEET
  1

  9
$XEDIT
290
     1
  9
$CEPSNTYPE
380
     0
  9
$PSTYLEMODE
290
     1
  9
$FINGERPRINTGUID
  2
{1503F7AD-6B48-4840-8C41-B39EDBC6768A}
  9
$VERSIONGUID
  2
{FAEB1C32-E019-11D5-929B-00C0DF256EC4}
  9
$EXTNAMES
290
     1
  9
$PSVPSCALE
 40
0.0
  9
$OLESTARTUP
290
     0
  0
ENDSEC
  0
SECTION
  2
CLASSES
  0
CLASS
  1
ACDBDICTIONARYWDFLT
  2
AcDbDictionaryWithDefault
  3
ObjectDBX Classes
 90
        0
280
     0
281
     0
  0
CLASS
  1
VISUALSTYLE
  2
AcDbVisualStyle
  3
ObjectDBX Classes
 90
     4095
280
     0
281
     0
  0
CLASS
  1
ACDBPLACEHOLDER
  2
AcDbPlaceHolder
  3
ObjectDBX Classes
 90
        0
280
     0
281
     0
  0
CLASS
  1
LAYOUT
  2
AcDbLayout
  3
ObjectDBX Classes
 90
        0
280
     0
281
     0
  0
ENDSEC
  0
SECTION
  2
TABLES
  0
TABLE
  2
VPORT
  5
8
330
0
100
AcDbSymbolTable
 70
     1
  0
VPORT
  5
29
330
8
100
AcDbSymbolTableRecord
100
AcDbViewportTableRecord
  2
*Active
 70
     0
 10
0.0
 20
0.0
 11
1.0
 21
1.0
 12
52.57508579912073
 22
49.38759283057824
 13
0.0
 23
0.0
 14
0.5
 24
0.5
 15
0.5
 25
0.5
 16
0.0
 26
0.0
 36
1.0
 17
0.0
 27
0.0
 37
0.0
 40
100.7506893743796
 41
1.064540358941507
 42
50.0
 43
0.0
 44
0.0
 50
0.0
 51
0.0
 71
     0
 72
   100
 73
     1
 74
     3
 75
     0
 76
     0
 77
     0
 78
     0
281
     0
 65
     1
110
0.0
120
0.0
130
0.0
111
1.0
121
0.0
131
0.0
112
0.0
122
1.0
132
0.0
 79
     0
146
0.0
  0
ENDTAB
  0
TABLE
  2
LTYPE
  5
5
330
0
100
AcDbSymbolTable
 70
     1
  0
LTYPE
  5
14
330
5
100
AcDbSymbolTableRecord
100
AcDbLinetypeTableRecord
  2
ByBlock
 70
     0
  3

 72
    65
 73
     0
 40
0.0
  0
LTYPE
  5
15
330
5
100
AcDbSymbolTableRecord
100
AcDbLinetypeTableRecord
  2
ByLayer
 70
     0
  3

 72
    65
 73
     0
 40
0.0
  0
LTYPE
  5
16
330
5
100
AcDbSymbolTableRecord
100
AcDbLinetypeTableRecord
  2
Continuous
 70
     0
  3
Solid line
 72
    65
 73
     0
 40
0.0
  0
ENDTAB
  0
TABLE
  2
LAYER
  5
2
330
0
100
AcDbSymbolTable
 70
     3
  0
LAYER
  5
10
330
2
100
AcDbSymbolTableRecord
100
AcDbLayerTableRecord
  2
0
 70
     0
 62
     7
  6
Continuous
370
    -3
390
F
  0
LAYER
  5
3B
330
2
100
AcDbSymbolTableRecord
100
AcDbLayerTableRecord
  2
MAKE2D VISIBLE LINES
 70
     0
 62
     7
  6
Continuous
370
    -3
390
F
  0
LAYER
  5
4B
330
2
100
AcDbSymbolTableRecord
100
AcDbLayerTableRecord
  2
MAKE2D VISIBLE LINES - TANGENT
 70
     0
 62
     7
  6
Continuous
370
    -3
390
F
  0
ENDTAB
  0
TABLE
  2
STYLE
  5
3
330
0
100
AcDbSymbolTable
 70
     1
  0
STYLE
  5
11
330
3
100
AcDbSymbolTableRecord
100
AcDbTextStyleTableRecord
  2
Standard
 70
     0
 40
0.0
 41
1.0
 50
0.0
 71
     0
 42
0.2
  3
txt
  4

  0
ENDTAB
  0
TABLE
  2
VIEW
  5
6
330
0
100
AcDbSymbolTable
 70
     0
  0
ENDTAB
  0
TABLE
  2
UCS
  5
7
330
0
100
AcDbSymbolTable
 70
     0
  0
ENDTAB
  0
TABLE
  2
APPID
  5
9
330
0
100
AcDbSymbolTable
 70
     1
  0
APPID
  5
12
330
9
100
AcDbSymbolTableRecord
100
AcDbRegAppTableRecord
  2
ACAD
 70
     0
  0
ENDTAB
  0
TABLE
  2
DIMSTYLE
  5
A
330
0
100
AcDbSymbolTable
 70
     1
100
AcDbDimStyleTable
  0
DIMSTYLE
105
27
330
A
100
AcDbSymbolTableRecord
100
AcDbDimStyleTableRecord
  2
Standard
 70
     0
340
11
  0
ENDTAB
  0
TABLE
  2
BLOCK_RECORD
  5
1
330
0
100
AcDbSymbolTable
 70
     1
  0
BLOCK_RECORD
  5
1F
330
1
100
AcDbSymbolTableRecord
100
AcDbBlockTableRecord
  2
*Model_Space
340
22
  0
BLOCK_RECORD
  5
1B
330
1
100
AcDbSymbolTableRecord
100
AcDbBlockTableRecord
  2
*Paper_Space
340
1E
  0
BLOCK_RECORD
  5
23
330
1
100
AcDbSymbolTableRecord
100
AcDbBlockTableRecord
  2
*Paper_Space0
340
26
  0
ENDTAB
  0
ENDSEC
  0
SECTION
  2
BLOCKS
  0
BLOCK
  5
20
330
1F
100
AcDbEntity
  8
0
100
AcDbBlockBegin
  2
*Model_Space
 70
     0
 10
0.0
 20
0.0
 30
0.0
  3
*Model_Space
  1

  0
ENDBLK
  5
21
330
1F
100
AcDbEntity
  8
0
100
AcDbBlockEnd
  0
BLOCK
  5
1C
330
1B
100
AcDbEntity
 67
     1
  8
0
100
AcDbBlockBegin
  2
*Paper_Space
 70
     0
 10
0.0
 20
0.0
 30
0.0
  3
*Paper_Space
  1

  0
ENDBLK
  5
1D
330
1B
100
AcDbEntity
 67
     1
  8
0
100
AcDbBlockEnd
  0
BLOCK
  5
24
330
23
100
AcDbEntity
  8
0
100
AcDbBlockBegin
  2
*Paper_Space0
 70
     0
 10
0.0
 20
0.0
 30
0.0
  3
*Paper_Space0
  1

  0
ENDBLK
  5
25
330
23
100
AcDbEntity
  8
0
100
AcDbBlockEnd
  0
ENDSEC
  0
SECTION
  2
ENTITIES
  0
SPLINE
  5
3C
330
1F
100
AcDbEntity
  8
MAKE2D VISIBLE LINES
100
AcDbSpline
210
0.0
220
0.0
230
1.0
 70
     8
 71
     3
 72
    14
 73
    10
 74
     0
 42
0.0000000001
 43
0.0000000001
 40
-30.93285678084585
 40
-30.93285678084585
 40
-30.93285678084585
 40
-30.93285678084585
 40
0.0
 40
0.0
 40
0.0
 40
1.0
 40
1.0
 40
1.0
 40
31.93285678074376
 40
31.93285678074376
 40
31.93285678074376
 40
31.93285678074376
 10
48.45289007354361
 20
50.32228788704475
 30
0.0
 10
48.45289007355698
 20
60.6332401473267
 30
0.0
 10
48.45289007357037
 20
70.94419240760865
 30
0.0
 10
48.45289007358374
 20
81.2551446678906
 30
0.0
 10
48.45289007359589
 20
90.61824810222105
 30
0.0
 10
40.29764503466108
 20
98.77517562647931
 30
0.0
 10
30.93285678294099
 20
98.77517795844254
 30
0.0
 10
20.6219045226934
 20
98.77518052601386
 30
0.0
 10
10.3109522624458
 20
98.77518309358516
 30
0.0
 10
0.0000000021982061
 20
98.77518566115647
 30
0.0
  0
LINE
  5
3D
330
1F
100
AcDbEntity
  8
MAKE2D VISIBLE LINES
100
AcDbLine
 10
15.35433071089211
 20
50.32228788705653
 30
0.0
 11
48.45289007354361
 21
50.32228788704475
 31
0.0
  0
SPLINE
  5
3E
330
1F
100
AcDbEntity
  8
MAKE2D VISIBLE LINES
100
AcDbSpline
210
0.0
220
0.0
230
1.0
 70
    12
 71
     2
 72
     6
 73
     3
 74
     0
 42
0.0000000001
 43
0.0000000001
 40
0.0
 40
0.0
 40
0.0
 40
24.53575172710126
 40
24.53575172710126
 40
24.53575172710126
 10
20.26408478642786
 20
76.68037275384734
 30
0.0
 41
1.0
 10
25.59847327400349
 20
87.72777415538373
 30
0.0
 41
0.9999999999999746
 10
30.93285677989469
 20
98.77517795660798
 30
0.0
 41
1.0
  0
SPLINE
  5
3F
330
1F
100
AcDbEntity
  8
MAKE2D VISIBLE LINES
100
AcDbSpline
210
0.0
220
0.0
230
1.0
 70
    24
 71
     2
 72
     6
 73
     3
 74
     0
 42
0.0000000001
 43
0.0000000001
 40
0.0
 40
0.0
 40
0.0
 40
6.692913385812263
 40
6.692913385812263
 40
6.692913385812263
 10
21.38769557168625
 20
76.44258789755206
 30
0.0
 10
23.75399779218736
 20
74.0762856770511
 30
0.0
 10
26.12030001268847
 20
71.70998345655015
 30
0.0
  0
SPLINE
  5
40
330
1F
100
AcDbEntity
  8
MAKE2D VISIBLE LINES
100
AcDbSpline
210
0.0
220
0.0
230
1.0
 70
    12
 71
     2
 72
     6
 73
     3
 74
     0
 42
0.0000000001
 43
0.0000000001
 40
0.0
 40
0.0
 40
0.0
 40
24.53575005279971
 40
24.53575005279971
 40
24.53575005279971
 10
48.45289007226909
 20
81.2551446610279
 30
0.0
 41
1.0
 10
37.40548703359241
 20
75.92076150727982
 30
0.0
 41
0.9999999999999752
 10
26.35808636344375
 20
70.5863734278732
 30
0.0
 41
1.0
  0
SPLINE
  5
41
330
1F
100
AcDbEntity
  8
MAKE2D VISIBLE LINES
100
AcDbSpline
210
0.0
220
0.0
230
1.0
 70
     8
 71
     3
 72
    11
 73
     7
 74
     0
 42
0.0000000001
 43
0.0000000001
 40
0.0
 40
0.0
 40
0.0
 40
0.0
 40
11.60584240477749
 40
11.60584240477749
 40
11.60584240477749
 40
12.60584240477749
 40
12.60584240477749
 40
12.60584240477749
 40
12.60584240477749
 10
0.0000000021885995
 20
77.05368586938208
 30
0.0
 10
3.86861413711443
 20
77.05368587496416
 30
0.0
 10
7.73722827204026
 20
77.05368588054624
 30
0.0
 10
11.60584240696609
 20
77.05368588612832
 30
0.0
 10
14.87049368059816
 20
77.01497124894863
 30
0.0
 10
18.18242004967338
 20
77.18001836931371
 30
0.0
 10
21.387681300556
 20
76.44258389520571
 30
0.0
  0
SPLINE
  5
42
330
1F
100
AcDbEntity
  8
MAKE2D VISIBLE LINES
100
AcDbSpline
210
0.0
220
0.0
230
1.0
 70
     8
 71
     3
 72
    11
 73
     7
 74
     0
 42
0.0000000001
 43
0.0000000001
 40
0.0
 40
0.0
 40
0.0
 40
0.0
 40
1.0
 40
1.0
 40
1.0
 40
12.60584240478424
 40
12.60584240478424
 40
12.60584240478424
 40
12.60584240478424
 10
26.12035890410588
 20
71.70973262218506
 30
0.0
 10
26.8577117805013
 20
68.50453892538471
 30
0.0
 10
26.6926896387091
 20
65.1927024752747
 30
0.0
 10
26.73139800126474
 20
61.92813029182962
 30
0.0
 10
26.73139799568268
 20
58.05951615690157
 30
0.0
 10
26.73139799010063
 20
54.1909020219735
 30
0.0
 10
26.73139798451858
 20
50.32228788704545
 30
0.0
  0
SPLINE
  5
43
330
1F
100
AcDbEntity
  8
MAKE2D VISIBLE LINES
100
AcDbSpline
210
0.0
220
0.0
230
1.0
 70
     8
 71
     3
 72
    14
 73
    10
 74
     0
 42
0.0000000001
 43
0.0000000001
 40
-11.60584240477788
 40
-11.60584240477788
 40
-11.60584240477788
 40
-11.60584240477788
 40
0.0
 40
0.0
 40
0.0
 40
1.0
 40
1.0
 40
1.0
 40
8.360489606902295
 40
8.360489606902295
 40
8.360489606902295
 40
8.360489606902295
 10
19.09435235976953
 20
50.32228788705406
 30
0.0
 10
19.09435235977267
 20
54.19090202198002
 30
0.0
 10
19.0943523597758
 20
58.05951615690598
 30
0.0
 10
19.09435235977894
 20
61.92813029183195
 30
0.0
 10
19.08655630024224
 20
63.5899440067366
 30
0.0
 10
19.5707153040283
 20
65.41278675655478
 30
0.0
 10
20.91528490669431
 20
66.50496835055517
 30
0.0
 10
22.65016894478291
 20
68.2398523883957
 30
0.0
 10
24.38505298287151
 20
69.97473642623625
 30
0.0
 10
26.11993702096011
 20
71.70962046407679
 30
0.0
  0
SPLINE
  5
44
330
1F
100
AcDbEntity
  8
MAKE2D VISIBLE LINES
100
AcDbSpline
210
0.0
220
0.0
230
1.0
 70
     8
 71
     3
 72
    14
 73
    10
 74
     0
 42
0.0000000001
 43
0.0000000001
 40
-11.6058424047854
 40
-11.6058424047854
 40
-11.6058424047854
 40
-11.6058424047854
 40
0.0
 40
0.0
 40
0.0
 40
1.0
 40
1.0
 40
1.0
 40
8.360977514210523
 40
8.360977514210523
 40
8.360977514210523
 40
8.360977514210523
 10
0.0000000021981208
 20
69.41665977076164
 30
0.0
 10
3.868614137121109
 20
69.41665326205482
 30
0.0
 10
7.737228272044097
 20
69.41664675334799
 30
0.0
 10
11.60584240696708
 20
69.41664024464116
 30
0.0
 10
13.26765632619508
 20
69.40884426395009
 30
0.0
 10
15.09049878994632
 20
69.89300295276853
 30
0.0
 10
16.18268046569163
 20
71.23757279155798
 30
0.0
 10
17.9176795043872
 20
72.97257183050237
 30
0.0
 10
19.65267854308277
 20
74.70757086944677
 30
0.0
 10
21.38767758177833
 20
76.44256990839118
 30
0.0
  0
LINE
  5
45
330
1F
100
AcDbEntity
  8
MAKE2D VISIBLE LINES
100
AcDbLine
 10
0.0000000021982061
 20
98.77518566115647
 30
0.0
 11
0.0000000021981776
 21
65.6766185952355
 31
0.0
  0
SPLINE
  5
46
330
1F
100
AcDbEntity
  8
MAKE2D VISIBLE LINES
100
AcDbSpline
210
0.0
220
0.0
230
1.0
 70
    12
 71
     2
 72
     6
 73
     3
 74
     0
 42
0.0000000001
 43
0.0000000001
 40
0.0
 40
0.0
 40
0.0
 40
24.11852627689272
 40
24.11852627689272
 40
24.11852627689272
 10
0.0000000021983482
 20
65.67661859523551
 30
0.0
 41
1.0
 10
15.3543307104601
 20
65.67661859566758
 30
0.0
 41
0.7071067811831931
 10
15.35433071089217
 20
50.32228788740581
 30
0.0
 41
0.9999999999905114
  0
LINE
  5
47
330
1F
100
AcDbEntity
  8
MAKE2D VISIBLE LINES
100
AcDbLine
 10
59.79243138288716
 20
0.5905512311456427
 30
0.0
 11
105.1501715982415
 21
0.5905512550553829
 31
0.0
  0
SPLINE
  5
48
330
1F
100
AcDbEntity
  8
MAKE2D VISIBLE LINES
100
AcDbSpline
210
0.0
220
0.0
230
1.0
 70
    24
 71
     2
 72
     6
 73
     3
 74
     0
 42
0.0000000001
 43
0.0000000001
 40
0.0
 40
0.0
 40
0.0
 40
37.14500679235059
 40
37.14500679235059
 40
37.14500679235059
 10
105.150171596395
 20
37.73555804740599
 30
0.0
 10
105.1501715973182
 20
19.1630546512307
 30
0.0
 10
105.1501715982415
 20
0.5905512550554004
 30
0.0
  0
SPLINE
  5
49
330
1F
100
AcDbEntity
  8
MAKE2D VISIBLE LINES
100
AcDbSpline
210
0.0
220
0.0
230
1.0
 70
    24
 71
     2
 72
     6
 73
     3
 74
     0
 42
0.0000000001
 43
0.0000000001
 40
0.0
 40
0.0
 40
0.0
 40
3.340661769358988
 40
3.340661769358988
 40
3.340661769358988
 10
64.9285614406202
 20
0.0000000000000018
 30
0.0
 10
63.2582305559407
 20
0.0000000000000018
 30
0.0
 10
61.58789967126121
 20
0.0000000000000018
 30
0.0
  0
SPLINE
  5
4A
330
1F
100
AcDbEntity
  8
MAKE2D VISIBLE LINES
100
AcDbSpline
210
0.0
220
0.0
230
1.0
 70
    28
 71
     2
 72
     8
 73
     5
 74
     0
 42
0.0000000001
 43
0.0000000001
 40
-466.7650578510717
 40
-466.7650578510717
 40
-466.7650578510717
 40
-466.0287469668056
 40
-466.0287469668056
 40
-454.2477763004134
 40
-454.2477763004134
 40
-454.2477763004134
 10
65.1008482351313
 20
0.0000000000000018
 30
0.0
 41
0.9910796301789534
 10
65.10152997303467
 20
0.0000000000000018
 30
0.0
 41
0.9952424694287751
 10
65.10152997142876
 20
0.0000000000000018
 30
0.0
 41
1.0
 10
65.1015299437497
 20
0.0000000000000016
 30
0.0
 41
0.9238795333578046
 10
64.92856153507913
 20
0.0000000000000018
 30
0.0
 41
0.9999999550052101
  0
SPLINE
  5
4C
330
1F
100
AcDbEntity
  8
MAKE2D VISIBLE LINES - TANGENT
100
AcDbSpline
210
0.0
220
0.0
230
1.0
 70
    24
 71
     2
 72
     6
 73
     3
 74
     0
 42
0.0000000001
 43
0.0000000001
 40
0.0
 40
0.0
 40
0.0
 40
0.5905511811023629
 40
0.5905511811023629
 40
0.5905511811023629
 10
61.58789967126121
 20
0.0000000000000018
 30
0.0
 10
61.58789967126121
 20
0.2952755905511832
 30
0.0
 10
61.58789967126121
 20
0.5905511811023647
 30
0.0
  0
SPLINE
  5
4D
330
1F
100
AcDbEntity
  8
MAKE2D VISIBLE LINES
100
AcDbSpline
210
0.0
220
0.0
230
1.0
 70
    24
 71
     2
 72
     6
 73
     3
 74
     0
 42
0.0000000001
 43
0.0000000001
 40
0.0
 40
0.0
 40
0.0
 40
4.190427325218209
 40
4.190427325218209
 40
4.190427325218209
 10
65.10084823513131
 20
0.0000000667243114
 30
0.0
 10
67.1960618977404
 20
0.0000000667243114
 30
0.0
 10
69.29127556034952
 20
0.0000000667243114
 30
0.0
  0
SPLINE
  5
4E
330
1F
100
AcDbEntity
  8
MAKE2D VISIBLE LINES
100
AcDbSpline
210
0.0
220
0.0
230
1.0
 70
    24
 71
     2
 72
     6
 73
     3
 74
     0
 42
0.0000000001
 43
0.0000000001
 40
0.0
 40
0.0
 40
0.0
 40
1.007452284101142
 40
1.007452284101142
 40
1.007452284101142
 10
61.58789967126121
 20
0.0000000000000018
 30
0.0
 10
61.08417352921063
 20
0.0000000000000018
 30
0.0
 10
60.58044738716006
 20
0.0000000000000018
 30
0.0
  0
SPLINE
  5
4F
330
1F
100
AcDbEntity
  8
MAKE2D VISIBLE LINES
100
AcDbSpline
210
0.0
220
0.0
230
1.0
 70
    12
 71
     2
 72
     6
 73
     3
 74
     0
 42
0.0000000001
 43
0.0000000001
 40
0.0
 40
0.0
 40
0.0
 40
0.0290596741337817
 40
0.0290596741337817
 40
0.0290596741337817
 10
59.2165847074843
 20
1.050069092278654
 30
0.0
 41
1.0
 10
59.21335946434685
 20
1.064239460383817
 30
0.0
 41
0.999696872913203
 10
59.21083567896206
 20
1.078551414578228
 30
0.0
 41
1.0
  0
SPLINE
  5
50
330
1F
100
AcDbEntity
  8
MAKE2D VISIBLE LINES
100
AcDbSpline
210
0.0
220
0.0
230
1.0
 70
    12
 71
     2
 72
     6
 73
     3
 74
     0
 42
0.0000000001
 43
0.0000000001
 40
0.0
 40
0.0
 40
0.0
 40
0.8245650009424129
 40
0.8245650009424129
 40
0.8245650009424129
 10
59.21085200123441
 20
1.078554292511594
 30
0.0
 41
1.0
 10
59.29690010468064
 20
0.590551247826815
 30
0.0
 41
0.7660444431193209
 10
59.79243138293491
 20
0.5905512478267076
 30
0.0
 41
1.0
  0
SPLINE
  5
51
330
1F
100
AcDbEntity
  8
MAKE2D VISIBLE LINES - TANGENT
100
AcDbSpline
210
0.0
220
0.0
230
1.0
 70
    24
 71
     2
 72
     6
 73
     3
 74
     0
 42
0.0000000001
 43
0.0000000001
 40
0.0
 40
0.0
 40
0.0
 40
0.5905511811023629
 40
0.5905511811023629
 40
0.5905511811023629
 10
82.29860154188802
 20
0.0000000000000018
 30
0.0
 10
82.29860154188802
 20
0.2952755905511832
 30
0.0
 10
82.29860154188802
 20
0.5905511811023647
 30
0.0
  0
LINE
  5
52
330
1F
100
AcDbEntity
  8
MAKE2D VISIBLE LINES
100
AcDbLine
 10
78.78497124172029
 20
0.0000000000000018
 30
0.0
 11
82.29860154188802
 21
0.0000000000000018
 31
0.0
  0
SPLINE
  5
53
330
1F
100
AcDbEntity
  8
MAKE2D VISIBLE LINES
100
AcDbSpline
210
0.0
220
0.0
230
1.0
 70
    24
 71
     2
 72
     6
 73
     3
 74
     0
 42
0.0000000001
 43
0.0000000001
 40
0.0
 40
0.0
 40
0.0
 40
0.5905511811023629
 40
0.5905511811023629
 40
0.5905511811023629
 10
78.78497124172031
 20
0.5905511811023647
 30
0.0
 10
78.78497124172031
 20
0.2952755905511832
 30
0.0
 10
78.78497124172031
 20
0.0000000000000018
 30
0.0
  0
SPLINE
  5
54
330
1F
100
AcDbEntity
  8
MAKE2D VISIBLE LINES
100
AcDbSpline
210
0.0
220
0.0
230
1.0
 70
    24
 71
     2
 72
     6
 73
     3
 74
     0
 42
0.0000000001
 43
0.0000000001
 40
0.0
 40
0.0
 40
0.0
 40
0.5905511811023629
 40
0.5905511811023629
 40
0.5905511811023629
 10
65.1015299714289
 20
0.0000000000000018
 30
0.0
 10
65.1015299714289
 20
0.2952755905511832
 30
0.0
 10
65.1015299714289
 20
0.5905511811023647
 30
0.0
  0
SPLINE
  5
55
330
1F
100
AcDbEntity
  8
MAKE2D VISIBLE LINES
100
AcDbSpline
210
0.0
220
0.0
230
1.0
 70
    24
 71
     2
 72
     6
 73
     3
 74
     0
 42
0.0000000001
 43
0.0000000001
 40
0.0
 40
0.0
 40
0.0
 40
0.5905511811023629
 40
0.5905511811023629
 40
0.5905511811023629
 10
104.3627700215916
 20
0.0000000667243558
 30
0.0
 10
104.3627700215916
 20
0.2952756572755373
 30
0.0
 10
104.3627700215916
 20
0.5905512478267188
 30
0.0
  0
SPLINE
  5
56
330
1F
100
AcDbEntity
  8
MAKE2D VISIBLE LINES
100
AcDbSpline
210
0.0
220
0.0
230
1.0
 70
    24
 71
     2
 72
     6
 73
     3
 74
     0
 42
0.0000000001
 43
0.0000000001
 40
0.0
 40
0.0
 40
0.0
 40
0.5905511811023629
 40
0.5905511811023629
 40
0.5905511811023629
 10
60.5797656508624
 20
0.5905511811023647
 30
0.0
 10
60.5797656508624
 20
0.2952755905511832
 30
0.0
 10
60.5797656508624
 20
0.0000000000000018
 30
0.0
  0
SPLINE
  5
57
330
1F
100
AcDbEntity
  8
MAKE2D VISIBLE LINES
100
AcDbSpline
210
0.0
220
0.0
230
1.0
 70
    24
 71
     2
 72
     6
 73
     3
 74
     0
 42
0.0000000001
 43
0.0000000001
 40
0.0
 40
0.0
 40
0.0
 40
0.5905511811023612
 40
0.5905511811023612
 40
0.5905511811023612
 10
69.29195729664701
 20
0.0000000667243114
 30
0.0
 10
69.29195729664701
 20
0.295275657275492
 30
0.0
 10
69.29195729664701
 20
0.5905512478266726
 30
0.0
  0
SPLINE
  5
58
330
1F
100
AcDbEntity
  8
MAKE2D VISIBLE LINES
100
AcDbSpline
210
0.0
220
0.0
230
1.0
 70
    28
 71
     2
 72
    12
 73
     9
 74
     0
 42
0.0000000001
 43
0.0000000001
 40
298.1685462786829
 40
298.1685462786829
 40
298.1685462786829
 40
298.904857162949
 40
298.904857162949
 40
310.685831311205
 40
310.685831311205
 40
322.466805459462
 40
322.466805459462
 40
334.247779607718
 40
334.247779607718
 40
334.247779607718
 10
83.30605381956944
 20
0.0000000000000018
 30
0.0
 41
0.9910796301789534
 10
83.3067355606809
 20
0.0000000000000018
 30
0.0
 41
0.9952424694287751
 10
83.3067355622868
 20
0.0000000000000018
 30
0.0
 41
1.0
 10
83.30673558996591
 20
0.0000000000000016
 30
0.0
 41
0.923879510860403
 10
83.13376712598011
 20
0.0000000000000018
 30
0.0
 41
1.0
 10
82.9607986619939
 20
0.0000000000000016
 30
0.0
 41
0.923879510860403
 10
82.71618431436241
 20
0.0000000000000018
 30
0.0
 41
1.0
 10
82.47156996673051
 20
0.0000000000000016
 30
0.0
 41
0.923879510860403
 10
82.29860154188802
 20
0.0000000000000018
 30
0.0
 41
1.0
  0
SPLINE
  5
59
330
1F
100
AcDbEntity
  8
MAKE2D VISIBLE LINES
100
AcDbSpline
210
0.0
220
0.0
230
1.0
 70
    24
 71
     2
 72
     6
 73
     3
 74
     0
 42
0.0000000001
 43
0.0000000001
 40
0.0
 40
0.0
 40
0.0
 40
14.47506965451629
 40
14.47506965451629
 40
14.47506965451629
 10
59.21083466997817
 20
1.078557137204582
 30
0.0
 10
57.95405447038431
 20
8.206138347242344
 30
0.0
 10
56.69727427079045
 20
15.33371955728011
 30
0.0
  0
SPLINE
  5
5A
330
1F
100
AcDbEntity
  8
MAKE2D VISIBLE LINES
100
AcDbSpline
210
0.0
220
0.0
230
1.0
 70
    24
 71
     2
 72
     6
 73
     3
 74
     0
 42
0.0000000001
 43
0.0000000001
 40
0.0
 40
0.0
 40
0.0
 40
13.73285450565025
 40
13.73285450565025
 40
13.73285450565025
 10
81.4192725032888
 20
14.06725084307221
 30
0.0
 10
80.09924796806035
 20
7.328901012087284
 30
0.0
 10
78.77922343283191
 20
0.5905511811023612
 30
0.0
  0
SPLINE
  5
5B
330
1F
100
AcDbEntity
  8
MAKE2D VISIBLE LINES
100
AcDbSpline
210
0.0
220
0.0
230
1.0
 70
    24
 71
     2
 72
     6
 73
     3
 74
     0
 42
0.0000000001
 43
0.0000000001
 40
0.0
 40
0.0
 40
0.0
 40
37.57988816685116
 40
37.57988816685116
 40
37.57988816685116
 10
84.09417343073991
 20
0.5905512404021191
 30
0.0
 10
86.94499449497845
 20
19.16297213585767
 30
0.0
 10
89.79581555921698
 20
37.73539303131322
 30
0.0
  0
SPLINE
  5
5C
330
1F
100
AcDbEntity
  8
MAKE2D VISIBLE LINES
100
AcDbSpline
210
0.0
220
0.0
230
1.0
 70
     8
 71
     3
 72
    20
 73
    16
 74
     0
 42
0.0000000001
 43
0.0000000001
 40
0.0
 40
0.0
 40
0.0
 40
0.0
 40
1.0
 40
2.0
 40
3.0
 40
4.0
 40
5.0
 40
6.0
 40
7.0
 40
8.0
 40
9.0
 40
10.0
 40
11.0
 40
12.0
 40
13.0
 40
13.0
 40
13.0
 40
13.0
 10
86.05579971268745
 20
37.73555804268816
 30
0.0
 10
85.46393637388041
 20
37.38470527980039
 30
0.0
 10
84.78701383194938
 20
36.14460520212845
 30
0.0
 10
83.73749452030248
 20
34.39380431509206
 30
0.0
 10
82.83849973027081
 20
32.53673921684611
 30
0.0
 10
82.00415141333878
 20
30.65782619897886
 30
0.0
 10
81.23474013839018
 20
28.74924464184852
 30
0.0
 10
80.51889246426903
 20
26.82074792779504
 30
0.0
 10
79.85688978029265
 20
24.87237657187492
 30
0.0
 10
79.25033930748816
 20
22.90813470637758
 30
0.0
 10
78.75537014453195
 20
20.90321626688688
 30
0.0
 10
78.41183248473237
 20
18.90004763266464
 30
0.0
 10
78.3824425320304
 20
16.72592878607504
 30
0.0
 10
79.95990569194319
 20
15.27400956697578
 30
0.0
 10
81.46336502670704
 20
14.87596732225424
 30
0.0
 10
81.41927275163586
 20
14.06725211081329
 30
0.0
  0
LINE
  5
5D
330
1F
100
AcDbEntity
  8
MAKE2D VISIBLE LINES
100
AcDbLine
 10
86.05579971268727
 20
37.73555755434651
 30
0.0
 11
105.150171596395
 21
37.73555756356601
 31
0.0
  0
SPLINE
  5
5E
330
1F
100
AcDbEntity
  8
MAKE2D VISIBLE LINES
100
AcDbSpline
210
0.0
220
0.0
230
1.0
 70
    12
 71
     2
 72
     6
 73
     3
 74
     0
 42
0.0000000001
 43
0.0000000001
 40
0.0
 40
0.0
 40
0.0
 40
0.0389203225698177
 40
0.0389203225698177
 40
0.0389203225698177
 10
84.10252688219487
 20
0.638531221885998
 30
0.0
 41
1.0
 10
84.10584498354139
 20
0.6577064163471987
 30
0.0
 41
0.9999999961662429
 10
84.10916644296358
 20
0.6768810294196196
 30
0.0
 41
1.0
  0
SPLINE
  5
5F
330
1F
100
AcDbEntity
  8
MAKE2D VISIBLE LINES
100
AcDbSpline
210
0.0
220
0.0
230
1.0
 70
    24
 71
     2
 72
     6
 73
     3
 74
     0
 42
0.0000000001
 43
0.0000000001
 40
0.0
 40
0.0
 40
0.0
 40
0.5905511811023629
 40
0.5905511811023629
 40
0.5905511811023629
 10
83.3067355622868
 20
0.0000000000000018
 30
0.0
 10
83.3067355622868
 20
0.2952755905511832
 30
0.0
 10
83.3067355622868
 20
0.5905511811023647
 30
0.0
  0
SPLINE
  5
60
330
1F
100
AcDbEntity
  8
MAKE2D VISIBLE LINES
100
AcDbSpline
210
0.0
220
0.0
230
1.0
 70
     8
 71
     3
 72
    16
 73
    12
 74
     0
 42
0.0000000001
 43
0.0000000001
 40
0.0
 40
0.0
 40
0.0
 40
0.0
 40
1.0
 40
2.0
 40
3.0
 40
4.0
 40
5.0
 40
6.0
 40
7.0
 40
8.0
 40
9.0
 40
9.0
 40
9.0
 40
9.0
 10
56.6972738222926
 20
15.33372210084727
 30
0.0
 10
57.30606036198467
 20
16.06369600630073
 30
0.0
 10
59.23283653714308
 20
16.46452572125259
 30
0.0
 10
62.00369585513764
 20
16.68970668024757
 30
0.0
 10
64.82635747253019
 20
16.72813193079755
 30
0.0
 10
67.6359925028924
 20
16.67550786079063
 30
0.0
 10
70.44738151828766
 20
16.55099506230963
 30
0.0
 10
73.25146688121247
 20
16.36343511320984
 30
0.0
 10
76.06156137185238
 20
16.11225885408845
 30
0.0
 10
78.81746651308751
 20
15.71867974671635
 30
0.0
 10
80.72164368445796
 20
15.29438111307941
 30
0.0
 10
81.33943126412923
 20
14.54846771288111
 30
0.0
  0
SPLINE
  5
61
330
1F
100
AcDbEntity
  8
MAKE2D VISIBLE LINES
100
AcDbSpline
210
0.0
220
0.0
230
1.0
 70
    12
 71
     2
 72
     8
 73
     5
 74
     0
 42
0.0000000001
 43
0.0000000001
 40
-0.6395453893842764
 40
-0.6395453893842764
 40
-0.6395453893842764
 40
0.0
 40
0.0
 40
12.95999570652945
 40
12.95999570652945
 40
12.95999570652945
 10
78.71232862187094
 20
16.71320659210297
 30
0.0
 41
1.0
 10
78.39255594019544
 20
16.71310842070935
 30
0.0
 41
0.9999999907835315
 10
78.0727832436516
 20
16.71309707908222
 30
0.0
 41
1.0
 10
71.59278541256458
 20
16.71286724795775
 30
0.0
 41
1.0
 10
65.11278758145488
 20
16.71263741683329
 30
0.0
 41
1.0
  0
SPLINE
  5
62
330
1F
100
AcDbEntity
  8
MAKE2D VISIBLE LINES
100
AcDbSpline
210
0.0
220
0.0
230
1.0
 70
    24
 71
     2
 72
     6
 73
     3
 74
     0
 42
0.0000000001
 43
0.0000000001
 40
0.0
 40
0.0
 40
0.0
 40
0.5905511811023629
 40
0.5905511811023629
 40
0.5905511811023629
 10
99.84100570102501
 20
0.5905512478267188
 30
0.0
 10
99.84100570102501
 20
0.2952756572755373
 30
0.0
 10
99.84100570102501
 20
0.0000000667243558
 30
0.0
  0
LINE
  5
63
330
1F
100
AcDbEntity
  8
MAKE2D VISIBLE LINES
100
AcDbLine
 10
104.3620882788743
 20
0.0000000667243558
 30
0.0
 11
99.84100570102497
 21
0.0000000667243558
 31
0.0
  0
SPLINE
  5
64
330
1F
100
AcDbEntity
  8
MAKE2D VISIBLE LINES
100
AcDbSpline
210
0.0
220
0.0
230
1.0
 70
     8
 71
     3
 72
    20
 73
    16
 74
     0
 42
0.0000000001
 43
0.0000000001
 40
0.0
 40
0.0
 40
0.0
 40
0.0
 40
1.0
 40
2.0
 40
3.0
 40
4.0
 40
5.0
 40
6.0
 40
7.0
 40
8.0
 40
9.0
 40
10.0
 40
11.0
 40
12.0
 40
13.0
 40
13.0
 40
13.0
 40
13.0
 10
19.09437188555401
 20
37.73555804268816
 30
0.0
 10
19.68623522436104
 20
37.38470527980039
 30
0.0
 10
20.36315776629208
 20
36.14460520212845
 30
0.0
 10
21.41267707793898
 20
34.39380431509206
 30
0.0
 10
22.31167186797064
 20
32.53673921684611
 30
0.0
 10
23.14602018490268
 20
30.65782619897886
 30
0.0
 10
23.91543145985128
 20
28.74924464184852
 30
0.0
 10
24.63127913397243
 20
26.82074792779504
 30
0.0
 10
25.2932818179488
 20
24.87237657187492
 30
0.0
 10
25.8998322907533
 20
22.90813470637758
 30
0.0
 10
26.3948014537095
 20
20.90321626688688
 30
0.0
 10
26.73833911350908
 20
18.90004763266464
 30
0.0
 10
26.76772906621106
 20
16.72592878607504
 30
0.0
 10
25.19026590629827
 20
15.27400956697578
 30
0.0
 10
23.68680657153442
 20
14.87596732225424
 30
0.0
 10
23.7308988466056
 20
14.06725211081329
 30
0.0
  0
LINE
  5
65
330
1F
100
AcDbEntity
  8
MAKE2D VISIBLE LINES
100
AcDbLine
 10
19.09437188555418
 20
37.73555755434651
 30
0.0
 11
0.0000000018464572
 21
37.73555756356601
 31
0.0
  0
SPLINE
  5
66
330
1F
100
AcDbEntity
  8
MAKE2D VISIBLE LINES
100
AcDbSpline
210
0.0
220
0.0
230
1.0
 70
    12
 71
     2
 72
     8
 73
     5
 74
     0
 42
0.0000000001
 43
0.0000000001
 40
-0.6395453893842764
 40
-0.6395453893842764
 40
-0.6395453893842764
 40
0.0
 40
0.0
 40
12.95999570652945
 40
12.95999570652945
 40
12.95999570652945
 10
26.43784297634783
 20
16.71320659210298
 30
0.0
 41
1.0
 10
26.75761565802332
 20
16.71310842070935
 30
0.0
 41
0.9999999907835315
 10
27.07738835456716
 20
16.71309707908222
 30
0.0
 41
1.0
 10
33.55738618567688
 20
16.71286724795775
 30
0.0
 41
1.0
 10
40.03738401678658
 20
16.71263741683329
 30
0.0
 41
1.0
  0
SPLINE
  5
67
330
1F
100
AcDbEntity
  8
MAKE2D VISIBLE LINES
100
AcDbSpline
210
0.0
220
0.0
230
1.0
 70
    24
 71
     2
 72
     6
 73
     3
 74
     0
 42
0.0000000001
 43
0.0000000001
 40
0.0
 40
0.0
 40
0.0
 40
0.5905511811023629
 40
0.5905511811023629
 40
0.5905511811023629
 10
26.36520035652115
 20
0.5905511811023647
 30
0.0
 10
26.36520035652115
 20
0.2952755905511832
 30
0.0
 10
26.36520035652115
 20
0.0000000000000018
 30
0.0
  0
LINE
  5
68
330
1F
100
AcDbEntity
  8
MAKE2D VISIBLE LINES
100
AcDbLine
 10
26.36520035652117
 20
0.0000000000000018
 30
0.0
 11
22.85157005635345
 21
0.0000000000000018
 31
0.0
  0
SPLINE
  5
69
330
1F
100
AcDbEntity
  8
MAKE2D VISIBLE LINES
100
AcDbSpline
210
0.0
220
0.0
230
1.0
 70
    24
 71
     2
 72
     6
 73
     3
 74
     0
 42
0.0000000001
 43
0.0000000001
 40
0.0
 40
0.0
 40
0.0
 40
0.5905511811023629
 40
0.5905511811023629
 40
0.5905511811023629
 10
5.30916589721644
 20
0.5905512478267188
 30
0.0
 10
5.30916589721644
 20
0.2952756572755373
 30
0.0
 10
5.30916589721644
 20
0.0000000667243558
 30
0.0
  0
LINE
  5
6A
330
1F
100
AcDbEntity
  8
MAKE2D VISIBLE LINES
100
AcDbLine
 10
0.7880833193671749
 20
0.0000000667243558
 30
0.0
 11
5.30916589721649
 21
0.0000000667243558
 31
0.0
  0
SPLINE
  5
6B
330
1F
100
AcDbEntity
  8
MAKE2D VISIBLE LINES
100
AcDbSpline
210
0.0
220
0.0
230
1.0
 70
     8
 71
     3
 72
    16
 73
    12
 74
     0
 42
0.0000000001
 43
0.0000000001
 40
0.0
 40
0.0
 40
0.0
 40
0.0
 40
1.0
 40
2.0
 40
3.0
 40
4.0
 40
5.0
 40
6.0
 40
7.0
 40
8.0
 40
9.0
 40
9.0
 40
9.0
 40
9.0
 10
48.45289777594886
 20
15.33372210084727
 30
0.0
 10
47.84411123625679
 20
16.06369600630073
 30
0.0
 10
45.91733506109838
 20
16.46452572125259
 30
0.0
 10
43.14647574310381
 20
16.68970668024757
 30
0.0
 10
40.32381412571126
 20
16.72813193079755
 30
0.0
 10
37.51417909534904
 20
16.67550786079063
 30
0.0
 10
34.7027900799538
 20
16.55099506230963
 30
0.0
 10
31.89870471702899
 20
16.36343511320984
 30
0.0
 10
29.08861022638908
 20
16.11225885408845
 30
0.0
 10
26.33270508515394
 20
15.71867974671635
 30
0.0
 10
24.42852791378349
 20
15.29438111307941
 30
0.0
 10
23.81074033411223
 20
14.54846771288111
 30
0.0
  0
SPLINE
  5
6C
330
1F
100
AcDbEntity
  8
MAKE2D VISIBLE LINES
100
AcDbSpline
210
0.0
220
0.0
230
1.0
 70
    24
 71
     2
 72
     6
 73
     3
 74
     0
 42
0.0000000001
 43
0.0000000001
 40
0.0
 40
0.0
 40
0.0
 40
37.14500679235059
 40
37.14500679235059
 40
37.14500679235059
 10
0.0000000018464572
 20
37.73555804740599
 30
0.0
 10
0.0000000009232286
 20
19.1630546512307
 30
0.0
 10
0.0
 20
0.5905512550554004
 30
0.0
  0
LINE
  5
6D
330
1F
100
AcDbEntity
  8
MAKE2D VISIBLE LINES
100
AcDbLine
 10
45.3577402153543
 20
0.5905512311456427
 30
0.0
 11
-0.0000000000000249
 21
0.5905512550553829
 31
0.0
  0
SPLINE
  5
6E
330
1F
100
AcDbEntity
  8
MAKE2D VISIBLE LINES
100
AcDbSpline
210
0.0
220
0.0
230
1.0
 70
    24
 71
     2
 72
     6
 73
     3
 74
     0
 42
0.0000000001
 43
0.0000000001
 40
0.0
 40
0.0
 40
0.0
 40
0.5905511811023629
 40
0.5905511811023629
 40
0.5905511811023629
 10
21.84343603595465
 20
0.0000000000000018
 30
0.0
 10
21.84343603595465
 20
0.2952755905511832
 30
0.0
 10
21.84343603595465
 20
0.5905511811023647
 30
0.0
  0
SPLINE
  5
6F
330
1F
100
AcDbEntity
  8
MAKE2D VISIBLE LINES
100
AcDbSpline
210
0.0
220
0.0
230
1.0
 70
    12
 71
     2
 72
     6
 73
     3
 74
     0
 42
0.0000000001
 43
0.0000000001
 40
0.0
 40
0.0
 40
0.0
 40
0.0389203225698177
 40
0.0389203225698177
 40
0.0389203225698177
 10
21.04764471604659
 20
0.638531221885998
 30
0.0
 41
1.0
 10
21.04432661470006
 20
0.6577064163471987
 30
0.0
 41
0.9999999961662429
 10
21.04100515527787
 20
0.6768810294196196
 30
0.0
 41
1.0
  0
SPLINE
  5
70
330
1F
100
AcDbEntity
  8
MAKE2D VISIBLE LINES
100
AcDbSpline
210
0.0
220
0.0
230
1.0
 70
    24
 71
     2
 72
     6
 73
     3
 74
     0
 42
0.0000000001
 43
0.0000000001
 40
0.0
 40
0.0
 40
0.0
 40
0.5905511811023629
 40
0.5905511811023629
 40
0.5905511811023629
 10
0.7874015766498861
 20
0.0000000667243558
 30
0.0
 10
0.7874015766498861
 20
0.2952756572755373
 30
0.0
 10
0.7874015766498861
 20
0.5905512478267188
 30
0.0
  0
SPLINE
  5
71
330
1F
100
AcDbEntity
  8
MAKE2D VISIBLE LINES
100
AcDbSpline
210
0.0
220
0.0
230
1.0
 70
    24
 71
     2
 72
     6
 73
     3
 74
     0
 42
0.0000000001
 43
0.0000000001
 40
0.0
 40
0.0
 40
0.0
 40
0.5905511811023612
 40
0.5905511811023612
 40
0.5905511811023612
 10
35.85821430159445
 20
0.0000000667243114
 30
0.0
 10
35.85821430159445
 20
0.295275657275492
 30
0.0
 10
35.85821430159445
 20
0.5905512478266726
 30
0.0
  0
SPLINE
  5
72
330
1F
100
AcDbEntity
  8
MAKE2D VISIBLE LINES
100
AcDbSpline
210
0.0
220
0.0
230
1.0
 70
    24
 71
     2
 72
     6
 73
     3
 74
     0
 42
0.0000000001
 43
0.0000000001
 40
0.0
 40
0.0
 40
0.0
 40
0.5905511811023629
 40
0.5905511811023629
 40
0.5905511811023629
 10
40.04864162681255
 20
0.0000000000000018
 30
0.0
 10
40.04864162681255
 20
0.2952755905511832
 30
0.0
 10
40.04864162681255
 20
0.5905511811023647
 30
0.0
  0
SPLINE
  5
73
330
1F
100
AcDbEntity
  8
MAKE2D VISIBLE LINES
100
AcDbSpline
210
0.0
220
0.0
230
1.0
 70
    24
 71
     2
 72
     6
 73
     3
 74
     0
 42
0.0000000001
 43
0.0000000001
 40
0.0
 40
0.0
 40
0.0
 40
0.5905511811023629
 40
0.5905511811023629
 40
0.5905511811023629
 10
44.57040594737906
 20
0.5905511811023647
 30
0.0
 10
44.57040594737906
 20
0.2952755905511832
 30
0.0
 10
44.57040594737906
 20
0.0000000000000018
 30
0.0
  0
SPLINE
  5
74
330
1F
100
AcDbEntity
  8
MAKE2D VISIBLE LINES
100
AcDbSpline
210
0.0
220
0.0
230
1.0
 70
    12
 71
     2
 72
     6
 73
     3
 74
     0
 42
0.0000000001
 43
0.0000000001
 40
0.0
 40
0.0
 40
0.0
 40
0.0290596741337817
 40
0.0290596741337817
 40
0.0290596741337817
 10
45.93358689075716
 20
1.050069092278654
 30
0.0
 41
1.0
 10
45.93681213389459
 20
1.064239460383817
 30
0.0
 41
0.999696872913203
 10
45.93933591927939
 20
1.078551414578228
 30
0.0
 41
1.0
  0
SPLINE
  5
75
330
1F
100
AcDbEntity
  8
MAKE2D VISIBLE LINES
100
AcDbSpline
210
0.0
220
0.0
230
1.0
 70
    24
 71
     2
 72
     6
 73
     3
 74
     0
 42
0.0000000001
 43
0.0000000001
 40
0.0
 40
0.0
 40
0.0
 40
14.47506965451629
 40
14.47506965451629
 40
14.47506965451629
 10
45.93933692826329
 20
1.078557137204582
 30
0.0
 10
47.19611712785715
 20
8.206138347242344
 30
0.0
 10
48.45289732745101
 20
15.33371955728011
 30
0.0
  0
SPLINE
  5
76
330
1F
100
AcDbEntity
  8
MAKE2D VISIBLE LINES
100
AcDbSpline
210
0.0
220
0.0
230
1.0
 70
    28
 71
     2
 72
    12
 73
     9
 74
     0
 42
0.0000000001
 43
0.0000000001
 40
298.1685462786829
 40
298.1685462786829
 40
298.1685462786829
 40
298.904857162949
 40
298.904857162949
 40
310.685831311205
 40
310.685831311205
 40
322.466805459462
 40
322.466805459462
 40
334.247779607718
 40
334.247779607718
 40
334.247779607718
 10
21.84411777867202
 20
0.0000000000000018
 30
0.0
 41
0.9910796301789534
 10
21.84343603756055
 20
0.0000000000000018
 30
0.0
 41
0.9952424694287751
 10
21.84343603595465
 20
0.0000000000000018
 30
0.0
 41
1.0
 10
21.84343600827555
 20
0.0000000000000016
 30
0.0
 41
0.923879510860403
 10
22.01640447226134
 20
0.0000000000000018
 30
0.0
 41
1.0
 10
22.18937293624755
 20
0.0000000000000016
 30
0.0
 41
0.923879510860403
 10
22.43398728387905
 20
0.0000000000000018
 30
0.0
 41
1.0
 10
22.67860163151095
 20
0.0000000000000016
 30
0.0
 41
0.923879510860403
 10
22.85157005635345
 20
0.0000000000000018
 30
0.0
 41
1.0
  0
SPLINE
  5
77
330
1F
100
AcDbEntity
  8
MAKE2D VISIBLE LINES - TANGENT
100
AcDbSpline
210
0.0
220
0.0
230
1.0
 70
    24
 71
     2
 72
     6
 73
     3
 74
     0
 42
0.0000000001
 43
0.0000000001
 40
0.0
 40
0.0
 40
0.0
 40
0.5905511811023629
 40
0.5905511811023629
 40
0.5905511811023629
 10
22.85157005635345
 20
0.0000000000000018
 30
0.0
 10
22.85157005635345
 20
0.2952755905511832
 30
0.0
 10
22.85157005635345
 20
0.5905511811023647
 30
0.0
  0
SPLINE
  5
78
330
1F
100
AcDbEntity
  8
MAKE2D VISIBLE LINES
100
AcDbSpline
210
0.0
220
0.0
230
1.0
 70
    24
 71
     2
 72
     6
 73
     3
 74
     0
 42
0.0000000001
 43
0.0000000001
 40
0.0
 40
0.0
 40
0.0
 40
37.57988816685116
 40
37.57988816685116
 40
37.57988816685116
 10
21.05599816750154
 20
0.5905512404021191
 30
0.0
 10
18.20517710326301
 20
19.16297213585767
 30
0.0
 10
15.35435603902448
 20
37.73539303131322
 30
0.0
  0
SPLINE
  5
79
330
1F
100
AcDbEntity
  8
MAKE2D VISIBLE LINES
100
AcDbSpline
210
0.0
220
0.0
230
1.0
 70
    24
 71
     2
 72
     6
 73
     3
 74
     0
 42
0.0000000001
 43
0.0000000001
 40
0.0
 40
0.0
 40
0.0
 40
13.73285450565025
 40
13.73285450565025
 40
13.73285450565025
 10
23.73089909495265
 20
14.06725084307221
 30
0.0
 10
25.0509236301811
 20
7.328901012087284
 30
0.0
 10
26.37094816540954
 20
0.5905511811023612
 30
0.0
  0
SPLINE
  5
7A
330
1F
100
AcDbEntity
  8
MAKE2D VISIBLE LINES
100
AcDbSpline
210
0.0
220
0.0
230
1.0
 70
    24
 71
     2
 72
     6
 73
     3
 74
     0
 42
0.0000000001
 43
0.0000000001
 40
0.0
 40
0.0
 40
0.0
 40
4.190427325218209
 40
4.190427325218209
 40
4.190427325218209
 10
40.04932336311015
 20
0.0000000667243114
 30
0.0
 10
37.95410970050104
 20
0.0000000667243114
 30
0.0
 10
35.85889603789194
 20
0.0000000667243114
 30
0.0
  0
SPLINE
  5
7B
330
1F
100
AcDbEntity
  8
MAKE2D VISIBLE LINES - TANGENT
100
AcDbSpline
210
0.0
220
0.0
230
1.0
 70
    24
 71
     2
 72
     6
 73
     3
 74
     0
 42
0.0000000001
 43
0.0000000001
 40
0.0
 40
0.0
 40
0.0
 40
0.5905511811023629
 40
0.5905511811023629
 40
0.5905511811023629
 10
43.56227192698025
 20
0.0000000000000018
 30
0.0
 10
43.56227192698025
 20
0.2952755905511832
 30
0.0
 10
43.56227192698025
 20
0.5905511811023647
 30
0.0
  0
SPLINE
  5
7C
330
1F
100
AcDbEntity
  8
MAKE2D VISIBLE LINES
100
AcDbSpline
210
0.0
220
0.0
230
1.0
 70
    24
 71
     2
 72
     6
 73
     3
 74
     0
 42
0.0000000001
 43
0.0000000001
 40
0.0
 40
0.0
 40
0.0
 40
1.007452284101142
 40
1.007452284101142
 40
1.007452284101142
 10
43.56227192698025
 20
0.0000000000000018
 30
0.0
 10
44.06599806903083
 20
0.0000000000000018
 30
0.0
 10
44.56972421108139
 20
0.0000000000000018
 30
0.0
  0
SPLINE
  5
7D
330
1F
100
AcDbEntity
  8
MAKE2D VISIBLE LINES
100
AcDbSpline
210
0.0
220
0.0
230
1.0
 70
    24
 71
     2
 72
     6
 73
     3
 74
     0
 42
0.0000000001
 43
0.0000000001
 40
0.0
 40
0.0
 40
0.0
 40
3.340661769358988
 40
3.340661769358988
 40
3.340661769358988
 10
40.22161015762126
 20
0.0000000000000018
 30
0.0
 10
41.89194104230076
 20
0.0000000000000018
 30
0.0
 10
43.56227192698025
 20
0.0000000000000018
 30
0.0
  0
SPLINE
  5
7E
330
1F
100
AcDbEntity
  8
MAKE2D VISIBLE LINES
100
AcDbSpline
210
0.0
220
0.0
230
1.0
 70
    28
 71
     2
 72
     8
 73
     5
 74
     0
 42
0.0000000001
 43
0.0000000001
 40
-466.7650578510717
 40
-466.7650578510717
 40
-466.7650578510717
 40
-466.0287469668056
 40
-466.0287469668056
 40
-454.2477763004134
 40
-454.2477763004134
 40
-454.2477763004134
 10
40.04932336311017
 20
0.0000000000000018
 30
0.0
 41
0.9910796301789534
 10
40.04864162520679
 20
0.0000000000000018
 30
0.0
 41
0.9952424694287751
 10
40.0486416268127
 20
0.0000000000000018
 30
0.0
 41
1.0
 10
40.04864165449177
 20
0.0000000000000016
 30
0.0
 41
0.9238795333578046
 10
40.22161006316232
 20
0.0000000000000018
 30
0.0
 41
0.9999999550052101
  0
SPLINE
  5
7F
330
1F
100
AcDbEntity
  8
MAKE2D VISIBLE LINES
100
AcDbSpline
210
0.0
220
0.0
230
1.0
 70
    12
 71
     2
 72
     6
 73
     3
 74
     0
 42
0.0000000001
 43
0.0000000001
 40
0.0
 40
0.0
 40
0.0
 40
0.8245650009424129
 40
0.8245650009424129
 40
0.8245650009424129
 10
45.93931959700705
 20
1.078554292511594
 30
0.0
 41
1.0
 10
45.85327149356081
 20
0.590551247826815
 30
0.0
 41
0.7660444431193209
 10
45.35774021530655
 20
0.5905512478267076
 30
0.0
 41
1.0
  0
ENDSEC
  0
SECTION
  2
OBJECTS
  0
DICTIONARY
  5
C
330
0
100
AcDbDictionary
281
     1
  3
ACAD_GROUP
350
D
  3
ACAD_LAYOUT
350
1A
  3
ACAD_MLEADERSTYLE
350
82
  3
ACAD_MLINESTYLE
350
17
  3
ACAD_PLOTSETTINGS
350
19
  3
ACAD_PLOTSTYLENAME
350
E
  3
ACAD_VISUALSTYLE
350
2A
  3
AcDbVariableDictionary
350
80
  0
DICTIONARY
  5
D
102
{ACAD_REACTORS
330
C
102
}
330
C
100
AcDbDictionary
281
     1
  0
DICTIONARY
  5
1A
102
{ACAD_REACTORS
330
C
102
}
330
C
100
AcDbDictionary
281
     1
  3
Layout1
350
1E
  3
Layout2
350
26
  3
Model
350
22
  0
DICTIONARY
  5
82
102
{ACAD_REACTORS
330
C
102
}
330
C
100
AcDbDictionary
281
     1
  0
DICTIONARY
  5
17
102
{ACAD_REACTORS
330
C
102
}
330
C
100
AcDbDictionary
281
     1
  3
Standard
350
18
  0
DICTIONARY
  5
19
102
{ACAD_REACTORS
330
C
102
}
330
C
100
AcDbDictionary
281
     1
  0
ACDBDICTIONARYWDFLT
  5
E
102
{ACAD_REACTORS
330
C
102
}
330
C
100
AcDbDictionary
281
     1
  3
Normal
350
F
100
AcDbDictionaryWithDefault
340
F
  0
DICTIONARY
  5
2A
102
{ACAD_REACTORS
330
C
102
}
330
C
100
AcDbDictionary
281
     1
  3
2dWireframe
350
2F
  3
3D Hidden
350
31
  3
3dWireframe
350
30
  3
Basic
350
32
  3
Brighten
350
36
  3
ColorChange
350
3A
  3
Conceptual
350
34
  3
Dim
350
35
  3
Facepattern
350
39
  3
Flat
350
2B
  3
FlatWithEdges
350
2C
  3
Gouraud
350
2D
  3
GouraudWithEdges
350
2E
  3
Linepattern
350
38
  3
Realistic
350
33
  3
Thicken
350
37
  0
DICTIONARY
  5
80
102
{ACAD_REACTORS
330
C
102
}
330
C
100
AcDbDictionary
281
     1
  0
LAYOUT
  5
1E
102
{ACAD_REACTORS
330
1A
102
}
330
1A
100
AcDbPlotSettings
  1

  2
none_device
  4

  6

 40
0.0
 41
0.0
 42
0.0
 43
0.0
 44
0.0
 45
0.0
 46
0.0
 47
0.0
 48
0.0
 49
0.0
140
0.0
141
0.0
142
1.0
143
1.0
 70
   688
 72
     0
 73
     0
 74
     5
  7

 75
    16
147
1.0
148
0.0
149
0.0
100
AcDbLayout
  1
Layout1
 70
     1
 71
     1
 10
0.0
 20
0.0
 11
12.0
 21
9.0
 12
0.0
 22
0.0
 32
0.0
 14
1.000000000000000E+20
 24
1.000000000000000E+20
 34
1.000000000000000E+20
 15
-1.000000000000000E+20
 25
-1.000000000000000E+20
 35
-1.000000000000000E+20
146
0.0
 13
0.0
 23
0.0
 33
0.0
 16
1.0
 26
0.0
 36
0.0
 17
0.0
 27
1.0
 37
0.0
 76
     0
330
1B
  0
LAYOUT
  5
26
102
{ACAD_REACTORS
330
1A
102
}
330
1A
100
AcDbPlotSettings
  1

  2
none_device
  4

  6

 40
0.0
 41
0.0
 42
0.0
 43
0.0
 44
0.0
 45
0.0
 46
0.0
 47
0.0
 48
0.0
 49
0.0
140
0.0
141
0.0
142
1.0
143
1.0
 70
   688
 72
     0
 73
     0
 74
     5
  7

 75
    16
147
1.0
148
0.0
149
0.0
100
AcDbLayout
  1
Layout2
 70
     1
 71
     2
 10
0.0
 20
0.0
 11
0.0
 21
0.0
 12
0.0
 22
0.0
 32
0.0
 14
0.0
 24
0.0
 34
0.0
 15
0.0
 25
0.0
 35
0.0
146
0.0
 13
0.0
 23
0.0
 33
0.0
 16
1.0
 26
0.0
 36
0.0
 17
0.0
 27
1.0
 37
0.0
 76
     0
330
23
  0
LAYOUT
  5
22
102
{ACAD_REACTORS
330
1A
102
}
330
1A
100
AcDbPlotSettings
  1

  2
none_device
  4

  6

 40
0.0
 41
0.0
 42
0.0
 43
0.0
 44
0.0
 45
0.0
 46
0.0
 47
0.0
 48
0.0
 49
0.0
140
0.0
141
0.0
142
1.0
143
1.0
 70
  1712
 72
     0
 73
     0
 74
     0
  7

 75
     0
147
1.0
148
0.0
149
0.0
100
AcDbLayout
  1
Model
 70
     1
 71
     0
 10
0.0
 20
0.0
 11
12.0
 21
9.0
 12
0.0
 22
0.0
 32
0.0
 14
-0.0000000000000249
 24
0.0000000000000018
 34
0.0
 15
105.1501715982415
 25
98.77518566115647
 35
0.0
146
0.0
 13
0.0
 23
0.0
 33
0.0
 16
1.0
 26
0.0
 36
0.0
 17
0.0
 27
1.0
 37
0.0
 76
     0
330
1F
331
29
  0
MLINESTYLE
  5
18
102
{ACAD_REACTORS
330
17
102
}
330
17
100
AcDbMlineStyle
  2
Standard
 70
     0
  3

 62
   256
 51
90.0
 52
90.0
 71
     2
 49
0.5
 62
   256
  6
BYLAYER
 49
-0.5
 62
   256
  6
BYLAYER
  0
ACDBPLACEHOLDER
  5
F
102
{ACAD_REACTORS
330
E
102
}
330
E
  0
VISUALSTYLE
  5
2F
102
{ACAD_REACTORS
330
2A
102
}
330
2A
100
AcDbVisualStyle
  2
2dWireframe
 70
     4
 71
     0
 72
     2
 73
     0
 90
        0
 40
-0.6
 41
-30.0
 62
     5
 63
     7
 74
     1
 91
        4
 64
     7
 65
   257
 75
     1
175
     1
 42
1.0
 92
        0
 66
   257
 43
1.0
 76
     1
 77
     6
 78
     2
 67
     7
 79
     5
170
     0
171
     0
290
     0
174
     0
 93
        1
 44
0.0
173
     0
291
     0
 45
0.0
1001
ACAD
1000
AcDbSavedByObjectVersion
1070
     0
  0
VISUALSTYLE
  5
31
102
{ACAD_REACTORS
330
2A
102
}
330
2A
100
AcDbVisualStyle
  2
3D Hidden
 70
     6
 71
     1
 72
     2
 73
     2
 90
        0
 40
-0.6
 41
-30.0
 62
     5
 63
     7
 74
     2
 91
        2
 64
     7
 65
   257
 75
     2
175
     1
 42
40.0
 92
        0
 66
   257
 43
1.0
 76
     1
 77
     6
 78
     2
 67
     7
 79
     3
170
     0
171
     0
290
     0
174
     0
 93
        1
 44
0.0
173
     0
291
     0
 45
0.0
1001
ACAD
1000
AcDbSavedByObjectVersion
1070
     0
  0
VISUALSTYLE
  5
30
102
{ACAD_REACTORS
330
2A
102
}
330
2A
100
AcDbVisualStyle
  2
3dWireframe
 70
     5
 71
     0
 72
     2
 73
     0
 90
        0
 40
-0.6
 41
-30.0
 62
     5
 63
     7
 74
     1
 91
        4
 64
     7
 65
   257
 75
     1
175
     1
 42
1.0
 92
        0
 66
   257
 43
1.0
 76
     1
 77
     6
 78
     2
 67
     7
 79
     5
170
     0
171
     0
290
     0
174
     0
 93
        1
 44
0.0
173
     0
291
     0
 45
0.0
1001
ACAD
1000
AcDbSavedByObjectVersion
1070
     0
  0
VISUALSTYLE
  5
32
102
{ACAD_REACTORS
330
2A
102
}
330
2A
100
AcDbVisualStyle
  2
Basic
 70
     7
 71
     1
 72
     0
 73
     1
 90
        0
 40
-0.6
 41
-30.0
 62
     5
 63
     7
 74
     0
 91
        4
 64
     7
 65
   257
 75
     1
175
     1
 42
1.0
 92
        8
 66
     7
 43
1.0
 76
     1
 77
     6
 78
     2
 67
     7
 79
     5
170
     0
171
     0
290
     0
174
     0
 93
        1
 44
0.0
173
     0
291
     1
 45
0.0
1001
ACAD
1000
AcDbSavedByObjectVersion
1070
     0
  0
VISUALSTYLE
  5
36
102
{ACAD_REACTORS
330
2A
102
}
330
2A
100
AcDbVisualStyle
  2
Brighten
 70
    12
 71
     2
 72
     2
 73
     0
 90
        0
 40
-0.6
 41
-30.0
 62
     5
 63
     7
 74
     1
 91
        4
 64
     7
 65
   257
 75
     1
175
     1
 42
1.0
 92
        8
 66
     7
 43
1.0
 76
     1
 77
     6
 78
     2
 67
     7
 79
     5
170
     0
171
     0
290
     0
174
     0
 93
        1
 44
50.0
173
     0
291
     1
 45
0.0
1001
ACAD
1000
AcDbSavedByObjectVersion
1070
     0
  0
VISUALSTYLE
  5
3A
102
{ACAD_REACTORS
330
2A
102
}
330
2A
100
AcDbVisualStyle
  2
ColorChange
 70
    16
 71
     2
 72
     2
 73
     3
 90
        0
 40
-0.6
 41
-30.0
 62
     5
 63
     8
 74
     1
 91
        4
 64
     7
 65
   257
 75
     1
175
     1
 42
1.0
 92
        8
 66
     8
 43
1.0
 76
     1
 77
     6
 78
     2
 67
     7
 79
     5
170
     0
171
     0
290
     0
174
     0
 93
        1
 44
0.0
173
     0
291
     1
 45
0.0
1001
ACAD
1000
AcDbSavedByObjectVersion
1070
     0
  0
VISUALSTYLE
  5
34
102
{ACAD_REACTORS
330
2A
102
}
330
2A
100
AcDbVisualStyle
  2
Conceptual
 70
     9
 71
     3
 72
     2
 73
     0
 90
        0
 40
-0.6
 41
-30.0
 62
     5
 63
     7
 74
     2
 91
        2
 64
     7
 65
   257
 75
     1
175
     1
 42
40.0
 92
        8
 66
     7
 43
1.0
 76
     1
 77
     6
 78
     2
 67
     7
 79
     3
170
     0
171
     0
290
     0
174
     0
 93
        1
 44
0.0
173
     0
291
     0
 45
0.0
1001
ACAD
1000
AcDbSavedByObjectVersion
1070
     0
  0
VISUALSTYLE
  5
35
102
{ACAD_REACTORS
330
2A
102
}
330
2A
100
AcDbVisualStyle
  2
Dim
 70
    11
 71
     2
 72
     2
 73
     0
 90
        0
 40
-0.6
 41
-30.0
 62
     5
 63
     7
 74
     1
 91
        4
 64
     7
 65
   257
 75
     1
175
     1
 42
1.0
 92
        8
 66
     7
 43
1.0
 76
     1
 77
     6
 78
     2
 67
     7
 79
     5
170
     0
171
     0
290
     0
174
     0
 93
        1
 44
-50.0
173
     0
291
     1
 45
0.0
1001
ACAD
1000
AcDbSavedByObjectVersion
1070
     0
  0
VISUALSTYLE
  5
39
102
{ACAD_REACTORS
330
2A
102
}
330
2A
100
AcDbVisualStyle
  2
Facepattern
 70
    15
 71
     2
 72
     2
 73
     0
 90
        0
 40
-0.6
 41
-30.0
 62
     5
 63
     7
 74
     1
 91
        4
 64
     7
 65
   257
 75
     1
175
     1
 42
1.0
 92
        8
 66
     7
 43
1.0
 76
     1
 77
     6
 78
     2
 67
     7
 79
     5
170
     0
171
     0
290
     0
174
     0
 93
        1
 44
0.0
173
     0
291
     1
 45
0.0
1001
ACAD
1000
AcDbSavedByObjectVersion
1070
     0
  0
VISUALSTYLE
  5
2B
102
{ACAD_REACTORS
330
2A
102
}
330
2A
100
AcDbVisualStyle
  2
Flat
 70
     0
 71
     2
 72
     1
 73
     1
 90
        2
 40
-0.6
 41
30.0
 62
     5
 63
     7
 74
     0
 91
        4
 64
     7
 65
   257
 75
     1
175
     1
 42
1.0
 92
        8
 66
     7
 43
1.0
 76
     1
 77
     6
 78
     2
 67
     7
 79
     5
170
     0
171
     0
290
     0
174
     0
 93
       13
 44
0.0
173
     0
291
     1
 45
0.0
1001
ACAD
1000
AcDbSavedByObjectVersion
1070
     0
  0
VISUALSTYLE
  5
2C
102
{ACAD_REACTORS
330
2A
102
}
330
2A
100
AcDbVisualStyle
  2
FlatWithEdges
 70
     1
 71
     2
 72
     1
 73
     1
 90
        2
 40
-0.6
 41
30.0
 62
     5
 63
     7
 74
     1
 91
        4
 64
     7
 65
   257
 75
     1
175
     1
 42
1.0
 92
        0
 66
   257
 43
1.0
 76
     1
 77
     6
 78
     2
 67
     7
 79
     5
170
     0
171
     0
290
     0
174
     0
 93
       13
 44
0.0
173
     0
291
     1
 45
0.0
1001
ACAD
1000
AcDbSavedByObjectVersion
1070
     0
  0
VISUALSTYLE
  5
2D
102
{ACAD_REACTORS
330
2A
102
}
330
2A
100
AcDbVisualStyle
  2
Gouraud
 70
     2
 71
     2
 72
     2
 73
     1
 90
        2
 40
-0.6
 41
30.0
 62
     5
 63
     7
 74
     0
 91
        4
 64
     7
 65
   257
 75
     1
175
     1
 42
1.0
 92
        0
 66
     7
 43
1.0
 76
     1
 77
     6
 78
     2
 67
     7
 79
     5
170
     0
171
     0
290
     0
174
     0
 93
       13
 44
0.0
173
     0
291
     1
 45
0.0
1001
ACAD
1000
AcDbSavedByObjectVersion
1070
     0
  0
VISUALSTYLE
  5
2E
102
{ACAD_REACTORS
330
2A
102
}
330
2A
100
AcDbVisualStyle
  2
GouraudWithEdges
 70
     3
 71
     2
 72
     2
 73
     1
 90
        2
 40
-0.6
 41
30.0
 62
     5
 63
     7
 74
     1
 91
        4
 64
     7
 65
   257
 75
     1
175
     1
 42
1.0
 92
        0
 66
   257
 43
1.0
 76
     1
 77
     6
 78
     2
 67
     7
 79
     5
170
     0
171
     0
290
     0
174
     0
 93
       13
 44
0.0
173
     0
291
     1
 45
0.0
1001
ACAD
1000
AcDbSavedByObjectVersion
1070
     0
  0
VISUALSTYLE
  5
38
102
{ACAD_REACTORS
330
2A
102
}
330
2A
100
AcDbVisualStyle
  2
Linepattern
 70
    14
 71
     2
 72
     2
 73
     0
 90
        0
 40
-0.6
 41
-30.0
 62
     5
 63
     7
 74
     1
 91
        4
 64
     7
 65
   257
 75
     7
175
     7
 42
1.0
 92
        8
 66
     7
 43
1.0
 76
     1
 77
     6
 78
     2
 67
     7
 79
     5
170
     0
171
     0
290
     0
174
     0
 93
        1
 44
0.0
173
     0
291
     1
 45
0.0
1001
ACAD
1000
AcDbSavedByObjectVersion
1070
     0
  0
VISUALSTYLE
  5
33
102
{ACAD_REACTORS
330
2A
102
}
330
2A
100
AcDbVisualStyle
  2
Realistic
 70
     8
 71
     2
 72
     2
 73
     0
 90
        0
 40
-0.6
 41
-30.0
 62
     5
 63
     7
 74
     1
 91
        0
 64
     7
 65
   257
 75
     1
175
     1
 42
1.0
 92
        8
 66
     8
 43
1.0
 76
     1
 77
     6
 78
     2
 67
     7
 79
     5
170
     0
171
     0
290
     0
174
     0
 93
       13
 44
0.0
173
     0
291
     0
 45
0.0
1001
ACAD
1000
AcDbSavedByObjectVersion
1070
     0
  0
VISUALSTYLE
  5
37
102
{ACAD_REACTORS
330
2A
102
}
330
2A
100
AcDbVisualStyle
  2
Thicken
 70
    13
 71
     2
 72
     2
 73
     0
 90
        0
 40
-0.6
 41
-30.0
 62
     5
 63
     7
 74
     1
 91
        4
 64
     7
 65
   257
 75
     1
175
     1
 42
1.0
 92
       12
 66
     7
 43
1.0
 76
     1
 77
     6
 78
     2
 67
     7
 79
     5
170
     0
171
     0
290
     0
174
     0
 93
        1
 44
0.0
173
     0
291
     1
 45
0.0
1001
ACAD
1000
AcDbSavedByObjectVersion
1070
     0
  0
ENDSEC
  0
EOF
