  0
SECTION
  2
HEADER
  9
$ACADVER
  1
AC1015
  9
$ACADMAINTVER
 70
     6
  9
$DWGCODEPAGE
  3
ANSI_1252
  9
$INSBASE
 10
0.0
 20
0.0
 30
0.0
  9
$EXTMIN
 10
0.3360128755002714
 20
0.0000000000000001
 30
0.0
  9
$EXTMAX
 10
98.40744451955999
 20
82.86251008396735
 30
0.0
  9
$LIMMIN
 10
0.0
 20
0.0
  9
$LIMMAX
 10
12.0
 20
9.0
  9
$ORTHOMODE
 70
     0
  9
$REGENMODE
 70
     1
  9
$FILLMODE
 70
     1
  9
$QTEXTMODE
 70
     0
  9
$MIRRTEXT
 70
     1
  9
$LTSCALE
 40
0.0393700787401575
  9
$ATTMODE
 70
     1
  9
$TEXTSIZE
 40
0.2
  9
$TRACEWID
 40
0.05
  9
$TEXTSTYLE
  7
Standard
  9
$CLAYER
  8
DEFAULT
  9
$CELTYPE
  6
ByLayer
  9
$CECOLOR
 62
   256
  9
$CELTSCALE
 40
1.0
  9
$DISPSILH
 70
     0
  9
$DIMSCALE
 40
1.0
  9
$DIMASZ
 40
0.18
  9
$DIMEXO
 40
0.0625
  9
$DIMDLI
 40
0.38
  9
$DIMRND
 40
0.0
  9
$DIMDLE
 40
0.0
  9
$DIMEXE
 40
0.18
  9
$DIMTP
 40
0.0
  9
$DIMTM
 40
0.0
  9
$DIMTXT
 40
0.18
  9
$DIMCEN
 40
0.09
  9
$DIMTSZ
 40
0.0
  9
$DIMTOL
 70
     0
  9
$DIMLIM
 70
     0
  9
$DIMTIH
 70
     1
  9
$DIMTOH
 70
     1
  9
$DIMSE1
 70
     0
  9
$DIMSE2
 70
     0
  9
$DIMTAD
 70
     0
  9
$DIMZIN
 70
     0
  9
$DIMBLK
  1

  9
$DIMASO
 70
     1
  9
$DIMSHO
 70
     1
  9
$DIMPOST
  1

  9
$DIMAPOST
  1

  9
$DIMALT
 70
     0
  9
$DIMALTD
 70
     2
  9
$DIMALTF
 40
25.4
  9
$DIMLFAC
 40
1.0
  9
$DIMTOFL
 70
     0
  9
$DIMTVP
 40
0.0
  9
$DIMTIX
 70
     0
  9
$DIMSOXD
 70
     0
  9
$DIMSAH
 70
     0
  9
$DIMBLK1
  1

  9
$DIMBLK2
  1

  9
$DIMSTYLE
  2
Standard
  9
$DIMCLRD
 70
     0
  9
$DIMCLRE
 70
     0
  9
$DIMCLRT
 70
     0
  9
$DIMTFAC
 40
1.0
  9
$DIMGAP
 40
0.09
  9
$DIMJUST
 70
     0
  9
$DIMSD1
 70
     0
  9
$DIMSD2
 70
     0
  9
$DIMTOLJ
 70
     1
  9
$DIMTZIN
 70
     0
  9
$DIMALTZ
 70
     0
  9
$DIMALTTZ
 70
     0
  9
$DIMUPT
 70
     0
  9
$DIMDEC
 70
     4
  9
$DIMTDEC
 70
     4
  9
$DIMALTU
 70
     2
  9
$DIMALTTD
 70
     2
  9
$DIMTXSTY
  7
Standard
  9
$DIMAUNIT
 70
     0
  9
$DIMADEC
 70
     0
  9
$DIMALTRND
 40
0.0
  9
$DIMAZIN
 70
     0
  9
$DIMDSEP
 70
    46
  9
$DIMATFIT
 70
     3
  9
$DIMFRAC
 70
     0
  9
$DIMLDRBLK
  1

  9
$DIMLUNIT
 70
     2
  9
$DIMLWD
 70
    -2
  9
$DIMLWE
 70
    -2
  9
$DIMTMOVE
 70
     2
  9
$LUNITS
 70
     2
  9
$LUPREC
 70
     3
  9
$SKETCHINC
 40
0.1
  9
$FILLETRAD
 40
0.5
  9
$AUNITS
 70
     0
  9
$AUPREC
 70
     0
  9
$MENU
  1
.
  9
$ELEVATION
 40
0.0
  9
$PELEVATION
 40
0.0
  9
$THICKNESS
 40
0.0
  9
$LIMCHECK
 70
     0
  9
$CHAMFERA
 40
0.5
  9
$CHAMFERB
 40
0.5
  9
$CHAMFERC
 40
1.0
  9
$CHAMFERD
 40
0.0
  9
$SKPOLY
 70
     0
  9
$TDCREATE
 40
2455384.693052188
  9
$TDUCREATE
 40
2455384.859718854
  9
$TDUPDATE
 40
2455384.693052199
  9
$TDUUPDATE
 40
2455384.859718866
  9
$TDINDWG
 40
0.0000000116
  9
$TDUSRTIMER
 40
0.0000000116
  9
$USRTIMER
 70
     1
  9
$ANGBASE
 50
0.0
  9
$ANGDIR
 70
     0
  9
$PDMODE
 70
     0
  9
$PDSIZE
 40
0.0
  9
$PLINEWID
 40
0.0
  9
$SPLFRAME
 70
     0
  9
$SPLINETYPE
 70
     6
  9
$SPLINESEGS
 70
     8
  9
$HANDSEED
  5
7F
  9
$SURFTAB1
 70
     6
  9
$SURFTAB2
 70
     6
  9
$SURFTYPE
 70
     6
  9
$SURFU
 70
     6
  9
$SURFV
 70
     6
  9
$UCSBASE
  2

  9
$UCSNAME
  2

  9
$UCSORG
 10
0.0
 20
0.0
 30
0.0
  9
$UCSXDIR
 10
1.0
 20
0.0
 30
0.0
  9
$UCSYDIR
 10
0.0
 20
1.0
 30
0.0
  9
$UCSORTHOREF
  2

  9
$UCSORTHOVIEW
 70
     0
  9
$UCSORGTOP
 10
0.0
 20
0.0
 30
0.0
  9
$UCSORGBOTTOM
 10
0.0
 20
0.0
 30
0.0
  9
$UCSORGLEFT
 10
0.0
 20
0.0
 30
0.0
  9
$UCSORGRIGHT
 10
0.0
 20
0.0
 30
0.0
  9
$UCSORGFRONT
 10
0.0
 20
0.0
 30
0.0
  9
$UCSORGBACK
 10
0.0
 20
0.0
 30
0.0
  9
$PUCSBASE
  2

  9
$PUCSNAME
  2

  9
$PUCSORG
 10
0.0
 20
0.0
 30
0.0
  9
$PUCSXDIR
 10
1.0
 20
0.0
 30
0.0
  9
$PUCSYDIR
 10
0.0
 20
1.0
 30
0.0
  9
$PUCSORTHOREF
  2

  9
$PUCSORTHOVIEW
 70
     0
  9
$PUCSORGTOP
 10
0.0
 20
0.0
 30
0.0
  9
$PUCSORGBOTTOM
 10
0.0
 20
0.0
 30
0.0
  9
$PUCSORGLEFT
 10
0.0
 20
0.0
 30
0.0
  9
$PUCSORGRIGHT
 10
0.0
 20
0.0
 30
0.0
  9
$PUCSORGFRONT
 10
0.0
 20
0.0
 30
0.0
  9
$PUCSORGBACK
 10
0.0
 20
0.0
 30
0.0
  9
$USERI1
 70
     0
  9
$USERI2
 70
     0
  9
$USERI3
 70
     0
  9
$USERI4
 70
     0
  9
$USERI5
 70
     0
  9
$USERR1
 40
0.0
  9
$USERR2
 40
0.0
  9
$USERR3
 40
0.0
  9
$USERR4
 40
0.0
  9
$USERR5
 40
0.0
  9
$WORLDVIEW
 70
     1
  9
$SHADEDGE
 70
     3
  9
$SHADEDIF
 70
    70
  9
$TILEMODE
 70
     1
  9
$MAXACTVP
 70
    64
  9
$PINSBASE
 10
0.0
 20
0.0
 30
0.0
  9
$PLIMCHECK
 70
     0
  9
$PEXTMIN
 10
1.000000000000000E+20
 20
1.000000000000000E+20
 30
1.000000000000000E+20
  9
$PEXTMAX
 10
-1.000000000000000E+20
 20
-1.000000000000000E+20
 30
-1.000000000000000E+20
  9
$PLIMMIN
 10
0.0
 20
0.0
  9
$PLIMMAX
 10
12.0
 20
9.0
  9
$UNITMODE
 70
     0
  9
$VISRETAIN
 70
     1
  9
$PLINEGEN
 70
     0
  9
$PSLTSCALE
 70
     1
  9
$TREEDEPTH
 70
  3020
  9
$CMLSTYLE
  2
Standard
  9
$CMLJUST
 70
     0
  9
$CMLSCALE
 40
1.0
  9
$PROXYGRAPHICS
 70
     1
  9
$MEASUREMENT
 70
     0
  9
$CELWEIGHT
370
    -1
  9
$ENDCAPS
280
     0
  9
$JOINSTYLE
280
     0
  9
$LWDISPLAY
290
     0
  9
$INSUNITS
 70
     1
  9
$HYPERLINKBASE
  1

  9
$STYLESHEET
  1

  9
$XEDIT
290
     1
  9
$CEPSNTYPE
380
     0
  9
$PSTYLEMODE
290
     1
  9
$FINGERPRINTGUID
  2
{73D56AFB-68E4-4882-A313-0391E16F527C}
  9
$VERSIONGUID
  2
{FAEB1C32-E019-11D5-929B-00C0DF256EC4}
  9
$EXTNAMES
290
     1
  9
$PSVPSCALE
 40
0.0
  9
$OLESTARTUP
290
     0
  0
ENDSEC
  0
SECTION
  2
CLASSES
  0
CLASS
  1
ACDBDICTIONARYWDFLT
  2
AcDbDictionaryWithDefault
  3
ObjectDBX Classes
 90
        0
280
     0
281
     0
  0
CLASS
  1
VISUALSTYLE
  2
AcDbVisualStyle
  3
ObjectDBX Classes
 90
     4095
280
     0
281
     0
  0
CLASS
  1
ACDBPLACEHOLDER
  2
AcDbPlaceHolder
  3
ObjectDBX Classes
 90
        0
280
     0
281
     0
  0
CLASS
  1
LAYOUT
  2
AcDbLayout
  3
ObjectDBX Classes
 90
        0
280
     0
281
     0
  0
ENDSEC
  0
SECTION
  2
TABLES
  0
TABLE
  2
VPORT
  5
8
330
0
100
AcDbSymbolTable
 70
     1
  0
VPORT
  5
29
330
8
100
AcDbSymbolTableRecord
100
AcDbViewportTableRecord
  2
*Active
 70
     0
 10
0.0
 20
0.0
 11
1.0
 21
1.0
 12
49.37172869753013
 22
41.43125504198368
 13
0.0
 23
0.0
 14
0.5
 24
0.5
 15
0.5
 25
0.5
 16
0.0
 26
0.0
 36
1.0
 17
0.0
 27
0.0
 37
0.0
 40
84.5197602856467
 41
1.183544060452437
 42
50.0
 43
0.0
 44
0.0
 50
0.0
 51
0.0
 71
     0
 72
   100
 73
     1
 74
     3
 75
     0
 76
     0
 77
     0
 78
     0
281
     0
 65
     1
110
0.0
120
0.0
130
0.0
111
1.0
121
0.0
131
0.0
112
0.0
122
1.0
132
0.0
 79
     0
146
0.0
  0
ENDTAB
  0
TABLE
  2
LTYPE
  5
5
330
0
100
AcDbSymbolTable
 70
     1
  0
LTYPE
  5
14
330
5
100
AcDbSymbolTableRecord
100
AcDbLinetypeTableRecord
  2
ByBlock
 70
     0
  3

 72
    65
 73
     0
 40
0.0
  0
LTYPE
  5
15
330
5
100
AcDbSymbolTableRecord
100
AcDbLinetypeTableRecord
  2
ByLayer
 70
     0
  3

 72
    65
 73
     0
 40
0.0
  0
LTYPE
  5
16
330
5
100
AcDbSymbolTableRecord
100
AcDbLinetypeTableRecord
  2
Continuous
 70
     0
  3
Solid line
 72
    65
 73
     0
 40
0.0
  0
ENDTAB
  0
TABLE
  2
LAYER
  5
2
330
0
100
AcDbSymbolTable
 70
     3
  0
LAYER
  5
10
330
2
100
AcDbSymbolTableRecord
100
AcDbLayerTableRecord
  2
0
 70
     0
 62
     7
  6
Continuous
370
    -3
390
F
  0
LAYER
  5
3B
330
2
100
AcDbSymbolTableRecord
100
AcDbLayerTableRecord
  2
MAKE2D VISIBLE LINES
 70
     0
 62
     7
  6
Continuous
370
    -3
390
F
  0
LAYER
  5
45
330
2
100
AcDbSymbolTableRecord
100
AcDbLayerTableRecord
  2
DEFAULT
 70
     0
 62
     7
  6
Continuous
370
    -3
390
F
  0
ENDTAB
  0
TABLE
  2
STYLE
  5
3
330
0
100
AcDbSymbolTable
 70
     1
  0
STYLE
  5
11
330
3
100
AcDbSymbolTableRecord
100
AcDbTextStyleTableRecord
  2
Standard
 70
     0
 40
0.0
 41
1.0
 50
0.0
 71
     0
 42
0.2
  3
txt
  4

  0
ENDTAB
  0
TABLE
  2
VIEW
  5
6
330
0
100
AcDbSymbolTable
 70
     0
  0
ENDTAB
  0
TABLE
  2
UCS
  5
7
330
0
100
AcDbSymbolTable
 70
     0
  0
ENDTAB
  0
TABLE
  2
APPID
  5
9
330
0
100
AcDbSymbolTable
 70
     1
  0
APPID
  5
12
330
9
100
AcDbSymbolTableRecord
100
AcDbRegAppTableRecord
  2
ACAD
 70
     0
  0
ENDTAB
  0
TABLE
  2
DIMSTYLE
  5
A
330
0
100
AcDbSymbolTable
 70
     1
100
AcDbDimStyleTable
  0
DIMSTYLE
105
27
330
A
100
AcDbSymbolTableRecord
100
AcDbDimStyleTableRecord
  2
Standard
 70
     0
340
11
  0
ENDTAB
  0
TABLE
  2
BLOCK_RECORD
  5
1
330
0
100
AcDbSymbolTable
 70
     1
  0
BLOCK_RECORD
  5
1F
330
1
100
AcDbSymbolTableRecord
100
AcDbBlockTableRecord
  2
*Model_Space
340
22
  0
BLOCK_RECORD
  5
1B
330
1
100
AcDbSymbolTableRecord
100
AcDbBlockTableRecord
  2
*Paper_Space
340
1E
  0
BLOCK_RECORD
  5
23
330
1
100
AcDbSymbolTableRecord
100
AcDbBlockTableRecord
  2
*Paper_Space0
340
26
  0
ENDTAB
  0
ENDSEC
  0
SECTION
  2
BLOCKS
  0
BLOCK
  5
20
330
1F
100
AcDbEntity
  8
0
100
AcDbBlockBegin
  2
*Model_Space
 70
     0
 10
0.0
 20
0.0
 30
0.0
  3
*Model_Space
  1

  0
ENDBLK
  5
21
330
1F
100
AcDbEntity
  8
0
100
AcDbBlockEnd
  0
BLOCK
  5
1C
330
1B
100
AcDbEntity
 67
     1
  8
0
100
AcDbBlockBegin
  2
*Paper_Space
 70
     0
 10
0.0
 20
0.0
 30
0.0
  3
*Paper_Space
  1

  0
ENDBLK
  5
1D
330
1B
100
AcDbEntity
 67
     1
  8
0
100
AcDbBlockEnd
  0
BLOCK
  5
24
330
23
100
AcDbEntity
  8
0
100
AcDbBlockBegin
  2
*Paper_Space0
 70
     0
 10
0.0
 20
0.0
 30
0.0
  3
*Paper_Space0
  1

  0
ENDBLK
  5
25
330
23
100
AcDbEntity
  8
0
100
AcDbBlockEnd
  0
ENDSEC
  0
SECTION
  2
ENTITIES
  0
SPLINE
  5
3C
330
1F
100
AcDbEntity
  8
MAKE2D VISIBLE LINES
100
AcDbSpline
210
0.0
220
0.0
230
1.0
 70
    12
 71
     2
 72
     6
 73
     3
 74
     0
 42
0.0000000001
 43
0.0000000001
 40
0.0
 40
0.0
 40
0.0
 40
0.8717076030502974
 40
0.8717076030502974
 40
0.8717076030502974
 10
1.594451701708905
 20
1.127069323616117
 30
0.0
 41
1.0
 10
1.643597200651544
 20
0.5922098313593087
 30
0.0
 41
0.7397867729593282
 10
2.180707258910751
 20
0.5905539810252628
 30
0.0
 41
1.0
  0
SPLINE
  5
3D
330
1F
100
AcDbEntity
  8
MAKE2D VISIBLE LINES
100
AcDbSpline
210
0.0
220
0.0
230
1.0
 70
    24
 71
     2
 72
     6
 73
     3
 74
     0
 42
0.0000000001
 43
0.0000000001
 40
0.0
 40
0.0
 40
0.0
 40
0.5905511811023629
 40
0.5905511811023629
 40
0.5905511811023629
 10
3.53331903763101
 20
0.590551181102363
 30
0.0
 10
3.53331903763101
 20
0.2952755905511816
 30
0.0
 10
3.53331903763101
 20
0.0000000000000001
 30
0.0
  0
SPLINE
  5
3E
330
1F
100
AcDbEntity
  8
MAKE2D VISIBLE LINES
100
AcDbSpline
210
0.0
220
0.0
230
1.0
 70
    12
 71
     3
 72
   108
 73
   104
 74
     0
 42
0.0000000001
 43
0.0000000001
 40
0.0
 40
0.0
 40
0.0
 40
0.0
 40
0.0000064337618824
 40
0.0000064337618824
 40
0.0000064337618824
 40
23.08310467950173
 40
23.08310467950173
 40
23.08310467950173
 40
23.09083399521816
 40
23.09083399521816
 40
23.09083399521816
 40
23.11112293168767
 40
23.11112293168767
 40
23.11112293168767
 40
23.12851051187802
 40
23.12851051187802
 40
23.12851051187802
 40
23.15240162170966
 40
23.15240162170966
 40
23.15240162170966
 40
23.22587828195148
 40
23.22587828195148
 40
23.22587828195148
 40
23.34628875009599
 40
23.34628875009599
 40
23.34628875009599
 40
23.42985472302229
 40
23.42985472302229
 40
23.42985472302229
 40
23.532641968055
 40
23.532641968055
 40
23.532641968055
 40
23.80769401721776
 40
23.80769401721776
 40
23.80769401721776
 40
23.98562185298037
 40
23.98562185298037
 40
23.98562185298037
 40
24.19361599154374
 40
24.19361599154374
 40
24.19361599154374
 40
24.43303734668288
 40
24.43303734668288
 40
24.43303734668288
 40
24.70436677922788
 40
24.70436677922788
 40
24.70436677922788
 40
25.00692030523035
 40
25.00692030523035
 40
25.00692030523035
 40
25.33871051530701
 40
25.33871051530701
 40
25.33871051530701
 40
25.69645828007282
 40
25.69645828007282
 40
25.69645828007282
 40
26.07614593532796
 40
26.07614593532796
 40
26.07614593532796
 40
26.88553073776943
 40
26.88553073776943
 40
26.88553073776943
 40
27.74085978075684
 40
27.74085978075684
 40
27.74085978075684
 40
39.04181475420705
 40
39.04181475420705
 40
39.04181475420705
 40
44.29413631795683
 40
46.58870111825695
 40
49.97787888478683
 40
52.73952587566691
 40
55.21549485181686
 40
63.433021683167
 40
117.7353628060869
 40
202.471798821887
 40
202.471798821887
 40
202.471798821887
 40
354.4530144621989
 40
354.4530144621989
 40
354.4530144621989
 40
506.4331672081109
 40
506.4331672081109
 40
506.4331672081109
 40
658.412310082275
 40
658.412310082275
 40
658.412310082275
 40
810.390672382126
 40
810.390672382126
 40
810.390672382126
 40
822.3478649719623
 40
822.3478649719623
 40
822.3478649719623
 40
898.3132381653281
 40
898.3132381653281
 40
898.3132381653281
 40
936.301364304931
 40
936.301364304931
 40
936.301364304931
 40
955.3011038466963
 40
955.3011038466963
 40
955.3011038466963
 40
974.3141915839224
 40
974.3141915839224
 40
974.3141915839224
 40
974.3141915839224
 10
2.182551174341931
 20
0.590551181370472
 30
0.0
 41
1.0
 10
2.182549029754611
 20
0.5905511813707361
 30
0.0
 41
1.0
 10
2.182546885167362
 20
0.5905511813710196
 30
0.0
 41
1.0
 10
2.182544740580056
 20
0.5905511813713215
 30
0.0
 41
1.0
 10
2.182451012122861
 20
0.5905511813846281
 30
0.0
 41
1.0
 10
2.182664287776142
 20
0.5905511813979915
 30
0.0
 41
1.0
 10
2.183894476311636
 20
0.59055118141148
 30
0.0
 41
1.0
 10
2.186470914883806
 20
0.5905511814857516
 30
0.0
 41
1.0
 10
2.189047353455893
 20
0.5905511815079777
 30
0.0
 41
0.9999999999999998
 10
2.191623792028061
 20
0.5905511815302046
 30
0.0
 41
1.0
 10
2.198386770851253
 20
0.5905511807846704
 30
0.0
 41
0.9999999999999998
 10
2.205149749674391
 20
0.5905511808043078
 30
0.0
 41
1.0
 10
2.211912728497573
 20
0.5905511808239458
 30
0.0
 41
1.0
 10
2.217708588561017
 20
0.5905511826360816
 30
0.0
 41
1.0
 10
2.223504448624463
 20
0.5905511826444854
 30
0.0
 41
0.9999999999999998
 10
2.229300308687911
 20
0.5905511826528891
 30
0.0
 41
1.0
 10
2.237264011965146
 20
0.5905511826362039
 30
0.0
 41
0.9999999999999999
 10
2.245227715242336
 20
0.5905511826447316
 30
0.0
 41
1.0
 10
2.253191418519556
 20
0.5905511826532577
 30
0.0
 41
1.0
 10
2.277683638600131
 20
0.5905511677460625
 30
0.0
 41
1.0
 10
2.302175858680793
 20
0.5905511677656078
 30
0.0
 41
0.9999999999999998
 10
2.326668078761386
 20
0.5905511677851536
 30
0.0
 41
1.0
 10
2.366804901476245
 20
0.5905511379449557
 30
0.0
 41
0.9999999999999998
 10
2.406941724191036
 20
0.5905511379657159
 30
0.0
 41
1.0
 10
2.447078546905892
 20
0.5905511379864776
 30
0.0
 41
1.0
 10
2.474933871214667
 20
0.5905511379345315
 30
0.0
 41
1.0
 10
2.502789195523429
 20
0.5905511379448682
 30
0.0
 41
0.9999999999999998
 10
2.530644519832187
 20
0.5905511379552054
 30
0.0
 41
1.0
 10
2.56490693484308
 20
0.590551376353725
 30
0.0
 41
1.0
 10
2.599169349854002
 20
0.5905513763646765
 30
0.0
 41
1.0
 10
2.633431764864902
 20
0.5905513763756282
 30
0.0
 41
1.0
 10
2.725115781252526
 20
0.5905513763681352
 30
0.0
 41
1.0
 10
2.816799797640044
 20
0.5905513763934964
 30
0.0
 41
1.0
 10
2.908483814027655
 20
0.5905513764188582
 30
0.0
 41
1.0
 10
2.967793092615175
 20
0.5905513763559921
 30
0.0
 41
1.0
 10
3.027102371202766
 20
0.5905513763692102
 30
0.0
 41
1.0
 10
3.086411649790271
 20
0.590551376382429
 30
0.0
 41
1.0
 10
3.155743029311381
 20
0.5905513763568273
 30
0.0
 41
1.0
 10
3.225074408832529
 20
0.590551376370882
 30
0.0
 41
0.9999999999999998
 10
3.294405788353636
 20
0.5905513763849359
 30
0.0
 41
1.0
 10
3.374212906733383
 20
0.5905494690090246
 30
0.0
 41
1.0
 10
3.454020025113048
 20
0.5905494690239083
 30
0.0
 41
0.9999999999999998
 10
3.533827143492786
 20
0.5905494690387921
 30
0.0
 41
1.0
 10
3.624270287674416
 20
0.5905494690098317
 30
0.0
 41
0.9999999999999998
 10
3.71471343185614
 20
0.590549469025523
 30
0.0
 41
1.0
 10
3.805156576037781
 20
0.5905494690412143
 30
0.0
 41
1.0
 10
3.906007751371945
 20
0.5905532837078559
 30
0.0
 41
1.0
 10
4.006858926706097
 20
0.590553283724305
 30
0.0
 41
0.9999999999999998
 10
4.107710102040251
 20
0.5905532837407547
 30
0.0
 41
1.0
 10
4.218306838732455
 20
0.5905532837085338
 30
0.0
 41
0.9999999999999998
 10
4.328903575424711
 20
0.5905532837256598
 30
0.0
 41
1.0
 10
4.439500312116913
 20
0.5905532837427876
 30
0.0
 41
1.0
 10
4.558749567038866
 20
0.5905456543145661
 30
0.0
 41
1.0
 10
4.677998821960766
 20
0.5905456543322558
 30
0.0
 41
0.9999999999999998
 10
4.797248076882717
 20
0.590545654349947
 30
0.0
 41
1.0
 10
4.923810628634456
 20
0.590545654315003
 30
0.0
 41
1.0
 10
5.050373180386124
 20
0.5905456543331306
 30
0.0
 41
1.0
 10
5.176935732137856
 20
0.5905456543512586
 30
0.0
 41
1.0
 10
5.446730666285013
 20
0.590545654334378
 30
0.0
 41
1.0
 10
5.716525600432171
 20
0.5905456543718806
 30
0.0
 41
1.0
 10
5.98632053457932
 20
0.5905456544093837
 30
0.0
 41
1.0
 10
6.271430215575145
 20
0.5905761719130757
 30
0.0
 41
0.9999999999999999
 10
6.556539896570925
 20
0.5905761719511514
 30
0.0
 41
1.0
 10
6.841649577566734
 20
0.5905761719892272
 30
0.0
 41
1.0
 10
6.988045917791702
 20
0.5905511823809316
 30
0.0
 41
1.0
 10
7.134709688631091
 20
0.5905511824000195
 30
0.0
 41
1.0
 10
7.28149662920255
 20
0.5905511824190838
 30
0.0
 41
1.0
 10
7.349718965359266
 20
0.5905511824279442
 30
0.0
 41
1.0
 10
7.447785186504852
 20
0.5905511824406683
 30
0.0
 41
1.0
 10
7.589937825240376
 20
0.5905511824590975
 30
0.0
 41
1.0
 10
7.699735255154046
 20
0.5905511824733255
 30
0.0
 41
1.0
 10
7.81189789165699
 20
0.5905511824878599
 30
0.0
 41
1.0
 10
7.986843531793532
 20
0.5905511825105226
 30
0.0
 41
1.0
 10
8.83199764701127
 20
0.5905511826199924
 30
0.0
 41
1.0
 10
10.74771272369608
 20
0.5905511828678288
 30
0.0
 41
1.0
 10
12.55834695408004
 20
0.5905511831014366
 30
0.0
 41
1.0
 10
13.66244721932405
 20
0.5905511832436582
 30
0.0
 41
1.0
 10
15.64273427955489
 20
0.5905511834987437
 30
0.0
 41
1.0
 10
17.62501705411924
 20
0.5905511837533431
 30
0.0
 41
1.0
 10
19.60899373282766
 20
0.5905511840074286
 30
0.0
 41
1.0
 10
21.59295665541028
 20
0.5905511842615122
 30
0.0
 41
1.0
 10
23.57861448629846
 20
0.5905511845150814
 30
0.0
 41
1.0
 10
25.56568818345712
 20
0.5905511847681048
 30
0.0
 41
1.0
 10
27.55274865509897
 20
0.5905511850211264
 30
0.0
 41
1.0
 10
29.54122545379633
 20
0.5905511852736022
 30
0.0
 41
1.0
 10
31.5308548974374
 20
0.590551185525494
 30
0.0
 41
1.0
 10
33.5204737555695
 20
0.5905511857773845
 30
0.0
 41
1.0
 10
35.51124578518352
 20
0.5905511860286919
 30
0.0
 41
1.0
 10
37.50291430828692
 20
0.5905511862793674
 30
0.0
 41
1.0
 10
41.48864517156571
 20
0.590820313001705
 30
0.0
 41
1.0
 10
45.47437603484444
 20
0.5908203135034104
 30
0.0
 41
0.9999999999999998
 10
49.46010689812321
 20
0.5908203140051154
 30
0.0
 41
1.0
 10
50.4568791718362
 20
0.5905511878989821
 30
0.0
 41
1.0
 10
51.45373455326353
 20
0.5905511880226672
 30
0.0
 41
1.0
 10
52.45062696744017
 20
0.5905511881461426
 30
0.0
 41
1.0
 10
52.94914456980191
 20
0.5905511882078892
 30
0.0
 41
1.0
 10
53.44767121233147
 20
0.5905511882695834
 30
0.0
 41
1.0
 10
53.94620090964441
 20
0.5905511883312294
 30
0.0
 41
1.0
 10
54.19554027362631
 20
0.5905511883620617
 30
0.0
 41
1.0
 10
54.44488038783686
 20
0.5905511883928821
 30
0.0
 41
1.0
 10
54.69422067587429
 20
0.5905511884236933
 30
0.0
 41
1.0
 10
54.94373615397875
 20
0.5905511884545261
 30
0.0
 41
1.0
 10
55.19325178158038
 20
0.5905511884853495
 30
0.0
 41
1.0
 10
55.44276736172397
 20
0.590551188516171
 30
0.0
 41
1.0
  0
SPLINE
  5
3F
330
1F
100
AcDbEntity
  8
MAKE2D VISIBLE LINES
100
AcDbSpline
210
0.0
220
0.0
230
1.0
 70
    24
 71
     2
 72
     6
 73
     3
 74
     0
 42
0.0000000001
 43
0.0000000001
 40
0.0
 40
0.0
 40
0.0
 40
21.02306635794937
 40
21.02306635794937
 40
21.02306635794937
 10
55.44278104712082
 20
16.71249169844436
 30
0.0
 10
55.44278104712406
 20
27.22402487741904
 30
0.0
 10
55.44278104712729
 20
37.73555805639373
 30
0.0
  0
SPLINE
  5
40
330
1F
100
AcDbEntity
  8
MAKE2D VISIBLE LINES
100
AcDbSpline
210
0.0
220
0.0
230
1.0
 70
     8
 71
     3
 72
    11
 73
     7
 74
     0
 42
0.0000000001
 43
0.0000000001
 40
0.0
 40
0.0
 40
0.0
 40
0.0
 40
7.866881032137004
 40
24.87817249877002
 40
31.73690500512295
 40
47.99064458130206
 40
47.99064458130206
 40
47.99064458130206
 40
47.99064458130206
 10
55.44278104711972
 20
16.71308850638097
 30
0.0
 10
52.82048590748376
 20
16.71336693688163
 30
0.0
 10
44.52777597709144
 20
16.73114119577662
 30
0.0
 10
33.94893758191932
 20
16.78799984835543
 30
0.0
 10
20.57436423176122
 20
16.81146744184578
 30
0.0
 10
12.87017304706384
 20
16.77740167413852
 30
0.0
 10
7.452621428467474
 20
16.71308850638087
 30
0.0
  0
SPLINE
  5
41
330
1F
100
AcDbEntity
  8
MAKE2D VISIBLE LINES
100
AcDbSpline
210
0.0
220
0.0
230
1.0
 70
    24
 71
     2
 72
     6
 73
     3
 74
     0
 42
0.0000000001
 43
0.0000000001
 40
0.0
 40
0.0
 40
0.0
 40
0.5905511811023629
 40
0.5905511811023629
 40
0.5905511811023629
 10
54.65537947231653
 20
0.0000000000000001
 30
0.0
 10
54.65537947231653
 20
0.2952755905511816
 30
0.0
 10
54.65537947231653
 20
0.590551181102363
 30
0.0
  0
SPLINE
  5
42
330
1F
100
AcDbEntity
  8
MAKE2D VISIBLE LINES
100
AcDbSpline
210
0.0
220
0.0
230
1.0
 70
    24
 71
     2
 72
     6
 73
     3
 74
     0
 42
0.0000000001
 43
0.0000000001
 40
0.0
 40
0.0
 40
0.0
 40
47.99015961865219
 40
47.99015961865219
 40
47.99015961865219
 10
7.45262142846736
 20
15.33372076966488
 30
0.0
 10
31.44770123779345
 20
15.33372077337182
 30
0.0
 10
55.44278104711955
 20
15.33372077707876
 30
0.0
  0
LINE
  5
43
330
1F
100
AcDbEntity
  8
MAKE2D VISIBLE LINES
100
AcDbLine
 10
50.13361515174966
 20
0.0000000000000001
 30
0.0
 11
54.65469773601904
 21
0.0000000000000001
 31
0.0
  0
SPLINE
  5
44
330
1F
100
AcDbEntity
  8
MAKE2D VISIBLE LINES
100
AcDbSpline
210
0.0
220
0.0
230
1.0
 70
     8
 71
     3
 72
    19
 73
    15
 74
     0
 42
0.0000000001
 43
0.0000000001
 40
0.0
 40
0.0
 40
0.0
 40
0.0
 40
0.6061900061870487
 40
1.20468264704618
 40
1.816679337987149
 40
2.432012225665281
 40
2.697199409937116
 40
2.972924693333689
 40
3.049926476643417
 40
3.138121125685099
 40
3.248448114604861
 40
3.358536963611582
 40
3.579478876089161
 40
7.473803455867619
 40
7.473803455867619
 40
7.473803455867619
 40
7.473803455867619
 10
1.034976498040216
 20
35.86731841766543
 30
0.0
 10
1.041677703012013
 20
36.06925061528059
 30
0.0
 10
1.119981591186381
 20
36.46840816671766
 30
0.0
 10
1.418879426949303
 20
37.0034823295037
 30
0.0
 10
1.870220196450816
 20
37.42302791759992
 30
0.0
 10
2.326324871169525
 20
37.63607772623043
 30
0.0
 10
2.703529603279286
 20
37.71954617222851
 30
0.0
 10
2.909283267733962
 20
37.73588266134352
 30
0.0
 10
3.056326333911144
 20
37.73512595906216
 30
0.0
 10
3.148132657628096
 20
37.73599138766443
 30
0.0
 10
3.251019022869876
 20
37.73545649726669
 30
0.0
 10
3.398133789915164
 20
37.73556139146378
 30
0.0
 10
4.806586542364201
 20
37.73555410579198
 30
0.0
 10
6.178341234100763
 20
37.73555982619391
 30
0.0
 10
7.47644969525291
 20
37.73555798068173
 30
0.0
  0
SPLINE
  5
46
330
1F
100
AcDbEntity
  8
DEFAULT
100
AcDbSpline
210
0.0
220
0.0
230
1.0
 70
     8
 71
     3
 72
     8
 73
     4
 74
     0
 42
0.0000000001
 43
0.0000000001
 40
0.0
 40
0.0
 40
0.0
 40
0.0
 40
1.0
 40
1.0
 40
1.0
 40
1.0
 10
0.3471419331620424
 20
15.24349114998341
 30
0.0
 10
0.3377155159635663
 20
14.96085225688109
 30
0.0
 10
0.325360636784545
 20
14.67667915028864
 30
0.0
 10
0.3517326125934659
 20
14.39511544501533
 30
0.0
  0
POLYLINE
  5
47
330
1F
100
AcDbEntity
  8
DEFAULT
100
AcDb2dPolyline
 66
     1
 10
0.0
 20
0.0
 30
0.0
  0
VERTEX
  5
48
330
47
100
AcDbEntity
  8
DEFAULT
100
AcDbVertex
100
AcDb2dVertex
 10
0.3471419331620424
 20
15.24349114998341
 30
0.0
  0
VERTEX
  5
49
330
47
100
AcDbEntity
  8
DEFAULT
100
AcDbVertex
100
AcDb2dVertex
 10
1.034976498040216
 20
35.86731841766543
 30
0.0
  0
SEQEND
  5
4A
330
47
100
AcDbEntity
  8
DEFAULT
  0
LINE
  5
4B
330
1F
100
AcDbEntity
  8
MAKE2D VISIBLE LINES
100
AcDbLine
 10
55.44278576607457
 20
0.5905511885221306
 30
0.0
 11
55.44278104711955
 21
15.33372077707876
 31
0.0
  0
SPLINE
  5
4C
330
1F
100
AcDbEntity
  8
MAKE2D VISIBLE LINES
100
AcDbSpline
210
0.0
220
0.0
230
1.0
 70
     8
 71
     3
 72
    20
 73
    16
 74
     0
 42
0.0000000001
 43
0.0000000001
 40
0.0
 40
0.0
 40
0.0
 40
0.0
 40
1.0
 40
2.0
 40
3.0
 40
4.0
 40
5.0
 40
6.0
 40
7.0
 40
8.0
 40
9.0
 40
10.0
 40
11.0
 40
12.0
 40
13.0
 40
13.0
 40
13.0
 40
13.0
 10
0.3444052764988967
 20
14.68384830224542
 30
0.0
 10
0.2808194997135303
 20
14.91281451051644
 30
0.0
 10
0.6826140699509011
 20
15.09338157528246
 30
0.0
 10
1.22413982899635
 20
15.16632756102473
 30
0.0
 10
1.792919520707436
 20
15.22395791486159
 30
0.0
 10
2.356815904269453
 20
15.25832512367734
 30
0.0
 10
2.922922500456522
 20
15.28348203393673
 30
0.0
 10
3.488845511254581
 20
15.30105717620516
 30
0.0
 10
4.055021728892171
 20
15.31357101885421
 30
0.0
 10
4.621236146392164
 20
15.32220311168665
 30
0.0
 10
5.187495675193446
 20
15.32787169918767
 30
0.0
 10
5.753769969156146
 20
15.33132698762673
 30
0.0
 10
6.320052402915493
 20
15.33309038391386
 30
0.0
 10
6.886336789511724
 20
15.33371097233005
 30
0.0
 10
7.263859910569366
 20
15.33372387384821
 30
0.0
 10
7.45262142846736
 20
15.33372076966488
 30
0.0
  0
LINE
  5
4D
330
1F
100
AcDbEntity
  8
MAKE2D VISIBLE LINES
100
AcDbLine
 10
55.44278381652028
 20
82.86250554190275
 30
0.0
 11
3.002417844556597
 21
82.86251008396735
 31
0.0
  0
POLYLINE
  5
4E
330
1F
100
AcDbEntity
  8
DEFAULT
100
AcDb2dPolyline
 66
     1
 10
0.0
 20
0.0
 30
0.0
  0
VERTEX
  5
4F
330
4E
100
AcDbEntity
  8
DEFAULT
100
AcDbVertex
100
AcDb2dVertex
 10
0.3517326125934659
 20
14.39511544501533
 30
0.0
  0
VERTEX
  5
50
330
4E
100
AcDbEntity
  8
DEFAULT
100
AcDbVertex
100
AcDb2dVertex
 10
1.594451701708905
 20
1.127069323616117
 30
0.0
  0
SEQEND
  5
51
330
4E
100
AcDbEntity
  8
DEFAULT
  0
SPLINE
  5
52
330
1F
100
AcDbEntity
  8
MAKE2D VISIBLE LINES
100
AcDbSpline
210
0.0
220
0.0
230
1.0
 70
     8
 71
     3
 72
    20
 73
    16
 74
     0
 42
0.0000000001
 43
0.0000000001
 40
0.0
 40
0.0
 40
0.0
 40
0.0
 40
1.0
 40
2.0
 40
3.0
 40
4.0
 40
5.0
 40
6.0
 40
7.0
 40
8.0
 40
9.0
 40
10.0
 40
11.0
 40
12.0
 40
13.0
 40
13.0
 40
13.0
 40
13.0
 10
7.4526213596369
 20
16.71308723359485
 30
0.0
 10
7.251434281616831
 20
16.71087808733534
 30
0.0
 10
6.849039795646114
 20
16.70571898396909
 30
0.0
 10
6.245814080511856
 20
16.68304456424577
 30
0.0
 10
5.643224544561185
 20
16.64745745962432
 30
0.0
 10
5.041570199678411
 20
16.59842591812719
 30
0.0
 10
4.441270651719563
 20
16.53491036144738
 30
0.0
 10
3.842803134977942
 20
16.45577365816538
 30
0.0
 10
3.247138494789311
 20
16.35785060601521
 30
0.0
 10
2.655211612621017
 20
16.23849056295476
 30
0.0
 10
2.07041002543005
 20
16.0894740315073
 30
0.0
 10
1.494508178976396
 20
15.90303610710963
 30
0.0
 10
0.9485443539606067
 20
15.65197835089929
 30
0.0
 10
0.4366391825691167
 20
15.29794491666152
 30
0.0
 10
0.3146392907692359
 20
14.88493237102
 30
0.0
 10
0.3439712418542058
 20
14.68383418495478
 30
0.0
  0
SPLINE
  5
53
330
1F
100
AcDbEntity
  8
MAKE2D VISIBLE LINES
100
AcDbSpline
210
0.0
220
0.0
230
1.0
 70
     8
 71
     3
 72
    21
 73
    17
 74
     0
 42
0.0000000001
 43
0.0000000001
 40
0.0
 40
0.0
 40
0.0
 40
0.0
 40
0.0692433332732656
 40
0.1692180309360712
 40
0.3021350036708763
 40
0.477589166099081
 40
0.9312884843041641
 40
1.488720456023021
 40
2.022379853796804
 40
2.187572383644987
 40
2.407988157629341
 40
2.628930065521109
 40
6.523254644945553
 40
6.523254644945553
 40
6.523254644945553
 40
54.48958599682337
 40
54.48958599682337
 40
54.48958599682337
 40
54.48958599682337
 10
1.034979267432604
 20
78.75636632836782
 30
0.0
 10
1.038941360790382
 20
78.7796262413705
 30
0.0
 10
1.073243390428431
 20
78.82657246837059
 30
0.0
 10
1.159223171603927
 20
78.8804419225761
 30
0.0
 10
1.285355380300956
 20
78.93215134123403
 30
0.0
 10
1.5301821747289
 20
79.00127781808072
 30
0.0
 10
1.9207798516926
 20
79.06670457595138
 30
0.0
 10
2.433985818992035
 20
79.11175445499364
 30
0.0
 10
2.85276580071956
 20
79.12315175461214
 30
0.0
 10
3.15917339152859
 20
79.12214830693006
 30
0.0
 10
3.361362047139345
 20
79.12237550933105
 30
0.0
 10
4.806587939848036
 20
79.12231489030154
 30
0.0
 10
6.178344694639627
 20
79.12236480229618
 30
0.0
 10
7.476452464645305
 20
79.12234803547591
 30
0.0
 10
23.46522958193675
 20
79.12235408731651
 30
0.0
 10
39.45400669922822
 20
79.12236013915712
 30
0.0
 10
55.44278381651967
 20
79.12236619099772
 30
0.0
  0
SPLINE
  5
54
330
1F
100
AcDbEntity
  8
MAKE2D VISIBLE LINES
100
AcDbSpline
210
0.0
220
0.0
230
1.0
 70
    12
 71
     3
 72
    39
 73
    35
 74
     0
 42
0.0000000001
 43
0.0000000001
 40
-4.105444736992813
 40
-4.105444736992813
 40
-4.105444736992813
 40
-4.105444736992813
 40
-0.0000000000000004
 40
-0.0000000000000004
 40
-0.0000000000000004
 40
3.380933822934134
 40
4.247693069037963
 40
5.46652215388116
 40
7.660574065535271
 40
9.589715693783157
 40
11.15035824913802
 40
11.15035824913802
 40
11.15035824913802
 40
11.82569342489298
 40
12.46203133859142
 40
13.63248422141987
 40
14.73175544650153
 40
15.8480774433018
 40
15.8480774433018
 40
15.8480774433018
 40
16.26199096478646
 40
16.6986871816958
 40
17.63922174247054
 40
18.70273827649959
 40
20.10281938346404
 40
20.10281938346404
 40
20.10281938346404
 40
26.12067785687436
 40
32.13859052052281
 40
44.47515515842053
 40
56.51091510545771
 40
62.37836859993075
 40
65.23690048045029
 40
68.24580758821523
 40
68.24580758821523
 40
68.24580758821523
 40
68.24580758821523
 10
0.3517353819851508
 20
73.1671627477333
 30
0.0
 41
1.0
 10
0.3504199124898833
 20
71.79868179646652
 30
0.0
 41
0.9999999933871142
 10
0.3489116927829936
 20
70.43020104405774
 30
0.0
 41
0.9999999933871142
 10
0.3472107228943955
 20
69.06172051765576
 30
0.0
 41
1.0
 10
0.3458099364743603
 20
67.93474645864023
 30
0.0
 41
1.0
 10
0.343023007623465
 20
66.51884264845788
 30
0.0
 41
1.0
 10
0.3401219181095101
 20
64.69668302247607
 30
0.0
 41
1.0
 10
0.340558903205384
 20
63.27011946125743
 30
0.0
 41
1.0
 10
0.3624025370654067
 20
61.48946706842275
 30
0.0
 41
1.0
 10
0.482779193931222
 20
59.59738435417751
 30
0.0
 41
1.0
 10
0.6671397122461116
 20
58.44701447236677
 30
0.0
 41
1.0
 10
0.7874861813548009
 20
57.9407565026144
 30
0.0
 41
1.0
 10
0.8395970527490135
 20
57.72188980092138
 30
0.0
 41
1.0
 10
0.9550351543065858
 20
57.29948466245823
 30
0.0
 41
1.0
 10
1.237391673571786
 20
56.52162045405324
 30
0.0
 41
1.0
 10
1.691585041791036
 20
55.65964093515232
 30
0.0
 41
1.0
 10
2.437217189057201
 20
54.80166772586868
 30
0.0
 41
1.0
 10
3.044818474355822
 20
54.37269400789636
 30
0.0
 41
1.0
 10
3.368943548711911
 20
54.19039822586544
 30
0.0
 41
1.0
 10
3.489200510099487
 20
54.1227106091602
 30
0.0
 41
1.0
 10
3.741421350023757
 20
53.99294611213094
 30
0.0
 41
1.0
 10
4.290251645840222
 20
53.75672791786702
 30
0.0
 41
1.0
 10
5.06643772524545
 20
53.50864321325464
 30
0.0
 41
1.0
 10
6.176889157286546
 20
53.27072824582053
 30
0.0
 41
1.0
 10
6.990323791211196
 20
53.15579752107097
 30
0.0
 41
1.0
 10
7.452624197859755
 20
53.09223329751074
 30
0.0
 41
1.0
 10
9.439789810726253
 20
52.81829863689267
 30
0.0
 41
1.0
 10
13.4188238356137
 20
52.30460574151709
 30
0.0
 41
1.0
 10
21.49277633910541
 20
51.40047282655546
 30
0.0
 41
1.0
 10
31.58669126080956
 20
50.52853619358827
 30
0.0
 41
1.0
 10
41.65411563994117
 20
49.99827504106847
 30
0.0
 41
1.0
 10
48.57261142357764
 20
49.81638738909623
 30
0.0
 41
1.0
 10
52.48398745500183
 20
49.76834247459742
 30
0.0
 41
1.0
 10
54.43981711370586
 20
49.76336816074306
 30
0.0
 41
1.0
 10
55.44278381651189
 20
49.76388635191748
 30
0.0
 41
1.0
  0
POLYLINE
  5
55
330
1F
100
AcDbEntity
  8
DEFAULT
100
AcDb2dPolyline
 66
     1
 10
0.0
 20
0.0
 30
0.0
  0
VERTEX
  5
56
330
55
100
AcDbEntity
  8
DEFAULT
100
AcDbVertex
100
AcDb2dVertex
 10
1.034979265371796
 20
82.49652379667214
 30
0.0
  0
VERTEX
  5
57
330
55
100
AcDbEntity
  8
DEFAULT
100
AcDbVertex
100
AcDb2dVertex
 10
0.3449154710578455
 20
78.40580230367678
 30
0.0
  0
SEQEND
  5
58
330
55
100
AcDbEntity
  8
DEFAULT
  0
SPLINE
  5
59
330
1F
100
AcDbEntity
  8
MAKE2D VISIBLE LINES
100
AcDbSpline
210
0.0
220
0.0
230
1.0
 70
    12
 71
     3
 72
    10
 73
     6
 74
     0
 42
0.0000000001
 43
0.0000000001
 40
-991.805024956769
 40
-991.805024956769
 40
-991.805024956769
 40
-991.805024956769
 40
-953.4173034664603
 40
-953.4173034664603
 40
-914.932790972298
 40
-914.932790972298
 40
-914.932790972298
 40
-914.932790972298
 10
3.002417844556263
 20
82.86250620677203
 30
0.0
 41
1.0
 10
2.502031748252421
 20
82.86250592215907
 30
0.0
 41
1.0
 10
2.008861511682547
 20
82.8268768286568
 30
0.0
 41
1.0
 10
1.265688492780747
 20
82.68949890469398
 30
0.0
 41
1.0
 10
1.051684027092726
 20
82.59409477960028
 30
0.0
 41
1.0
 10
1.034979265371796
 20
82.49652379667214
 30
0.0
 41
1.0
  0
SPLINE
  5
5A
330
1F
100
AcDbEntity
  8
MAKE2D VISIBLE LINES
100
AcDbSpline
210
0.0
220
0.0
230
1.0
 70
    24
 71
     2
 72
     6
 73
     3
 74
     0
 42
0.0000000001
 43
0.0000000001
 40
0.0
 40
0.0
 40
0.0
 40
3.719302602671661
 40
3.719302602671661
 40
3.719302602671661
 10
0.3449154710578455
 20
78.40580230367678
 30
0.0
 10
0.3449154710578455
 20
76.54615100234095
 30
0.0
 10
0.3449154710578455
 20
74.68649970100512
 30
0.0
  0
SPLINE
  5
5B
330
1F
100
AcDbEntity
  8
MAKE2D VISIBLE LINES
100
AcDbSpline
210
0.0
220
0.0
230
1.0
 70
    24
 71
     2
 72
     6
 73
     3
 74
     0
 42
0.0000000001
 43
0.0000000001
 40
0.0
 40
0.0
 40
0.0
 40
47.96633135187437
 40
47.96633135187437
 40
47.96633135187437
 10
7.47644969525291
 20
37.73555798068173
 30
0.0
 10
31.4596153711901
 20
37.73555801853773
 30
0.0
 10
55.44278104712729
 20
37.73555805639373
 30
0.0
  0
SPLINE
  5
5C
330
1F
100
AcDbEntity
  8
MAKE2D VISIBLE LINES
100
AcDbSpline
210
0.0
220
0.0
230
1.0
 70
    24
 71
     2
 72
     6
 73
     3
 74
     0
 42
0.0000000001
 43
0.0000000001
 40
0.0
 40
0.0
 40
0.0
 40
1.378770922160294
 40
1.378770922160294
 40
1.378770922160294
 10
55.44278104711955
 20
15.33372077707876
 30
0.0
 10
55.44278104711686
 20
16.02310623815891
 30
0.0
 10
55.44278104711417
 20
16.71249169923906
 30
0.0
  0
POLYLINE
  5
5D
330
1F
100
AcDbEntity
  8
MAKE2D VISIBLE LINES
100
AcDb2dPolyline
 66
     1
 10
0.0
 20
0.0
 30
0.0
  0
VERTEX
  5
5E
330
5D
100
AcDbEntity
  8
MAKE2D VISIBLE LINES
100
AcDbVertex
100
AcDb2dVertex
 10
8.055083358197827
 20
0.0000000000000151
 30
0.0
  0
VERTEX
  5
5F
330
5D
100
AcDbEntity
  8
MAKE2D VISIBLE LINES
100
AcDbVertex
100
AcDb2dVertex
 10
3.534000780348457
 20
0.0000000000000001
 30
0.0
  0
VERTEX
  5
60
330
5D
100
AcDbEntity
  8
MAKE2D VISIBLE LINES
100
AcDbVertex
100
AcDb2dVertex
 10
7.882114827389323
 20
0.0000000000000001
 30
0.0
  0
SEQEND
  5
61
330
5D
100
AcDbEntity
  8
MAKE2D VISIBLE LINES
  0
SPLINE
  5
62
330
1F
100
AcDbEntity
  8
MAKE2D VISIBLE LINES
100
AcDbSpline
210
0.0
220
0.0
230
1.0
 70
    24
 71
     2
 72
     6
 73
     3
 74
     0
 42
0.0000000001
 43
0.0000000001
 40
0.0
 40
0.0
 40
0.0
 40
0.5905511811023629
 40
0.5905511811023629
 40
0.5905511811023629
 10
50.13361515174969
 20
0.590551181102363
 30
0.0
 10
50.13361515174969
 20
0.2952755905511816
 30
0.0
 10
50.13361515174969
 20
0.0000000000000001
 30
0.0
  0
SPLINE
  5
63
330
1F
100
AcDbEntity
  8
MAKE2D VISIBLE LINES
100
AcDbSpline
210
0.0
220
0.0
230
1.0
 70
     8
 71
     3
 72
    23
 73
    19
 74
     0
 42
0.0000000001
 43
0.0000000001
 40
0.0
 40
0.0
 40
0.0
 40
0.0
 40
1.0
 40
2.0
 40
3.0
 40
4.0
 40
5.0
 40
6.0
 40
7.0
 40
8.0
 40
9.0
 40
10.0
 40
11.0
 40
12.0
 40
13.0
 40
13.0
 40
13.0
 40
60.96633135186747
 40
60.96633135186747
 40
60.96633135186747
 40
60.96633135186747
 10
0.4371606963856252
 20
74.42541930986775
 30
0.0
 10
0.6028050547758355
 20
74.30175100275113
 30
0.0
 10
0.8324668437571106
 20
73.95543879256695
 30
0.0
 10
1.198661907456504
 20
73.4600297020892
 30
0.0
 10
1.627381032981816
 20
73.01330292902529
 30
0.0
 10
2.117471977196963
 20
72.63593970929148
 30
0.0
 10
2.652991221146266
 20
72.32702481478827
 30
0.0
 10
3.219693504188847
 20
72.08082466755403
 30
0.0
 10
3.806851931287753
 20
71.88930153701094
 30
0.0
 10
4.406851891155171
 20
71.74365514747666
 30
0.0
 10
5.014814712425476
 20
71.63668438669868
 30
0.0
 10
5.627451928056395
 20
71.56159403639904
 30
0.0
 10
6.242766376413336
 20
71.51374119946536
 30
0.0
 10
6.859383702826996
 20
71.48851950776645
 30
0.0
 10
7.270772551675542
 20
71.48457064445233
 30
0.0
 10
7.476452464645291
 20
71.48526568455989
 30
0.0
 10
23.46522958193444
 20
71.48527792661385
 30
0.0
 10
39.4540066992236
 20
71.48529016866779
 30
0.0
 10
55.44278381651276
 20
71.48530241072174
 30
0.0
  0
SPLINE
  5
64
330
1F
100
AcDbEntity
  8
MAKE2D VISIBLE LINES
100
AcDbSpline
210
0.0
220
0.0
230
1.0
 70
     8
 71
     3
 72
    17
 73
    13
 74
     0
 42
0.0000000001
 43
0.0000000001
 40
0.0
 40
0.0
 40
0.0
 40
0.0
 40
0.0209322633752947
 40
0.039872327058009
 40
0.073079079401071
 40
0.1481674554661329
 40
0.1481674554661329
 40
0.1481674554661329
 40
0.2139344235295434
 40
0.3061416993363375
 40
0.5566237861801473
 40
1.235348994949061
 40
1.235348994949061
 40
1.235348994949061
 40
1.235348994949061
 10
0.5211903315307467
 20
74.35982520133555
 30
0.0
 10
0.5150398010854005
 20
74.35663706873657
 30
0.0
 10
0.5033567330160906
 20
74.3499986617195
 30
0.0
 10
0.4832509720465268
 20
74.33655758209466
 30
0.0
 10
0.4514343200362134
 20
74.30751784420747
 30
0.0
 10
0.4378031225306955
 20
74.27279983991261
 30
0.0
 10
0.4300068001776438
 20
74.24929332545673
 30
0.0
 10
0.4232891963740144
 20
74.22841013700574
 30
0.0
 10
0.4112713245390509
 20
74.17709226839446
 30
0.0
 10
0.3902355087540599
 20
74.04249828261982
 30
0.0
 10
0.3599815437127063
 20
73.7032305965565
 30
0.0
 10
0.3525663838378108
 20
73.39337596240358
 30
0.0
 10
0.35173538198584
 20
73.16716274754617
 30
0.0
  0
SPLINE
  5
65
330
1F
100
AcDbEntity
  8
MAKE2D VISIBLE LINES
100
AcDbSpline
210
0.0
220
0.0
230
1.0
 70
     8
 71
     3
 72
     9
 73
     5
 74
     0
 42
0.0000000001
 43
0.0000000001
 40
0.0
 40
0.0
 40
0.0
 40
0.0
 40
3.893849246533472
 40
4.038503357546547
 40
4.038503357546547
 40
4.038503357546547
 40
4.038503357546547
 10
1.034979267432604
 20
78.75636632836782
 30
0.0
 10
0.8158869262790844
 20
77.47704112788216
 30
0.0
 10
0.5889104665866398
 20
76.1501474947429
 30
0.0
 10
0.36151180897253
 20
74.82332391058569
 30
0.0
 10
0.3541362971581208
 20
74.77567282806879
 30
0.0
  0
SPLINE
  5
66
330
1F
100
AcDbEntity
  8
MAKE2D VISIBLE LINES
100
AcDbSpline
210
0.0
220
0.0
230
1.0
 70
    12
 71
     3
 72
    23
 73
    19
 74
     0
 42
0.0000000001
 43
0.0000000001
 40
0.0
 40
0.0
 40
0.0
 40
0.0
 40
1.0
 40
2.0
 40
3.0
 40
4.0
 40
5.0
 40
6.0
 40
7.0
 40
8.0
 40
9.0
 40
10.0
 40
11.0
 40
12.0
 40
13.0
 40
13.0
 40
13.0
 40
13.07523418295382
 40
13.07523418295382
 40
13.07523418295382
 40
13.07523418295382
 10
0.4630391899134665
 20
74.31596281382872
 30
0.0
 41
1.0
 10
0.4584740372828762
 20
74.32543895338392
 30
0.0
 41
1.0
 10
0.4493390292031663
 20
74.34438943224484
 30
0.0
 41
1.0
 10
0.4356454164577457
 20
74.37281772977758
 30
0.0
 41
1.0
 10
0.4219070513213552
 20
74.40122991780032
 30
0.0
 41
1.0
 10
0.4069879551968256
 20
74.4290358352317
 30
0.0
 41
1.0
 10
0.3925652610023604
 20
74.45712311094502
 30
0.0
 41
1.0
 10
0.3741888060925618
 20
74.48298235232369
 30
0.0
 41
1.0
 10
0.3628219060049531
 20
74.5126235743947
 30
0.0
 41
1.0
 10
0.3562194200000803
 20
74.54354411952193
 30
0.0
 41
1.0
 10
0.3529410708867005
 20
74.57493731957837
 30
0.0
 41
1.0
 10
0.3487225772551668
 20
74.60621932894483
 30
0.0
 41
1.0
 10
0.3468566820636667
 20
74.63773711182552
 30
0.0
 41
1.0
 10
0.3459992152351461
 20
74.66928300759736
 30
0.0
 41
1.0
 10
0.3464167914452645
 20
74.69032341911472
 30
0.0
 41
1.0
 10
0.3468455223149718
 20
74.70083272636478
 30
0.0
 41
1.0
 10
0.347868281467173
 20
74.72590320981415
 30
0.0
 41
0.9989422577666393
 10
0.3503011130569513
 20
74.75087632550134
 30
0.0
 41
0.9989422577666393
 10
0.354136297158135
 20
74.77567282806878
 30
0.0
 41
1.0
  0
LINE
  5
67
330
1F
100
AcDbEntity
  8
MAKE2D VISIBLE LINES
100
AcDbLine
 10
55.44278381651193
 20
49.76388635191748
 30
0.0
 11
55.44278381648858
 21
82.86250554190286
 31
0.0
  0
SPLINE
  5
68
330
1F
100
AcDbEntity
  8
MAKE2D VISIBLE LINES
100
AcDbSpline
210
0.0
220
0.0
230
1.0
 70
    24
 71
     2
 72
     6
 73
     3
 74
     0
 42
0.0000000001
 43
0.0000000001
 40
0.0
 40
0.0
 40
0.0
 40
0.5905511811023629
 40
0.5905511811023629
 40
0.5905511811023629
 10
8.055083358197827
 20
0.0000000000000001
 30
0.0
 10
8.055083358197827
 20
0.2952755905511816
 30
0.0
 10
8.055083358197827
 20
0.590551181102363
 30
0.0
  0
POLYLINE
  5
69
330
1F
100
AcDbEntity
  8
DEFAULT
100
AcDb2dPolyline
 66
     1
 10
0.0
 20
0.0
 30
0.0
  0
VERTEX
  5
6A
330
69
100
AcDbEntity
  8
DEFAULT
100
AcDbVertex
100
AcDb2dVertex
 10
69.03480260743663
 20
37.82790956976678
 30
0.0
  0
VERTEX
  5
6B
330
69
100
AcDbEntity
  8
DEFAULT
100
AcDbVertex
100
AcDb2dVertex
 10
76.31124799885623
 20
0.6829027701875974
 30
0.0
  0
SEQEND
  5
6C
330
69
100
AcDbEntity
  8
DEFAULT
  0
LINE
  5
6D
330
1F
100
AcDbEntity
  8
DEFAULT
100
AcDbLine
 10
65.3088178453228
 20
37.73555798068166
 30
0.0
 11
72.58539770675364
 21
0.5905511811023871
 31
0.0
  0
SPLINE
  5
6E
330
1F
100
AcDbEntity
  8
MAKE2D VISIBLE LINES
100
AcDbSpline
210
0.0
220
0.0
230
1.0
 70
    24
 71
     2
 72
     6
 73
     3
 74
     0
 42
0.0000000001
 43
0.0000000001
 40
0.0
 40
0.0
 40
0.0
 40
13.732845370739
 40
13.732845370739
 40
13.732845370739
 10
73.68544631670528
 20
14.06725330435216
 30
0.0
 10
75.00544081080572
 20
7.328902242727258
 30
0.0
 10
76.32543530490616
 20
0.5905511811023582
 30
0.0
  0
LINE
  5
6F
330
1F
100
AcDbEntity
  8
MAKE2D VISIBLE LINES
100
AcDbLine
 10
95.31229466168375
 20
0.5905511811022114
 30
0.0
 11
71.01059385595593
 21
0.5905511811023992
 31
0.0
  0
LINE
  5
70
330
1F
100
AcDbEntity
  8
MAKE2D VISIBLE LINES
100
AcDbLine
 10
90.00312876630949
 20
0.0000000000000001
 30
0.0
 11
94.5248930868762
 21
0.0000000000000001
 31
0.0
  0
LINE
  5
71
330
1F
100
AcDbEntity
  8
MAKE2D VISIBLE LINES
100
AcDbLine
 10
76.31968749601833
 20
0.0000000000000001
 30
0.0
 11
71.79792317545159
 21
0.0000000000000001
 31
0.0
  0
SPLINE
  5
72
330
1F
100
AcDbEntity
  8
MAKE2D VISIBLE LINES
100
AcDbSpline
210
0.0
220
0.0
230
1.0
 70
     8
 71
     3
 72
    20
 73
    16
 74
     0
 42
0.0000000001
 43
0.0000000001
 40
0.0
 40
0.0
 40
0.0
 40
0.0
 40
1.0
 40
2.0
 40
3.0
 40
4.0
 40
5.0
 40
6.0
 40
7.0
 40
8.0
 40
9.0
 40
10.0
 40
11.0
 40
12.0
 40
13.0
 40
13.0
 40
13.0
 40
13.0
 10
98.40744451955999
 20
15.33372076966533
 30
0.0
 10
98.03209476442956
 20
15.87625335545519
 30
0.0
 10
96.73018683650434
 20
16.28202342883702
 30
0.0
 10
94.82404828238651
 20
16.56943764002764
 30
0.0
 10
92.87110813438474
 20
16.6790804037386
 30
0.0
 10
90.92473103819555
 20
16.72091665947029
 30
0.0
 10
88.97559909169871
 20
16.70668634619339
 30
0.0
 10
87.02785848595056
 20
16.6544066294936
 30
0.0
 10
85.08112625135277
 20
16.56809334715474
 30
0.0
 10
83.13611491355613
 20
16.4520392440515
 30
0.0
 10
81.19272762687996
 20
16.30516254386338
 30
0.0
 10
79.25422119872155
 20
16.11931103144556
 30
0.0
 10
77.31523378990875
 20
15.88293692818461
 30
0.0
 10
75.41466896642214
 20
15.52552799340396
 30
0.0
 10
74.14256598584194
 20
15.0821477848025
 30
0.0
 10
73.7568382419131
 20
14.53366011717912
 30
0.0
  0
SPLINE
  5
73
330
1F
100
AcDbEntity
  8
MAKE2D VISIBLE LINES
100
AcDbSpline
210
0.0
220
0.0
230
1.0
 70
    12
 71
     2
 72
     6
 73
     3
 74
     0
 42
0.0000000001
 43
0.0000000001
 40
0.0
 40
0.0
 40
0.0
 40
0.8245650009409343
 40
0.8245650009409343
 40
0.8245650009409343
 10
95.31229466168372
 20
0.5905511811023693
 30
0.0
 41
1.0
 10
95.80782593993764
 20
0.5905511811027986
 30
0.0
 41
0.7660444431181237
 10
95.89387404338169
 20
1.078554225787623
 30
0.0
 41
1.0
  0
SPLINE
  5
74
330
1F
100
AcDbEntity
  8
MAKE2D VISIBLE LINES
100
AcDbSpline
210
0.0
220
0.0
230
1.0
 70
    24
 71
     2
 72
     6
 73
     3
 74
     0
 42
0.0000000001
 43
0.0000000001
 40
0.0
 40
0.0
 40
0.0
 40
0.5905511811023629
 40
0.5905511811023629
 40
0.5905511811023629
 10
90.00312876630949
 20
0.590551181102363
 30
0.0
 10
90.00312876630949
 20
0.2952755905511816
 30
0.0
 10
90.00312876630949
 20
0.0000000000000001
 30
0.0
  0
SPLINE
  5
75
330
1F
100
AcDbEntity
  8
MAKE2D VISIBLE LINES
100
AcDbSpline
210
0.0
220
0.0
230
1.0
 70
     8
 71
     3
 72
    20
 73
    16
 74
     0
 42
0.0000000001
 43
0.0000000001
 40
0.0
 40
0.0
 40
0.0
 40
0.0
 40
1.0
 40
2.0
 40
3.0
 40
4.0
 40
5.0
 40
6.0
 40
7.0
 40
8.0
 40
9.0
 40
10.0
 40
11.0
 40
12.0
 40
13.0
 40
13.0
 40
13.0
 40
13.0
 10
69.0489068057766
 20
37.73555798068166
 30
0.0
 10
69.64077050945781
 20
37.38470503888821
 30
0.0
 10
70.31769308839512
 20
36.14460610031358
 30
0.0
 10
71.36721392957574
 20
34.39380447779513
 30
0.0
 10
72.26620932254542
 20
32.53674036821641
 30
0.0
 10
73.10055866434823
 20
30.65782765071871
 30
0.0
 10
73.86997123962166
 20
28.74924562893005
 30
0.0
 10
74.58581969300064
 20
26.82074983769263
 30
0.0
 10
75.24782348864687
 20
24.87237858302126
 30
0.0
 10
75.85437499672969
 20
22.90813706054409
 30
0.0
 10
76.34934545390087
 20
20.9032185456205
 30
0.0
 10
76.69288423473057
 20
18.90004942921093
 30
0.0
 10
76.7222758503182
 20
16.72593103479123
 30
0.0
 10
75.14481412497747
 20
15.27401106237338
 30
0.0
 10
73.64135334497212
 20
14.87596839243907
 30
0.0
 10
73.68544631670528
 20
14.06725330435212
 30
0.0
  0
SPLINE
  5
76
330
1F
100
AcDbEntity
  8
MAKE2D VISIBLE LINES
100
AcDbSpline
210
0.0
220
0.0
230
1.0
 70
    24
 71
     2
 72
     6
 73
     3
 74
     0
 42
0.0000000001
 43
0.0000000001
 40
0.0
 40
0.0
 40
0.0
 40
0.5905511811023629
 40
0.5905511811023629
 40
0.5905511811023629
 10
94.5248930868762
 20
0.0000000000000001
 30
0.0
 10
94.5248930868762
 20
0.2952755905511816
 30
0.0
 10
94.5248930868762
 20
0.590551181102363
 30
0.0
  0
SPLINE
  5
77
330
1F
100
AcDbEntity
  8
MAKE2D VISIBLE LINES
100
AcDbSpline
210
0.0
220
0.0
230
1.0
 70
    24
 71
     2
 72
     6
 73
     3
 74
     0
 42
0.0000000001
 43
0.0000000001
 40
0.0
 40
0.0
 40
0.0
 40
14.47507546551677
 40
14.47507546551677
 40
14.47507546551677
 10
95.89387404338169
 20
1.078554225787624
 30
0.0
 10
97.15065928147084
 20
8.206137497726479
 30
0.0
 10
98.40744451955999
 20
15.33372076966533
 30
0.0
  0
SPLINE
  5
78
330
1F
100
AcDbEntity
  8
MAKE2D VISIBLE LINES
100
AcDbSpline
210
0.0
220
0.0
230
1.0
 70
    24
 71
     2
 72
     6
 73
     3
 74
     0
 42
0.0000000001
 43
0.0000000001
 40
0.0
 40
0.0
 40
0.0
 40
3.740088960453804
 40
3.740088960453804
 40
3.740088960453804
 10
65.3088178453228
 20
37.73555798068166
 30
0.0
 10
67.1788623255497
 20
37.73555798068166
 30
0.0
 10
69.0489068057766
 20
37.73555798068166
 30
0.0
  0
SPLINE
  5
79
330
1F
100
AcDbEntity
  8
MAKE2D VISIBLE LINES
100
AcDbSpline
210
0.0
220
0.0
230
1.0
 70
    24
 71
     2
 72
     6
 73
     3
 74
     0
 42
0.0000000001
 43
0.0000000001
 40
0.0
 40
0.0
 40
0.0
 40
37.58007157811466
 40
37.58007157811466
 40
37.58007157811466
 10
71.01059385595593
 20
0.5905511811023992
 30
0.0
 10
68.15970585063937
 20
19.16305458089203
 30
0.0
 10
65.3088178453228
 20
37.73555798068166
 30
0.0
  0
SPLINE
  5
7A
330
1F
100
AcDbEntity
  8
MAKE2D VISIBLE LINES
100
AcDbSpline
210
0.0
220
0.0
230
1.0
 70
    24
 71
     2
 72
     6
 73
     3
 74
     0
 42
0.0000000001
 43
0.0000000001
 40
0.0
 40
0.0
 40
0.0
 40
0.5905509356892085
 40
0.5905509356892085
 40
0.5905509356892085
 10
76.3196874960183
 20
0.0000000000000001
 30
0.0
 10
76.3196874960183
 20
0.2952754678446043
 30
0.0
 10
76.3196874960183
 20
0.5905509356892086
 30
0.0
  0
SPLINE
  5
7B
330
1F
100
AcDbEntity
  8
MAKE2D VISIBLE LINES
100
AcDbSpline
210
0.0
220
0.0
230
1.0
 70
    24
 71
     2
 72
     6
 73
     3
 74
     0
 42
0.0000000001
 43
0.0000000001
 40
0.0
 40
0.0
 40
0.0
 40
0.5905511811023629
 40
0.5905511811023629
 40
0.5905511811023629
 10
71.79792317545156
 20
0.590551181102363
 30
0.0
 10
71.79792317545156
 20
0.2952755905511816
 30
0.0
 10
71.79792317545156
 20
0.0000000000000001
 30
0.0
  0
ENDSEC
  0
SECTION
  2
OBJECTS
  0
DICTIONARY
  5
C
330
0
100
AcDbDictionary
281
     1
  3
ACAD_GROUP
350
D
  3
ACAD_LAYOUT
350
1A
  3
ACAD_MLEADERSTYLE
350
7E
  3
ACAD_MLINESTYLE
350
17
  3
ACAD_PLOTSETTINGS
350
19
  3
ACAD_PLOTSTYLENAME
350
E
  3
ACAD_VISUALSTYLE
350
2A
  3
AcDbVariableDictionary
350
7C
  0
DICTIONARY
  5
D
102
{ACAD_REACTORS
330
C
102
}
330
C
100
AcDbDictionary
281
     1
  0
DICTIONARY
  5
1A
102
{ACAD_REACTORS
330
C
102
}
330
C
100
AcDbDictionary
281
     1
  3
Layout1
350
1E
  3
Layout2
350
26
  3
Model
350
22
  0
DICTIONARY
  5
7E
102
{ACAD_REACTORS
330
C
102
}
330
C
100
AcDbDictionary
281
     1
  0
DICTIONARY
  5
17
102
{ACAD_REACTORS
330
C
102
}
330
C
100
AcDbDictionary
281
     1
  3
Standard
350
18
  0
DICTIONARY
  5
19
102
{ACAD_REACTORS
330
C
102
}
330
C
100
AcDbDictionary
281
     1
  0
ACDBDICTIONARYWDFLT
  5
E
102
{ACAD_REACTORS
330
C
102
}
330
C
100
AcDbDictionary
281
     1
  3
Normal
350
F
100
AcDbDictionaryWithDefault
340
F
  0
DICTIONARY
  5
2A
102
{ACAD_REACTORS
330
C
102
}
330
C
100
AcDbDictionary
281
     1
  3
2dWireframe
350
2F
  3
3D Hidden
350
31
  3
3dWireframe
350
30
  3
Basic
350
32
  3
Brighten
350
36
  3
ColorChange
350
3A
  3
Conceptual
350
34
  3
Dim
350
35
  3
Facepattern
350
39
  3
Flat
350
2B
  3
FlatWithEdges
350
2C
  3
Gouraud
350
2D
  3
GouraudWithEdges
350
2E
  3
Linepattern
350
38
  3
Realistic
350
33
  3
Thicken
350
37
  0
DICTIONARY
  5
7C
102
{ACAD_REACTORS
330
C
102
}
330
C
100
AcDbDictionary
281
     1
  0
LAYOUT
  5
1E
102
{ACAD_REACTORS
330
1A
102
}
330
1A
100
AcDbPlotSettings
  1

  2
none_device
  4

  6

 40
0.0
 41
0.0
 42
0.0
 43
0.0
 44
0.0
 45
0.0
 46
0.0
 47
0.0
 48
0.0
 49
0.0
140
0.0
141
0.0
142
1.0
143
1.0
 70
   688
 72
     0
 73
     0
 74
     5
  7

 75
    16
147
1.0
148
0.0
149
0.0
100
AcDbLayout
  1
Layout1
 70
     1
 71
     1
 10
0.0
 20
0.0
 11
12.0
 21
9.0
 12
0.0
 22
0.0
 32
0.0
 14
1.000000000000000E+20
 24
1.000000000000000E+20
 34
1.000000000000000E+20
 15
-1.000000000000000E+20
 25
-1.000000000000000E+20
 35
-1.000000000000000E+20
146
0.0
 13
0.0
 23
0.0
 33
0.0
 16
1.0
 26
0.0
 36
0.0
 17
0.0
 27
1.0
 37
0.0
 76
     0
330
1B
  0
LAYOUT
  5
26
102
{ACAD_REACTORS
330
1A
102
}
330
1A
100
AcDbPlotSettings
  1

  2
none_device
  4

  6

 40
0.0
 41
0.0
 42
0.0
 43
0.0
 44
0.0
 45
0.0
 46
0.0
 47
0.0
 48
0.0
 49
0.0
140
0.0
141
0.0
142
1.0
143
1.0
 70
   688
 72
     0
 73
     0
 74
     5
  7

 75
    16
147
1.0
148
0.0
149
0.0
100
AcDbLayout
  1
Layout2
 70
     1
 71
     2
 10
0.0
 20
0.0
 11
0.0
 21
0.0
 12
0.0
 22
0.0
 32
0.0
 14
0.0
 24
0.0
 34
0.0
 15
0.0
 25
0.0
 35
0.0
146
0.0
 13
0.0
 23
0.0
 33
0.0
 16
1.0
 26
0.0
 36
0.0
 17
0.0
 27
1.0
 37
0.0
 76
     0
330
23
  0
LAYOUT
  5
22
102
{ACAD_REACTORS
330
1A
102
}
330
1A
100
AcDbPlotSettings
  1

  2
none_device
  4

  6

 40
0.0
 41
0.0
 42
0.0
 43
0.0
 44
0.0
 45
0.0
 46
0.0
 47
0.0
 48
0.0
 49
0.0
140
0.0
141
0.0
142
1.0
143
1.0
 70
  1712
 72
     0
 73
     0
 74
     0
  7

 75
     0
147
1.0
148
0.0
149
0.0
100
AcDbLayout
  1
Model
 70
     1
 71
     0
 10
0.0
 20
0.0
 11
12.0
 21
9.0
 12
0.0
 22
0.0
 32
0.0
 14
0.3360128755002714
 24
0.0000000000000001
 34
0.0
 15
98.40744451955999
 25
82.86251008396735
 35
0.0
146
0.0
 13
0.0
 23
0.0
 33
0.0
 16
1.0
 26
0.0
 36
0.0
 17
0.0
 27
1.0
 37
0.0
 76
     0
330
1F
331
29
  0
MLINESTYLE
  5
18
102
{ACAD_REACTORS
330
17
102
}
330
17
100
AcDbMlineStyle
  2
Standard
 70
     0
  3

 62
   256
 51
90.0
 52
90.0
 71
     2
 49
0.5
 62
   256
  6
BYLAYER
 49
-0.5
 62
   256
  6
BYLAYER
  0
ACDBPLACEHOLDER
  5
F
102
{ACAD_REACTORS
330
E
102
}
330
E
  0
VISUALSTYLE
  5
2F
102
{ACAD_REACTORS
330
2A
102
}
330
2A
100
AcDbVisualStyle
  2
2dWireframe
 70
     4
 71
     0
 72
     2
 73
     0
 90
        0
 40
-0.6
 41
-30.0
 62
     5
 63
     7
 74
     1
 91
        4
 64
     7
 65
   257
 75
     1
175
     1
 42
1.0
 92
        0
 66
   257
 43
1.0
 76
     1
 77
     6
 78
     2
 67
     7
 79
     5
170
     0
171
     0
290
     0
174
     0
 93
        1
 44
0.0
173
     0
291
     0
 45
0.0
1001
ACAD
1000
AcDbSavedByObjectVersion
1070
     0
  0
VISUALSTYLE
  5
31
102
{ACAD_REACTORS
330
2A
102
}
330
2A
100
AcDbVisualStyle
  2
3D Hidden
 70
     6
 71
     1
 72
     2
 73
     2
 90
        0
 40
-0.6
 41
-30.0
 62
     5
 63
     7
 74
     2
 91
        2
 64
     7
 65
   257
 75
     2
175
     1
 42
40.0
 92
        0
 66
   257
 43
1.0
 76
     1
 77
     6
 78
     2
 67
     7
 79
     3
170
     0
171
     0
290
     0
174
     0
 93
        1
 44
0.0
173
     0
291
     0
 45
0.0
1001
ACAD
1000
AcDbSavedByObjectVersion
1070
     0
  0
VISUALSTYLE
  5
30
102
{ACAD_REACTORS
330
2A
102
}
330
2A
100
AcDbVisualStyle
  2
3dWireframe
 70
     5
 71
     0
 72
     2
 73
     0
 90
        0
 40
-0.6
 41
-30.0
 62
     5
 63
     7
 74
     1
 91
        4
 64
     7
 65
   257
 75
     1
175
     1
 42
1.0
 92
        0
 66
   257
 43
1.0
 76
     1
 77
     6
 78
     2
 67
     7
 79
     5
170
     0
171
     0
290
     0
174
     0
 93
        1
 44
0.0
173
     0
291
     0
 45
0.0
1001
ACAD
1000
AcDbSavedByObjectVersion
1070
     0
  0
VISUALSTYLE
  5
32
102
{ACAD_REACTORS
330
2A
102
}
330
2A
100
AcDbVisualStyle
  2
Basic
 70
     7
 71
     1
 72
     0
 73
     1
 90
        0
 40
-0.6
 41
-30.0
 62
     5
 63
     7
 74
     0
 91
        4
 64
     7
 65
   257
 75
     1
175
     1
 42
1.0
 92
        8
 66
     7
 43
1.0
 76
     1
 77
     6
 78
     2
 67
     7
 79
     5
170
     0
171
     0
290
     0
174
     0
 93
        1
 44
0.0
173
     0
291
     1
 45
0.0
1001
ACAD
1000
AcDbSavedByObjectVersion
1070
     0
  0
VISUALSTYLE
  5
36
102
{ACAD_REACTORS
330
2A
102
}
330
2A
100
AcDbVisualStyle
  2
Brighten
 70
    12
 71
     2
 72
     2
 73
     0
 90
        0
 40
-0.6
 41
-30.0
 62
     5
 63
     7
 74
     1
 91
        4
 64
     7
 65
   257
 75
     1
175
     1
 42
1.0
 92
        8
 66
     7
 43
1.0
 76
     1
 77
     6
 78
     2
 67
     7
 79
     5
170
     0
171
     0
290
     0
174
     0
 93
        1
 44
50.0
173
     0
291
     1
 45
0.0
1001
ACAD
1000
AcDbSavedByObjectVersion
1070
     0
  0
VISUALSTYLE
  5
3A
102
{ACAD_REACTORS
330
2A
102
}
330
2A
100
AcDbVisualStyle
  2
ColorChange
 70
    16
 71
     2
 72
     2
 73
     3
 90
        0
 40
-0.6
 41
-30.0
 62
     5
 63
     8
 74
     1
 91
        4
 64
     7
 65
   257
 75
     1
175
     1
 42
1.0
 92
        8
 66
     8
 43
1.0
 76
     1
 77
     6
 78
     2
 67
     7
 79
     5
170
     0
171
     0
290
     0
174
     0
 93
        1
 44
0.0
173
     0
291
     1
 45
0.0
1001
ACAD
1000
AcDbSavedByObjectVersion
1070
     0
  0
VISUALSTYLE
  5
34
102
{ACAD_REACTORS
330
2A
102
}
330
2A
100
AcDbVisualStyle
  2
Conceptual
 70
     9
 71
     3
 72
     2
 73
     0
 90
        0
 40
-0.6
 41
-30.0
 62
     5
 63
     7
 74
     2
 91
        2
 64
     7
 65
   257
 75
     1
175
     1
 42
40.0
 92
        8
 66
     7
 43
1.0
 76
     1
 77
     6
 78
     2
 67
     7
 79
     3
170
     0
171
     0
290
     0
174
     0
 93
        1
 44
0.0
173
     0
291
     0
 45
0.0
1001
ACAD
1000
AcDbSavedByObjectVersion
1070
     0
  0
VISUALSTYLE
  5
35
102
{ACAD_REACTORS
330
2A
102
}
330
2A
100
AcDbVisualStyle
  2
Dim
 70
    11
 71
     2
 72
     2
 73
     0
 90
        0
 40
-0.6
 41
-30.0
 62
     5
 63
     7
 74
     1
 91
        4
 64
     7
 65
   257
 75
     1
175
     1
 42
1.0
 92
        8
 66
     7
 43
1.0
 76
     1
 77
     6
 78
     2
 67
     7
 79
     5
170
     0
171
     0
290
     0
174
     0
 93
        1
 44
-50.0
173
     0
291
     1
 45
0.0
1001
ACAD
1000
AcDbSavedByObjectVersion
1070
     0
  0
VISUALSTYLE
  5
39
102
{ACAD_REACTORS
330
2A
102
}
330
2A
100
AcDbVisualStyle
  2
Facepattern
 70
    15
 71
     2
 72
     2
 73
     0
 90
        0
 40
-0.6
 41
-30.0
 62
     5
 63
     7
 74
     1
 91
        4
 64
     7
 65
   257
 75
     1
175
     1
 42
1.0
 92
        8
 66
     7
 43
1.0
 76
     1
 77
     6
 78
     2
 67
     7
 79
     5
170
     0
171
     0
290
     0
174
     0
 93
        1
 44
0.0
173
     0
291
     1
 45
0.0
1001
ACAD
1000
AcDbSavedByObjectVersion
1070
     0
  0
VISUALSTYLE
  5
2B
102
{ACAD_REACTORS
330
2A
102
}
330
2A
100
AcDbVisualStyle
  2
Flat
 70
     0
 71
     2
 72
     1
 73
     1
 90
        2
 40
-0.6
 41
30.0
 62
     5
 63
     7
 74
     0
 91
        4
 64
     7
 65
   257
 75
     1
175
     1
 42
1.0
 92
        8
 66
     7
 43
1.0
 76
     1
 77
     6
 78
     2
 67
     7
 79
     5
170
     0
171
     0
290
     0
174
     0
 93
       13
 44
0.0
173
     0
291
     1
 45
0.0
1001
ACAD
1000
AcDbSavedByObjectVersion
1070
     0
  0
VISUALSTYLE
  5
2C
102
{ACAD_REACTORS
330
2A
102
}
330
2A
100
AcDbVisualStyle
  2
FlatWithEdges
 70
     1
 71
     2
 72
     1
 73
     1
 90
        2
 40
-0.6
 41
30.0
 62
     5
 63
     7
 74
     1
 91
        4
 64
     7
 65
   257
 75
     1
175
     1
 42
1.0
 92
        0
 66
   257
 43
1.0
 76
     1
 77
     6
 78
     2
 67
     7
 79
     5
170
     0
171
     0
290
     0
174
     0
 93
       13
 44
0.0
173
     0
291
     1
 45
0.0
1001
ACAD
1000
AcDbSavedByObjectVersion
1070
     0
  0
VISUALSTYLE
  5
2D
102
{ACAD_REACTORS
330
2A
102
}
330
2A
100
AcDbVisualStyle
  2
Gouraud
 70
     2
 71
     2
 72
     2
 73
     1
 90
        2
 40
-0.6
 41
30.0
 62
     5
 63
     7
 74
     0
 91
        4
 64
     7
 65
   257
 75
     1
175
     1
 42
1.0
 92
        0
 66
     7
 43
1.0
 76
     1
 77
     6
 78
     2
 67
     7
 79
     5
170
     0
171
     0
290
     0
174
     0
 93
       13
 44
0.0
173
     0
291
     1
 45
0.0
1001
ACAD
1000
AcDbSavedByObjectVersion
1070
     0
  0
VISUALSTYLE
  5
2E
102
{ACAD_REACTORS
330
2A
102
}
330
2A
100
AcDbVisualStyle
  2
GouraudWithEdges
 70
     3
 71
     2
 72
     2
 73
     1
 90
        2
 40
-0.6
 41
30.0
 62
     5
 63
     7
 74
     1
 91
        4
 64
     7
 65
   257
 75
     1
175
     1
 42
1.0
 92
        0
 66
   257
 43
1.0
 76
     1
 77
     6
 78
     2
 67
     7
 79
     5
170
     0
171
     0
290
     0
174
     0
 93
       13
 44
0.0
173
     0
291
     1
 45
0.0
1001
ACAD
1000
AcDbSavedByObjectVersion
1070
     0
  0
VISUALSTYLE
  5
38
102
{ACAD_REACTORS
330
2A
102
}
330
2A
100
AcDbVisualStyle
  2
Linepattern
 70
    14
 71
     2
 72
     2
 73
     0
 90
        0
 40
-0.6
 41
-30.0
 62
     5
 63
     7
 74
     1
 91
        4
 64
     7
 65
   257
 75
     7
175
     7
 42
1.0
 92
        8
 66
     7
 43
1.0
 76
     1
 77
     6
 78
     2
 67
     7
 79
     5
170
     0
171
     0
290
     0
174
     0
 93
        1
 44
0.0
173
     0
291
     1
 45
0.0
1001
ACAD
1000
AcDbSavedByObjectVersion
1070
     0
  0
VISUALSTYLE
  5
33
102
{ACAD_REACTORS
330
2A
102
}
330
2A
100
AcDbVisualStyle
  2
Realistic
 70
     8
 71
     2
 72
     2
 73
     0
 90
        0
 40
-0.6
 41
-30.0
 62
     5
 63
     7
 74
     1
 91
        0
 64
     7
 65
   257
 75
     1
175
     1
 42
1.0
 92
        8
 66
     8
 43
1.0
 76
     1
 77
     6
 78
     2
 67
     7
 79
     5
170
     0
171
     0
290
     0
174
     0
 93
       13
 44
0.0
173
     0
291
     0
 45
0.0
1001
ACAD
1000
AcDbSavedByObjectVersion
1070
     0
  0
VISUALSTYLE
  5
37
102
{ACAD_REACTORS
330
2A
102
}
330
2A
100
AcDbVisualStyle
  2
Thicken
 70
    13
 71
     2
 72
     2
 73
     0
 90
        0
 40
-0.6
 41
-30.0
 62
     5
 63
     7
 74
     1
 91
        4
 64
     7
 65
   257
 75
     1
175
     1
 42
1.0
 92
       12
 66
     7
 43
1.0
 76
     1
 77
     6
 78
     2
 67
     7
 79
     5
170
     0
171
     0
290
     0
174
     0
 93
        1
 44
0.0
173
     0
291
     1
 45
0.0
1001
ACAD
1000
AcDbSavedByObjectVersion
1070
     0
  0
ENDSEC
  0
EOF
