  0
SECTION
  2
HEADER
  9
$ACADVER
  1
AC1014
  9
$ACADMAINTVER
 70
     9
  9
$DWGCODEPAGE
  3
ANSI_1252
  9
$INSBASE
 10
0.0
 20
0.0
 30
0.0
  9
$EXTMIN
 10
-13.75252504048759
 20
-0.0000515385634472
 30
0.0
  9
$EXTMAX
 10
49.92909491849542
 20
66.80591031642444
 30
0.0
  9
$LIMMIN
 10
0.0
 20
0.0
  9
$LIMMAX
 10
12.0
 20
9.0
  9
$ORTHOMODE
 70
     0
  9
$REGENMODE
 70
     1
  9
$FILLMODE
 70
     1
  9
$QTEXTMODE
 70
     0
  9
$MIRRTEXT
 70
     1
  9
$DRAGMODE
 70
     2
  9
$LTSCALE
 40
0.0393700787401575
  9
$OSMODE
 70
    37
  9
$ATTMODE
 70
     1
  9
$TEXTSIZE
 40
0.2
  9
$TRACEWID
 40
0.05
  9
$TEXTSTYLE
  7
STANDARD
  9
$CLAYER
  8
DEFAULT
  9
$CELTYPE
  6
BYLAYER
  9
$CECOLOR
 62
   256
  9
$CELTSCALE
 40
1.0
  9
$DELOBJ
 70
     1
  9
$DISPSILH
 70
     0
  9
$DIMSCALE
 40
1.0
  9
$DIMASZ
 40
0.18
  9
$DIMEXO
 40
0.0625
  9
$DIMDLI
 40
0.38
  9
$DIMRND
 40
0.0
  9
$DIMDLE
 40
0.0
  9
$DIMEXE
 40
0.18
  9
$DIMTP
 40
0.0
  9
$DIMTM
 40
0.0
  9
$DIMTXT
 40
0.18
  9
$DIMCEN
 40
0.09
  9
$DIMTSZ
 40
0.0
  9
$DIMTOL
 70
     0
  9
$DIMLIM
 70
     0
  9
$DIMTIH
 70
     1
  9
$DIMTOH
 70
     1
  9
$DIMSE1
 70
     0
  9
$DIMSE2
 70
     0
  9
$DIMTAD
 70
     0
  9
$DIMZIN
 70
     0
  9
$DIMBLK
  1

  9
$DIMASO
 70
     1
  9
$DIMSHO
 70
     1
  9
$DIMPOST
  1

  9
$DIMAPOST
  1

  9
$DIMALT
 70
     0
  9
$DIMALTD
 70
     2
  9
$DIMALTF
 40
25.4
  9
$DIMLFAC
 40
1.0
  9
$DIMTOFL
 70
     0
  9
$DIMTVP
 40
0.0
  9
$DIMTIX
 70
     0
  9
$DIMSOXD
 70
     0
  9
$DIMSAH
 70
     0
  9
$DIMBLK1
  1

  9
$DIMBLK2
  1

  9
$DIMSTYLE
  2
STANDARD
  9
$DIMCLRD
 70
     0
  9
$DIMCLRE
 70
     0
  9
$DIMCLRT
 70
     0
  9
$DIMTFAC
 40
1.0
  9
$DIMGAP
 40
0.09
  9
$DIMJUST
 70
     0
  9
$DIMSD1
 70
     0
  9
$DIMSD2
 70
     0
  9
$DIMTOLJ
 70
     1
  9
$DIMTZIN
 70
     0
  9
$DIMALTZ
 70
     0
  9
$DIMALTTZ
 70
     0
  9
$DIMFIT
 70
     5
  9
$DIMUPT
 70
     0
  9
$DIMUNIT
 70
     2
  9
$DIMDEC
 70
     4
  9
$DIMTDEC
 70
     4
  9
$DIMALTU
 70
     2
  9
$DIMALTTD
 70
     2
  9
$DIMTXSTY
  7
STANDARD
  9
$DIMAUNIT
 70
     0
  9
$LUNITS
 70
     2
  9
$LUPREC
 70
     3
  9
$SKETCHINC
 40
0.1
  9
$FILLETRAD
 40
0.5
  9
$AUNITS
 70
     0
  9
$AUPREC
 70
     0
  9
$MENU
  1
.
  9
$ELEVATION
 40
0.0
  9
$PELEVATION
 40
0.0
  9
$THICKNESS
 40
0.0
  9
$LIMCHECK
 70
     0
  9
$CHAMFERA
 40
0.5
  9
$CHAMFERB
 40
0.5
  9
$CHAMFERC
 40
1.0
  9
$CHAMFERD
 40
0.0
  9
$SKPOLY
 70
     0
  9
$TDCREATE
 40
2455413.391928866
  9
$TDUPDATE
 40
2455413.391928877
  9
$TDINDWG
 40
0.0000000116
  9
$TDUSRTIMER
 40
0.0000000116
  9
$USRTIMER
 70
     1
  9
$ANGBASE
 50
0.0
  9
$ANGDIR
 70
     0
  9
$PDMODE
 70
     0
  9
$PDSIZE
 40
0.0
  9
$PLINEWID
 40
0.0
  9
$COORDS
 70
     1
  9
$SPLFRAME
 70
     0
  9
$SPLINETYPE
 70
     6
  9
$SPLINESEGS
 70
     8
  9
$ATTDIA
 70
     0
  9
$ATTREQ
 70
     1
  9
$HANDLING
 70
     1
  9
$HANDSEED
  5
8DA
  9
$SURFTAB1
 70
     6
  9
$SURFTAB2
 70
     6
  9
$SURFTYPE
 70
     6
  9
$SURFU
 70
     6
  9
$SURFV
 70
     6
  9
$UCSNAME
  2

  9
$UCSORG
 10
0.0
 20
0.0
 30
0.0
  9
$UCSXDIR
 10
1.0
 20
0.0
 30
0.0
  9
$UCSYDIR
 10
0.0
 20
1.0
 30
0.0
  9
$PUCSNAME
  2

  9
$PUCSORG
 10
0.0
 20
0.0
 30
0.0
  9
$PUCSXDIR
 10
1.0
 20
0.0
 30
0.0
  9
$PUCSYDIR
 10
0.0
 20
1.0
 30
0.0
  9
$USERI1
 70
     0
  9
$USERI2
 70
     0
  9
$USERI3
 70
     0
  9
$USERI4
 70
     0
  9
$USERI5
 70
     0
  9
$USERR1
 40
0.0
  9
$USERR2
 40
0.0
  9
$USERR3
 40
0.0
  9
$USERR4
 40
0.0
  9
$USERR5
 40
0.0
  9
$WORLDVIEW
 70
     1
  9
$SHADEDGE
 70
     3
  9
$SHADEDIF
 70
    70
  9
$TILEMODE
 70
     1
  9
$MAXACTVP
 70
    64
  9
$PINSBASE
 10
0.0
 20
0.0
 30
0.0
  9
$PLIMCHECK
 70
     0
  9
$PEXTMIN
 10
1.000000000000000E+20
 20
1.000000000000000E+20
 30
1.000000000000000E+20
  9
$PEXTMAX
 10
-1.000000000000000E+20
 20
-1.000000000000000E+20
 30
-1.000000000000000E+20
  9
$PLIMMIN
 10
0.0
 20
0.0
  9
$PLIMMAX
 10
12.0
 20
9.0
  9
$UNITMODE
 70
     0
  9
$VISRETAIN
 70
     1
  9
$PLINEGEN
 70
     0
  9
$PSLTSCALE
 70
     1
  9
$TREEDEPTH
 70
  3020
  9
$PICKSTYLE
 70
     1
  9
$CMLSTYLE
  2
STANDARD
  9
$CMLJUST
 70
     0
  9
$CMLSCALE
 40
1.0
  9
$PROXYGRAPHICS
 70
     1
  9
$MEASUREMENT
 70
     0
  0
ENDSEC
  0
SECTION
  2
CLASSES
  0
CLASS
  1
ACDBDICTIONARYWDFLT
  2
AcDbDictionaryWithDefault
  3
ObjectDBX Classes
 90
        0
280
     0
281
     0
  0
CLASS
  1
VISUALSTYLE
  2
AcDbVisualStyle
  3
ObjectDBX Classes
 90
     4095
280
     0
281
     0
  0
CLASS
  1
XRECORD
  2
AcDbXrecord
  3
AutoCAD 2000
 90
        0
280
     0
281
     0
  0
CLASS
  1
LWPOLYLINE
  2
AcDbPolyline
  3
AutoCAD 2000
 90
        0
280
     0
281
     1
  0
CLASS
  1
HATCH
  2
AcDbHatch
  3
AutoCAD 2000
 90
        0
280
     0
281
     1
  0
CLASS
  1
ACDBPLACEHOLDER
  2
AcDbPlaceHolder
  3
ObjectDBX Classes
 90
        0
280
     0
281
     0
  0
CLASS
  1
LAYOUT
  2
AcDbLayout
  3
ObjectDBX Classes
 90
        0
280
     0
281
     0
  0
ENDSEC
  0
SECTION
  2
TABLES
  0
TABLE
  2
VPORT
  5
8
330
0
100
AcDbSymbolTable
 70
     1
  0
VPORT
  5
29
330
8
100
AcDbSymbolTableRecord
100
AcDbViewportTableRecord
  2
*ACTIVE
 70
     0
 10
0.0
 20
0.0
 11
1.0
 21
1.0
 12
18.08828493900392
 22
33.4029293889305
 13
0.0
 23
0.0
 14
0.5
 24
0.5
 15
0.5
 25
0.5
 16
0.0
 26
0.0
 36
1.0
 17
0.0
 27
0.0
 37
0.0
 40
68.14208109208765
 41
0.9532325886904119
 42
50.0
 43
0.0
 44
0.0
 50
0.0
 51
0.0
 71
     0
 72
   100
 73
     1
 74
     3
 75
     0
 76
     0
 77
     0
 78
     0
  0
ENDTAB
  0
TABLE
  2
LTYPE
  5
5
330
0
100
AcDbSymbolTable
 70
     1
  0
LTYPE
  5
14
330
5
100
AcDbSymbolTableRecord
100
AcDbLinetypeTableRecord
  2
BYBLOCK
 70
     0
  3

 72
    65
 73
     0
 40
0.0
  0
LTYPE
  5
15
330
5
100
AcDbSymbolTableRecord
100
AcDbLinetypeTableRecord
  2
BYLAYER
 70
     0
  3

 72
    65
 73
     0
 40
0.0
  0
LTYPE
  5
16
330
5
100
AcDbSymbolTableRecord
100
AcDbLinetypeTableRecord
  2
CONTINUOUS
 70
     0
  3
Solid line
 72
    65
 73
     0
 40
0.0
  0
ENDTAB
  0
TABLE
  2
LAYER
  5
2
330
0
100
AcDbSymbolTable
 70
     2
  0
LAYER
  5
10
330
2
100
AcDbSymbolTableRecord
100
AcDbLayerTableRecord
  2
0
 70
     0
 62
     7
  6
CONTINUOUS
  0
LAYER
  5
3B
330
2
100
AcDbSymbolTableRecord
100
AcDbLayerTableRecord
  2
DEFAULT
 70
     0
 62
     7
  6
CONTINUOUS
  0
ENDTAB
  0
TABLE
  2
STYLE
  5
3
330
0
100
AcDbSymbolTable
 70
     1
  0
STYLE
  5
11
330
3
100
AcDbSymbolTableRecord
100
AcDbTextStyleTableRecord
  2
STANDARD
 70
     0
 40
0.0
 41
1.0
 50
0.0
 71
     0
 42
0.2
  3
txt
  4

  0
ENDTAB
  0
TABLE
  2
VIEW
  5
6
330
0
100
AcDbSymbolTable
 70
     0
  0
ENDTAB
  0
TABLE
  2
UCS
  5
7
330
0
100
AcDbSymbolTable
 70
     0
  0
ENDTAB
  0
TABLE
  2
APPID
  5
9
330
0
100
AcDbSymbolTable
 70
     1
  0
APPID
  5
12
330
9
100
AcDbSymbolTableRecord
100
AcDbRegAppTableRecord
  2
ACAD
 70
     0
  0
ENDTAB
  0
TABLE
  2
DIMSTYLE
  5
A
330
0
100
AcDbSymbolTable
 70
     1
  0
DIMSTYLE
105
27
330
A
100
AcDbSymbolTableRecord
100
AcDbDimStyleTableRecord
  2
STANDARD
 70
     0
  3

  4

  5

  6

  7

 40
1.0
 41
0.18
 42
0.0625
 43
0.38
 44
0.18
 45
0.0
 46
0.0
 47
0.0
 48
0.0
140
0.18
141
0.09
142
0.0
143
25.4
144
1.0
145
0.0
146
1.0
147
0.09
 71
     0
 72
     0
 73
     1
 74
     1
 75
     0
 76
     0
 77
     0
 78
     0
170
     0
171
     2
172
     0
173
     0
174
     0
175
     0
176
     0
177
     0
178
     0
270
     2
271
     4
272
     4
273
     2
274
     2
340
11
275
     0
280
     0
281
     0
282
     0
283
     1
284
     0
285
     0
286
     0
287
     3
288
     0
  0
ENDTAB
  0
TABLE
  2
BLOCK_RECORD
  5
1
330
0
100
AcDbSymbolTable
 70
     1
  0
BLOCK_RECORD
  5
1F
330
1
100
AcDbSymbolTableRecord
100
AcDbBlockTableRecord
  2
*MODEL_SPACE
  0
BLOCK_RECORD
  5
1B
330
1
100
AcDbSymbolTableRecord
100
AcDbBlockTableRecord
  2
*PAPER_SPACE
  0
ENDTAB
  0
ENDSEC
  0
SECTION
  2
BLOCKS
  0
BLOCK
  5
20
330
1F
100
AcDbEntity
  8
0
100
AcDbBlockBegin
  2
*MODEL_SPACE
 70
     0
 10
0.0
 20
0.0
 30
0.0
  3
*MODEL_SPACE
  1

  0
ENDBLK
  5
21
330
1F
100
AcDbEntity
  8
0
100
AcDbBlockEnd
  0
BLOCK
  5
1C
330
1B
100
AcDbEntity
 67
     1
  8
0
100
AcDbBlockBegin
  2
*PAPER_SPACE
 70
     0
 10
0.0
 20
0.0
 30
0.0
  3
*PAPER_SPACE
  1

  0
ENDBLK
  5
1D
330
1B
100
AcDbEntity
 67
     1
  8
0
100
AcDbBlockEnd
  0
ENDSEC
  0
SECTION
  2
ENTITIES
  0
LINE
  5
3C
330
1F
100
AcDbEntity
  8
DEFAULT
100
AcDbLine
 10
28.70407593632303
 20
11.9583859151923
 30
0.0
 11
28.88324628711303
 21
11.9774813227923
 31
0.0
  0
LINE
  5
3D
330
1F
100
AcDbEntity
  8
DEFAULT
100
AcDbLine
 10
32.71798553931342
 20
12.08426863047664
 30
0.0
 11
32.67420727548167
 21
12.44174193513125
 31
0.0
  0
LINE
  5
3E
330
1F
100
AcDbEntity
  8
DEFAULT
100
AcDbLine
 10
29.15347028711303
 20
11.64773732279231
 30
0.0
 11
32.71798553931342
 21
12.08426863047664
 31
0.0
  0
POLYLINE
  5
3F
330
1F
100
AcDbEntity
  8
DEFAULT
100
AcDb2dPolyline
 66
     1
 10
0.0
 20
0.0
 30
0.0
  0
VERTEX
  5
40
330
3F
100
AcDbEntity
  8
DEFAULT
100
AcDbVertex
100
AcDb2dVertex
 10
29.15347028711303
 20
11.64773732279231
 30
0.0
  0
VERTEX
  5
41
330
3F
100
AcDbEntity
  8
DEFAULT
100
AcDbVertex
100
AcDb2dVertex
 10
27.91134931447275
 20
11.54276633883728
 30
0.0
  0
VERTEX
  5
42
330
3F
100
AcDbEntity
  8
DEFAULT
100
AcDbVertex
100
AcDb2dVertex
 10
27.89306991568058
 20
11.54210733244709
 30
0.0
  0
VERTEX
  5
43
330
3F
100
AcDbEntity
  8
DEFAULT
100
AcDbVertex
100
AcDb2dVertex
 10
27.87463372681407
 20
11.54204486896632
 30
0.0
  0
VERTEX
  5
44
330
3F
100
AcDbEntity
  8
DEFAULT
100
AcDbVertex
100
AcDb2dVertex
 10
27.85606878296738
 20
11.54259289040884
 30
0.0
  0
VERTEX
  5
45
330
3F
100
AcDbEntity
  8
DEFAULT
100
AcDbVertex
100
AcDb2dVertex
 10
27.83740440486658
 20
11.54376364529564
 30
0.0
  0
VERTEX
  5
46
330
3F
100
AcDbEntity
  8
DEFAULT
100
AcDbVertex
100
AcDb2dVertex
 10
27.81867107542748
 20
11.54556755623917
 30
0.0
  0
VERTEX
  5
47
330
3F
100
AcDbEntity
  8
DEFAULT
100
AcDbVertex
100
AcDb2dVertex
 10
27.79990030096456
 20
11.5480130979396
 30
0.0
  0
VERTEX
  5
48
330
3F
100
AcDbEntity
  8
DEFAULT
100
AcDbVertex
100
AcDb2dVertex
 10
27.78112445803513
 20
11.55110668758569
 30
0.0
  0
VERTEX
  5
49
330
3F
100
AcDbEntity
  8
DEFAULT
100
AcDbVertex
100
AcDb2dVertex
 10
27.76237662719026
 20
11.55485258955187
 30
0.0
  0
VERTEX
  5
4A
330
3F
100
AcDbEntity
  8
DEFAULT
100
AcDbVertex
100
AcDb2dVertex
 10
27.74369041518123
 20
11.55925283613575
 30
0.0
  0
VERTEX
  5
4B
330
3F
100
AcDbEntity
  8
DEFAULT
100
AcDbVertex
100
AcDb2dVertex
 10
27.72509976742739
 20
11.56430716588874
 30
0.0
  0
VERTEX
  5
4C
330
3F
100
AcDbEntity
  8
DEFAULT
100
AcDbVertex
100
AcDb2dVertex
 10
27.7066387727827
 20
11.57001298085859
 30
0.0
  0
VERTEX
  5
4D
330
3F
100
AcDbEntity
  8
DEFAULT
100
AcDbVertex
100
AcDb2dVertex
 10
27.68834146283413
 20
11.57636532379117
 30
0.0
  0
VERTEX
  5
4E
330
3F
100
AcDbEntity
  8
DEFAULT
100
AcDbVertex
100
AcDb2dVertex
 10
27.6702416081208
 20
11.58335687603558
 30
0.0
  0
VERTEX
  5
4F
330
3F
100
AcDbEntity
  8
DEFAULT
100
AcDbVertex
100
AcDb2dVertex
 10
27.65237251377088
 20
11.59097797656819
 30
0.0
  0
VERTEX
  5
50
330
3F
100
AcDbEntity
  8
DEFAULT
100
AcDbVertex
100
AcDb2dVertex
 10
27.63476681711096
 20
11.59921666220604
 30
0.0
  0
VERTEX
  5
51
330
3F
100
AcDbEntity
  8
DEFAULT
100
AcDbVertex
100
AcDb2dVertex
 10
27.61745628980639
 20
11.60805872872681
 30
0.0
  0
VERTEX
  5
52
330
3F
100
AcDbEntity
  8
DEFAULT
100
AcDbVertex
100
AcDb2dVertex
 10
27.60047164703924
 20
11.6174878122606
 30
0.0
  0
VERTEX
  5
53
330
3F
100
AcDbEntity
  8
DEFAULT
100
AcDbVertex
100
AcDb2dVertex
 10
27.58384236612592
 20
11.62748548997774
 30
0.0
  0
VERTEX
  5
54
330
3F
100
AcDbEntity
  8
DEFAULT
100
AcDbVertex
100
AcDb2dVertex
 10
27.56759651681861
 20
11.63803139877551
 30
0.0
  0
VERTEX
  5
55
330
3F
100
AcDbEntity
  8
DEFAULT
100
AcDbVertex
100
AcDb2dVertex
 10
27.55176060533059
 20
11.64910337037434
 30
0.0
  0
VERTEX
  5
56
330
3F
100
AcDbEntity
  8
DEFAULT
100
AcDbVertex
100
AcDb2dVertex
 10
27.53635943387905
 20
11.6606775809772
 30
0.0
  0
VERTEX
  5
57
330
3F
100
AcDbEntity
  8
DEFAULT
100
AcDbVertex
100
AcDb2dVertex
 10
27.52141597725771
 20
11.67272871343235
 30
0.0
  0
VERTEX
  5
58
330
3F
100
AcDbEntity
  8
DEFAULT
100
AcDbVertex
100
AcDb2dVertex
 10
27.50695127764408
 20
11.68523012967272
 30
0.0
  0
VERTEX
  5
59
330
3F
100
AcDbEntity
  8
DEFAULT
100
AcDbVertex
100
AcDb2dVertex
 10
27.49298435851991
 20
11.69815405108954
 30
0.0
  0
VERTEX
  5
5A
330
3F
100
AcDbEntity
  8
DEFAULT
100
AcDbVertex
100
AcDb2dVertex
 10
27.47953215824917
 20
11.71147174443419
 30
0.0
  0
VERTEX
  5
5B
330
3F
100
AcDbEntity
  8
DEFAULT
100
AcDbVertex
100
AcDb2dVertex
 10
27.46660948352243
 20
11.72515371083062
 30
0.0
  0
VERTEX
  5
5C
330
3F
100
AcDbEntity
  8
DEFAULT
100
AcDbVertex
100
AcDb2dVertex
 10
27.4542289825507
 20
11.73916987551941
 30
0.0
  0
VERTEX
  5
5D
330
3F
100
AcDbEntity
  8
DEFAULT
100
AcDbVertex
100
AcDb2dVertex
 10
27.44240113758207
 20
11.75348977604038
 30
0.0
  0
VERTEX
  5
5E
330
3F
100
AcDbEntity
  8
DEFAULT
100
AcDbVertex
100
AcDb2dVertex
 10
27.43113427602857
 20
11.76808274668868
 30
0.0
  0
VERTEX
  5
5F
330
3F
100
AcDbEntity
  8
DEFAULT
100
AcDbVertex
100
AcDb2dVertex
 10
27.42043459923386
 20
11.78291809724451
 30
0.0
  0
VERTEX
  5
60
330
3F
100
AcDbEntity
  8
DEFAULT
100
AcDbVertex
100
AcDb2dVertex
 10
27.41030622769038
 20
11.79796528417187
 30
0.0
  0
SEQEND
  5
61
330
3F
100
AcDbEntity
  8
DEFAULT
  0
LINE
  5
62
330
1F
100
AcDbEntity
  8
DEFAULT
100
AcDbLine
 10
0.7874020000000009
 20
12.0422277110123
 30
0.0
 11
6.379270805320001
 21
12.0422277110123
 31
0.0
  0
LINE
  5
63
330
1F
100
AcDbEntity
  8
DEFAULT
100
AcDbLine
 10
-6.379270805320001
 20
12.0422277110123
 30
0.0
 11
-0.7874009999999992
 21
12.0422277110123
 31
0.0
  0
LINE
  5
64
330
1F
100
AcDbEntity
  8
DEFAULT
100
AcDbLine
 10
37.33778830751542
 20
2.677114461436553
 30
0.0
 11
37.33778830751542
 21
13.01287124230668
 31
0.0
  0
LINE
  5
65
330
1F
100
AcDbEntity
  8
DEFAULT
100
AcDbLine
 10
35.76298530751542
 20
2.677114461436553
 30
0.0
 11
35.76298530751542
 21
12.82001169078398
 31
0.0
  0
ARC
  5
66
330
1F
100
AcDbEntity
  8
DEFAULT
100
AcDbCircle
 10
6.315820115160087
 20
14.60922655026036
 30
0.0
 40
2.567782901801211
100
AcDbArc
 50
271.4159401171388
 51
316.0014062645985
  0
ARC
  5
67
330
1F
100
AcDbEntity
  8
DEFAULT
100
AcDbCircle
 10
-6.315820115160087
 20
14.60922655026036
 30
0.0
 40
2.567782901801211
100
AcDbArc
 50
223.9985937354015
 51
268.5840598828612
  0
LINE
  5
68
330
1F
100
AcDbEntity
  8
DEFAULT
100
AcDbLine
 10
29.13756407342303
 20
12.00862400111357
 30
0.0
 11
47.49757828711303
 21
14.25709832279231
 31
0.0
  0
POLYLINE
  5
69
330
1F
100
AcDbEntity
  8
DEFAULT
100
AcDb2dPolyline
 66
     1
 10
0.0
 20
0.0
 30
0.0
  0
VERTEX
  5
6A
330
69
100
AcDbEntity
  8
DEFAULT
100
AcDbVertex
100
AcDb2dVertex
 10
28.88324628711303
 20
11.9774813227923
 30
0.0
  0
VERTEX
  5
6B
330
69
100
AcDbEntity
  8
DEFAULT
100
AcDbVertex
100
AcDb2dVertex
 10
29.13208993584094
 20
12.00795607110815
 30
0.0
  0
VERTEX
  5
6C
330
69
100
AcDbEntity
  8
DEFAULT
100
AcDbVertex
100
AcDb2dVertex
 10
29.13696523543303
 20
12.0135138385923
 30
0.0
  0
VERTEX
  5
6D
330
69
100
AcDbEntity
  8
DEFAULT
100
AcDbVertex
100
AcDb2dVertex
 10
29.2352285965197
 20
12.29917726018255
 30
0.0
  0
VERTEX
  5
6E
330
69
100
AcDbEntity
  8
DEFAULT
100
AcDbVertex
100
AcDb2dVertex
 10
29.32458237699051
 20
12.58775165350647
 30
0.0
  0
VERTEX
  5
6F
330
69
100
AcDbEntity
  8
DEFAULT
100
AcDbVertex
100
AcDb2dVertex
 10
29.40494055686597
 20
12.87895921091836
 30
0.0
  0
VERTEX
  5
70
330
69
100
AcDbEntity
  8
DEFAULT
100
AcDbVertex
100
AcDb2dVertex
 10
29.47622577614021
 20
13.17251958985209
 30
0.0
  0
VERTEX
  5
71
330
69
100
AcDbEntity
  8
DEFAULT
100
AcDbVertex
100
AcDb2dVertex
 10
29.53836940925463
 20
13.46815018270411
 30
0.0
  0
VERTEX
  5
72
330
69
100
AcDbEntity
  8
DEFAULT
100
AcDbVertex
100
AcDb2dVertex
 10
29.59131163116302
 20
13.76556638889687
 30
0.0
  0
VERTEX
  5
73
330
69
100
AcDbEntity
  8
DEFAULT
100
AcDbVertex
100
AcDb2dVertex
 10
29.63500147492457
 20
14.06448188886097
 30
0.0
  0
VERTEX
  5
74
330
69
100
AcDbEntity
  8
DEFAULT
100
AcDbVertex
100
AcDb2dVertex
 10
29.66939688076918
 20
14.36460891967206
 30
0.0
  0
VERTEX
  5
75
330
69
100
AcDbEntity
  8
DEFAULT
100
AcDbVertex
100
AcDb2dVertex
 10
29.69446473658802
 20
14.66565855207731
 30
0.0
  0
VERTEX
  5
76
330
69
100
AcDbEntity
  8
DEFAULT
100
AcDbVertex
100
AcDb2dVertex
 10
30.49869007766803
 20
21.39433018422231
 30
0.0
  0
VERTEX
  5
77
330
69
100
AcDbEntity
  8
DEFAULT
100
AcDbVertex
100
AcDb2dVertex
 10
30.50567636369356
 20
21.43219486996642
 30
0.0
  0
VERTEX
  5
78
330
69
100
AcDbEntity
  8
DEFAULT
100
AcDbVertex
100
AcDb2dVertex
 10
30.51397160946262
 20
21.46979449119538
 30
0.0
  0
VERTEX
  5
79
330
69
100
AcDbEntity
  8
DEFAULT
100
AcDbVertex
100
AcDb2dVertex
 10
30.52356583503339
 20
21.50708381211474
 30
0.0
  0
VERTEX
  5
7A
330
69
100
AcDbEntity
  8
DEFAULT
100
AcDbVertex
100
AcDb2dVertex
 10
30.53444749767216
 20
21.54401797024982
 30
0.0
  0
VERTEX
  5
7B
330
69
100
AcDbEntity
  8
DEFAULT
100
AcDbVertex
100
AcDb2dVertex
 10
30.54660350574028
 20
21.58055253041931
 30
0.0
  0
VERTEX
  5
7C
330
69
100
AcDbEntity
  8
DEFAULT
100
AcDbVertex
100
AcDb2dVertex
 10
30.56001923444461
 20
21.61664353819497
 30
0.0
  0
VERTEX
  5
7D
330
69
100
AcDbEntity
  8
DEFAULT
100
AcDbVertex
100
AcDb2dVertex
 10
30.57467854343251
 20
21.65224757278275
 30
0.0
  0
VERTEX
  5
7E
330
69
100
AcDbEntity
  8
DEFAULT
100
AcDbVertex
100
AcDb2dVertex
 10
30.59056379621014
 20
21.68732179926205
 30
0.0
  0
VERTEX
  5
7F
330
69
100
AcDbEntity
  8
DEFAULT
100
AcDbVertex
100
AcDb2dVertex
 10
30.6076558813608
 20
21.72182402012004
 30
0.0
  0
VERTEX
  5
80
330
69
100
AcDbEntity
  8
DEFAULT
100
AcDbVertex
100
AcDb2dVertex
 10
30.62593423553768
 20
21.75571272601913
 30
0.0
  0
VERTEX
  5
81
330
69
100
AcDbEntity
  8
DEFAULT
100
AcDbVertex
100
AcDb2dVertex
 10
30.64537686820352
 20
21.78894714573652
 30
0.0
  0
VERTEX
  5
82
330
69
100
AcDbEntity
  8
DEFAULT
100
AcDbVertex
100
AcDb2dVertex
 10
30.66596038808717
 20
21.82148729521574
 30
0.0
  0
VERTEX
  5
83
330
69
100
AcDbEntity
  8
DEFAULT
100
AcDbVertex
100
AcDb2dVertex
 10
30.6876600313255
 20
21.8532940256711
 30
0.0
  0
VERTEX
  5
84
330
69
100
AcDbEntity
  8
DEFAULT
100
AcDbVertex
100
AcDb2dVertex
 10
30.71044969125653
 20
21.88432907068731
 30
0.0
  0
VERTEX
  5
85
330
69
100
AcDbEntity
  8
DEFAULT
100
AcDbVertex
100
AcDb2dVertex
 10
30.73430194982823
 20
21.91455509225747
 30
0.0
  0
VERTEX
  5
86
330
69
100
AcDbEntity
  8
DEFAULT
100
AcDbVertex
100
AcDb2dVertex
 10
30.75918811058485
 20
21.94393572570412
 30
0.0
  0
VERTEX
  5
87
330
69
100
AcDbEntity
  8
DEFAULT
100
AcDbVertex
100
AcDb2dVertex
 10
30.78507823319148
 20
21.97243562342927
 30
0.0
  0
VERTEX
  5
88
330
69
100
AcDbEntity
  8
DEFAULT
100
AcDbVertex
100
AcDb2dVertex
 10
30.81194116945498
 20
22.00002049744084
 30
0.0
  0
VERTEX
  5
89
330
69
100
AcDbEntity
  8
DEFAULT
100
AcDbVertex
100
AcDb2dVertex
 10
30.83974460079809
 20
22.02665716060422
 30
0.0
  0
VERTEX
  5
8A
330
69
100
AcDbEntity
  8
DEFAULT
100
AcDbVertex
100
AcDb2dVertex
 10
30.86845507714169
 20
22.05231356656948
 30
0.0
  0
VERTEX
  5
8B
330
69
100
AcDbEntity
  8
DEFAULT
100
AcDbVertex
100
AcDb2dVertex
 10
30.89803805714829
 20
22.07695884832603
 30
0.0
  0
VERTEX
  5
8C
330
69
100
AcDbEntity
  8
DEFAULT
100
AcDbVertex
100
AcDb2dVertex
 10
30.92845794977843
 20
22.10056335533848
 30
0.0
  0
VERTEX
  5
8D
330
69
100
AcDbEntity
  8
DEFAULT
100
AcDbVertex
100
AcDb2dVertex
 10
30.95967815710999
 20
22.12309868921898
 30
0.0
  0
VERTEX
  5
8E
330
69
100
AcDbEntity
  8
DEFAULT
100
AcDbVertex
100
AcDb2dVertex
 10
30.99166111836879
 20
22.14453773789304
 30
0.0
  0
VERTEX
  5
8F
330
69
100
AcDbEntity
  8
DEFAULT
100
AcDbVertex
100
AcDb2dVertex
 10
31.02436835511771
 20
22.16485470821787
 30
0.0
  0
VERTEX
  5
90
330
69
100
AcDbEntity
  8
DEFAULT
100
AcDbVertex
100
AcDb2dVertex
 10
31.05776051754977
 20
22.18402515701392
 30
0.0
  0
VERTEX
  5
91
330
69
100
AcDbEntity
  8
DEFAULT
100
AcDbVertex
100
AcDb2dVertex
 10
31.09179743182951
 20
22.20202602047221
 30
0.0
  0
VERTEX
  5
92
330
69
100
AcDbEntity
  8
DEFAULT
100
AcDbVertex
100
AcDb2dVertex
 10
31.12643814842587
 20
22.21883564190226
 30
0.0
  0
VERTEX
  5
93
330
69
100
AcDbEntity
  8
DEFAULT
100
AcDbVertex
100
AcDb2dVertex
 10
31.16164099137817
 20
22.23443379778705
 30
0.0
  0
VERTEX
  5
94
330
69
100
AcDbEntity
  8
DEFAULT
100
AcDbVertex
100
AcDb2dVertex
 10
31.19736360843616
 20
22.24880172211378
 30
0.0
  0
VERTEX
  5
95
330
69
100
AcDbEntity
  8
DEFAULT
100
AcDbVertex
100
AcDb2dVertex
 10
31.23356302201364
 20
22.2619221289511
 30
0.0
  0
VERTEX
  5
96
330
69
100
AcDbEntity
  8
DEFAULT
100
AcDbVertex
100
AcDb2dVertex
 10
31.27019568089446
 20
22.27377923324567
 30
0.0
  0
VERTEX
  5
97
330
69
100
AcDbEntity
  8
DEFAULT
100
AcDbVertex
100
AcDb2dVertex
 10
31.3072175126286
 20
22.28435876981302
 30
0.0
  0
VERTEX
  5
98
330
69
100
AcDbEntity
  8
DEFAULT
100
AcDbVertex
100
AcDb2dVertex
 10
31.34458397655539
 20
22.29364801049989
 30
0.0
  0
VERTEX
  5
99
330
69
100
AcDbEntity
  8
DEFAULT
100
AcDbVertex
100
AcDb2dVertex
 10
31.38225011739001
 20
22.30163577949736
 30
0.0
  0
VERTEX
  5
9A
330
69
100
AcDbEntity
  8
DEFAULT
100
AcDbVertex
100
AcDb2dVertex
 10
31.42017061930883
 20
22.30831246678639
 30
0.0
  0
VERTEX
  5
9B
330
69
100
AcDbEntity
  8
DEFAULT
100
AcDbVertex
100
AcDb2dVertex
 10
31.45829986046849
 20
22.3136700396995
 30
0.0
  0
VERTEX
  5
9C
330
69
100
AcDbEntity
  8
DEFAULT
100
AcDbVertex
100
AcDb2dVertex
 10
31.49659196789316
 20
22.31770205258488
 30
0.0
  0
VERTEX
  5
9D
330
69
100
AcDbEntity
  8
DEFAULT
100
AcDbVertex
100
AcDb2dVertex
 10
31.53500087266396
 20
22.32040365456107
 30
0.0
  0
VERTEX
  5
9E
330
69
100
AcDbEntity
  8
DEFAULT
100
AcDbVertex
100
AcDb2dVertex
 10
31.5734803653441
 20
22.32177159535298
 30
0.0
  0
VERTEX
  5
9F
330
69
100
AcDbEntity
  8
DEFAULT
100
AcDbVertex
100
AcDb2dVertex
 10
31.61198415157302
 20
22.32180422920231
 30
0.0
  0
VERTEX
  5
A0
330
69
100
AcDbEntity
  8
DEFAULT
100
AcDbVertex
100
AcDb2dVertex
 10
41.20806417075302
 20
22.3586704884823
 30
0.0
  0
VERTEX
  5
A1
330
69
100
AcDbEntity
  8
DEFAULT
100
AcDbVertex
100
AcDb2dVertex
 10
41.25141998404222
 20
22.3574001140148
 30
0.0
  0
VERTEX
  5
A2
330
69
100
AcDbEntity
  8
DEFAULT
100
AcDbVertex
100
AcDb2dVertex
 10
41.29470771113209
 20
22.35465911407887
 30
0.0
  0
VERTEX
  5
A3
330
69
100
AcDbEntity
  8
DEFAULT
100
AcDbVertex
100
AcDb2dVertex
 10
41.33787748293057
 20
22.35045064640968
 30
0.0
  0
VERTEX
  5
A4
330
69
100
AcDbEntity
  8
DEFAULT
100
AcDbVertex
100
AcDb2dVertex
 10
41.38087956623455
 20
22.34477955932051
 30
0.0
  0
VERTEX
  5
A5
330
69
100
AcDbEntity
  8
DEFAULT
100
AcDbVertex
100
AcDb2dVertex
 10
41.42366442102439
 20
22.33765238611728
 30
0.0
  0
VERTEX
  5
A6
330
69
100
AcDbEntity
  8
DEFAULT
100
AcDbVertex
100
AcDb2dVertex
 10
41.46618275753584
 20
22.32907733757196
 30
0.0
  0
VERTEX
  5
A7
330
69
100
AcDbEntity
  8
DEFAULT
100
AcDbVertex
100
AcDb2dVertex
 10
41.50838559304379
 20
22.31906429246348
 30
0.0
  0
VERTEX
  5
A8
330
69
100
AcDbEntity
  8
DEFAULT
100
AcDbVertex
100
AcDb2dVertex
 10
41.55022430829216
 20
22.30762478619692
 30
0.0
  0
VERTEX
  5
A9
330
69
100
AcDbEntity
  8
DEFAULT
100
AcDbVertex
100
AcDb2dVertex
 10
41.59165070350508
 20
22.29477199751439
 30
0.0
  0
VERTEX
  5
AA
330
69
100
AcDbEntity
  8
DEFAULT
100
AcDbVertex
100
AcDb2dVertex
 10
41.63261705391496
 20
22.28052073331255
 30
0.0
  0
VERTEX
  5
AB
330
69
100
AcDbEntity
  8
DEFAULT
100
AcDbVertex
100
AcDb2dVertex
 10
41.67307616474312
 20
22.26488741158455
 30
0.0
  0
VERTEX
  5
AC
330
69
100
AcDbEntity
  8
DEFAULT
100
AcDbVertex
100
AcDb2dVertex
 10
41.71298142556996
 20
22.24789004250584
 30
0.0
  0
VERTEX
  5
AD
330
69
100
AcDbEntity
  8
DEFAULT
100
AcDbVertex
100
AcDb2dVertex
 10
41.75228686403197
 20
22.22954820768582
 30
0.0
  0
VERTEX
  5
AE
330
69
100
AcDbEntity
  8
DEFAULT
100
AcDbVertex
100
AcDb2dVertex
 10
41.79094719878358
 20
22.20988303760904
 30
0.0
  0
VERTEX
  5
AF
330
69
100
AcDbEntity
  8
DEFAULT
100
AcDbVertex
100
AcDb2dVertex
 10
41.82891789166303
 20
22.18891718729214
 30
0.0
  0
VERTEX
  5
B0
330
69
100
AcDbEntity
  8
DEFAULT
100
AcDbVertex
100
AcDb2dVertex
 10
41.86615519900192
 20
22.16667481018436
 30
0.0
  0
VERTEX
  5
B1
330
69
100
AcDbEntity
  8
DEFAULT
100
AcDbVertex
100
AcDb2dVertex
 10
41.90261622201965
 20
22.1431815303419
 30
0.0
  0
VERTEX
  5
B2
330
69
100
AcDbEntity
  8
DEFAULT
100
AcDbVertex
100
AcDb2dVertex
 10
41.93825895624439
 20
22.11846441290802
 30
0.0
  0
VERTEX
  5
B3
330
69
100
AcDbEntity
  8
DEFAULT
100
AcDbVertex
100
AcDb2dVertex
 10
41.97304233990382
 20
22.09255193293297
 30
0.0
  0
VERTEX
  5
B4
330
69
100
AcDbEntity
  8
DEFAULT
100
AcDbVertex
100
AcDb2dVertex
 10
42.00692630122983
 20
22.0654739425697
 30
0.0
  0
VERTEX
  5
B5
330
69
100
AcDbEntity
  8
DEFAULT
100
AcDbVertex
100
AcDb2dVertex
 10
42.03987180462272
 20
22.037261636683
 30
0.0
  0
VERTEX
  5
B6
330
69
100
AcDbEntity
  8
DEFAULT
100
AcDbVertex
100
AcDb2dVertex
 10
42.07184089562169
 20
22.00794751691188
 30
0.0
  0
VERTEX
  5
B7
330
69
100
AcDbEntity
  8
DEFAULT
100
AcDbVertex
100
AcDb2dVertex
 10
42.10279674462977
 20
21.97756535422644
 30
0.0
  0
VERTEX
  5
B8
330
69
100
AcDbEntity
  8
DEFAULT
100
AcDbVertex
100
AcDb2dVertex
 10
42.13270368934295
 20
21.94615015002245
 30
0.0
  0
VERTEX
  5
B9
330
69
100
AcDbEntity
  8
DEFAULT
100
AcDbVertex
100
AcDb2dVertex
 10
42.16152727583447
 20
21.91373809579841
 30
0.0
  0
VERTEX
  5
BA
330
69
100
AcDbEntity
  8
DEFAULT
100
AcDbVertex
100
AcDb2dVertex
 10
42.18923429824703
 20
21.88036653146161
 30
0.0
  0
VERTEX
  5
BB
330
69
100
AcDbEntity
  8
DEFAULT
100
AcDbVertex
100
AcDb2dVertex
 10
42.21579283704722
 20
21.8460739023111
 30
0.0
  0
VERTEX
  5
BC
330
69
100
AcDbEntity
  8
DEFAULT
100
AcDbVertex
100
AcDb2dVertex
 10
42.24117229579802
 20
21.81089971474731
 30
0.0
  0
VERTEX
  5
BD
330
69
100
AcDbEntity
  8
DEFAULT
100
AcDbVertex
100
AcDb2dVertex
 10
46.22389087567302
 20
16.03627544762231
 30
0.0
  0
VERTEX
  5
BE
330
69
100
AcDbEntity
  8
DEFAULT
100
AcDbVertex
100
AcDb2dVertex
 10
46.30271464490315
 20
15.87059563388496
 30
0.0
  0
VERTEX
  5
BF
330
69
100
AcDbEntity
  8
DEFAULT
100
AcDbVertex
100
AcDb2dVertex
 10
46.38683579671854
 20
15.70754159654476
 30
0.0
  0
VERTEX
  5
C0
330
69
100
AcDbEntity
  8
DEFAULT
100
AcDbVertex
100
AcDb2dVertex
 10
46.47616697642167
 20
15.54728265729788
 30
0.0
  0
VERTEX
  5
C1
330
69
100
AcDbEntity
  8
DEFAULT
100
AcDbVertex
100
AcDb2dVertex
 10
46.5706154190181
 20
15.38998523530122
 30
0.0
  0
VERTEX
  5
C2
330
69
100
AcDbEntity
  8
DEFAULT
100
AcDbVertex
100
AcDb2dVertex
 10
46.67008304554723
 20
15.2358126743562
 30
0.0
  0
VERTEX
  5
C3
330
69
100
AcDbEntity
  8
DEFAULT
100
AcDbVertex
100
AcDb2dVertex
 10
46.77446656493137
 20
15.08492507328617
 30
0.0
  0
VERTEX
  5
C4
330
69
100
AcDbEntity
  8
DEFAULT
100
AcDbVertex
100
AcDb2dVertex
 10
46.88365758123724
 20
14.93747911968358
 30
0.0
  0
VERTEX
  5
C5
330
69
100
AcDbEntity
  8
DEFAULT
100
AcDbVertex
100
AcDb2dVertex
 10
46.99754270623851
 20
14.79362792719935
 30
0.0
  0
VERTEX
  5
C6
330
69
100
AcDbEntity
  8
DEFAULT
100
AcDbVertex
100
AcDb2dVertex
 10
47.1160036771626
 20
14.65352087654377
 30
0.0
  0
VERTEX
  5
C7
330
69
100
AcDbEntity
  8
DEFAULT
100
AcDbVertex
100
AcDb2dVertex
 10
47.23891747949941
 20
14.51730346036361
 30
0.0
  0
VERTEX
  5
C8
330
69
100
AcDbEntity
  8
DEFAULT
100
AcDbVertex
100
AcDb2dVertex
 10
47.36615647474429
 20
14.38511713215696
 30
0.0
  0
VERTEX
  5
C9
330
69
100
AcDbEntity
  8
DEFAULT
100
AcDbVertex
100
AcDb2dVertex
 10
47.49758853294303
 20
14.2570991593823
 30
0.0
  0
SEQEND
  5
CA
330
69
100
AcDbEntity
  8
DEFAULT
  0
LINE
  5
CB
330
1F
100
AcDbEntity
  8
DEFAULT
100
AcDbLine
 10
11.71708317943
 20
22.4324029590123
 30
0.0
 11
11.59327677841
 21
23.5152773186023
 31
0.0
  0
POLYLINE
  5
CC
330
1F
100
AcDbEntity
  8
DEFAULT
100
AcDb2dPolyline
 66
     1
 10
0.0
 20
0.0
 30
0.0
  0
VERTEX
  5
CD
330
CC
100
AcDbEntity
  8
DEFAULT
100
AcDbVertex
100
AcDb2dVertex
 10
11.65839135755
 20
22.42847187181231
 30
0.0
  0
VERTEX
  5
CE
330
CC
100
AcDbEntity
  8
DEFAULT
100
AcDbVertex
100
AcDb2dVertex
 10
11.66432135647519
 20
22.55552423391899
 30
0.0
  0
VERTEX
  5
CF
330
CC
100
AcDbEntity
  8
DEFAULT
100
AcDbVertex
100
AcDb2dVertex
 10
11.66670222875785
 20
22.6826923733334
 30
0.0
  0
VERTEX
  5
D0
330
CC
100
AcDbEntity
  8
DEFAULT
100
AcDbVertex
100
AcDb2dVertex
 10
11.66547347278927
 20
22.80987699741796
 30
0.0
  0
VERTEX
  5
D1
330
CC
100
AcDbEntity
  8
DEFAULT
100
AcDbVertex
100
AcDb2dVertex
 10
11.66057385366416
 20
22.93697266642657
 30
0.0
  0
VERTEX
  5
D2
330
CC
100
AcDbEntity
  8
DEFAULT
100
AcDbVertex
100
AcDb2dVertex
 10
11.65193386560998
 20
23.0638693163256
 30
0.0
  0
VERTEX
  5
D3
330
CC
100
AcDbEntity
  8
DEFAULT
100
AcDbVertex
100
AcDb2dVertex
 10
11.63945165268174
 20
23.19044453303979
 30
0.0
  0
VERTEX
  5
D4
330
CC
100
AcDbEntity
  8
DEFAULT
100
AcDbVertex
100
AcDb2dVertex
 10
11.62301441297358
 20
23.31656805733648
 30
0.0
  0
VERTEX
  5
D5
330
CC
100
AcDbEntity
  8
DEFAULT
100
AcDbVertex
100
AcDb2dVertex
 10
11.60249791090839
 20
23.44209059939504
 30
0.0
  0
VERTEX
  5
D6
330
CC
100
AcDbEntity
  8
DEFAULT
100
AcDbVertex
100
AcDb2dVertex
 10
11.57777623095913
 20
23.56685352994848
 30
0.0
  0
VERTEX
  5
D7
330
CC
100
AcDbEntity
  8
DEFAULT
100
AcDbVertex
100
AcDb2dVertex
 10
11.56380050010629
 20
23.62889512837809
 30
0.0
  0
VERTEX
  5
D8
330
CC
100
AcDbEntity
  8
DEFAULT
100
AcDbVertex
100
AcDb2dVertex
 10
11.54872817147
 20
23.69067989253231
 30
0.0
  0
VERTEX
  5
D9
330
CC
100
AcDbEntity
  8
DEFAULT
100
AcDbVertex
100
AcDb2dVertex
 10
11.51621163217363
 20
23.80993442311478
 30
0.0
  0
VERTEX
  5
DA
330
CC
100
AcDbEntity
  8
DEFAULT
100
AcDbVertex
100
AcDb2dVertex
 10
11.4984433179929
 20
23.86916762032314
 30
0.0
  0
VERTEX
  5
DB
330
CC
100
AcDbEntity
  8
DEFAULT
100
AcDbVertex
100
AcDb2dVertex
 10
11.47962131306499
 20
23.92807870371508
 30
0.0
  0
VERTEX
  5
DC
330
CC
100
AcDbEntity
  8
DEFAULT
100
AcDbVertex
100
AcDb2dVertex
 10
11.45971037159577
 20
23.98662312196975
 30
0.0
  0
VERTEX
  5
DD
330
CC
100
AcDbEntity
  8
DEFAULT
100
AcDbVertex
100
AcDb2dVertex
 10
11.43867524779113
 20
24.04475632376627
 30
0.0
  0
VERTEX
  5
DE
330
CC
100
AcDbEntity
  8
DEFAULT
100
AcDbVertex
100
AcDb2dVertex
 10
11.41648069585695
 20
24.10243375778379
 30
0.0
  0
VERTEX
  5
DF
330
CC
100
AcDbEntity
  8
DEFAULT
100
AcDbVertex
100
AcDb2dVertex
 10
11.39309146999911
 20
24.15961087270144
 30
0.0
  0
VERTEX
  5
E0
330
CC
100
AcDbEntity
  8
DEFAULT
100
AcDbVertex
100
AcDb2dVertex
 10
11.36850243375927
 20
24.21626082660236
 30
0.0
  0
VERTEX
  5
E1
330
CC
100
AcDbEntity
  8
DEFAULT
100
AcDbVertex
100
AcDb2dVertex
 10
11.34282888802213
 20
24.27242761518572
 30
0.0
  0
VERTEX
  5
E2
330
CC
100
AcDbEntity
  8
DEFAULT
100
AcDbVertex
100
AcDb2dVertex
 10
11.28880990893786
 20
24.38355851681244
 30
0.0
  0
VERTEX
  5
E3
330
CC
100
AcDbEntity
  8
DEFAULT
100
AcDbVertex
100
AcDb2dVertex
 10
8.712630850755762
 20
29.17496608889368
 30
0.0
  0
VERTEX
  5
E4
330
CC
100
AcDbEntity
  8
DEFAULT
100
AcDbVertex
100
AcDb2dVertex
 10
8.651766302123356
 20
29.28254399582964
 30
0.0
  0
VERTEX
  5
E5
330
CC
100
AcDbEntity
  8
DEFAULT
100
AcDbVertex
100
AcDb2dVertex
 10
8.619797473575693
 20
29.33540733236656
 30
0.0
  0
VERTEX
  5
E6
330
CC
100
AcDbEntity
  8
DEFAULT
100
AcDbVertex
100
AcDb2dVertex
 10
8.586514442027092
 20
29.38747681469042
 30
0.0
  0
VERTEX
  5
E7
330
CC
100
AcDbEntity
  8
DEFAULT
100
AcDbVertex
100
AcDb2dVertex
 10
8.551729443434006
 20
29.43861590314714
 30
0.0
  0
VERTEX
  5
E8
330
CC
100
AcDbEntity
  8
DEFAULT
100
AcDbVertex
100
AcDb2dVertex
 10
8.515373158118582
 20
29.48867222824346
 30
0.0
  0
VERTEX
  5
E9
330
CC
100
AcDbEntity
  8
DEFAULT
100
AcDbVertex
100
AcDb2dVertex
 10
8.477405877494387
 20
29.53748946302633
 30
0.0
  0
VERTEX
  5
EA
330
CC
100
AcDbEntity
  8
DEFAULT
100
AcDbVertex
100
AcDb2dVertex
 10
8.457805705008242
 20
29.56138456937741
 30
0.0
  0
VERTEX
  5
EB
330
CC
100
AcDbEntity
  8
DEFAULT
100
AcDbVertex
100
AcDb2dVertex
 10
8.437787892974995
 20
29.58491128054273
 30
0.0
  0
VERTEX
  5
EC
330
CC
100
AcDbEntity
  8
DEFAULT
100
AcDbVertex
100
AcDb2dVertex
 10
8.417347477821341
 20
29.60805005565317
 30
0.0
  0
VERTEX
  5
ED
330
CC
100
AcDbEntity
  8
DEFAULT
100
AcDbVertex
100
AcDb2dVertex
 10
8.396479495973974
 20
29.63078135383959
 30
0.0
  0
VERTEX
  5
EE
330
CC
100
AcDbEntity
  8
DEFAULT
100
AcDbVertex
100
AcDb2dVertex
 10
8.375178983859595
 20
29.65308563423287
 30
0.0
  0
VERTEX
  5
EF
330
CC
100
AcDbEntity
  8
DEFAULT
100
AcDbVertex
100
AcDb2dVertex
 10
8.353440977904896
 20
29.67494335596387
 30
0.0
  0
VERTEX
  5
F0
330
CC
100
AcDbEntity
  8
DEFAULT
100
AcDbVertex
100
AcDb2dVertex
 10
8.331260514536574
 20
29.69633497816347
 30
0.0
  0
VERTEX
  5
F1
330
CC
100
AcDbEntity
  8
DEFAULT
100
AcDbVertex
100
AcDb2dVertex
 10
8.308632630181325
 20
29.71724095996253
 30
0.0
  0
VERTEX
  5
F2
330
CC
100
AcDbEntity
  8
DEFAULT
100
AcDbVertex
100
AcDb2dVertex
 10
8.285552361265847
 20
29.73764176049193
 30
0.0
  0
VERTEX
  5
F3
330
CC
100
AcDbEntity
  8
DEFAULT
100
AcDbVertex
100
AcDb2dVertex
 10
8.262014744216835
 20
29.75751783888253
 30
0.0
  0
VERTEX
  5
F4
330
CC
100
AcDbEntity
  8
DEFAULT
100
AcDbVertex
100
AcDb2dVertex
 10
8.238018541083092
 20
29.77685299358388
 30
0.0
  0
VERTEX
  5
F5
330
CC
100
AcDbEntity
  8
DEFAULT
100
AcDbVertex
100
AcDb2dVertex
 10
8.213577416401844
 20
29.79564438032029
 30
0.0
  0
VERTEX
  5
F6
330
CC
100
AcDbEntity
  8
DEFAULT
100
AcDbVertex
100
AcDb2dVertex
 10
8.188708760332425
 20
29.81389249413473
 30
0.0
  0
VERTEX
  5
F7
330
CC
100
AcDbEntity
  8
DEFAULT
100
AcDbVertex
100
AcDb2dVertex
 10
8.16342996303417
 20
29.83159783007018
 30
0.0
  0
VERTEX
  5
F8
330
CC
100
AcDbEntity
  8
DEFAULT
100
AcDbVertex
100
AcDb2dVertex
 10
8.13775841466641
 20
29.84876088316963
 30
0.0
  0
VERTEX
  5
F9
330
CC
100
AcDbEntity
  8
DEFAULT
100
AcDbVertex
100
AcDb2dVertex
 10
8.111711505388477
 20
29.86538214847605
 30
0.0
  0
VERTEX
  5
FA
330
CC
100
AcDbEntity
  8
DEFAULT
100
AcDbVertex
100
AcDb2dVertex
 10
8.085306625359708
 20
29.88146212103243
 30
0.0
  0
VERTEX
  5
FB
330
CC
100
AcDbEntity
  8
DEFAULT
100
AcDbVertex
100
AcDb2dVertex
 10
8.058561164739436
 20
29.89700129588174
 30
0.0
  0
VERTEX
  5
FC
330
CC
100
AcDbEntity
  8
DEFAULT
100
AcDbVertex
100
AcDb2dVertex
 10
8.031492513686992
 20
29.91200016806697
 30
0.0
  0
VERTEX
  5
FD
330
CC
100
AcDbEntity
  8
DEFAULT
100
AcDbVertex
100
AcDb2dVertex
 10
8.004118062361709
 20
29.9264592326311
 30
0.0
  0
VERTEX
  5
FE
330
CC
100
AcDbEntity
  8
DEFAULT
100
AcDbVertex
100
AcDb2dVertex
 10
7.976455200922919
 20
29.9403789846171
 30
0.0
  0
VERTEX
  5
FF
330
CC
100
AcDbEntity
  8
DEFAULT
100
AcDbVertex
100
AcDb2dVertex
 10
7.948521319529959
 20
29.95375991906796
 30
0.0
  0
VERTEX
  5
100
330
CC
100
AcDbEntity
  8
DEFAULT
100
AcDbVertex
100
AcDb2dVertex
 10
7.920333808342161
 20
29.96660253102666
 30
0.0
  0
VERTEX
  5
101
330
CC
100
AcDbEntity
  8
DEFAULT
100
AcDbVertex
100
AcDb2dVertex
 10
7.891910057518858
 20
29.97890731553618
 30
0.0
  0
VERTEX
  5
102
330
CC
100
AcDbEntity
  8
DEFAULT
100
AcDbVertex
100
AcDb2dVertex
 10
7.863267457219384
 20
29.99067476763949
 30
0.0
  0
VERTEX
  5
103
330
CC
100
AcDbEntity
  8
DEFAULT
100
AcDbVertex
100
AcDb2dVertex
 10
7.834423397603071
 20
30.00190538237959
 30
0.0
  0
VERTEX
  5
104
330
CC
100
AcDbEntity
  8
DEFAULT
100
AcDbVertex
100
AcDb2dVertex
 10
7.805393867953833
 20
30.01260061879913
 30
0.0
  0
VERTEX
  5
105
330
CC
100
AcDbEntity
  8
DEFAULT
100
AcDbVertex
100
AcDb2dVertex
 10
7.776189254053908
 20
30.02276579193947
 30
0.0
  0
VERTEX
  5
106
330
CC
100
AcDbEntity
  8
DEFAULT
100
AcDbVertex
100
AcDb2dVertex
 10
7.746818540810115
 20
30.03240718084165
 30
0.0
  0
VERTEX
  5
107
330
CC
100
AcDbEntity
  8
DEFAULT
100
AcDbVertex
100
AcDb2dVertex
 10
7.717290713129271
 20
30.04153106454673
 30
0.0
  0
VERTEX
  5
108
330
CC
100
AcDbEntity
  8
DEFAULT
100
AcDbVertex
100
AcDb2dVertex
 10
7.657799654083707
 20
30.05825143252974
 30
0.0
  0
VERTEX
  5
109
330
CC
100
AcDbEntity
  8
DEFAULT
100
AcDbVertex
100
AcDb2dVertex
 10
7.59778795617176
 20
30.07297712821683
 30
0.0
  0
VERTEX
  5
10A
330
CC
100
AcDbEntity
  8
DEFAULT
100
AcDbVertex
100
AcDb2dVertex
 10
7.537327498647978
 20
30.08575838393635
 30
0.0
  0
VERTEX
  5
10B
330
CC
100
AcDbEntity
  8
DEFAULT
100
AcDbVertex
100
AcDb2dVertex
 10
7.476490160766907
 20
30.09664543201665
 30
0.0
  0
VERTEX
  5
10C
330
CC
100
AcDbEntity
  8
DEFAULT
100
AcDbVertex
100
AcDb2dVertex
 10
7.415347821783095
 20
30.10568850478608
 30
0.0
  0
VERTEX
  5
10D
330
CC
100
AcDbEntity
  8
DEFAULT
100
AcDbVertex
100
AcDb2dVertex
 10
7.353972360951088
 20
30.11293783457298
 30
0.0
  0
VERTEX
  5
10E
330
CC
100
AcDbEntity
  8
DEFAULT
100
AcDbVertex
100
AcDb2dVertex
 10
7.292429382080743
 20
30.11845728373717
 30
0.0
  0
VERTEX
  5
10F
330
CC
100
AcDbEntity
  8
DEFAULT
100
AcDbVertex
100
AcDb2dVertex
 10
7.230759387203165
 20
30.1223652347643
 30
0.0
  0
VERTEX
  5
110
330
CC
100
AcDbEntity
  8
DEFAULT
100
AcDbVertex
100
AcDb2dVertex
 10
7.168996602904766
 20
30.12479370017147
 30
0.0
  0
VERTEX
  5
111
330
CC
100
AcDbEntity
  8
DEFAULT
100
AcDbVertex
100
AcDb2dVertex
 10
7.107175255771963
 20
30.12587469247583
 30
0.0
  0
VERTEX
  5
112
330
CC
100
AcDbEntity
  8
DEFAULT
100
AcDbVertex
100
AcDb2dVertex
 10
7.04532957239117
 20
30.12574022419447
 30
0.0
  0
VERTEX
  5
113
330
CC
100
AcDbEntity
  8
DEFAULT
100
AcDbVertex
100
AcDb2dVertex
 10
6.983493779348803
 20
30.12452230784452
 30
0.0
  0
VERTEX
  5
114
330
CC
100
AcDbEntity
  8
DEFAULT
100
AcDbVertex
100
AcDb2dVertex
 10
2.745691117664071
 20
29.92919307108241
 30
0.0
  0
VERTEX
  5
115
330
CC
100
AcDbEntity
  8
DEFAULT
100
AcDbVertex
100
AcDb2dVertex
 10
0.0
 20
29.89409895719231
 30
0.0
  0
VERTEX
  5
116
330
CC
100
AcDbEntity
  8
DEFAULT
100
AcDbVertex
100
AcDb2dVertex
 10
-2.74569111766407
 20
29.92919307108241
 30
0.0
  0
VERTEX
  5
117
330
CC
100
AcDbEntity
  8
DEFAULT
100
AcDbVertex
100
AcDb2dVertex
 10
-5.489490226496889
 20
30.03669646436639
 30
0.0
  0
VERTEX
  5
118
330
CC
100
AcDbEntity
  8
DEFAULT
100
AcDbVertex
100
AcDb2dVertex
 10
-6.859988770625002
 20
30.11936418100731
 30
0.0
  0
VERTEX
  5
119
330
CC
100
AcDbEntity
  8
DEFAULT
100
AcDbVertex
100
AcDb2dVertex
 10
-6.983493779348803
 20
30.12452230784452
 30
0.0
  0
VERTEX
  5
11A
330
CC
100
AcDbEntity
  8
DEFAULT
100
AcDbVertex
100
AcDb2dVertex
 10
-7.04532957239117
 20
30.12574022419447
 30
0.0
  0
VERTEX
  5
11B
330
CC
100
AcDbEntity
  8
DEFAULT
100
AcDbVertex
100
AcDb2dVertex
 10
-7.107175255771963
 20
30.12587469247583
 30
0.0
  0
VERTEX
  5
11C
330
CC
100
AcDbEntity
  8
DEFAULT
100
AcDbVertex
100
AcDb2dVertex
 10
-7.168996602904766
 20
30.12479370017147
 30
0.0
  0
VERTEX
  5
11D
330
CC
100
AcDbEntity
  8
DEFAULT
100
AcDbVertex
100
AcDb2dVertex
 10
-7.230759387203165
 20
30.1223652347643
 30
0.0
  0
VERTEX
  5
11E
330
CC
100
AcDbEntity
  8
DEFAULT
100
AcDbVertex
100
AcDb2dVertex
 10
-7.292429382080743
 20
30.11845728373717
 30
0.0
  0
VERTEX
  5
11F
330
CC
100
AcDbEntity
  8
DEFAULT
100
AcDbVertex
100
AcDb2dVertex
 10
-7.353972360951088
 20
30.11293783457298
 30
0.0
  0
VERTEX
  5
120
330
CC
100
AcDbEntity
  8
DEFAULT
100
AcDbVertex
100
AcDb2dVertex
 10
-7.415347821783095
 20
30.10568850478608
 30
0.0
  0
VERTEX
  5
121
330
CC
100
AcDbEntity
  8
DEFAULT
100
AcDbVertex
100
AcDb2dVertex
 10
-7.476490160766907
 20
30.09664543201665
 30
0.0
  0
VERTEX
  5
122
330
CC
100
AcDbEntity
  8
DEFAULT
100
AcDbVertex
100
AcDb2dVertex
 10
-7.537327498647978
 20
30.08575838393635
 30
0.0
  0
VERTEX
  5
123
330
CC
100
AcDbEntity
  8
DEFAULT
100
AcDbVertex
100
AcDb2dVertex
 10
-7.59778795617176
 20
30.07297712821683
 30
0.0
  0
VERTEX
  5
124
330
CC
100
AcDbEntity
  8
DEFAULT
100
AcDbVertex
100
AcDb2dVertex
 10
-7.657799654083707
 20
30.05825143252974
 30
0.0
  0
VERTEX
  5
125
330
CC
100
AcDbEntity
  8
DEFAULT
100
AcDbVertex
100
AcDb2dVertex
 10
-7.717290713129271
 20
30.04153106454673
 30
0.0
  0
VERTEX
  5
126
330
CC
100
AcDbEntity
  8
DEFAULT
100
AcDbVertex
100
AcDb2dVertex
 10
-7.746818540810115
 20
30.03240718084165
 30
0.0
  0
VERTEX
  5
127
330
CC
100
AcDbEntity
  8
DEFAULT
100
AcDbVertex
100
AcDb2dVertex
 10
-7.776189254053908
 20
30.02276579193947
 30
0.0
  0
VERTEX
  5
128
330
CC
100
AcDbEntity
  8
DEFAULT
100
AcDbVertex
100
AcDb2dVertex
 10
-7.805393867953833
 20
30.01260061879913
 30
0.0
  0
VERTEX
  5
129
330
CC
100
AcDbEntity
  8
DEFAULT
100
AcDbVertex
100
AcDb2dVertex
 10
-7.834423397603071
 20
30.00190538237959
 30
0.0
  0
VERTEX
  5
12A
330
CC
100
AcDbEntity
  8
DEFAULT
100
AcDbVertex
100
AcDb2dVertex
 10
-7.863267457219384
 20
29.99067476763949
 30
0.0
  0
VERTEX
  5
12B
330
CC
100
AcDbEntity
  8
DEFAULT
100
AcDbVertex
100
AcDb2dVertex
 10
-7.891910057518858
 20
29.97890731553618
 30
0.0
  0
VERTEX
  5
12C
330
CC
100
AcDbEntity
  8
DEFAULT
100
AcDbVertex
100
AcDb2dVertex
 10
-7.920333808342161
 20
29.96660253102666
 30
0.0
  0
VERTEX
  5
12D
330
CC
100
AcDbEntity
  8
DEFAULT
100
AcDbVertex
100
AcDb2dVertex
 10
-7.948521319529959
 20
29.95375991906796
 30
0.0
  0
VERTEX
  5
12E
330
CC
100
AcDbEntity
  8
DEFAULT
100
AcDbVertex
100
AcDb2dVertex
 10
-7.976455200922919
 20
29.9403789846171
 30
0.0
  0
VERTEX
  5
12F
330
CC
100
AcDbEntity
  8
DEFAULT
100
AcDbVertex
100
AcDb2dVertex
 10
-8.004118062361709
 20
29.92645923263109
 30
0.0
  0
VERTEX
  5
130
330
CC
100
AcDbEntity
  8
DEFAULT
100
AcDbVertex
100
AcDb2dVertex
 10
-8.031492513686992
 20
29.91200016806697
 30
0.0
  0
VERTEX
  5
131
330
CC
100
AcDbEntity
  8
DEFAULT
100
AcDbVertex
100
AcDb2dVertex
 10
-8.058561164739436
 20
29.89700129588174
 30
0.0
  0
VERTEX
  5
132
330
CC
100
AcDbEntity
  8
DEFAULT
100
AcDbVertex
100
AcDb2dVertex
 10
-8.085306625359708
 20
29.88146212103243
 30
0.0
  0
VERTEX
  5
133
330
CC
100
AcDbEntity
  8
DEFAULT
100
AcDbVertex
100
AcDb2dVertex
 10
-8.111711505388477
 20
29.86538214847605
 30
0.0
  0
VERTEX
  5
134
330
CC
100
AcDbEntity
  8
DEFAULT
100
AcDbVertex
100
AcDb2dVertex
 10
-8.13775841466641
 20
29.84876088316962
 30
0.0
  0
VERTEX
  5
135
330
CC
100
AcDbEntity
  8
DEFAULT
100
AcDbVertex
100
AcDb2dVertex
 10
-8.16342996303417
 20
29.83159783007018
 30
0.0
  0
VERTEX
  5
136
330
CC
100
AcDbEntity
  8
DEFAULT
100
AcDbVertex
100
AcDb2dVertex
 10
-8.188708760332425
 20
29.81389249413473
 30
0.0
  0
VERTEX
  5
137
330
CC
100
AcDbEntity
  8
DEFAULT
100
AcDbVertex
100
AcDb2dVertex
 10
-8.213577416401844
 20
29.79564438032029
 30
0.0
  0
VERTEX
  5
138
330
CC
100
AcDbEntity
  8
DEFAULT
100
AcDbVertex
100
AcDb2dVertex
 10
-8.238018541083092
 20
29.77685299358388
 30
0.0
  0
VERTEX
  5
139
330
CC
100
AcDbEntity
  8
DEFAULT
100
AcDbVertex
100
AcDb2dVertex
 10
-8.262014744216835
 20
29.75751783888253
 30
0.0
  0
VERTEX
  5
13A
330
CC
100
AcDbEntity
  8
DEFAULT
100
AcDbVertex
100
AcDb2dVertex
 10
-8.285552361265847
 20
29.73764176049193
 30
0.0
  0
VERTEX
  5
13B
330
CC
100
AcDbEntity
  8
DEFAULT
100
AcDbVertex
100
AcDb2dVertex
 10
-8.308632630181325
 20
29.71724095996253
 30
0.0
  0
VERTEX
  5
13C
330
CC
100
AcDbEntity
  8
DEFAULT
100
AcDbVertex
100
AcDb2dVertex
 10
-8.331260514536574
 20
29.69633497816347
 30
0.0
  0
VERTEX
  5
13D
330
CC
100
AcDbEntity
  8
DEFAULT
100
AcDbVertex
100
AcDb2dVertex
 10
-8.353440977904896
 20
29.67494335596387
 30
0.0
  0
VERTEX
  5
13E
330
CC
100
AcDbEntity
  8
DEFAULT
100
AcDbVertex
100
AcDb2dVertex
 10
-8.375178983859595
 20
29.65308563423287
 30
0.0
  0
VERTEX
  5
13F
330
CC
100
AcDbEntity
  8
DEFAULT
100
AcDbVertex
100
AcDb2dVertex
 10
-8.396479495973974
 20
29.63078135383959
 30
0.0
  0
VERTEX
  5
140
330
CC
100
AcDbEntity
  8
DEFAULT
100
AcDbVertex
100
AcDb2dVertex
 10
-8.417347477821341
 20
29.60805005565317
 30
0.0
  0
VERTEX
  5
141
330
CC
100
AcDbEntity
  8
DEFAULT
100
AcDbVertex
100
AcDb2dVertex
 10
-8.437787892974995
 20
29.58491128054273
 30
0.0
  0
VERTEX
  5
142
330
CC
100
AcDbEntity
  8
DEFAULT
100
AcDbVertex
100
AcDb2dVertex
 10
-8.457805705008242
 20
29.56138456937741
 30
0.0
  0
VERTEX
  5
143
330
CC
100
AcDbEntity
  8
DEFAULT
100
AcDbVertex
100
AcDb2dVertex
 10
-8.477405877494387
 20
29.53748946302633
 30
0.0
  0
VERTEX
  5
144
330
CC
100
AcDbEntity
  8
DEFAULT
100
AcDbVertex
100
AcDb2dVertex
 10
-8.515373158118582
 20
29.48867222824346
 30
0.0
  0
VERTEX
  5
145
330
CC
100
AcDbEntity
  8
DEFAULT
100
AcDbVertex
100
AcDb2dVertex
 10
-8.551729443434006
 20
29.43861590314713
 30
0.0
  0
VERTEX
  5
146
330
CC
100
AcDbEntity
  8
DEFAULT
100
AcDbVertex
100
AcDb2dVertex
 10
-8.586514442027092
 20
29.38747681469042
 30
0.0
  0
VERTEX
  5
147
330
CC
100
AcDbEntity
  8
DEFAULT
100
AcDbVertex
100
AcDb2dVertex
 10
-8.619797473575693
 20
29.33540733236656
 30
0.0
  0
VERTEX
  5
148
330
CC
100
AcDbEntity
  8
DEFAULT
100
AcDbVertex
100
AcDb2dVertex
 10
-8.651766302123356
 20
29.28254399582964
 30
0.0
  0
VERTEX
  5
149
330
CC
100
AcDbEntity
  8
DEFAULT
100
AcDbVertex
100
AcDb2dVertex
 10
-8.712630850755762
 20
29.17496608889368
 30
0.0
  0
VERTEX
  5
14A
330
CC
100
AcDbEntity
  8
DEFAULT
100
AcDbVertex
100
AcDb2dVertex
 10
-11.28880990893786
 20
24.38355851681244
 30
0.0
  0
VERTEX
  5
14B
330
CC
100
AcDbEntity
  8
DEFAULT
100
AcDbVertex
100
AcDb2dVertex
 10
-11.34282888802213
 20
24.27242761518572
 30
0.0
  0
VERTEX
  5
14C
330
CC
100
AcDbEntity
  8
DEFAULT
100
AcDbVertex
100
AcDb2dVertex
 10
-11.36850243375927
 20
24.21626082660236
 30
0.0
  0
VERTEX
  5
14D
330
CC
100
AcDbEntity
  8
DEFAULT
100
AcDbVertex
100
AcDb2dVertex
 10
-11.39309146999912
 20
24.15961087270144
 30
0.0
  0
VERTEX
  5
14E
330
CC
100
AcDbEntity
  8
DEFAULT
100
AcDbVertex
100
AcDb2dVertex
 10
-11.41648069585695
 20
24.10243375778379
 30
0.0
  0
VERTEX
  5
14F
330
CC
100
AcDbEntity
  8
DEFAULT
100
AcDbVertex
100
AcDb2dVertex
 10
-11.43867524779113
 20
24.04475632376627
 30
0.0
  0
VERTEX
  5
150
330
CC
100
AcDbEntity
  8
DEFAULT
100
AcDbVertex
100
AcDb2dVertex
 10
-11.45971037159577
 20
23.98662312196975
 30
0.0
  0
VERTEX
  5
151
330
CC
100
AcDbEntity
  8
DEFAULT
100
AcDbVertex
100
AcDb2dVertex
 10
-11.47962131306499
 20
23.92807870371508
 30
0.0
  0
VERTEX
  5
152
330
CC
100
AcDbEntity
  8
DEFAULT
100
AcDbVertex
100
AcDb2dVertex
 10
-11.4984433179929
 20
23.86916762032314
 30
0.0
  0
VERTEX
  5
153
330
CC
100
AcDbEntity
  8
DEFAULT
100
AcDbVertex
100
AcDb2dVertex
 10
-11.51621163217363
 20
23.80993442311478
 30
0.0
  0
VERTEX
  5
154
330
CC
100
AcDbEntity
  8
DEFAULT
100
AcDbVertex
100
AcDb2dVertex
 10
-11.54872817147
 20
23.69067989253231
 30
0.0
  0
VERTEX
  5
155
330
CC
100
AcDbEntity
  8
DEFAULT
100
AcDbVertex
100
AcDb2dVertex
 10
-11.56380050010629
 20
23.62889512837809
 30
0.0
  0
VERTEX
  5
156
330
CC
100
AcDbEntity
  8
DEFAULT
100
AcDbVertex
100
AcDb2dVertex
 10
-11.57777623095913
 20
23.56685352994848
 30
0.0
  0
VERTEX
  5
157
330
CC
100
AcDbEntity
  8
DEFAULT
100
AcDbVertex
100
AcDb2dVertex
 10
-11.60249791090839
 20
23.44209059939505
 30
0.0
  0
VERTEX
  5
158
330
CC
100
AcDbEntity
  8
DEFAULT
100
AcDbVertex
100
AcDb2dVertex
 10
-11.62301441297358
 20
23.31656805733648
 30
0.0
  0
VERTEX
  5
159
330
CC
100
AcDbEntity
  8
DEFAULT
100
AcDbVertex
100
AcDb2dVertex
 10
-11.63945165268174
 20
23.19044453303979
 30
0.0
  0
VERTEX
  5
15A
330
CC
100
AcDbEntity
  8
DEFAULT
100
AcDbVertex
100
AcDb2dVertex
 10
-11.65193386560998
 20
23.0638693163256
 30
0.0
  0
VERTEX
  5
15B
330
CC
100
AcDbEntity
  8
DEFAULT
100
AcDbVertex
100
AcDb2dVertex
 10
-11.66057385366416
 20
22.93697266642657
 30
0.0
  0
VERTEX
  5
15C
330
CC
100
AcDbEntity
  8
DEFAULT
100
AcDbVertex
100
AcDb2dVertex
 10
-11.66547347278927
 20
22.80987699741796
 30
0.0
  0
VERTEX
  5
15D
330
CC
100
AcDbEntity
  8
DEFAULT
100
AcDbVertex
100
AcDb2dVertex
 10
-11.66670222875785
 20
22.6826923733334
 30
0.0
  0
VERTEX
  5
15E
330
CC
100
AcDbEntity
  8
DEFAULT
100
AcDbVertex
100
AcDb2dVertex
 10
-11.66432135647519
 20
22.55552423391899
 30
0.0
  0
VERTEX
  5
15F
330
CC
100
AcDbEntity
  8
DEFAULT
100
AcDbVertex
100
AcDb2dVertex
 10
-11.65839135755
 20
22.42847187181231
 30
0.0
  0
SEQEND
  5
160
330
CC
100
AcDbEntity
  8
DEFAULT
  0
POLYLINE
  5
161
330
1F
100
AcDbEntity
  8
DEFAULT
100
AcDb2dPolyline
 66
     1
 10
0.0
 20
0.0
 30
0.0
  0
VERTEX
  5
162
330
161
100
AcDbEntity
  8
DEFAULT
100
AcDbVertex
100
AcDb2dVertex
 10
-10.361373
 20
16.54907032279231
 30
0.0
  0
VERTEX
  5
163
330
161
100
AcDbEntity
  8
DEFAULT
100
AcDbVertex
100
AcDb2dVertex
 10
-10.30245497492787
 20
16.45748673632196
 30
0.0
  0
VERTEX
  5
164
330
161
100
AcDbEntity
  8
DEFAULT
100
AcDbVertex
100
AcDb2dVertex
 10
-10.24534780932398
 20
16.3648242182578
 30
0.0
  0
VERTEX
  5
165
330
161
100
AcDbEntity
  8
DEFAULT
100
AcDbVertex
100
AcDb2dVertex
 10
-10.13579356572897
 20
16.17674696808991
 30
0.0
  0
VERTEX
  5
166
330
161
100
AcDbEntity
  8
DEFAULT
100
AcDbVertex
100
AcDb2dVertex
 10
-10.03116528763101
 20
15.98580773377234
 30
0.0
  0
VERTEX
  5
167
330
161
100
AcDbEntity
  8
DEFAULT
100
AcDbVertex
100
AcDb2dVertex
 10
-9.929917993446193
 20
15.79297567678881
 30
0.0
  0
VERTEX
  5
168
330
161
100
AcDbEntity
  8
DEFAULT
100
AcDbVertex
100
AcDb2dVertex
 10
-9.07762479316675
 20
14.02820356583759
 30
0.0
  0
VERTEX
  5
169
330
161
100
AcDbEntity
  8
DEFAULT
100
AcDbVertex
100
AcDb2dVertex
 10
-8.977853881539229
 20
13.83453912114952
 30
0.0
  0
VERTEX
  5
16A
330
161
100
AcDbEntity
  8
DEFAULT
100
AcDbVertex
100
AcDb2dVertex
 10
-8.925305921756708
 20
13.73932054797288
 30
0.0
  0
VERTEX
  5
16B
330
161
100
AcDbEntity
  8
DEFAULT
100
AcDbVertex
100
AcDb2dVertex
 10
-8.870486137026045
 20
13.64552563361198
 30
0.0
  0
VERTEX
  5
16C
330
161
100
AcDbEntity
  8
DEFAULT
100
AcDbVertex
100
AcDb2dVertex
 10
-8.813021910620513
 20
13.55341529759491
 30
0.0
  0
VERTEX
  5
16D
330
161
100
AcDbEntity
  8
DEFAULT
100
AcDbVertex
100
AcDb2dVertex
 10
-8.78318168906257
 20
13.50807338381786
 30
0.0
  0
VERTEX
  5
16E
330
161
100
AcDbEntity
  8
DEFAULT
100
AcDbVertex
100
AcDb2dVertex
 10
-8.752540625813388
 20
13.46325045944979
 30
0.0
  0
VERTEX
  5
16F
330
161
100
AcDbEntity
  8
DEFAULT
100
AcDbVertex
100
AcDb2dVertex
 10
-8.721063767340873
 20
13.41897480837189
 30
0.0
  0
VERTEX
  5
170
330
161
100
AcDbEntity
  8
DEFAULT
100
AcDbVertex
100
AcDb2dVertex
 10
-8.688762654347919
 20
13.37525739022586
 30
0.0
  0
VERTEX
  5
171
330
161
100
AcDbEntity
  8
DEFAULT
100
AcDbVertex
100
AcDb2dVertex
 10
-8.655660451096168
 20
13.33210483359358
 30
0.0
  0
VERTEX
  5
172
330
161
100
AcDbEntity
  8
DEFAULT
100
AcDbVertex
100
AcDb2dVertex
 10
-8.621780321847263
 20
13.28952376705689
 30
0.0
  0
VERTEX
  5
173
330
161
100
AcDbEntity
  8
DEFAULT
100
AcDbVertex
100
AcDb2dVertex
 10
-8.551778942404557
 20
13.20610261859779
 30
0.0
  0
VERTEX
  5
174
330
161
100
AcDbEntity
  8
DEFAULT
100
AcDbVertex
100
AcDb2dVertex
 10
-8.478943830112934
 20
13.12504697350348
 30
0.0
  0
VERTEX
  5
175
330
161
100
AcDbEntity
  8
DEFAULT
100
AcDbVertex
100
AcDb2dVertex
 10
-8.403460299065532
 20
13.04640986042887
 30
0.0
  0
VERTEX
  5
176
330
161
100
AcDbEntity
  8
DEFAULT
100
AcDbVertex
100
AcDb2dVertex
 10
-8.325513663355487
 20
12.97024430802886
 30
0.0
  0
VERTEX
  5
177
330
161
100
AcDbEntity
  8
DEFAULT
100
AcDbVertex
100
AcDb2dVertex
 10
-8.24528923707593
 20
12.89660334495837
 30
0.0
  0
VERTEX
  5
178
330
161
100
AcDbEntity
  8
DEFAULT
100
AcDbVertex
100
AcDb2dVertex
 10
-8.162972334320003
 20
12.8255399998723
 30
0.0
  0
SEQEND
  5
179
330
161
100
AcDbEntity
  8
DEFAULT
  0
POLYLINE
  5
17A
330
1F
100
AcDbEntity
  8
DEFAULT
100
AcDb2dPolyline
 66
     1
 10
0.0
 20
0.0
 30
0.0
  0
VERTEX
  5
17B
330
17A
100
AcDbEntity
  8
DEFAULT
100
AcDbVertex
100
AcDb2dVertex
 10
-12.63882198303294
 20
22.49708755339124
 30
0.0
  0
VERTEX
  5
17C
330
17A
100
AcDbEntity
  8
DEFAULT
100
AcDbVertex
100
AcDb2dVertex
 10
-11.27802401471886
 20
22.40362709203886
 30
0.0
  0
VERTEX
  5
17D
330
17A
100
AcDbEntity
  8
DEFAULT
100
AcDbVertex
100
AcDb2dVertex
 10
-11.27199679512303
 20
22.40057843904219
 30
0.0
  0
VERTEX
  5
17E
330
17A
100
AcDbEntity
  8
DEFAULT
100
AcDbVertex
100
AcDb2dVertex
 10
-11.26611397905529
 20
22.39735382686166
 30
0.0
  0
VERTEX
  5
17F
330
17A
100
AcDbEntity
  8
DEFAULT
100
AcDbVertex
100
AcDb2dVertex
 10
-11.26037127605117
 20
22.39395903263159
 30
0.0
  0
VERTEX
  5
180
330
17A
100
AcDbEntity
  8
DEFAULT
100
AcDbVertex
100
AcDb2dVertex
 10
-11.25476439564621
 20
22.39039983348624
 30
0.0
  0
VERTEX
  5
181
330
17A
100
AcDbEntity
  8
DEFAULT
100
AcDbVertex
100
AcDb2dVertex
 10
-11.24928904737595
 20
22.38668200655991
 30
0.0
  0
VERTEX
  5
182
330
17A
100
AcDbEntity
  8
DEFAULT
100
AcDbVertex
100
AcDb2dVertex
 10
-11.24394094077594
 20
22.38281132898689
 30
0.0
  0
VERTEX
  5
183
330
17A
100
AcDbEntity
  8
DEFAULT
100
AcDbVertex
100
AcDb2dVertex
 10
-11.2387157853817
 20
22.37879357790146
 30
0.0
  0
VERTEX
  5
184
330
17A
100
AcDbEntity
  8
DEFAULT
100
AcDbVertex
100
AcDb2dVertex
 10
-11.23360929072878
 20
22.37463453043791
 30
0.0
  0
VERTEX
  5
185
330
17A
100
AcDbEntity
  8
DEFAULT
100
AcDbVertex
100
AcDb2dVertex
 10
-11.22861716635272
 20
22.37033996373053
 30
0.0
  0
VERTEX
  5
186
330
17A
100
AcDbEntity
  8
DEFAULT
100
AcDbVertex
100
AcDb2dVertex
 10
-11.22373512178905
 20
22.3659156549136
 30
0.0
  0
VERTEX
  5
187
330
17A
100
AcDbEntity
  8
DEFAULT
100
AcDbVertex
100
AcDb2dVertex
 10
-11.21895886657333
 20
22.36136738112141
 30
0.0
  0
VERTEX
  5
188
330
17A
100
AcDbEntity
  8
DEFAULT
100
AcDbVertex
100
AcDb2dVertex
 10
-11.21428411024108
 20
22.35670091948825
 30
0.0
  0
VERTEX
  5
189
330
17A
100
AcDbEntity
  8
DEFAULT
100
AcDbVertex
100
AcDb2dVertex
 10
-11.20970656232786
 20
22.3519220471484
 30
0.0
  0
VERTEX
  5
18A
330
17A
100
AcDbEntity
  8
DEFAULT
100
AcDbVertex
100
AcDb2dVertex
 10
-11.20522193236918
 20
22.34703654123616
 30
0.0
  0
VERTEX
  5
18B
330
17A
100
AcDbEntity
  8
DEFAULT
100
AcDbVertex
100
AcDb2dVertex
 10
-11.20082592990061
 20
22.34205017888581
 30
0.0
  0
VERTEX
  5
18C
330
17A
100
AcDbEntity
  8
DEFAULT
100
AcDbVertex
100
AcDb2dVertex
 10
-11.19651426445767
 20
22.33696873723164
 30
0.0
  0
VERTEX
  5
18D
330
17A
100
AcDbEntity
  8
DEFAULT
100
AcDbVertex
100
AcDb2dVertex
 10
-11.18812678279085
 20
22.32654372454897
 30
0.0
  0
VERTEX
  5
18E
330
17A
100
AcDbEntity
  8
DEFAULT
100
AcDbVertex
100
AcDb2dVertex
 10
-11.18002516365305
 20
22.31580772026246
 30
0.0
  0
VERTEX
  5
18F
330
17A
100
AcDbEntity
  8
DEFAULT
100
AcDbVertex
100
AcDb2dVertex
 10
-11.17217508332858
 20
22.30480694144641
 30
0.0
  0
VERTEX
  5
190
330
17A
100
AcDbEntity
  8
DEFAULT
100
AcDbVertex
100
AcDb2dVertex
 10
-11.16454221810177
 20
22.2935876051751
 30
0.0
  0
VERTEX
  5
191
330
17A
100
AcDbEntity
  8
DEFAULT
100
AcDbVertex
100
AcDb2dVertex
 10
-11.14979083807834
 20
22.27067812856393
 30
0.0
  0
VERTEX
  5
192
330
17A
100
AcDbEntity
  8
DEFAULT
100
AcDbVertex
100
AcDb2dVertex
 10
-11.13549643385731
 20
22.24744902702334
 30
0.0
  0
VERTEX
  5
193
330
17A
100
AcDbEntity
  8
DEFAULT
100
AcDbVertex
100
AcDb2dVertex
 10
-11.08033757528523
 20
22.15452579650407
 30
0.0
  0
VERTEX
  5
194
330
17A
100
AcDbEntity
  8
DEFAULT
100
AcDbVertex
100
AcDb2dVertex
 10
-11.02816938183637
 20
22.0608381259443
 30
0.0
  0
VERTEX
  5
195
330
17A
100
AcDbEntity
  8
DEFAULT
100
AcDbVertex
100
AcDb2dVertex
 10
-10.97892411405503
 20
21.96523244957839
 30
0.0
  0
VERTEX
  5
196
330
17A
100
AcDbEntity
  8
DEFAULT
100
AcDbVertex
100
AcDb2dVertex
 10
-10.93197322708435
 20
21.86820587386952
 30
0.0
  0
VERTEX
  5
197
330
17A
100
AcDbEntity
  8
DEFAULT
100
AcDbVertex
100
AcDb2dVertex
 10
-10.84278636938284
 20
21.67222048663169
 30
0.0
  0
VERTEX
  5
198
330
17A
100
AcDbEntity
  8
DEFAULT
100
AcDbVertex
100
AcDb2dVertex
 10
-8.494089000000002
 20
15.93352432279231
 30
0.0
  0
SEQEND
  5
199
330
17A
100
AcDbEntity
  8
DEFAULT
  0
LINE
  5
19A
330
1F
100
AcDbEntity
  8
DEFAULT
100
AcDbLine
 10
28.88324628711303
 20
11.9774813227923
 30
0.0
 11
28.86338728711302
 21
12.27942832279231
 31
0.0
  0
POLYLINE
  5
19B
330
1F
100
AcDbEntity
  8
DEFAULT
100
AcDb2dPolyline
 66
     1
 10
0.0
 20
0.0
 30
0.0
  0
VERTEX
  5
19C
330
19B
100
AcDbEntity
  8
DEFAULT
100
AcDbVertex
100
AcDb2dVertex
 10
10.361373
 20
16.54907032279231
 30
0.0
  0
VERTEX
  5
19D
330
19B
100
AcDbEntity
  8
DEFAULT
100
AcDbVertex
100
AcDb2dVertex
 10
10.30245497492787
 20
16.45748673632196
 30
0.0
  0
VERTEX
  5
19E
330
19B
100
AcDbEntity
  8
DEFAULT
100
AcDbVertex
100
AcDb2dVertex
 10
10.24534780932398
 20
16.3648242182578
 30
0.0
  0
VERTEX
  5
19F
330
19B
100
AcDbEntity
  8
DEFAULT
100
AcDbVertex
100
AcDb2dVertex
 10
10.13579356572897
 20
16.17674696808991
 30
0.0
  0
VERTEX
  5
1A0
330
19B
100
AcDbEntity
  8
DEFAULT
100
AcDbVertex
100
AcDb2dVertex
 10
10.03116528763101
 20
15.98580773377234
 30
0.0
  0
VERTEX
  5
1A1
330
19B
100
AcDbEntity
  8
DEFAULT
100
AcDbVertex
100
AcDb2dVertex
 10
9.929917993446193
 20
15.79297567678881
 30
0.0
  0
VERTEX
  5
1A2
330
19B
100
AcDbEntity
  8
DEFAULT
100
AcDbVertex
100
AcDb2dVertex
 10
9.07762479316675
 20
14.02820356583759
 30
0.0
  0
VERTEX
  5
1A3
330
19B
100
AcDbEntity
  8
DEFAULT
100
AcDbVertex
100
AcDb2dVertex
 10
8.977853881539229
 20
13.83453912114952
 30
0.0
  0
VERTEX
  5
1A4
330
19B
100
AcDbEntity
  8
DEFAULT
100
AcDbVertex
100
AcDb2dVertex
 10
8.925305921756708
 20
13.73932054797288
 30
0.0
  0
VERTEX
  5
1A5
330
19B
100
AcDbEntity
  8
DEFAULT
100
AcDbVertex
100
AcDb2dVertex
 10
8.870486137026045
 20
13.64552563361198
 30
0.0
  0
VERTEX
  5
1A6
330
19B
100
AcDbEntity
  8
DEFAULT
100
AcDbVertex
100
AcDb2dVertex
 10
8.813021910620513
 20
13.55341529759491
 30
0.0
  0
VERTEX
  5
1A7
330
19B
100
AcDbEntity
  8
DEFAULT
100
AcDbVertex
100
AcDb2dVertex
 10
8.78318168906257
 20
13.50807338381786
 30
0.0
  0
VERTEX
  5
1A8
330
19B
100
AcDbEntity
  8
DEFAULT
100
AcDbVertex
100
AcDb2dVertex
 10
8.752540625813388
 20
13.46325045944979
 30
0.0
  0
VERTEX
  5
1A9
330
19B
100
AcDbEntity
  8
DEFAULT
100
AcDbVertex
100
AcDb2dVertex
 10
8.721063767340873
 20
13.41897480837189
 30
0.0
  0
VERTEX
  5
1AA
330
19B
100
AcDbEntity
  8
DEFAULT
100
AcDbVertex
100
AcDb2dVertex
 10
8.688762654347919
 20
13.37525739022586
 30
0.0
  0
VERTEX
  5
1AB
330
19B
100
AcDbEntity
  8
DEFAULT
100
AcDbVertex
100
AcDb2dVertex
 10
8.655660451096168
 20
13.33210483359358
 30
0.0
  0
VERTEX
  5
1AC
330
19B
100
AcDbEntity
  8
DEFAULT
100
AcDbVertex
100
AcDb2dVertex
 10
8.621780321847263
 20
13.28952376705689
 30
0.0
  0
VERTEX
  5
1AD
330
19B
100
AcDbEntity
  8
DEFAULT
100
AcDbVertex
100
AcDb2dVertex
 10
8.551778942404557
 20
13.20610261859779
 30
0.0
  0
VERTEX
  5
1AE
330
19B
100
AcDbEntity
  8
DEFAULT
100
AcDbVertex
100
AcDb2dVertex
 10
8.478943830112934
 20
13.12504697350348
 30
0.0
  0
VERTEX
  5
1AF
330
19B
100
AcDbEntity
  8
DEFAULT
100
AcDbVertex
100
AcDb2dVertex
 10
8.403460299065532
 20
13.04640986042887
 30
0.0
  0
VERTEX
  5
1B0
330
19B
100
AcDbEntity
  8
DEFAULT
100
AcDbVertex
100
AcDb2dVertex
 10
8.325513663355487
 20
12.97024430802886
 30
0.0
  0
VERTEX
  5
1B1
330
19B
100
AcDbEntity
  8
DEFAULT
100
AcDbVertex
100
AcDb2dVertex
 10
8.24528923707593
 20
12.89660334495837
 30
0.0
  0
VERTEX
  5
1B2
330
19B
100
AcDbEntity
  8
DEFAULT
100
AcDbVertex
100
AcDb2dVertex
 10
8.162972334320003
 20
12.8255399998723
 30
0.0
  0
SEQEND
  5
1B3
330
19B
100
AcDbEntity
  8
DEFAULT
  0
POLYLINE
  5
1B4
330
1F
100
AcDbEntity
  8
DEFAULT
100
AcDb2dPolyline
 66
     1
 10
0.0
 20
0.0
 30
0.0
  0
VERTEX
  5
1B5
330
1B4
100
AcDbEntity
  8
DEFAULT
100
AcDbVertex
100
AcDb2dVertex
 10
12.63882198303294
 20
22.49708755339124
 30
0.0
  0
VERTEX
  5
1B6
330
1B4
100
AcDbEntity
  8
DEFAULT
100
AcDbVertex
100
AcDb2dVertex
 10
11.27802401471886
 20
22.40362709203886
 30
0.0
  0
VERTEX
  5
1B7
330
1B4
100
AcDbEntity
  8
DEFAULT
100
AcDbVertex
100
AcDb2dVertex
 10
11.27199679512303
 20
22.40057843904219
 30
0.0
  0
VERTEX
  5
1B8
330
1B4
100
AcDbEntity
  8
DEFAULT
100
AcDbVertex
100
AcDb2dVertex
 10
11.26611397905529
 20
22.39735382686166
 30
0.0
  0
VERTEX
  5
1B9
330
1B4
100
AcDbEntity
  8
DEFAULT
100
AcDbVertex
100
AcDb2dVertex
 10
11.26037127605117
 20
22.39395903263159
 30
0.0
  0
VERTEX
  5
1BA
330
1B4
100
AcDbEntity
  8
DEFAULT
100
AcDbVertex
100
AcDb2dVertex
 10
11.25476439564621
 20
22.39039983348624
 30
0.0
  0
VERTEX
  5
1BB
330
1B4
100
AcDbEntity
  8
DEFAULT
100
AcDbVertex
100
AcDb2dVertex
 10
11.24928904737595
 20
22.38668200655991
 30
0.0
  0
VERTEX
  5
1BC
330
1B4
100
AcDbEntity
  8
DEFAULT
100
AcDbVertex
100
AcDb2dVertex
 10
11.24394094077594
 20
22.38281132898689
 30
0.0
  0
VERTEX
  5
1BD
330
1B4
100
AcDbEntity
  8
DEFAULT
100
AcDbVertex
100
AcDb2dVertex
 10
11.2387157853817
 20
22.37879357790146
 30
0.0
  0
VERTEX
  5
1BE
330
1B4
100
AcDbEntity
  8
DEFAULT
100
AcDbVertex
100
AcDb2dVertex
 10
11.23360929072878
 20
22.37463453043791
 30
0.0
  0
VERTEX
  5
1BF
330
1B4
100
AcDbEntity
  8
DEFAULT
100
AcDbVertex
100
AcDb2dVertex
 10
11.22861716635272
 20
22.37033996373053
 30
0.0
  0
VERTEX
  5
1C0
330
1B4
100
AcDbEntity
  8
DEFAULT
100
AcDbVertex
100
AcDb2dVertex
 10
11.22373512178905
 20
22.3659156549136
 30
0.0
  0
VERTEX
  5
1C1
330
1B4
100
AcDbEntity
  8
DEFAULT
100
AcDbVertex
100
AcDb2dVertex
 10
11.21895886657333
 20
22.36136738112141
 30
0.0
  0
VERTEX
  5
1C2
330
1B4
100
AcDbEntity
  8
DEFAULT
100
AcDbVertex
100
AcDb2dVertex
 10
11.21428411024108
 20
22.35670091948825
 30
0.0
  0
VERTEX
  5
1C3
330
1B4
100
AcDbEntity
  8
DEFAULT
100
AcDbVertex
100
AcDb2dVertex
 10
11.20970656232786
 20
22.3519220471484
 30
0.0
  0
VERTEX
  5
1C4
330
1B4
100
AcDbEntity
  8
DEFAULT
100
AcDbVertex
100
AcDb2dVertex
 10
11.20522193236918
 20
22.34703654123616
 30
0.0
  0
VERTEX
  5
1C5
330
1B4
100
AcDbEntity
  8
DEFAULT
100
AcDbVertex
100
AcDb2dVertex
 10
11.20082592990061
 20
22.34205017888581
 30
0.0
  0
VERTEX
  5
1C6
330
1B4
100
AcDbEntity
  8
DEFAULT
100
AcDbVertex
100
AcDb2dVertex
 10
11.19651426445767
 20
22.33696873723164
 30
0.0
  0
VERTEX
  5
1C7
330
1B4
100
AcDbEntity
  8
DEFAULT
100
AcDbVertex
100
AcDb2dVertex
 10
11.18812678279085
 20
22.32654372454897
 30
0.0
  0
VERTEX
  5
1C8
330
1B4
100
AcDbEntity
  8
DEFAULT
100
AcDbVertex
100
AcDb2dVertex
 10
11.18002516365305
 20
22.31580772026246
 30
0.0
  0
VERTEX
  5
1C9
330
1B4
100
AcDbEntity
  8
DEFAULT
100
AcDbVertex
100
AcDb2dVertex
 10
11.17217508332858
 20
22.30480694144641
 30
0.0
  0
VERTEX
  5
1CA
330
1B4
100
AcDbEntity
  8
DEFAULT
100
AcDbVertex
100
AcDb2dVertex
 10
11.16454221810177
 20
22.2935876051751
 30
0.0
  0
VERTEX
  5
1CB
330
1B4
100
AcDbEntity
  8
DEFAULT
100
AcDbVertex
100
AcDb2dVertex
 10
11.14979083807834
 20
22.27067812856393
 30
0.0
  0
VERTEX
  5
1CC
330
1B4
100
AcDbEntity
  8
DEFAULT
100
AcDbVertex
100
AcDb2dVertex
 10
11.13549643385731
 20
22.24744902702334
 30
0.0
  0
VERTEX
  5
1CD
330
1B4
100
AcDbEntity
  8
DEFAULT
100
AcDbVertex
100
AcDb2dVertex
 10
11.08033757528523
 20
22.15452579650407
 30
0.0
  0
VERTEX
  5
1CE
330
1B4
100
AcDbEntity
  8
DEFAULT
100
AcDbVertex
100
AcDb2dVertex
 10
11.02816938183637
 20
22.0608381259443
 30
0.0
  0
VERTEX
  5
1CF
330
1B4
100
AcDbEntity
  8
DEFAULT
100
AcDbVertex
100
AcDb2dVertex
 10
10.97892411405503
 20
21.96523244957839
 30
0.0
  0
VERTEX
  5
1D0
330
1B4
100
AcDbEntity
  8
DEFAULT
100
AcDbVertex
100
AcDb2dVertex
 10
10.93197322708435
 20
21.86820587386952
 30
0.0
  0
VERTEX
  5
1D1
330
1B4
100
AcDbEntity
  8
DEFAULT
100
AcDbVertex
100
AcDb2dVertex
 10
10.84278636938284
 20
21.67222048663169
 30
0.0
  0
VERTEX
  5
1D2
330
1B4
100
AcDbEntity
  8
DEFAULT
100
AcDbVertex
100
AcDb2dVertex
 10
8.494089000000002
 20
15.93352432279231
 30
0.0
  0
SEQEND
  5
1D3
330
1B4
100
AcDbEntity
  8
DEFAULT
  0
POLYLINE
  5
1D4
330
1F
100
AcDbEntity
  8
DEFAULT
100
AcDb2dPolyline
 66
     1
 10
0.0
 20
0.0
 30
0.0
  0
VERTEX
  5
1D5
330
1D4
100
AcDbEntity
  8
DEFAULT
100
AcDbVertex
100
AcDb2dVertex
 10
12.64176342027
 20
22.49702730347231
 30
0.0
  0
VERTEX
  5
1D6
330
1D4
100
AcDbEntity
  8
DEFAULT
100
AcDbVertex
100
AcDb2dVertex
 10
13.741762441135
 20
22.3585789767573
 30
0.0
  0
VERTEX
  5
1D7
330
1D4
100
AcDbEntity
  8
DEFAULT
100
AcDbVertex
100
AcDb2dVertex
 10
13.74270828955267
 20
22.35703207382548
 30
0.0
  0
VERTEX
  5
1D8
330
1D4
100
AcDbEntity
  8
DEFAULT
100
AcDbVertex
100
AcDb2dVertex
 10
13.74359991197478
 20
22.35547363848964
 30
0.0
  0
VERTEX
  5
1D9
330
1D4
100
AcDbEntity
  8
DEFAULT
100
AcDbVertex
100
AcDb2dVertex
 10
13.74443820340352
 20
22.35390390544353
 30
0.0
  0
VERTEX
  5
1DA
330
1D4
100
AcDbEntity
  8
DEFAULT
100
AcDbVertex
100
AcDb2dVertex
 10
13.74522405884107
 20
22.35232310938089
 30
0.0
  0
VERTEX
  5
1DB
330
1D4
100
AcDbEntity
  8
DEFAULT
100
AcDbVertex
100
AcDb2dVertex
 10
13.7459583732896
 20
22.35073148499545
 30
0.0
  0
VERTEX
  5
1DC
330
1D4
100
AcDbEntity
  8
DEFAULT
100
AcDbVertex
100
AcDb2dVertex
 10
13.74664204175129
 20
22.34912926698094
 30
0.0
  0
VERTEX
  5
1DD
330
1D4
100
AcDbEntity
  8
DEFAULT
100
AcDbVertex
100
AcDb2dVertex
 10
13.74727595922831
 20
22.3475166900311
 30
0.0
  0
VERTEX
  5
1DE
330
1D4
100
AcDbEntity
  8
DEFAULT
100
AcDbVertex
100
AcDb2dVertex
 10
13.74786102072286
 20
22.34589398883966
 30
0.0
  0
VERTEX
  5
1DF
330
1D4
100
AcDbEntity
  8
DEFAULT
100
AcDbVertex
100
AcDb2dVertex
 10
13.7483981212371
 20
22.34426139810036
 30
0.0
  0
VERTEX
  5
1E0
330
1D4
100
AcDbEntity
  8
DEFAULT
100
AcDbVertex
100
AcDb2dVertex
 10
13.74888815577321
 20
22.34261915250693
 30
0.0
  0
VERTEX
  5
1E1
330
1D4
100
AcDbEntity
  8
DEFAULT
100
AcDbVertex
100
AcDb2dVertex
 10
13.74933201933338
 20
22.34096748675312
 30
0.0
  0
VERTEX
  5
1E2
330
1D4
100
AcDbEntity
  8
DEFAULT
100
AcDbVertex
100
AcDb2dVertex
 10
13.74973060691978
 20
22.33930663553264
 30
0.0
  0
VERTEX
  5
1E3
330
1D4
100
AcDbEntity
  8
DEFAULT
100
AcDbVertex
100
AcDb2dVertex
 10
13.75008481353458
 20
22.33763683353924
 30
0.0
  0
VERTEX
  5
1E4
330
1D4
100
AcDbEntity
  8
DEFAULT
100
AcDbVertex
100
AcDb2dVertex
 10
13.75039553417998
 20
22.33595831546666
 30
0.0
  0
VERTEX
  5
1E5
330
1D4
100
AcDbEntity
  8
DEFAULT
100
AcDbVertex
100
AcDb2dVertex
 10
13.75066366385814
 20
22.33427131600863
 30
0.0
  0
VERTEX
  5
1E6
330
1D4
100
AcDbEntity
  8
DEFAULT
100
AcDbVertex
100
AcDb2dVertex
 10
13.75089009757124
 20
22.33257606985888
 30
0.0
  0
VERTEX
  5
1E7
330
1D4
100
AcDbEntity
  8
DEFAULT
100
AcDbVertex
100
AcDb2dVertex
 10
13.75107573032147
 20
22.33087281171115
 30
0.0
  0
VERTEX
  5
1E8
330
1D4
100
AcDbEntity
  8
DEFAULT
100
AcDbVertex
100
AcDb2dVertex
 10
13.75122145711099
 20
22.32916177625917
 30
0.0
  0
VERTEX
  5
1E9
330
1D4
100
AcDbEntity
  8
DEFAULT
100
AcDbVertex
100
AcDb2dVertex
 10
13.75132817294199
 20
22.32744319819668
 30
0.0
  0
VERTEX
  5
1EA
330
1D4
100
AcDbEntity
  8
DEFAULT
100
AcDbVertex
100
AcDb2dVertex
 10
13.75139677281665
 20
22.32571731221742
 30
0.0
  0
VERTEX
  5
1EB
330
1D4
100
AcDbEntity
  8
DEFAULT
100
AcDbVertex
100
AcDb2dVertex
 10
13.75142815173715
 20
22.32398435301511
 30
0.0
  0
VERTEX
  5
1EC
330
1D4
100
AcDbEntity
  8
DEFAULT
100
AcDbVertex
100
AcDb2dVertex
 10
13.75142320470565
 20
22.3222445552835
 30
0.0
  0
VERTEX
  5
1ED
330
1D4
100
AcDbEntity
  8
DEFAULT
100
AcDbVertex
100
AcDb2dVertex
 10
13.75138282672435
 20
22.32049815371631
 30
0.0
  0
VERTEX
  5
1EE
330
1D4
100
AcDbEntity
  8
DEFAULT
100
AcDbVertex
100
AcDb2dVertex
 10
13.75130791279542
 20
22.3187453830073
 30
0.0
  0
VERTEX
  5
1EF
330
1D4
100
AcDbEntity
  8
DEFAULT
100
AcDbVertex
100
AcDb2dVertex
 10
13.75119935792104
 20
22.31698647785018
 30
0.0
  0
VERTEX
  5
1F0
330
1D4
100
AcDbEntity
  8
DEFAULT
100
AcDbVertex
100
AcDb2dVertex
 10
13.75105805710338
 20
22.31522167293869
 30
0.0
  0
VERTEX
  5
1F1
330
1D4
100
AcDbEntity
  8
DEFAULT
100
AcDbVertex
100
AcDb2dVertex
 10
13.75068079764696
 20
22.31167530262756
 30
0.0
  0
VERTEX
  5
1F2
330
1D4
100
AcDbEntity
  8
DEFAULT
100
AcDbVertex
100
AcDb2dVertex
 10
13.75018329444358
 20
22.30810814962377
 30
0.0
  0
VERTEX
  5
1F3
330
1D4
100
AcDbEntity
  8
DEFAULT
100
AcDbVertex
100
AcDb2dVertex
 10
13.74957270751067
 20
22.30452209147723
 30
0.0
  0
VERTEX
  5
1F4
330
1D4
100
AcDbEntity
  8
DEFAULT
100
AcDbVertex
100
AcDb2dVertex
 10
13.74885619686565
 20
22.3009190057378
 30
0.0
  0
VERTEX
  5
1F5
330
1D4
100
AcDbEntity
  8
DEFAULT
100
AcDbVertex
100
AcDb2dVertex
 10
13.74804092252596
 20
22.29730076995537
 30
0.0
  0
VERTEX
  5
1F6
330
1D4
100
AcDbEntity
  8
DEFAULT
100
AcDbVertex
100
AcDb2dVertex
 10
13.74713404450902
 20
22.29366926167981
 30
0.0
  0
VERTEX
  5
1F7
330
1D4
100
AcDbEntity
  8
DEFAULT
100
AcDbVertex
100
AcDb2dVertex
 10
13.74614272283225
 20
22.29002635846101
 30
0.0
  0
VERTEX
  5
1F8
330
1D4
100
AcDbEntity
  8
DEFAULT
100
AcDbVertex
100
AcDb2dVertex
 10
13.74393538856894
 20
22.28271387739318
 30
0.0
  0
VERTEX
  5
1F9
330
1D4
100
AcDbEntity
  8
DEFAULT
100
AcDbVertex
100
AcDb2dVertex
 10
13.74147619987544
 20
22.27537834715094
 30
0.0
  0
VERTEX
  5
1FA
330
1D4
100
AcDbEntity
  8
DEFAULT
100
AcDbVertex
100
AcDb2dVertex
 10
13.73603137975551
 20
22.26069822073936
 30
0.0
  0
VERTEX
  5
1FB
330
1D4
100
AcDbEntity
  8
DEFAULT
100
AcDbVertex
100
AcDb2dVertex
 10
13.73026650358773
 20
22.24610614241861
 30
0.0
  0
VERTEX
  5
1FC
330
1D4
100
AcDbEntity
  8
DEFAULT
100
AcDbVertex
100
AcDb2dVertex
 10
13.68530862534741
 20
22.1344511190371
 30
0.0
  0
VERTEX
  5
1FD
330
1D4
100
AcDbEntity
  8
DEFAULT
100
AcDbVertex
100
AcDb2dVertex
 10
13.66072740845039
 20
22.0797240278038
 30
0.0
  0
VERTEX
  5
1FE
330
1D4
100
AcDbEntity
  8
DEFAULT
100
AcDbVertex
100
AcDb2dVertex
 10
13.63466770614966
 20
22.02523243471321
 30
0.0
  0
VERTEX
  5
1FF
330
1D4
100
AcDbEntity
  8
DEFAULT
100
AcDbVertex
100
AcDb2dVertex
 10
13.58090222788631
 20
21.91751343393808
 30
0.0
  0
VERTEX
  5
200
330
1D4
100
AcDbEntity
  8
DEFAULT
100
AcDbVertex
100
AcDb2dVertex
 10
13.52498563019
 20
21.81089971474731
 30
0.0
  0
VERTEX
  5
201
330
1D4
100
AcDbEntity
  8
DEFAULT
100
AcDbVertex
100
AcDb2dVertex
 10
12.93444797448678
 20
20.73373798971583
 30
0.0
  0
VERTEX
  5
202
330
1D4
100
AcDbEntity
  8
DEFAULT
100
AcDbVertex
100
AcDb2dVertex
 10
12.3230651750729
 20
19.66826265987206
 30
0.0
  0
VERTEX
  5
203
330
1D4
100
AcDbEntity
  8
DEFAULT
100
AcDbVertex
100
AcDb2dVertex
 10
11.6903218183847
 20
18.61533635018201
 30
0.0
  0
VERTEX
  5
204
330
1D4
100
AcDbEntity
  8
DEFAULT
100
AcDbVertex
100
AcDb2dVertex
 10
11.03588590822652
 20
17.57575082835907
 30
0.0
  0
VERTEX
  5
205
330
1D4
100
AcDbEntity
  8
DEFAULT
100
AcDbVertex
100
AcDb2dVertex
 10
10.36137594469142
 20
16.54907451577333
 30
0.0
  0
VERTEX
  5
206
330
1D4
100
AcDbEntity
  8
DEFAULT
100
AcDbVertex
100
AcDb2dVertex
 10
9.998223879159443
 20
16.01406733823922
 30
0.0
  0
VERTEX
  5
207
330
1D4
100
AcDbEntity
  8
DEFAULT
100
AcDbVertex
100
AcDb2dVertex
 10
9.90434471704954
 20
15.88237687718068
 30
0.0
  0
VERTEX
  5
208
330
1D4
100
AcDbEntity
  8
DEFAULT
100
AcDbVertex
100
AcDb2dVertex
 10
9.807536963432291
 20
15.75289001202329
 30
0.0
  0
VERTEX
  5
209
330
1D4
100
AcDbEntity
  8
DEFAULT
100
AcDbVertex
100
AcDb2dVertex
 10
9.757716600852078
 20
15.68927637006155
 30
0.0
  0
VERTEX
  5
20A
330
1D4
100
AcDbEntity
  8
DEFAULT
100
AcDbVertex
100
AcDb2dVertex
 10
9.706782173647422
 20
15.62657775765994
 30
0.0
  0
VERTEX
  5
20B
330
1D4
100
AcDbEntity
  8
DEFAULT
100
AcDbVertex
100
AcDb2dVertex
 10
9.654606376235794
 20
15.56491555168006
 30
0.0
  0
VERTEX
  5
20C
330
1D4
100
AcDbEntity
  8
DEFAULT
100
AcDbVertex
100
AcDb2dVertex
 10
9.601061903034656
 20
15.50441112898352
 30
0.0
  0
VERTEX
  5
20D
330
1D4
100
AcDbEntity
  8
DEFAULT
100
AcDbVertex
100
AcDb2dVertex
 10
9.546041505563236
 20
15.44518504847909
 30
0.0
  0
VERTEX
  5
20E
330
1D4
100
AcDbEntity
  8
DEFAULT
100
AcDbVertex
100
AcDb2dVertex
 10
9.48951816374781
 20
15.38735459726414
 30
0.0
  0
VERTEX
  5
20F
330
1D4
100
AcDbEntity
  8
DEFAULT
100
AcDbVertex
100
AcDb2dVertex
 10
9.431484914616421
 20
15.3310362444832
 30
0.0
  0
VERTEX
  5
210
330
1D4
100
AcDbEntity
  8
DEFAULT
100
AcDbVertex
100
AcDb2dVertex
 10
9.371934795197102
 20
15.27634645928082
 30
0.0
  0
VERTEX
  5
211
330
1D4
100
AcDbEntity
  8
DEFAULT
100
AcDbVertex
100
AcDb2dVertex
 10
9.310860842517894
 20
15.22340171080152
 30
0.0
  0
VERTEX
  5
212
330
1D4
100
AcDbEntity
  8
DEFAULT
100
AcDbVertex
100
AcDb2dVertex
 10
9.24825609360684
 20
15.17231846818983
 30
0.0
  0
VERTEX
  5
213
330
1D4
100
AcDbEntity
  8
DEFAULT
100
AcDbVertex
100
AcDb2dVertex
 10
9.184113585491973
 20
15.12321320059028
 30
0.0
  0
VERTEX
  5
214
330
1D4
100
AcDbEntity
  8
DEFAULT
100
AcDbVertex
100
AcDb2dVertex
 10
9.118426355201333
 20
15.07620237714741
 30
0.0
  0
VERTEX
  5
215
330
1D4
100
AcDbEntity
  8
DEFAULT
100
AcDbVertex
100
AcDb2dVertex
 10
9.051202363593324
 20
15.03139053053023
 30
0.0
  0
VERTEX
  5
216
330
1D4
100
AcDbEntity
  8
DEFAULT
100
AcDbVertex
100
AcDb2dVertex
 10
8.98250926684782
 20
14.98883444750564
 30
0.0
  0
VERTEX
  5
217
330
1D4
100
AcDbEntity
  8
DEFAULT
100
AcDbVertex
100
AcDb2dVertex
 10
8.912429644975061
 20
14.94857897836505
 30
0.0
  0
VERTEX
  5
218
330
1D4
100
AcDbEntity
  8
DEFAULT
100
AcDbVertex
100
AcDb2dVertex
 10
8.841046077985283
 20
14.91066897339983
 30
0.0
  0
VERTEX
  5
219
330
1D4
100
AcDbEntity
  8
DEFAULT
100
AcDbVertex
100
AcDb2dVertex
 10
8.768441145888726
 20
14.87514928290139
 30
0.0
  0
VERTEX
  5
21A
330
1D4
100
AcDbEntity
  8
DEFAULT
100
AcDbVertex
100
AcDb2dVertex
 10
8.69469742869563
 20
14.84206475716111
 30
0.0
  0
VERTEX
  5
21B
330
1D4
100
AcDbEntity
  8
DEFAULT
100
AcDbVertex
100
AcDb2dVertex
 10
8.61989750641623
 20
14.81146024647038
 30
0.0
  0
VERTEX
  5
21C
330
1D4
100
AcDbEntity
  8
DEFAULT
100
AcDbVertex
100
AcDb2dVertex
 10
8.544123959060766
 20
14.78338060112059
 30
0.0
  0
VERTEX
  5
21D
330
1D4
100
AcDbEntity
  8
DEFAULT
100
AcDbVertex
100
AcDb2dVertex
 10
8.467461208940541
 20
14.75785382901585
 30
0.0
  0
VERTEX
  5
21E
330
1D4
100
AcDbEntity
  8
DEFAULT
100
AcDbVertex
100
AcDb2dVertex
 10
8.39000088837394
 20
14.73484051652259
 30
0.0
  0
VERTEX
  5
21F
330
1D4
100
AcDbEntity
  8
DEFAULT
100
AcDbVertex
100
AcDb2dVertex
 10
8.311836471364952
 20
14.71428440939491
 30
0.0
  0
VERTEX
  5
220
330
1D4
100
AcDbEntity
  8
DEFAULT
100
AcDbVertex
100
AcDb2dVertex
 10
8.23306143191756
 20
14.6961292533869
 30
0.0
  0
VERTEX
  5
221
330
1D4
100
AcDbEntity
  8
DEFAULT
100
AcDbVertex
100
AcDb2dVertex
 10
8.153769244035757
 20
14.68031879425266
 30
0.0
  0
VERTEX
  5
222
330
1D4
100
AcDbEntity
  8
DEFAULT
100
AcDbVertex
100
AcDb2dVertex
 10
8.074053381723532
 20
14.66679677774629
 30
0.0
  0
VERTEX
  5
223
330
1D4
100
AcDbEntity
  8
DEFAULT
100
AcDbVertex
100
AcDb2dVertex
 10
7.994007318984869
 20
14.65550694962188
 30
0.0
  0
VERTEX
  5
224
330
1D4
100
AcDbEntity
  8
DEFAULT
100
AcDbVertex
100
AcDb2dVertex
 10
7.913724529823758
 20
14.64639305563353
 30
0.0
  0
VERTEX
  5
225
330
1D4
100
AcDbEntity
  8
DEFAULT
100
AcDbVertex
100
AcDb2dVertex
 10
5.93983830581297
 20
14.4753882789967
 30
0.0
  0
VERTEX
  5
226
330
1D4
100
AcDbEntity
  8
DEFAULT
100
AcDbVertex
100
AcDb2dVertex
 10
3.961699648940451
 20
14.35346878997218
 30
0.0
  0
VERTEX
  5
227
330
1D4
100
AcDbEntity
  8
DEFAULT
100
AcDbVertex
100
AcDb2dVertex
 10
1.981141178466183
 20
14.28077042238366
 30
0.0
  0
VERTEX
  5
228
330
1D4
100
AcDbEntity
  8
DEFAULT
100
AcDbVertex
100
AcDb2dVertex
 10
0.0000000000000018
 20
14.25733775378158
 30
0.0
  0
VERTEX
  5
229
330
1D4
100
AcDbEntity
  8
DEFAULT
100
AcDbVertex
100
AcDb2dVertex
 10
-1.981141178466181
 20
14.28077042238366
 30
0.0
  0
VERTEX
  5
22A
330
1D4
100
AcDbEntity
  8
DEFAULT
100
AcDbVertex
100
AcDb2dVertex
 10
-3.961699648940451
 20
14.35346878997218
 30
0.0
  0
VERTEX
  5
22B
330
1D4
100
AcDbEntity
  8
DEFAULT
100
AcDbVertex
100
AcDb2dVertex
 10
-5.93983830581297
 20
14.4753882789967
 30
0.0
  0
VERTEX
  5
22C
330
1D4
100
AcDbEntity
  8
DEFAULT
100
AcDbVertex
100
AcDb2dVertex
 10
-7.913724529823758
 20
14.64639305563353
 30
0.0
  0
VERTEX
  5
22D
330
1D4
100
AcDbEntity
  8
DEFAULT
100
AcDbVertex
100
AcDb2dVertex
 10
-7.994007318984869
 20
14.65550694962188
 30
0.0
  0
VERTEX
  5
22E
330
1D4
100
AcDbEntity
  8
DEFAULT
100
AcDbVertex
100
AcDb2dVertex
 10
-8.074053381723532
 20
14.66679677774629
 30
0.0
  0
VERTEX
  5
22F
330
1D4
100
AcDbEntity
  8
DEFAULT
100
AcDbVertex
100
AcDb2dVertex
 10
-8.153769244035757
 20
14.68031879425266
 30
0.0
  0
VERTEX
  5
230
330
1D4
100
AcDbEntity
  8
DEFAULT
100
AcDbVertex
100
AcDb2dVertex
 10
-8.23306143191756
 20
14.6961292533869
 30
0.0
  0
VERTEX
  5
231
330
1D4
100
AcDbEntity
  8
DEFAULT
100
AcDbVertex
100
AcDb2dVertex
 10
-8.311836471364952
 20
14.71428440939491
 30
0.0
  0
VERTEX
  5
232
330
1D4
100
AcDbEntity
  8
DEFAULT
100
AcDbVertex
100
AcDb2dVertex
 10
-8.39000088837394
 20
14.73484051652259
 30
0.0
  0
VERTEX
  5
233
330
1D4
100
AcDbEntity
  8
DEFAULT
100
AcDbVertex
100
AcDb2dVertex
 10
-8.467461208940541
 20
14.75785382901585
 30
0.0
  0
VERTEX
  5
234
330
1D4
100
AcDbEntity
  8
DEFAULT
100
AcDbVertex
100
AcDb2dVertex
 10
-8.544123959060766
 20
14.78338060112059
 30
0.0
  0
VERTEX
  5
235
330
1D4
100
AcDbEntity
  8
DEFAULT
100
AcDbVertex
100
AcDb2dVertex
 10
-8.61989750641623
 20
14.81146024647038
 30
0.0
  0
VERTEX
  5
236
330
1D4
100
AcDbEntity
  8
DEFAULT
100
AcDbVertex
100
AcDb2dVertex
 10
-8.69469742869563
 20
14.84206475716111
 30
0.0
  0
VERTEX
  5
237
330
1D4
100
AcDbEntity
  8
DEFAULT
100
AcDbVertex
100
AcDb2dVertex
 10
-8.768441145888726
 20
14.87514928290139
 30
0.0
  0
VERTEX
  5
238
330
1D4
100
AcDbEntity
  8
DEFAULT
100
AcDbVertex
100
AcDb2dVertex
 10
-8.841046077985283
 20
14.91066897339983
 30
0.0
  0
VERTEX
  5
239
330
1D4
100
AcDbEntity
  8
DEFAULT
100
AcDbVertex
100
AcDb2dVertex
 10
-8.912429644975061
 20
14.94857897836505
 30
0.0
  0
VERTEX
  5
23A
330
1D4
100
AcDbEntity
  8
DEFAULT
100
AcDbVertex
100
AcDb2dVertex
 10
-8.98250926684782
 20
14.98883444750564
 30
0.0
  0
VERTEX
  5
23B
330
1D4
100
AcDbEntity
  8
DEFAULT
100
AcDbVertex
100
AcDb2dVertex
 10
-9.051202363593324
 20
15.03139053053023
 30
0.0
  0
VERTEX
  5
23C
330
1D4
100
AcDbEntity
  8
DEFAULT
100
AcDbVertex
100
AcDb2dVertex
 10
-9.118426355201333
 20
15.07620237714741
 30
0.0
  0
VERTEX
  5
23D
330
1D4
100
AcDbEntity
  8
DEFAULT
100
AcDbVertex
100
AcDb2dVertex
 10
-9.184113585491973
 20
15.12321320059028
 30
0.0
  0
VERTEX
  5
23E
330
1D4
100
AcDbEntity
  8
DEFAULT
100
AcDbVertex
100
AcDb2dVertex
 10
-9.24825609360684
 20
15.17231846818983
 30
0.0
  0
VERTEX
  5
23F
330
1D4
100
AcDbEntity
  8
DEFAULT
100
AcDbVertex
100
AcDb2dVertex
 10
-9.310860842517894
 20
15.22340171080152
 30
0.0
  0
VERTEX
  5
240
330
1D4
100
AcDbEntity
  8
DEFAULT
100
AcDbVertex
100
AcDb2dVertex
 10
-9.371934795197102
 20
15.27634645928082
 30
0.0
  0
VERTEX
  5
241
330
1D4
100
AcDbEntity
  8
DEFAULT
100
AcDbVertex
100
AcDb2dVertex
 10
-9.431484914616421
 20
15.3310362444832
 30
0.0
  0
VERTEX
  5
242
330
1D4
100
AcDbEntity
  8
DEFAULT
100
AcDbVertex
100
AcDb2dVertex
 10
-9.48951816374781
 20
15.38735459726414
 30
0.0
  0
VERTEX
  5
243
330
1D4
100
AcDbEntity
  8
DEFAULT
100
AcDbVertex
100
AcDb2dVertex
 10
-9.546041505563235
 20
15.44518504847909
 30
0.0
  0
VERTEX
  5
244
330
1D4
100
AcDbEntity
  8
DEFAULT
100
AcDbVertex
100
AcDb2dVertex
 10
-9.601061903034655
 20
15.50441112898352
 30
0.0
  0
VERTEX
  5
245
330
1D4
100
AcDbEntity
  8
DEFAULT
100
AcDbVertex
100
AcDb2dVertex
 10
-9.654606376235794
 20
15.56491555168006
 30
0.0
  0
VERTEX
  5
246
330
1D4
100
AcDbEntity
  8
DEFAULT
100
AcDbVertex
100
AcDb2dVertex
 10
-9.706782173647422
 20
15.62657775765994
 30
0.0
  0
VERTEX
  5
247
330
1D4
100
AcDbEntity
  8
DEFAULT
100
AcDbVertex
100
AcDb2dVertex
 10
-9.757716600852078
 20
15.68927637006155
 30
0.0
  0
VERTEX
  5
248
330
1D4
100
AcDbEntity
  8
DEFAULT
100
AcDbVertex
100
AcDb2dVertex
 10
-9.807536963432291
 20
15.75289001202329
 30
0.0
  0
VERTEX
  5
249
330
1D4
100
AcDbEntity
  8
DEFAULT
100
AcDbVertex
100
AcDb2dVertex
 10
-9.90434471704954
 20
15.88237687718068
 30
0.0
  0
VERTEX
  5
24A
330
1D4
100
AcDbEntity
  8
DEFAULT
100
AcDbVertex
100
AcDb2dVertex
 10
-10.36137594469142
 20
16.54907451577333
 30
0.0
  0
VERTEX
  5
24B
330
1D4
100
AcDbEntity
  8
DEFAULT
100
AcDbVertex
100
AcDb2dVertex
 10
-11.03588590822652
 20
17.57575082835907
 30
0.0
  0
VERTEX
  5
24C
330
1D4
100
AcDbEntity
  8
DEFAULT
100
AcDbVertex
100
AcDb2dVertex
 10
-11.6903218183847
 20
18.61533635018201
 30
0.0
  0
VERTEX
  5
24D
330
1D4
100
AcDbEntity
  8
DEFAULT
100
AcDbVertex
100
AcDb2dVertex
 10
-12.3230651750729
 20
19.66826265987206
 30
0.0
  0
VERTEX
  5
24E
330
1D4
100
AcDbEntity
  8
DEFAULT
100
AcDbVertex
100
AcDb2dVertex
 10
-12.93444797448678
 20
20.73373798971583
 30
0.0
  0
VERTEX
  5
24F
330
1D4
100
AcDbEntity
  8
DEFAULT
100
AcDbVertex
100
AcDb2dVertex
 10
-13.52498563019
 20
21.81089971474731
 30
0.0
  0
VERTEX
  5
250
330
1D4
100
AcDbEntity
  8
DEFAULT
100
AcDbVertex
100
AcDb2dVertex
 10
-13.58090222788631
 20
21.91751343393808
 30
0.0
  0
VERTEX
  5
251
330
1D4
100
AcDbEntity
  8
DEFAULT
100
AcDbVertex
100
AcDb2dVertex
 10
-13.63466770614966
 20
22.02523243471321
 30
0.0
  0
VERTEX
  5
252
330
1D4
100
AcDbEntity
  8
DEFAULT
100
AcDbVertex
100
AcDb2dVertex
 10
-13.66072740845039
 20
22.0797240278038
 30
0.0
  0
VERTEX
  5
253
330
1D4
100
AcDbEntity
  8
DEFAULT
100
AcDbVertex
100
AcDb2dVertex
 10
-13.68530862534741
 20
22.1344511190371
 30
0.0
  0
VERTEX
  5
254
330
1D4
100
AcDbEntity
  8
DEFAULT
100
AcDbVertex
100
AcDb2dVertex
 10
-13.73026650358773
 20
22.24610614241861
 30
0.0
  0
VERTEX
  5
255
330
1D4
100
AcDbEntity
  8
DEFAULT
100
AcDbVertex
100
AcDb2dVertex
 10
-13.73603137975551
 20
22.26069822073936
 30
0.0
  0
VERTEX
  5
256
330
1D4
100
AcDbEntity
  8
DEFAULT
100
AcDbVertex
100
AcDb2dVertex
 10
-13.74147619987544
 20
22.27537834715094
 30
0.0
  0
VERTEX
  5
257
330
1D4
100
AcDbEntity
  8
DEFAULT
100
AcDbVertex
100
AcDb2dVertex
 10
-13.74393538856894
 20
22.28271387739318
 30
0.0
  0
VERTEX
  5
258
330
1D4
100
AcDbEntity
  8
DEFAULT
100
AcDbVertex
100
AcDb2dVertex
 10
-13.74614272283225
 20
22.29002635846101
 30
0.0
  0
VERTEX
  5
259
330
1D4
100
AcDbEntity
  8
DEFAULT
100
AcDbVertex
100
AcDb2dVertex
 10
-13.74713404450902
 20
22.29366926167981
 30
0.0
  0
VERTEX
  5
25A
330
1D4
100
AcDbEntity
  8
DEFAULT
100
AcDbVertex
100
AcDb2dVertex
 10
-13.74804092252596
 20
22.29730076995537
 30
0.0
  0
VERTEX
  5
25B
330
1D4
100
AcDbEntity
  8
DEFAULT
100
AcDbVertex
100
AcDb2dVertex
 10
-13.74885619686565
 20
22.3009190057378
 30
0.0
  0
VERTEX
  5
25C
330
1D4
100
AcDbEntity
  8
DEFAULT
100
AcDbVertex
100
AcDb2dVertex
 10
-13.74957270751067
 20
22.30452209147723
 30
0.0
  0
VERTEX
  5
25D
330
1D4
100
AcDbEntity
  8
DEFAULT
100
AcDbVertex
100
AcDb2dVertex
 10
-13.75018329444358
 20
22.30810814962377
 30
0.0
  0
VERTEX
  5
25E
330
1D4
100
AcDbEntity
  8
DEFAULT
100
AcDbVertex
100
AcDb2dVertex
 10
-13.75068079764696
 20
22.31167530262756
 30
0.0
  0
VERTEX
  5
25F
330
1D4
100
AcDbEntity
  8
DEFAULT
100
AcDbVertex
100
AcDb2dVertex
 10
-13.75105805710338
 20
22.31522167293869
 30
0.0
  0
VERTEX
  5
260
330
1D4
100
AcDbEntity
  8
DEFAULT
100
AcDbVertex
100
AcDb2dVertex
 10
-13.75119935792104
 20
22.31698647785018
 30
0.0
  0
VERTEX
  5
261
330
1D4
100
AcDbEntity
  8
DEFAULT
100
AcDbVertex
100
AcDb2dVertex
 10
-13.75130791279542
 20
22.3187453830073
 30
0.0
  0
VERTEX
  5
262
330
1D4
100
AcDbEntity
  8
DEFAULT
100
AcDbVertex
100
AcDb2dVertex
 10
-13.75138282672435
 20
22.32049815371631
 30
0.0
  0
VERTEX
  5
263
330
1D4
100
AcDbEntity
  8
DEFAULT
100
AcDbVertex
100
AcDb2dVertex
 10
-13.75142320470565
 20
22.3222445552835
 30
0.0
  0
VERTEX
  5
264
330
1D4
100
AcDbEntity
  8
DEFAULT
100
AcDbVertex
100
AcDb2dVertex
 10
-13.75142815173715
 20
22.32398435301511
 30
0.0
  0
VERTEX
  5
265
330
1D4
100
AcDbEntity
  8
DEFAULT
100
AcDbVertex
100
AcDb2dVertex
 10
-13.75139677281665
 20
22.32571731221742
 30
0.0
  0
VERTEX
  5
266
330
1D4
100
AcDbEntity
  8
DEFAULT
100
AcDbVertex
100
AcDb2dVertex
 10
-13.75132817294199
 20
22.32744319819668
 30
0.0
  0
VERTEX
  5
267
330
1D4
100
AcDbEntity
  8
DEFAULT
100
AcDbVertex
100
AcDb2dVertex
 10
-13.75122145711099
 20
22.32916177625917
 30
0.0
  0
VERTEX
  5
268
330
1D4
100
AcDbEntity
  8
DEFAULT
100
AcDbVertex
100
AcDb2dVertex
 10
-13.75107573032147
 20
22.33087281171115
 30
0.0
  0
VERTEX
  5
269
330
1D4
100
AcDbEntity
  8
DEFAULT
100
AcDbVertex
100
AcDb2dVertex
 10
-13.75089009757124
 20
22.33257606985888
 30
0.0
  0
VERTEX
  5
26A
330
1D4
100
AcDbEntity
  8
DEFAULT
100
AcDbVertex
100
AcDb2dVertex
 10
-13.75066366385814
 20
22.33427131600863
 30
0.0
  0
VERTEX
  5
26B
330
1D4
100
AcDbEntity
  8
DEFAULT
100
AcDbVertex
100
AcDb2dVertex
 10
-13.75039553417998
 20
22.33595831546666
 30
0.0
  0
VERTEX
  5
26C
330
1D4
100
AcDbEntity
  8
DEFAULT
100
AcDbVertex
100
AcDb2dVertex
 10
-13.75008481353458
 20
22.33763683353924
 30
0.0
  0
VERTEX
  5
26D
330
1D4
100
AcDbEntity
  8
DEFAULT
100
AcDbVertex
100
AcDb2dVertex
 10
-13.74973060691978
 20
22.33930663553264
 30
0.0
  0
VERTEX
  5
26E
330
1D4
100
AcDbEntity
  8
DEFAULT
100
AcDbVertex
100
AcDb2dVertex
 10
-13.74933201933338
 20
22.34096748675312
 30
0.0
  0
VERTEX
  5
26F
330
1D4
100
AcDbEntity
  8
DEFAULT
100
AcDbVertex
100
AcDb2dVertex
 10
-13.74888815577321
 20
22.34261915250693
 30
0.0
  0
VERTEX
  5
270
330
1D4
100
AcDbEntity
  8
DEFAULT
100
AcDbVertex
100
AcDb2dVertex
 10
-13.7483981212371
 20
22.34426139810036
 30
0.0
  0
VERTEX
  5
271
330
1D4
100
AcDbEntity
  8
DEFAULT
100
AcDbVertex
100
AcDb2dVertex
 10
-13.74786102072286
 20
22.34589398883966
 30
0.0
  0
VERTEX
  5
272
330
1D4
100
AcDbEntity
  8
DEFAULT
100
AcDbVertex
100
AcDb2dVertex
 10
-13.74727595922831
 20
22.3475166900311
 30
0.0
  0
VERTEX
  5
273
330
1D4
100
AcDbEntity
  8
DEFAULT
100
AcDbVertex
100
AcDb2dVertex
 10
-13.74664204175129
 20
22.34912926698094
 30
0.0
  0
VERTEX
  5
274
330
1D4
100
AcDbEntity
  8
DEFAULT
100
AcDbVertex
100
AcDb2dVertex
 10
-13.7459583732896
 20
22.35073148499545
 30
0.0
  0
VERTEX
  5
275
330
1D4
100
AcDbEntity
  8
DEFAULT
100
AcDbVertex
100
AcDb2dVertex
 10
-13.74522405884107
 20
22.35232310938089
 30
0.0
  0
VERTEX
  5
276
330
1D4
100
AcDbEntity
  8
DEFAULT
100
AcDbVertex
100
AcDb2dVertex
 10
-13.74443820340352
 20
22.35390390544353
 30
0.0
  0
VERTEX
  5
277
330
1D4
100
AcDbEntity
  8
DEFAULT
100
AcDbVertex
100
AcDb2dVertex
 10
-13.74359991197478
 20
22.35547363848964
 30
0.0
  0
VERTEX
  5
278
330
1D4
100
AcDbEntity
  8
DEFAULT
100
AcDbVertex
100
AcDb2dVertex
 10
-13.74270828955267
 20
22.35703207382548
 30
0.0
  0
VERTEX
  5
279
330
1D4
100
AcDbEntity
  8
DEFAULT
100
AcDbVertex
100
AcDb2dVertex
 10
-13.741762441135
 20
22.3585789767573
 30
0.0
  0
VERTEX
  5
27A
330
1D4
100
AcDbEntity
  8
DEFAULT
100
AcDbVertex
100
AcDb2dVertex
 10
-12.64176342027
 20
22.49702730347231
 30
0.0
  0
VERTEX
  5
27B
330
1D4
100
AcDbEntity
  8
DEFAULT
100
AcDbVertex
100
AcDb2dVertex
 10
-12.64272456031069
 20
22.49551480638502
 30
0.0
  0
VERTEX
  5
27C
330
1D4
100
AcDbEntity
  8
DEFAULT
100
AcDbVertex
100
AcDb2dVertex
 10
-12.643630487536
 20
22.4939905690016
 30
0.0
  0
VERTEX
  5
27D
330
1D4
100
AcDbEntity
  8
DEFAULT
100
AcDbVertex
100
AcDb2dVertex
 10
-12.64448211391316
 20
22.49245483103573
 30
0.0
  0
VERTEX
  5
27E
330
1D4
100
AcDbEntity
  8
DEFAULT
100
AcDbVertex
100
AcDb2dVertex
 10
-12.64528035140941
 20
22.49090783220105
 30
0.0
  0
VERTEX
  5
27F
330
1D4
100
AcDbEntity
  8
DEFAULT
100
AcDbVertex
100
AcDb2dVertex
 10
-12.64602611199198
 20
22.48934981221122
 30
0.0
  0
VERTEX
  5
280
330
1D4
100
AcDbEntity
  8
DEFAULT
100
AcDbVertex
100
AcDb2dVertex
 10
-12.6467203076281
 20
22.48778101077989
 30
0.0
  0
VERTEX
  5
281
330
1D4
100
AcDbEntity
  8
DEFAULT
100
AcDbVertex
100
AcDb2dVertex
 10
-12.647363850285
 20
22.48620166762073
 30
0.0
  0
VERTEX
  5
282
330
1D4
100
AcDbEntity
  8
DEFAULT
100
AcDbVertex
100
AcDb2dVertex
 10
-12.64795765192992
 20
22.48461202244738
 30
0.0
  0
VERTEX
  5
283
330
1D4
100
AcDbEntity
  8
DEFAULT
100
AcDbVertex
100
AcDb2dVertex
 10
-12.6485026245301
 20
22.48301231497351
 30
0.0
  0
VERTEX
  5
284
330
1D4
100
AcDbEntity
  8
DEFAULT
100
AcDbVertex
100
AcDb2dVertex
 10
-12.64899968005276
 20
22.48140278491276
 30
0.0
  0
VERTEX
  5
285
330
1D4
100
AcDbEntity
  8
DEFAULT
100
AcDbVertex
100
AcDb2dVertex
 10
-12.64944973046513
 20
22.47978367197881
 30
0.0
  0
VERTEX
  5
286
330
1D4
100
AcDbEntity
  8
DEFAULT
100
AcDbVertex
100
AcDb2dVertex
 10
-12.64985368773446
 20
22.47815521588529
 30
0.0
  0
VERTEX
  5
287
330
1D4
100
AcDbEntity
  8
DEFAULT
100
AcDbVertex
100
AcDb2dVertex
 10
-12.65021246382798
 20
22.47651765634588
 30
0.0
  0
VERTEX
  5
288
330
1D4
100
AcDbEntity
  8
DEFAULT
100
AcDbVertex
100
AcDb2dVertex
 10
-12.65052697071291
 20
22.47487123307422
 30
0.0
  0
VERTEX
  5
289
330
1D4
100
AcDbEntity
  8
DEFAULT
100
AcDbVertex
100
AcDb2dVertex
 10
-12.65079812035649
 20
22.47321618578397
 30
0.0
  0
VERTEX
  5
28A
330
1D4
100
AcDbEntity
  8
DEFAULT
100
AcDbVertex
100
AcDb2dVertex
 10
-12.65102682472596
 20
22.47155275418878
 30
0.0
  0
VERTEX
  5
28B
330
1D4
100
AcDbEntity
  8
DEFAULT
100
AcDbVertex
100
AcDb2dVertex
 10
-12.65121399578855
 20
22.46988117800231
 30
0.0
  0
VERTEX
  5
28C
330
1D4
100
AcDbEntity
  8
DEFAULT
100
AcDbVertex
100
AcDb2dVertex
 10
-12.65136054551149
 20
22.46820169693823
 30
0.0
  0
VERTEX
  5
28D
330
1D4
100
AcDbEntity
  8
DEFAULT
100
AcDbVertex
100
AcDb2dVertex
 10
-12.65146738586202
 20
22.46651455071018
 30
0.0
  0
VERTEX
  5
28E
330
1D4
100
AcDbEntity
  8
DEFAULT
100
AcDbVertex
100
AcDb2dVertex
 10
-12.65153542880736
 20
22.46481997903182
 30
0.0
  0
VERTEX
  5
28F
330
1D4
100
AcDbEntity
  8
DEFAULT
100
AcDbVertex
100
AcDb2dVertex
 10
-12.65156558631476
 20
22.4631182216168
 30
0.0
  0
VERTEX
  5
290
330
1D4
100
AcDbEntity
  8
DEFAULT
100
AcDbVertex
100
AcDb2dVertex
 10
-12.65155877035144
 20
22.46140951817878
 30
0.0
  0
VERTEX
  5
291
330
1D4
100
AcDbEntity
  8
DEFAULT
100
AcDbVertex
100
AcDb2dVertex
 10
-12.65151589288464
 20
22.45969410843142
 30
0.0
  0
VERTEX
  5
292
330
1D4
100
AcDbEntity
  8
DEFAULT
100
AcDbVertex
100
AcDb2dVertex
 10
-12.65143786588159
 20
22.45797223208838
 30
0.0
  0
VERTEX
  5
293
330
1D4
100
AcDbEntity
  8
DEFAULT
100
AcDbVertex
100
AcDb2dVertex
 10
-12.65132560130952
 20
22.45624412886331
 30
0.0
  0
VERTEX
  5
294
330
1D4
100
AcDbEntity
  8
DEFAULT
100
AcDbVertex
100
AcDb2dVertex
 10
-12.65118001113568
 20
22.45451003846987
 30
0.0
  0
VERTEX
  5
295
330
1D4
100
AcDbEntity
  8
DEFAULT
100
AcDbVertex
100
AcDb2dVertex
 10
-12.65100200732728
 20
22.4527702006217
 30
0.0
  0
VERTEX
  5
296
330
1D4
100
AcDbEntity
  8
DEFAULT
100
AcDbVertex
100
AcDb2dVertex
 10
-12.65079250185157
 20
22.45102485503247
 30
0.0
  0
VERTEX
  5
297
330
1D4
100
AcDbEntity
  8
DEFAULT
100
AcDbVertex
100
AcDb2dVertex
 10
-12.65028263376714
 20
22.44751859948546
 30
0.0
  0
VERTEX
  5
298
330
1D4
100
AcDbEntity
  8
DEFAULT
100
AcDbVertex
100
AcDb2dVertex
 10
-12.64965770262025
 20
22.44399318953807
 30
0.0
  0
VERTEX
  5
299
330
1D4
100
AcDbEntity
  8
DEFAULT
100
AcDbVertex
100
AcDb2dVertex
 10
-12.64892500414876
 20
22.44045054289955
 30
0.0
  0
VERTEX
  5
29A
330
1D4
100
AcDbEntity
  8
DEFAULT
100
AcDbVertex
100
AcDb2dVertex
 10
-12.64809183409055
 20
22.43689257727915
 30
0.0
  0
VERTEX
  5
29B
330
1D4
100
AcDbEntity
  8
DEFAULT
100
AcDbVertex
100
AcDb2dVertex
 10
-12.64716548818348
 20
22.43332121038612
 30
0.0
  0
VERTEX
  5
29C
330
1D4
100
AcDbEntity
  8
DEFAULT
100
AcDbVertex
100
AcDb2dVertex
 10
-12.64615326216541
 20
22.42973835992969
 30
0.0
  0
VERTEX
  5
29D
330
1D4
100
AcDbEntity
  8
DEFAULT
100
AcDbVertex
100
AcDb2dVertex
 10
-12.64506245177421
 20
22.42614594361914
 30
0.0
  0
VERTEX
  5
29E
330
1D4
100
AcDbEntity
  8
DEFAULT
100
AcDbVertex
100
AcDb2dVertex
 10
-12.64390035274776
 20
22.42254587916369
 30
0.0
  0
VERTEX
  5
29F
330
1D4
100
AcDbEntity
  8
DEFAULT
100
AcDbVertex
100
AcDb2dVertex
 10
-12.64139147174053
 20
22.41533047665513
 30
0.0
  0
VERTEX
  5
2A0
330
1D4
100
AcDbEntity
  8
DEFAULT
100
AcDbVertex
100
AcDb2dVertex
 10
-12.63583925856907
 20
22.40089227310624
 30
0.0
  0
VERTEX
  5
2A1
330
1D4
100
AcDbEntity
  8
DEFAULT
100
AcDbVertex
100
AcDb2dVertex
 10
-12.62996354987448
 20
22.3865464826749
 30
0.0
  0
VERTEX
  5
2A2
330
1D4
100
AcDbEntity
  8
DEFAULT
100
AcDbVertex
100
AcDb2dVertex
 10
-12.58423627648082
 20
22.27702980862661
 30
0.0
  0
VERTEX
  5
2A3
330
1D4
100
AcDbEntity
  8
DEFAULT
100
AcDbVertex
100
AcDb2dVertex
 10
-12.55929419117197
 20
22.22340246076558
 30
0.0
  0
VERTEX
  5
2A4
330
1D4
100
AcDbEntity
  8
DEFAULT
100
AcDbVertex
100
AcDb2dVertex
 10
-12.53288533530849
 20
22.17001011840436
 30
0.0
  0
VERTEX
  5
2A5
330
1D4
100
AcDbEntity
  8
DEFAULT
100
AcDbVertex
100
AcDb2dVertex
 10
-12.47849939435913
 20
22.06449620088017
 30
0.0
  0
VERTEX
  5
2A6
330
1D4
100
AcDbEntity
  8
DEFAULT
100
AcDbVertex
100
AcDb2dVertex
 10
-12.42208132524036
 20
21.96009614354788
 30
0.0
  0
VERTEX
  5
2A7
330
1D4
100
AcDbEntity
  8
DEFAULT
100
AcDbVertex
100
AcDb2dVertex
 10
-11.67915896364882
 20
20.64014868609516
 30
0.0
  0
VERTEX
  5
2A8
330
1D4
100
AcDbEntity
  8
DEFAULT
100
AcDbVertex
100
AcDb2dVertex
 10
-10.91260085557597
 20
19.33350442832263
 30
0.0
  0
VERTEX
  5
2A9
330
1D4
100
AcDbEntity
  8
DEFAULT
100
AcDbVertex
100
AcDb2dVertex
 10
-10.12276997818988
 20
18.04079497351477
 30
0.0
  0
VERTEX
  5
2AA
330
1D4
100
AcDbEntity
  8
DEFAULT
100
AcDbVertex
100
AcDb2dVertex
 10
-9.310051688419684
 20
16.76263852485065
 30
0.0
  0
VERTEX
  5
2AB
330
1D4
100
AcDbEntity
  8
DEFAULT
100
AcDbVertex
100
AcDb2dVertex
 10
-9.274748008198191
 20
16.70930896482324
 30
0.0
  0
VERTEX
  5
2AC
330
1D4
100
AcDbEntity
  8
DEFAULT
100
AcDbVertex
100
AcDb2dVertex
 10
-9.238421027799966
 20
16.65669369911193
 30
0.0
  0
VERTEX
  5
2AD
330
1D4
100
AcDbEntity
  8
DEFAULT
100
AcDbVertex
100
AcDb2dVertex
 10
-9.201073734207267
 20
16.60481483624089
 30
0.0
  0
VERTEX
  5
2AE
330
1D4
100
AcDbEntity
  8
DEFAULT
100
AcDbVertex
100
AcDb2dVertex
 10
-9.162709114402347
 20
16.55369448473427
 30
0.0
  0
VERTEX
  5
2AF
330
1D4
100
AcDbEntity
  8
DEFAULT
100
AcDbVertex
100
AcDb2dVertex
 10
-9.123330155367471
 20
16.50335475311619
 30
0.0
  0
VERTEX
  5
2B0
330
1D4
100
AcDbEntity
  8
DEFAULT
100
AcDbVertex
100
AcDb2dVertex
 10
-9.082939844084898
 20
16.45381774991081
 30
0.0
  0
VERTEX
  5
2B1
330
1D4
100
AcDbEntity
  8
DEFAULT
100
AcDbVertex
100
AcDb2dVertex
 10
-9.041541167536884
 20
16.40510558364228
 30
0.0
  0
VERTEX
  5
2B2
330
1D4
100
AcDbEntity
  8
DEFAULT
100
AcDbVertex
100
AcDb2dVertex
 10
-8.99913711270569
 20
16.35724036283474
 30
0.0
  0
VERTEX
  5
2B3
330
1D4
100
AcDbEntity
  8
DEFAULT
100
AcDbVertex
100
AcDb2dVertex
 10
-8.955723637039135
 20
16.31025921961592
 30
0.0
  0
VERTEX
  5
2B4
330
1D4
100
AcDbEntity
  8
DEFAULT
100
AcDbVertex
100
AcDb2dVertex
 10
-8.911268579847295
 20
16.26425938052794
 30
0.0
  0
VERTEX
  5
2B5
330
1D4
100
AcDbEntity
  8
DEFAULT
100
AcDbVertex
100
AcDb2dVertex
 10
-8.865732750905812
 20
16.21935309571647
 30
0.0
  0
VERTEX
  5
2B6
330
1D4
100
AcDbEntity
  8
DEFAULT
100
AcDbVertex
100
AcDb2dVertex
 10
-8.819076959990321
 20
16.17565261532722
 30
0.0
  0
VERTEX
  5
2B7
330
1D4
100
AcDbEntity
  8
DEFAULT
100
AcDbVertex
100
AcDb2dVertex
 10
-8.77126201687646
 20
16.13327018950587
 30
0.0
  0
VERTEX
  5
2B8
330
1D4
100
AcDbEntity
  8
DEFAULT
100
AcDbVertex
100
AcDb2dVertex
 10
-8.722248731339869
 20
16.09231806839811
 30
0.0
  0
VERTEX
  5
2B9
330
1D4
100
AcDbEntity
  8
DEFAULT
100
AcDbVertex
100
AcDb2dVertex
 10
-8.671997913156186
 20
16.05290850214965
 30
0.0
  0
VERTEX
  5
2BA
330
1D4
100
AcDbEntity
  8
DEFAULT
100
AcDbVertex
100
AcDb2dVertex
 10
-8.62047037210105
 20
16.01515374090616
 30
0.0
  0
VERTEX
  5
2BB
330
1D4
100
AcDbEntity
  8
DEFAULT
100
AcDbVertex
100
AcDb2dVertex
 10
-8.567645603897951
 20
15.97915857542509
 30
0.0
  0
VERTEX
  5
2BC
330
1D4
100
AcDbEntity
  8
DEFAULT
100
AcDbVertex
100
AcDb2dVertex
 10
-8.513577848061797
 20
15.94499795891087
 30
0.0
  0
VERTEX
  5
2BD
330
1D4
100
AcDbEntity
  8
DEFAULT
100
AcDbVertex
100
AcDb2dVertex
 10
-8.48610063898844
 20
15.92862669833387
 30
0.0
  0
VERTEX
  5
2BE
330
1D4
100
AcDbEntity
  8
DEFAULT
100
AcDbVertex
100
AcDb2dVertex
 10
-8.458340030055354
 20
15.91273938517965
 30
0.0
  0
VERTEX
  5
2BF
330
1D4
100
AcDbEntity
  8
DEFAULT
100
AcDbVertex
100
AcDb2dVertex
 10
-8.430305136945385
 20
15.89734445617522
 30
0.0
  0
VERTEX
  5
2C0
330
1D4
100
AcDbEntity
  8
DEFAULT
100
AcDbVertex
100
AcDb2dVertex
 10
-8.40200507534138
 20
15.88245034804761
 30
0.0
  0
VERTEX
  5
2C1
330
1D4
100
AcDbEntity
  8
DEFAULT
100
AcDbVertex
100
AcDb2dVertex
 10
-8.373448960926183
 20
15.86806549752383
 30
0.0
  0
VERTEX
  5
2C2
330
1D4
100
AcDbEntity
  8
DEFAULT
100
AcDbVertex
100
AcDb2dVertex
 10
-8.34464590938264
 20
15.85419834133091
 30
0.0
  0
VERTEX
  5
2C3
330
1D4
100
AcDbEntity
  8
DEFAULT
100
AcDbVertex
100
AcDb2dVertex
 10
-8.315605036393595
 20
15.84085731619587
 30
0.0
  0
VERTEX
  5
2C4
330
1D4
100
AcDbEntity
  8
DEFAULT
100
AcDbVertex
100
AcDb2dVertex
 10
-8.286335457641895
 20
15.82805085884573
 30
0.0
  0
VERTEX
  5
2C5
330
1D4
100
AcDbEntity
  8
DEFAULT
100
AcDbVertex
100
AcDb2dVertex
 10
-8.256846288810383
 20
15.81578740600751
 30
0.0
  0
VERTEX
  5
2C6
330
1D4
100
AcDbEntity
  8
DEFAULT
100
AcDbVertex
100
AcDb2dVertex
 10
-8.227146645581907
 20
15.80407539440823
 30
0.0
  0
VERTEX
  5
2C7
330
1D4
100
AcDbEntity
  8
DEFAULT
100
AcDbVertex
100
AcDb2dVertex
 10
-8.197245643639311
 20
15.79292326077492
 30
0.0
  0
VERTEX
  5
2C8
330
1D4
100
AcDbEntity
  8
DEFAULT
100
AcDbVertex
100
AcDb2dVertex
 10
-8.16715239866544
 20
15.78233944183459
 30
0.0
  0
VERTEX
  5
2C9
330
1D4
100
AcDbEntity
  8
DEFAULT
100
AcDbVertex
100
AcDb2dVertex
 10
-8.136876274236618
 20
15.77232731493151
 30
0.0
  0
VERTEX
  5
2CA
330
1D4
100
AcDbEntity
  8
DEFAULT
100
AcDbVertex
100
AcDb2dVertex
 10
-8.106427625503095
 20
15.76287001987897
 30
0.0
  0
VERTEX
  5
2CB
330
1D4
100
AcDbEntity
  8
DEFAULT
100
AcDbVertex
100
AcDb2dVertex
 10
-8.045055167296841
 20
15.74553224704766
 30
0.0
  0
VERTEX
  5
2CC
330
1D4
100
AcDbEntity
  8
DEFAULT
100
AcDbVertex
100
AcDb2dVertex
 10
-7.983119848396488
 20
15.7301507667849
 30
0.0
  0
VERTEX
  5
2CD
330
1D4
100
AcDbEntity
  8
DEFAULT
100
AcDbVertex
100
AcDb2dVertex
 10
-7.920706493151846
 20
15.71655022253499
 30
0.0
  0
VERTEX
  5
2CE
330
1D4
100
AcDbEntity
  8
DEFAULT
100
AcDbVertex
100
AcDb2dVertex
 10
-7.857899925912722
 20
15.70455525774219
 30
0.0
  0
VERTEX
  5
2CF
330
1D4
100
AcDbEntity
  8
DEFAULT
100
AcDbVertex
100
AcDb2dVertex
 10
-7.79478497102893
 20
15.69399051585077
 30
0.0
  0
VERTEX
  5
2D0
330
1D4
100
AcDbEntity
  8
DEFAULT
100
AcDbVertex
100
AcDb2dVertex
 10
-7.667969195726569
 20
15.67645027454918
 30
0.0
  0
VERTEX
  5
2D1
330
1D4
100
AcDbEntity
  8
DEFAULT
100
AcDbVertex
100
AcDb2dVertex
 10
-7.159010579119273
 20
15.62722325054871
 30
0.0
  0
VERTEX
  5
2D2
330
1D4
100
AcDbEntity
  8
DEFAULT
100
AcDbVertex
100
AcDb2dVertex
 10
-5.373266148132497
 20
15.47453646533116
 30
0.0
  0
VERTEX
  5
2D3
330
1D4
100
AcDbEntity
  8
DEFAULT
100
AcDbVertex
100
AcDb2dVertex
 10
-3.583769570619245
 20
15.36573281482207
 30
0.0
  0
VERTEX
  5
2D4
330
1D4
100
AcDbEntity
  8
DEFAULT
100
AcDbVertex
100
AcDb2dVertex
 10
-1.792139887040781
 20
15.30093071442188
 30
0.0
  0
VERTEX
  5
2D5
330
1D4
100
AcDbEntity
  8
DEFAULT
100
AcDbVertex
100
AcDb2dVertex
 10
-0.0000000000000018
 20
15.28016891156637
 30
0.0
  0
VERTEX
  5
2D6
330
1D4
100
AcDbEntity
  8
DEFAULT
100
AcDbVertex
100
AcDb2dVertex
 10
1.792139887040779
 20
15.30093071442188
 30
0.0
  0
VERTEX
  5
2D7
330
1D4
100
AcDbEntity
  8
DEFAULT
100
AcDbVertex
100
AcDb2dVertex
 10
3.583769570619245
 20
15.36573281482207
 30
0.0
  0
VERTEX
  5
2D8
330
1D4
100
AcDbEntity
  8
DEFAULT
100
AcDbVertex
100
AcDb2dVertex
 10
5.373266148132497
 20
15.47453646533116
 30
0.0
  0
VERTEX
  5
2D9
330
1D4
100
AcDbEntity
  8
DEFAULT
100
AcDbVertex
100
AcDb2dVertex
 10
7.159010579119272
 20
15.62722325054871
 30
0.0
  0
VERTEX
  5
2DA
330
1D4
100
AcDbEntity
  8
DEFAULT
100
AcDbVertex
100
AcDb2dVertex
 10
7.667969195726569
 20
15.67645027454918
 30
0.0
  0
VERTEX
  5
2DB
330
1D4
100
AcDbEntity
  8
DEFAULT
100
AcDbVertex
100
AcDb2dVertex
 10
7.79478497102893
 20
15.69399051585077
 30
0.0
  0
VERTEX
  5
2DC
330
1D4
100
AcDbEntity
  8
DEFAULT
100
AcDbVertex
100
AcDb2dVertex
 10
7.857899925912722
 20
15.70455525774219
 30
0.0
  0
VERTEX
  5
2DD
330
1D4
100
AcDbEntity
  8
DEFAULT
100
AcDbVertex
100
AcDb2dVertex
 10
7.920706493151846
 20
15.71655022253499
 30
0.0
  0
VERTEX
  5
2DE
330
1D4
100
AcDbEntity
  8
DEFAULT
100
AcDbVertex
100
AcDb2dVertex
 10
7.983119848396488
 20
15.73015076678491
 30
0.0
  0
VERTEX
  5
2DF
330
1D4
100
AcDbEntity
  8
DEFAULT
100
AcDbVertex
100
AcDb2dVertex
 10
8.045055167296841
 20
15.74553224704766
 30
0.0
  0
VERTEX
  5
2E0
330
1D4
100
AcDbEntity
  8
DEFAULT
100
AcDbVertex
100
AcDb2dVertex
 10
8.106427625503095
 20
15.76287001987898
 30
0.0
  0
VERTEX
  5
2E1
330
1D4
100
AcDbEntity
  8
DEFAULT
100
AcDbVertex
100
AcDb2dVertex
 10
8.136876274236618
 20
15.77232731493151
 30
0.0
  0
VERTEX
  5
2E2
330
1D4
100
AcDbEntity
  8
DEFAULT
100
AcDbVertex
100
AcDb2dVertex
 10
8.16715239866544
 20
15.78233944183459
 30
0.0
  0
VERTEX
  5
2E3
330
1D4
100
AcDbEntity
  8
DEFAULT
100
AcDbVertex
100
AcDb2dVertex
 10
8.197245643639311
 20
15.79292326077492
 30
0.0
  0
VERTEX
  5
2E4
330
1D4
100
AcDbEntity
  8
DEFAULT
100
AcDbVertex
100
AcDb2dVertex
 10
8.227146645581907
 20
15.80407539440823
 30
0.0
  0
VERTEX
  5
2E5
330
1D4
100
AcDbEntity
  8
DEFAULT
100
AcDbVertex
100
AcDb2dVertex
 10
8.256846288810383
 20
15.81578740600751
 30
0.0
  0
VERTEX
  5
2E6
330
1D4
100
AcDbEntity
  8
DEFAULT
100
AcDbVertex
100
AcDb2dVertex
 10
8.286335457641895
 20
15.82805085884573
 30
0.0
  0
VERTEX
  5
2E7
330
1D4
100
AcDbEntity
  8
DEFAULT
100
AcDbVertex
100
AcDb2dVertex
 10
8.315605036393595
 20
15.84085731619587
 30
0.0
  0
VERTEX
  5
2E8
330
1D4
100
AcDbEntity
  8
DEFAULT
100
AcDbVertex
100
AcDb2dVertex
 10
8.34464590938264
 20
15.85419834133091
 30
0.0
  0
VERTEX
  5
2E9
330
1D4
100
AcDbEntity
  8
DEFAULT
100
AcDbVertex
100
AcDb2dVertex
 10
8.373448960926183
 20
15.86806549752383
 30
0.0
  0
VERTEX
  5
2EA
330
1D4
100
AcDbEntity
  8
DEFAULT
100
AcDbVertex
100
AcDb2dVertex
 10
8.40200507534138
 20
15.88245034804761
 30
0.0
  0
VERTEX
  5
2EB
330
1D4
100
AcDbEntity
  8
DEFAULT
100
AcDbVertex
100
AcDb2dVertex
 10
8.430305136945385
 20
15.89734445617522
 30
0.0
  0
VERTEX
  5
2EC
330
1D4
100
AcDbEntity
  8
DEFAULT
100
AcDbVertex
100
AcDb2dVertex
 10
8.458340030055354
 20
15.91273938517965
 30
0.0
  0
VERTEX
  5
2ED
330
1D4
100
AcDbEntity
  8
DEFAULT
100
AcDbVertex
100
AcDb2dVertex
 10
8.48610063898844
 20
15.92862669833387
 30
0.0
  0
VERTEX
  5
2EE
330
1D4
100
AcDbEntity
  8
DEFAULT
100
AcDbVertex
100
AcDb2dVertex
 10
8.513577848061797
 20
15.94499795891087
 30
0.0
  0
VERTEX
  5
2EF
330
1D4
100
AcDbEntity
  8
DEFAULT
100
AcDbVertex
100
AcDb2dVertex
 10
8.567645603897951
 20
15.97915857542509
 30
0.0
  0
VERTEX
  5
2F0
330
1D4
100
AcDbEntity
  8
DEFAULT
100
AcDbVertex
100
AcDb2dVertex
 10
8.62047037210105
 20
16.01515374090616
 30
0.0
  0
VERTEX
  5
2F1
330
1D4
100
AcDbEntity
  8
DEFAULT
100
AcDbVertex
100
AcDb2dVertex
 10
8.671997913156186
 20
16.05290850214965
 30
0.0
  0
VERTEX
  5
2F2
330
1D4
100
AcDbEntity
  8
DEFAULT
100
AcDbVertex
100
AcDb2dVertex
 10
8.722248731339869
 20
16.09231806839811
 30
0.0
  0
VERTEX
  5
2F3
330
1D4
100
AcDbEntity
  8
DEFAULT
100
AcDbVertex
100
AcDb2dVertex
 10
8.77126201687646
 20
16.13327018950586
 30
0.0
  0
VERTEX
  5
2F4
330
1D4
100
AcDbEntity
  8
DEFAULT
100
AcDbVertex
100
AcDb2dVertex
 10
8.819076959990321
 20
16.17565261532721
 30
0.0
  0
VERTEX
  5
2F5
330
1D4
100
AcDbEntity
  8
DEFAULT
100
AcDbVertex
100
AcDb2dVertex
 10
8.865732750905812
 20
16.21935309571646
 30
0.0
  0
VERTEX
  5
2F6
330
1D4
100
AcDbEntity
  8
DEFAULT
100
AcDbVertex
100
AcDb2dVertex
 10
8.911268579847295
 20
16.26425938052793
 30
0.0
  0
VERTEX
  5
2F7
330
1D4
100
AcDbEntity
  8
DEFAULT
100
AcDbVertex
100
AcDb2dVertex
 10
8.955723637039135
 20
16.31025921961592
 30
0.0
  0
VERTEX
  5
2F8
330
1D4
100
AcDbEntity
  8
DEFAULT
100
AcDbVertex
100
AcDb2dVertex
 10
8.99913711270569
 20
16.35724036283474
 30
0.0
  0
VERTEX
  5
2F9
330
1D4
100
AcDbEntity
  8
DEFAULT
100
AcDbVertex
100
AcDb2dVertex
 10
9.041541167536884
 20
16.40510558364228
 30
0.0
  0
VERTEX
  5
2FA
330
1D4
100
AcDbEntity
  8
DEFAULT
100
AcDbVertex
100
AcDb2dVertex
 10
9.082939844084898
 20
16.45381774991081
 30
0.0
  0
VERTEX
  5
2FB
330
1D4
100
AcDbEntity
  8
DEFAULT
100
AcDbVertex
100
AcDb2dVertex
 10
9.123330155367471
 20
16.50335475311619
 30
0.0
  0
VERTEX
  5
2FC
330
1D4
100
AcDbEntity
  8
DEFAULT
100
AcDbVertex
100
AcDb2dVertex
 10
9.162709114402347
 20
16.55369448473427
 30
0.0
  0
VERTEX
  5
2FD
330
1D4
100
AcDbEntity
  8
DEFAULT
100
AcDbVertex
100
AcDb2dVertex
 10
9.201073734207267
 20
16.60481483624089
 30
0.0
  0
VERTEX
  5
2FE
330
1D4
100
AcDbEntity
  8
DEFAULT
100
AcDbVertex
100
AcDb2dVertex
 10
9.238421027799966
 20
16.65669369911193
 30
0.0
  0
VERTEX
  5
2FF
330
1D4
100
AcDbEntity
  8
DEFAULT
100
AcDbVertex
100
AcDb2dVertex
 10
9.274748008198191
 20
16.70930896482324
 30
0.0
  0
VERTEX
  5
300
330
1D4
100
AcDbEntity
  8
DEFAULT
100
AcDbVertex
100
AcDb2dVertex
 10
9.310051688419684
 20
16.76263852485065
 30
0.0
  0
VERTEX
  5
301
330
1D4
100
AcDbEntity
  8
DEFAULT
100
AcDbVertex
100
AcDb2dVertex
 10
10.12276997818988
 20
18.04079497351477
 30
0.0
  0
VERTEX
  5
302
330
1D4
100
AcDbEntity
  8
DEFAULT
100
AcDbVertex
100
AcDb2dVertex
 10
10.91260085557597
 20
19.33350442832263
 30
0.0
  0
VERTEX
  5
303
330
1D4
100
AcDbEntity
  8
DEFAULT
100
AcDbVertex
100
AcDb2dVertex
 10
11.67915896364882
 20
20.64014868609516
 30
0.0
  0
VERTEX
  5
304
330
1D4
100
AcDbEntity
  8
DEFAULT
100
AcDbVertex
100
AcDb2dVertex
 10
12.42208132524036
 20
21.96009614354788
 30
0.0
  0
VERTEX
  5
305
330
1D4
100
AcDbEntity
  8
DEFAULT
100
AcDbVertex
100
AcDb2dVertex
 10
12.47849939435913
 20
22.06449620088017
 30
0.0
  0
VERTEX
  5
306
330
1D4
100
AcDbEntity
  8
DEFAULT
100
AcDbVertex
100
AcDb2dVertex
 10
12.53288533530849
 20
22.17001011840436
 30
0.0
  0
VERTEX
  5
307
330
1D4
100
AcDbEntity
  8
DEFAULT
100
AcDbVertex
100
AcDb2dVertex
 10
12.55929419117197
 20
22.22340246076558
 30
0.0
  0
VERTEX
  5
308
330
1D4
100
AcDbEntity
  8
DEFAULT
100
AcDbVertex
100
AcDb2dVertex
 10
12.58423627648082
 20
22.2770298086266
 30
0.0
  0
VERTEX
  5
309
330
1D4
100
AcDbEntity
  8
DEFAULT
100
AcDbVertex
100
AcDb2dVertex
 10
12.62996354987448
 20
22.38654648267489
 30
0.0
  0
VERTEX
  5
30A
330
1D4
100
AcDbEntity
  8
DEFAULT
100
AcDbVertex
100
AcDb2dVertex
 10
12.63583925856907
 20
22.40089227310624
 30
0.0
  0
VERTEX
  5
30B
330
1D4
100
AcDbEntity
  8
DEFAULT
100
AcDbVertex
100
AcDb2dVertex
 10
12.64139147174053
 20
22.41533047665513
 30
0.0
  0
VERTEX
  5
30C
330
1D4
100
AcDbEntity
  8
DEFAULT
100
AcDbVertex
100
AcDb2dVertex
 10
12.64390035274776
 20
22.42254587916369
 30
0.0
  0
VERTEX
  5
30D
330
1D4
100
AcDbEntity
  8
DEFAULT
100
AcDbVertex
100
AcDb2dVertex
 10
12.64506245177421
 20
22.42614594361914
 30
0.0
  0
VERTEX
  5
30E
330
1D4
100
AcDbEntity
  8
DEFAULT
100
AcDbVertex
100
AcDb2dVertex
 10
12.64615326216541
 20
22.42973835992969
 30
0.0
  0
VERTEX
  5
30F
330
1D4
100
AcDbEntity
  8
DEFAULT
100
AcDbVertex
100
AcDb2dVertex
 10
12.64716548818348
 20
22.43332121038612
 30
0.0
  0
VERTEX
  5
310
330
1D4
100
AcDbEntity
  8
DEFAULT
100
AcDbVertex
100
AcDb2dVertex
 10
12.64809183409055
 20
22.43689257727915
 30
0.0
  0
VERTEX
  5
311
330
1D4
100
AcDbEntity
  8
DEFAULT
100
AcDbVertex
100
AcDb2dVertex
 10
12.64892500414876
 20
22.44045054289955
 30
0.0
  0
VERTEX
  5
312
330
1D4
100
AcDbEntity
  8
DEFAULT
100
AcDbVertex
100
AcDb2dVertex
 10
12.64965770262025
 20
22.44399318953807
 30
0.0
  0
VERTEX
  5
313
330
1D4
100
AcDbEntity
  8
DEFAULT
100
AcDbVertex
100
AcDb2dVertex
 10
12.65028263376714
 20
22.44751859948546
 30
0.0
  0
VERTEX
  5
314
330
1D4
100
AcDbEntity
  8
DEFAULT
100
AcDbVertex
100
AcDb2dVertex
 10
12.65079250185157
 20
22.45102485503247
 30
0.0
  0
VERTEX
  5
315
330
1D4
100
AcDbEntity
  8
DEFAULT
100
AcDbVertex
100
AcDb2dVertex
 10
12.65100200732728
 20
22.4527702006217
 30
0.0
  0
VERTEX
  5
316
330
1D4
100
AcDbEntity
  8
DEFAULT
100
AcDbVertex
100
AcDb2dVertex
 10
12.65118001113568
 20
22.45451003846987
 30
0.0
  0
VERTEX
  5
317
330
1D4
100
AcDbEntity
  8
DEFAULT
100
AcDbVertex
100
AcDb2dVertex
 10
12.65132560130952
 20
22.45624412886331
 30
0.0
  0
VERTEX
  5
318
330
1D4
100
AcDbEntity
  8
DEFAULT
100
AcDbVertex
100
AcDb2dVertex
 10
12.65143786588159
 20
22.45797223208838
 30
0.0
  0
VERTEX
  5
319
330
1D4
100
AcDbEntity
  8
DEFAULT
100
AcDbVertex
100
AcDb2dVertex
 10
12.65151589288464
 20
22.45969410843142
 30
0.0
  0
VERTEX
  5
31A
330
1D4
100
AcDbEntity
  8
DEFAULT
100
AcDbVertex
100
AcDb2dVertex
 10
12.65155877035144
 20
22.46140951817878
 30
0.0
  0
VERTEX
  5
31B
330
1D4
100
AcDbEntity
  8
DEFAULT
100
AcDbVertex
100
AcDb2dVertex
 10
12.65156558631476
 20
22.4631182216168
 30
0.0
  0
VERTEX
  5
31C
330
1D4
100
AcDbEntity
  8
DEFAULT
100
AcDbVertex
100
AcDb2dVertex
 10
12.65153542880736
 20
22.46481997903182
 30
0.0
  0
VERTEX
  5
31D
330
1D4
100
AcDbEntity
  8
DEFAULT
100
AcDbVertex
100
AcDb2dVertex
 10
12.65146738586202
 20
22.46651455071018
 30
0.0
  0
VERTEX
  5
31E
330
1D4
100
AcDbEntity
  8
DEFAULT
100
AcDbVertex
100
AcDb2dVertex
 10
12.65136054551149
 20
22.46820169693823
 30
0.0
  0
VERTEX
  5
31F
330
1D4
100
AcDbEntity
  8
DEFAULT
100
AcDbVertex
100
AcDb2dVertex
 10
12.65121399578855
 20
22.46988117800231
 30
0.0
  0
VERTEX
  5
320
330
1D4
100
AcDbEntity
  8
DEFAULT
100
AcDbVertex
100
AcDb2dVertex
 10
12.65102682472596
 20
22.47155275418878
 30
0.0
  0
VERTEX
  5
321
330
1D4
100
AcDbEntity
  8
DEFAULT
100
AcDbVertex
100
AcDb2dVertex
 10
12.65079812035649
 20
22.47321618578397
 30
0.0
  0
VERTEX
  5
322
330
1D4
100
AcDbEntity
  8
DEFAULT
100
AcDbVertex
100
AcDb2dVertex
 10
12.65052697071291
 20
22.47487123307422
 30
0.0
  0
VERTEX
  5
323
330
1D4
100
AcDbEntity
  8
DEFAULT
100
AcDbVertex
100
AcDb2dVertex
 10
12.65021246382798
 20
22.47651765634588
 30
0.0
  0
VERTEX
  5
324
330
1D4
100
AcDbEntity
  8
DEFAULT
100
AcDbVertex
100
AcDb2dVertex
 10
12.64985368773446
 20
22.47815521588529
 30
0.0
  0
VERTEX
  5
325
330
1D4
100
AcDbEntity
  8
DEFAULT
100
AcDbVertex
100
AcDb2dVertex
 10
12.64944973046513
 20
22.47978367197881
 30
0.0
  0
VERTEX
  5
326
330
1D4
100
AcDbEntity
  8
DEFAULT
100
AcDbVertex
100
AcDb2dVertex
 10
12.64899968005276
 20
22.48140278491276
 30
0.0
  0
VERTEX
  5
327
330
1D4
100
AcDbEntity
  8
DEFAULT
100
AcDbVertex
100
AcDb2dVertex
 10
12.6485026245301
 20
22.48301231497351
 30
0.0
  0
VERTEX
  5
328
330
1D4
100
AcDbEntity
  8
DEFAULT
100
AcDbVertex
100
AcDb2dVertex
 10
12.64795765192992
 20
22.48461202244738
 30
0.0
  0
VERTEX
  5
329
330
1D4
100
AcDbEntity
  8
DEFAULT
100
AcDbVertex
100
AcDb2dVertex
 10
12.647363850285
 20
22.48620166762073
 30
0.0
  0
VERTEX
  5
32A
330
1D4
100
AcDbEntity
  8
DEFAULT
100
AcDbVertex
100
AcDb2dVertex
 10
12.6467203076281
 20
22.48778101077989
 30
0.0
  0
VERTEX
  5
32B
330
1D4
100
AcDbEntity
  8
DEFAULT
100
AcDbVertex
100
AcDb2dVertex
 10
12.64602611199198
 20
22.48934981221122
 30
0.0
  0
VERTEX
  5
32C
330
1D4
100
AcDbEntity
  8
DEFAULT
100
AcDbVertex
100
AcDb2dVertex
 10
12.64528035140941
 20
22.49090783220105
 30
0.0
  0
VERTEX
  5
32D
330
1D4
100
AcDbEntity
  8
DEFAULT
100
AcDbVertex
100
AcDb2dVertex
 10
12.64448211391316
 20
22.49245483103573
 30
0.0
  0
VERTEX
  5
32E
330
1D4
100
AcDbEntity
  8
DEFAULT
100
AcDbVertex
100
AcDb2dVertex
 10
12.643630487536
 20
22.4939905690016
 30
0.0
  0
VERTEX
  5
32F
330
1D4
100
AcDbEntity
  8
DEFAULT
100
AcDbVertex
100
AcDb2dVertex
 10
12.64272456031069
 20
22.49551480638502
 30
0.0
  0
VERTEX
  5
330
330
1D4
100
AcDbEntity
  8
DEFAULT
100
AcDbVertex
100
AcDb2dVertex
 10
12.64176342027
 20
22.49702730347231
 30
0.0
  0
SEQEND
  5
331
330
1D4
100
AcDbEntity
  8
DEFAULT
  0
POLYLINE
  5
332
330
1F
100
AcDbEntity
  8
DEFAULT
100
AcDb2dPolyline
 66
     1
 10
0.0
 20
0.0
 30
0.0
  0
VERTEX
  5
333
330
332
100
AcDbEntity
  8
DEFAULT
100
AcDbVertex
100
AcDb2dVertex
 10
27.28973492252303
 20
11.7841500462423
 30
0.0
  0
VERTEX
  5
334
330
332
100
AcDbEntity
  8
DEFAULT
100
AcDbVertex
100
AcDb2dVertex
 10
27.31009009904961
 20
11.81531067858213
 30
0.0
  0
VERTEX
  5
335
330
332
100
AcDbEntity
  8
DEFAULT
100
AcDbVertex
100
AcDb2dVertex
 10
27.32949394429982
 20
11.84692772904075
 30
0.0
  0
VERTEX
  5
336
330
332
100
AcDbEntity
  8
DEFAULT
100
AcDbVertex
100
AcDb2dVertex
 10
27.34797767606929
 20
11.87898511044219
 30
0.0
  0
VERTEX
  5
337
330
332
100
AcDbEntity
  8
DEFAULT
100
AcDbVertex
100
AcDb2dVertex
 10
27.36557251215367
 20
11.91146673561048
 30
0.0
  0
VERTEX
  5
338
330
332
100
AcDbEntity
  8
DEFAULT
100
AcDbVertex
100
AcDb2dVertex
 10
27.38230967034856
 20
11.94435651736964
 30
0.0
  0
VERTEX
  5
339
330
332
100
AcDbEntity
  8
DEFAULT
100
AcDbVertex
100
AcDb2dVertex
 10
27.39822036844961
 20
11.97763836854368
 30
0.0
  0
VERTEX
  5
33A
330
332
100
AcDbEntity
  8
DEFAULT
100
AcDbVertex
100
AcDb2dVertex
 10
27.41333582425246
 20
12.01129620195664
 30
0.0
  0
VERTEX
  5
33B
330
332
100
AcDbEntity
  8
DEFAULT
100
AcDbVertex
100
AcDb2dVertex
 10
27.42768725555271
 20
12.04531393043253
 30
0.0
  0
VERTEX
  5
33C
330
332
100
AcDbEntity
  8
DEFAULT
100
AcDbVertex
100
AcDb2dVertex
 10
27.44130588014601
 20
12.07967546679538
 30
0.0
  0
VERTEX
  5
33D
330
332
100
AcDbEntity
  8
DEFAULT
100
AcDbVertex
100
AcDb2dVertex
 10
27.454222915828
 20
12.11436472386921
 30
0.0
  0
VERTEX
  5
33E
330
332
100
AcDbEntity
  8
DEFAULT
100
AcDbVertex
100
AcDb2dVertex
 10
27.46646958039429
 20
12.14936561447804
 30
0.0
  0
VERTEX
  5
33F
330
332
100
AcDbEntity
  8
DEFAULT
100
AcDbVertex
100
AcDb2dVertex
 10
27.47807709164052
 20
12.18466205144588
 30
0.0
  0
VERTEX
  5
340
330
332
100
AcDbEntity
  8
DEFAULT
100
AcDbVertex
100
AcDb2dVertex
 10
27.49949952535532
 20
12.25607721575474
 30
0.0
  0
VERTEX
  5
341
330
332
100
AcDbEntity
  8
DEFAULT
100
AcDbVertex
100
AcDb2dVertex
 10
27.51873995933745
 20
12.32848151938795
 30
0.0
  0
VERTEX
  5
342
330
332
100
AcDbEntity
  8
DEFAULT
100
AcDbVertex
100
AcDb2dVertex
 10
27.53604813595194
 20
12.4017462649377
 30
0.0
  0
VERTEX
  5
343
330
332
100
AcDbEntity
  8
DEFAULT
100
AcDbVertex
100
AcDb2dVertex
 10
27.55167379756385
 20
12.47574275499615
 30
0.0
  0
VERTEX
  5
344
330
332
100
AcDbEntity
  8
DEFAULT
100
AcDbVertex
100
AcDb2dVertex
 10
27.57887654524008
 20
12.62541617900792
 30
0.0
  0
VERTEX
  5
345
330
332
100
AcDbEntity
  8
DEFAULT
100
AcDbVertex
100
AcDb2dVertex
 10
27.79517935897171
 20
14.12613488259523
 30
0.0
  0
VERTEX
  5
346
330
332
100
AcDbEntity
  8
DEFAULT
100
AcDbVertex
100
AcDb2dVertex
 10
28.52080016237821
 20
20.134777822255
 30
0.0
  0
VERTEX
  5
347
330
332
100
AcDbEntity
  8
DEFAULT
100
AcDbVertex
100
AcDb2dVertex
 10
28.58700436103843
 20
20.73719891640974
 30
0.0
  0
VERTEX
  5
348
330
332
100
AcDbEntity
  8
DEFAULT
100
AcDbVertex
100
AcDb2dVertex
 10
28.5988533781376
 20
20.88795275020715
 30
0.0
  0
VERTEX
  5
349
330
332
100
AcDbEntity
  8
DEFAULT
100
AcDbVertex
100
AcDb2dVertex
 10
28.60751152819117
 20
21.03874515070381
 30
0.0
  0
VERTEX
  5
34A
330
332
100
AcDbEntity
  8
DEFAULT
100
AcDbVertex
100
AcDb2dVertex
 10
28.61232378418951
 20
21.18956568919761
 30
0.0
  0
VERTEX
  5
34B
330
332
100
AcDbEntity
  8
DEFAULT
100
AcDbVertex
100
AcDb2dVertex
 10
28.61263511912302
 20
21.34040393698644
 30
0.0
  0
VERTEX
  5
34C
330
332
100
AcDbEntity
  8
DEFAULT
100
AcDbVertex
100
AcDb2dVertex
 10
28.60791853611795
 20
21.49122791535421
 30
0.0
  0
VERTEX
  5
34D
330
332
100
AcDbEntity
  8
DEFAULT
100
AcDbVertex
100
AcDb2dVertex
 10
28.59815915884415
 20
21.64191944552902
 30
0.0
  0
VERTEX
  5
34E
330
332
100
AcDbEntity
  8
DEFAULT
100
AcDbVertex
100
AcDb2dVertex
 10
28.58347014110738
 20
21.792338798725
 30
0.0
  0
VERTEX
  5
34F
330
332
100
AcDbEntity
  8
DEFAULT
100
AcDbVertex
100
AcDb2dVertex
 10
28.56396463671335
 20
21.94234624615627
 30
0.0
  0
VERTEX
  5
350
330
332
100
AcDbEntity
  8
DEFAULT
100
AcDbVertex
100
AcDb2dVertex
 10
28.53975579946781
 20
22.09180205903696
 30
0.0
  0
VERTEX
  5
351
330
332
100
AcDbEntity
  8
DEFAULT
100
AcDbVertex
100
AcDb2dVertex
 10
28.5109567831765
 20
22.2405665085812
 30
0.0
  0
VERTEX
  5
352
330
332
100
AcDbEntity
  8
DEFAULT
100
AcDbVertex
100
AcDb2dVertex
 10
28.47768074164516
 20
22.38849986600313
 30
0.0
  0
VERTEX
  5
353
330
332
100
AcDbEntity
  8
DEFAULT
100
AcDbVertex
100
AcDb2dVertex
 10
28.44004082867952
 20
22.53546240251686
 30
0.0
  0
VERTEX
  5
354
330
332
100
AcDbEntity
  8
DEFAULT
100
AcDbVertex
100
AcDb2dVertex
 10
28.39811809210827
 20
22.68129840700036
 30
0.0
  0
VERTEX
  5
355
330
332
100
AcDbEntity
  8
DEFAULT
100
AcDbVertex
100
AcDb2dVertex
 10
28.35186515585191
 20
22.8257882389869
 30
0.0
  0
VERTEX
  5
356
330
332
100
AcDbEntity
  8
DEFAULT
100
AcDbVertex
100
AcDb2dVertex
 10
28.30120253785386
 20
22.96869627567361
 30
0.0
  0
VERTEX
  5
357
330
332
100
AcDbEntity
  8
DEFAULT
100
AcDbVertex
100
AcDb2dVertex
 10
28.24605075605757
 20
23.10978689425759
 30
0.0
  0
VERTEX
  5
358
330
332
100
AcDbEntity
  8
DEFAULT
100
AcDbVertex
100
AcDb2dVertex
 10
28.18633032840646
 20
23.24882447193596
 30
0.0
  0
VERTEX
  5
359
330
332
100
AcDbEntity
  8
DEFAULT
100
AcDbVertex
100
AcDb2dVertex
 10
28.12196177284399
 20
23.38557338590583
 30
0.0
  0
VERTEX
  5
35A
330
332
100
AcDbEntity
  8
DEFAULT
100
AcDbVertex
100
AcDb2dVertex
 10
28.08800960895331
 20
23.45301596187418
 30
0.0
  0
VERTEX
  5
35B
330
332
100
AcDbEntity
  8
DEFAULT
100
AcDbVertex
100
AcDb2dVertex
 10
28.05286560731357
 20
23.51979801336432
 30
0.0
  0
VERTEX
  5
35C
330
332
100
AcDbEntity
  8
DEFAULT
100
AcDbVertex
100
AcDb2dVertex
 10
28.01651983266771
 20
23.58589008752588
 30
0.0
  0
VERTEX
  5
35D
330
332
100
AcDbEntity
  8
DEFAULT
100
AcDbVertex
100
AcDb2dVertex
 10
27.97896234975866
 20
23.65126273150852
 30
0.0
  0
VERTEX
  5
35E
330
332
100
AcDbEntity
  8
DEFAULT
100
AcDbVertex
100
AcDb2dVertex
 10
27.94019755367336
 20
23.71589875589308
 30
0.0
  0
VERTEX
  5
35F
330
332
100
AcDbEntity
  8
DEFAULT
100
AcDbVertex
100
AcDb2dVertex
 10
27.9002871608748
 20
23.77983002498522
 30
0.0
  0
VERTEX
  5
360
330
332
100
AcDbEntity
  8
DEFAULT
100
AcDbVertex
100
AcDb2dVertex
 10
27.81733377236599
 20
23.9057548082397
 30
0.0
  0
VERTEX
  5
361
330
332
100
AcDbEntity
  8
DEFAULT
100
AcDbVertex
100
AcDb2dVertex
 10
27.73071055868837
 20
24.02939010316695
 30
0.0
  0
VERTEX
  5
362
330
332
100
AcDbEntity
  8
DEFAULT
100
AcDbVertex
100
AcDb2dVertex
 10
27.64102589429806
 20
24.15108893166192
 30
0.0
  0
VERTEX
  5
363
330
332
100
AcDbEntity
  8
DEFAULT
100
AcDbVertex
100
AcDb2dVertex
 10
27.45490571120385
 20
24.39008927693487
 30
0.0
  0
VERTEX
  5
364
330
332
100
AcDbEntity
  8
DEFAULT
100
AcDbVertex
100
AcDb2dVertex
 10
23.61960530992309
 20
29.06953412426179
 30
0.0
  0
VERTEX
  5
365
330
332
100
AcDbEntity
  8
DEFAULT
100
AcDbVertex
100
AcDb2dVertex
 10
23.42072022442991
 20
29.30109349293105
 30
0.0
  0
VERTEX
  5
366
330
332
100
AcDbEntity
  8
DEFAULT
100
AcDbVertex
100
AcDb2dVertex
 10
23.31815262092702
 20
29.41563881213707
 30
0.0
  0
VERTEX
  5
367
330
332
100
AcDbEntity
  8
DEFAULT
100
AcDbVertex
100
AcDb2dVertex
 10
23.2657377250168
 20
29.47185065231226
 30
0.0
  0
VERTEX
  5
368
330
332
100
AcDbEntity
  8
DEFAULT
100
AcDbVertex
100
AcDb2dVertex
 10
23.21238679393837
 20
29.5269006088857
 30
0.0
  0
VERTEX
  5
369
330
332
100
AcDbEntity
  8
DEFAULT
100
AcDbVertex
100
AcDb2dVertex
 10
23.15796334839496
 20
29.58044767887003
 30
0.0
  0
VERTEX
  5
36A
330
332
100
AcDbEntity
  8
DEFAULT
100
AcDbVertex
100
AcDb2dVertex
 10
23.10233090908981
 20
29.63215085927785
 30
0.0
  0
VERTEX
  5
36B
330
332
100
AcDbEntity
  8
DEFAULT
100
AcDbVertex
100
AcDb2dVertex
 10
23.07401866699634
 20
29.65720442745701
 30
0.0
  0
VERTEX
  5
36C
330
332
100
AcDbEntity
  8
DEFAULT
100
AcDbVertex
100
AcDb2dVertex
 10
23.04535299672614
 20
29.68166914712177
 30
0.0
  0
VERTEX
  5
36D
330
332
100
AcDbEntity
  8
DEFAULT
100
AcDbVertex
100
AcDb2dVertex
 10
23.01631683836712
 20
29.7055023928987
 30
0.0
  0
VERTEX
  5
36E
330
332
100
AcDbEntity
  8
DEFAULT
100
AcDbVertex
100
AcDb2dVertex
 10
22.98689313200718
 20
29.72866153941439
 30
0.0
  0
VERTEX
  5
36F
330
332
100
AcDbEntity
  8
DEFAULT
100
AcDbVertex
100
AcDb2dVertex
 10
22.95706481773423
 20
29.75110396129541
 30
0.0
  0
VERTEX
  5
370
330
332
100
AcDbEntity
  8
DEFAULT
100
AcDbVertex
100
AcDb2dVertex
 10
22.92681483563618
 20
29.77278703316833
 30
0.0
  0
VERTEX
  5
371
330
332
100
AcDbEntity
  8
DEFAULT
100
AcDbVertex
100
AcDb2dVertex
 10
22.89612612580091
 20
29.79366812965974
 30
0.0
  0
VERTEX
  5
372
330
332
100
AcDbEntity
  8
DEFAULT
100
AcDbVertex
100
AcDb2dVertex
 10
22.86498162831634
 20
29.81370462539622
 30
0.0
  0
VERTEX
  5
373
330
332
100
AcDbEntity
  8
DEFAULT
100
AcDbVertex
100
AcDb2dVertex
 10
22.83336428327038
 20
29.83285389500432
 30
0.0
  0
VERTEX
  5
374
330
332
100
AcDbEntity
  8
DEFAULT
100
AcDbVertex
100
AcDb2dVertex
 10
22.80125703075093
 20
29.85107331311064
 30
0.0
  0
VERTEX
  5
375
330
332
100
AcDbEntity
  8
DEFAULT
100
AcDbVertex
100
AcDb2dVertex
 10
22.76864281084588
 20
29.86832025434175
 30
0.0
  0
VERTEX
  5
376
330
332
100
AcDbEntity
  8
DEFAULT
100
AcDbVertex
100
AcDb2dVertex
 10
22.73550456364314
 20
29.88455209332422
 30
0.0
  0
VERTEX
  5
377
330
332
100
AcDbEntity
  8
DEFAULT
100
AcDbVertex
100
AcDb2dVertex
 10
22.70182522923063
 20
29.89972620468463
 30
0.0
  0
VERTEX
  5
378
330
332
100
AcDbEntity
  8
DEFAULT
100
AcDbVertex
100
AcDb2dVertex
 10
22.66758774769623
 20
29.91379996304957
 30
0.0
  0
VERTEX
  5
379
330
332
100
AcDbEntity
  8
DEFAULT
100
AcDbVertex
100
AcDb2dVertex
 10
22.63277505912787
 20
29.92673074304559
 30
0.0
  0
VERTEX
  5
37A
330
332
100
AcDbEntity
  8
DEFAULT
100
AcDbVertex
100
AcDb2dVertex
 10
22.61514768098341
 20
29.93275419572607
 30
0.0
  0
VERTEX
  5
37B
330
332
100
AcDbEntity
  8
DEFAULT
100
AcDbVertex
100
AcDb2dVertex
 10
22.59737010361342
 20
29.93847591929929
 30
0.0
  0
VERTEX
  5
37C
330
332
100
AcDbEntity
  8
DEFAULT
100
AcDbVertex
100
AcDb2dVertex
 10
22.5794401945289
 20
29.94389058559356
 30
0.0
  0
VERTEX
  5
37D
330
332
100
AcDbEntity
  8
DEFAULT
100
AcDbVertex
100
AcDb2dVertex
 10
22.56135582124082
 20
29.94899286643723
 30
0.0
  0
VERTEX
  5
37E
330
332
100
AcDbEntity
  8
DEFAULT
100
AcDbVertex
100
AcDb2dVertex
 10
22.54311485126017
 20
29.9537774336586
 30
0.0
  0
VERTEX
  5
37F
330
332
100
AcDbEntity
  8
DEFAULT
100
AcDbVertex
100
AcDb2dVertex
 10
22.52471515209794
 20
29.958238959086
 30
0.0
  0
VERTEX
  5
380
330
332
100
AcDbEntity
  8
DEFAULT
100
AcDbVertex
100
AcDb2dVertex
 10
22.50615459126513
 20
29.96237211454775
 30
0.0
  0
VERTEX
  5
381
330
332
100
AcDbEntity
  8
DEFAULT
100
AcDbVertex
100
AcDb2dVertex
 10
22.48743103627272
 20
29.96617157187217
 30
0.0
  0
VERTEX
  5
382
330
332
100
AcDbEntity
  8
DEFAULT
100
AcDbVertex
100
AcDb2dVertex
 10
22.46854235463169
 20
29.96963200288758
 30
0.0
  0
VERTEX
  5
383
330
332
100
AcDbEntity
  8
DEFAULT
100
AcDbVertex
100
AcDb2dVertex
 10
22.44948641385303
 20
29.97274807942231
 30
0.0
  0
SEQEND
  5
384
330
332
100
AcDbEntity
  8
DEFAULT
  0
POLYLINE
  5
385
330
1F
100
AcDbEntity
  8
DEFAULT
100
AcDb2dPolyline
 66
     1
 10
0.0
 20
0.0
 30
0.0
  0
VERTEX
  5
386
330
385
100
AcDbEntity
  8
DEFAULT
100
AcDbVertex
100
AcDb2dVertex
 10
29.09120110859302
 20
13.5494972670023
 30
0.0
  0
VERTEX
  5
387
330
385
100
AcDbEntity
  8
DEFAULT
100
AcDbVertex
100
AcDb2dVertex
 10
29.09782494826769
 20
13.56036493455805
 30
0.0
  0
VERTEX
  5
388
330
385
100
AcDbEntity
  8
DEFAULT
100
AcDbVertex
100
AcDb2dVertex
 10
29.10423747974138
 20
13.57132633513763
 30
0.0
  0
VERTEX
  5
389
330
385
100
AcDbEntity
  8
DEFAULT
100
AcDbVertex
100
AcDb2dVertex
 10
29.11645437770968
 20
13.59351803373233
 30
0.0
  0
VERTEX
  5
38A
330
385
100
AcDbEntity
  8
DEFAULT
100
AcDbVertex
100
AcDb2dVertex
 10
29.12790332174561
 20
13.61604775951439
 30
0.0
  0
VERTEX
  5
38B
330
385
100
AcDbEntity
  8
DEFAULT
100
AcDbVertex
100
AcDb2dVertex
 10
29.13863583109686
 20
13.6388909092118
 30
0.0
  0
VERTEX
  5
38C
330
385
100
AcDbEntity
  8
DEFAULT
100
AcDbVertex
100
AcDb2dVertex
 10
29.14870342501113
 20
13.66202287955255
 30
0.0
  0
VERTEX
  5
38D
330
385
100
AcDbEntity
  8
DEFAULT
100
AcDbVertex
100
AcDb2dVertex
 10
29.15815762273614
 20
13.68541906726462
 30
0.0
  0
VERTEX
  5
38E
330
385
100
AcDbEntity
  8
DEFAULT
100
AcDbVertex
100
AcDb2dVertex
 10
29.16704994351957
 20
13.70905486907602
 30
0.0
  0
VERTEX
  5
38F
330
385
100
AcDbEntity
  8
DEFAULT
100
AcDbVertex
100
AcDb2dVertex
 10
29.17543190660912
 20
13.73290568171472
 30
0.0
  0
VERTEX
  5
390
330
385
100
AcDbEntity
  8
DEFAULT
100
AcDbVertex
100
AcDb2dVertex
 10
29.19087083669737
 20
13.78115392638598
 30
0.0
  0
VERTEX
  5
391
330
385
100
AcDbEntity
  8
DEFAULT
100
AcDbVertex
100
AcDb2dVertex
 10
29.20488656698249
 20
13.82996697510233
 30
0.0
  0
VERTEX
  5
392
330
385
100
AcDbEntity
  8
DEFAULT
100
AcDbVertex
100
AcDb2dVertex
 10
29.23029704406967
 20
13.92850017996591
 30
0.0
  0
VERTEX
  5
393
330
385
100
AcDbEntity
  8
DEFAULT
100
AcDbVertex
100
AcDb2dVertex
 10
29.27763257939243
 20
14.12592720752847
 30
0.0
  0
VERTEX
  5
394
330
385
100
AcDbEntity
  8
DEFAULT
100
AcDbVertex
100
AcDb2dVertex
 10
29.32110738538
 20
14.32380649434462
 30
0.0
  0
VERTEX
  5
395
330
385
100
AcDbEntity
  8
DEFAULT
100
AcDbVertex
100
AcDb2dVertex
 10
29.36002467181333
 20
14.52279749382035
 30
0.0
  0
VERTEX
  5
396
330
385
100
AcDbEntity
  8
DEFAULT
100
AcDbVertex
100
AcDb2dVertex
 10
29.39439218200183
 20
14.72274526904708
 30
0.0
  0
VERTEX
  5
397
330
385
100
AcDbEntity
  8
DEFAULT
100
AcDbVertex
100
AcDb2dVertex
 10
29.42449995281473
 20
14.92333072590747
 30
0.0
  0
VERTEX
  5
398
330
385
100
AcDbEntity
  8
DEFAULT
100
AcDbVertex
100
AcDb2dVertex
 10
30.21008025217686
 20
21.49774666335353
 30
0.0
  0
VERTEX
  5
399
330
385
100
AcDbEntity
  8
DEFAULT
100
AcDbVertex
100
AcDb2dVertex
 10
30.21386406885533
 20
21.52151882793556
 30
0.0
  0
VERTEX
  5
39A
330
385
100
AcDbEntity
  8
DEFAULT
100
AcDbVertex
100
AcDb2dVertex
 10
30.21826274501965
 20
21.54518863847581
 30
0.0
  0
VERTEX
  5
39B
330
385
100
AcDbEntity
  8
DEFAULT
100
AcDbVertex
100
AcDb2dVertex
 10
30.22326747543605
 20
21.56873815174673
 30
0.0
  0
VERTEX
  5
39C
330
385
100
AcDbEntity
  8
DEFAULT
100
AcDbVertex
100
AcDb2dVertex
 10
30.22887296245094
 20
21.59216339479995
 30
0.0
  0
VERTEX
  5
39D
330
385
100
AcDbEntity
  8
DEFAULT
100
AcDbVertex
100
AcDb2dVertex
 10
30.23506872897802
 20
21.6154374872298
 30
0.0
  0
VERTEX
  5
39E
330
385
100
AcDbEntity
  8
DEFAULT
100
AcDbVertex
100
AcDb2dVertex
 10
30.2418471347516
 20
21.63854767416521
 30
0.0
  0
VERTEX
  5
39F
330
385
100
AcDbEntity
  8
DEFAULT
100
AcDbVertex
100
AcDb2dVertex
 10
30.24920053950603
 20
21.66148120073509
 30
0.0
  0
VERTEX
  5
3A0
330
385
100
AcDbEntity
  8
DEFAULT
100
AcDbVertex
100
AcDb2dVertex
 10
30.25712171006816
 20
21.68422668236884
 30
0.0
  0
VERTEX
  5
3A1
330
385
100
AcDbEntity
  8
DEFAULT
100
AcDbVertex
100
AcDb2dVertex
 10
30.2656021513874
 20
21.70677002632351
 30
0.0
  0
VERTEX
  5
3A2
330
385
100
AcDbEntity
  8
DEFAULT
100
AcDbVertex
100
AcDb2dVertex
 10
30.27463370731989
 20
21.72909853292073
 30
0.0
  0
VERTEX
  5
3A3
330
385
100
AcDbEntity
  8
DEFAULT
100
AcDbVertex
100
AcDb2dVertex
 10
30.28420822172178
 20
21.75119950248216
 30
0.0
  0
VERTEX
  5
3A4
330
385
100
AcDbEntity
  8
DEFAULT
100
AcDbVertex
100
AcDb2dVertex
 10
30.29432110830179
 20
21.77306897472328
 30
0.0
  0
VERTEX
  5
3A5
330
385
100
AcDbEntity
  8
DEFAULT
100
AcDbVertex
100
AcDb2dVertex
 10
30.30495868554675
 20
21.79468793658701
 30
0.0
  0
VERTEX
  5
3A6
330
385
100
AcDbEntity
  8
DEFAULT
100
AcDbVertex
100
AcDb2dVertex
 10
30.31611043319007
 20
21.81604629795861
 30
0.0
  0
VERTEX
  5
3A7
330
385
100
AcDbEntity
  8
DEFAULT
100
AcDbVertex
100
AcDb2dVertex
 10
30.32776583096512
 20
21.83713396872337
 30
0.0
  0
VERTEX
  5
3A8
330
385
100
AcDbEntity
  8
DEFAULT
100
AcDbVertex
100
AcDb2dVertex
 10
30.33993973376126
 20
21.85798328815904
 30
0.0
  0
VERTEX
  5
3A9
330
385
100
AcDbEntity
  8
DEFAULT
100
AcDbVertex
100
AcDb2dVertex
 10
30.35259848645279
 20
21.87854171424142
 30
0.0
  0
VERTEX
  5
3AA
330
385
100
AcDbEntity
  8
DEFAULT
100
AcDbVertex
100
AcDb2dVertex
 10
30.36573179126297
 20
21.89880028324776
 30
0.0
  0
VERTEX
  5
3AB
330
385
100
AcDbEntity
  8
DEFAULT
100
AcDbVertex
100
AcDb2dVertex
 10
30.37932935041502
 20
21.91875003145528
 30
0.0
  0
VERTEX
  5
3AC
330
385
100
AcDbEntity
  8
DEFAULT
100
AcDbVertex
100
AcDb2dVertex
 10
30.39342644697449
 20
21.93844444412684
 30
0.0
  0
VERTEX
  5
3AD
330
385
100
AcDbEntity
  8
DEFAULT
100
AcDbVertex
100
AcDb2dVertex
 10
30.40796988776391
 20
21.95781153473593
 30
0.0
  0
VERTEX
  5
3AE
330
385
100
AcDbEntity
  8
DEFAULT
100
AcDbVertex
100
AcDb2dVertex
 10
30.42294915568169
 20
21.97684379917361
 30
0.0
  0
VERTEX
  5
3AF
330
385
100
AcDbEntity
  8
DEFAULT
100
AcDbVertex
100
AcDb2dVertex
 10
30.43835373362622
 20
21.995533733331
 30
0.0
  0
VERTEX
  5
3B0
330
385
100
AcDbEntity
  8
DEFAULT
100
AcDbVertex
100
AcDb2dVertex
 10
30.45424002343278
 20
22.0139498874024
 30
0.0
  0
VERTEX
  5
3B1
330
385
100
AcDbEntity
  8
DEFAULT
100
AcDbVertex
100
AcDb2dVertex
 10
30.47053358458373
 20
22.03200652988261
 30
0.0
  0
VERTEX
  5
3B2
330
385
100
AcDbEntity
  8
DEFAULT
100
AcDbVertex
100
AcDb2dVertex
 10
30.4872234207918
 20
22.04969691412063
 30
0.0
  0
VERTEX
  5
3B3
330
385
100
AcDbEntity
  8
DEFAULT
100
AcDbVertex
100
AcDb2dVertex
 10
30.50429853576973
 20
22.06701429346549
 30
0.0
  0
VERTEX
  5
3B4
330
385
100
AcDbEntity
  8
DEFAULT
100
AcDbVertex
100
AcDb2dVertex
 10
30.52183573606776
 20
22.08403526508743
 30
0.0
  0
VERTEX
  5
3B5
330
385
100
AcDbEntity
  8
DEFAULT
100
AcDbVertex
100
AcDb2dVertex
 10
30.53974202338734
 20
22.10066780611438
 30
0.0
  0
VERTEX
  5
3B6
330
385
100
AcDbEntity
  8
DEFAULT
100
AcDbVertex
100
AcDb2dVertex
 10
30.55800848166097
 20
22.11690701246789
 30
0.0
  0
VERTEX
  5
3B7
330
385
100
AcDbEntity
  8
DEFAULT
100
AcDbVertex
100
AcDb2dVertex
 10
30.57662619482116
 20
22.13274798006952
 30
0.0
  0
VERTEX
  5
3B8
330
385
100
AcDbEntity
  8
DEFAULT
100
AcDbVertex
100
AcDb2dVertex
 10
30.59573060010337
 20
22.14830100287477
 30
0.0
  0
VERTEX
  5
3B9
330
385
100
AcDbEntity
  8
DEFAULT
100
AcDbVertex
100
AcDb2dVertex
 10
30.61517142319472
 20
22.16343963902477
 30
0.0
  0
VERTEX
  5
3BA
330
385
100
AcDbEntity
  8
DEFAULT
100
AcDbVertex
100
AcDb2dVertex
 10
30.63493754492526
 20
22.17815876611819
 30
0.0
  0
VERTEX
  5
3BB
330
385
100
AcDbEntity
  8
DEFAULT
100
AcDbVertex
100
AcDb2dVertex
 10
30.65501784612507
 20
22.19245326175373
 30
0.0
  0
VERTEX
  5
3BC
330
385
100
AcDbEntity
  8
DEFAULT
100
AcDbVertex
100
AcDb2dVertex
 10
30.67540120762422
 20
22.20631800353007
 30
0.0
  0
VERTEX
  5
3BD
330
385
100
AcDbEntity
  8
DEFAULT
100
AcDbVertex
100
AcDb2dVertex
 10
30.69607651025277
 20
22.2197478690459
 30
0.0
  0
VERTEX
  5
3BE
330
385
100
AcDbEntity
  8
DEFAULT
100
AcDbVertex
100
AcDb2dVertex
 10
30.71703263484081
 20
22.23273773589991
 30
0.0
  0
VERTEX
  5
3BF
330
385
100
AcDbEntity
  8
DEFAULT
100
AcDbVertex
100
AcDb2dVertex
 10
30.73825846221838
 20
22.24528248169077
 30
0.0
  0
VERTEX
  5
3C0
330
385
100
AcDbEntity
  8
DEFAULT
100
AcDbVertex
100
AcDb2dVertex
 10
30.76001853573661
 20
22.25752850984212
 30
0.0
  0
VERTEX
  5
3C1
330
385
100
AcDbEntity
  8
DEFAULT
100
AcDbVertex
100
AcDb2dVertex
 10
30.78203279134
 20
22.26930882039791
 30
0.0
  0
VERTEX
  5
3C2
330
385
100
AcDbEntity
  8
DEFAULT
100
AcDbVertex
100
AcDb2dVertex
 10
30.80429019085711
 20
22.28061949487944
 30
0.0
  0
VERTEX
  5
3C3
330
385
100
AcDbEntity
  8
DEFAULT
100
AcDbVertex
100
AcDb2dVertex
 10
30.82677969611651
 20
22.29145661480801
 30
0.0
  0
VERTEX
  5
3C4
330
385
100
AcDbEntity
  8
DEFAULT
100
AcDbVertex
100
AcDb2dVertex
 10
30.84949026894677
 20
22.30181626170491
 30
0.0
  0
VERTEX
  5
3C5
330
385
100
AcDbEntity
  8
DEFAULT
100
AcDbVertex
100
AcDb2dVertex
 10
30.87241087117645
 20
22.31169451709145
 30
0.0
  0
VERTEX
  5
3C6
330
385
100
AcDbEntity
  8
DEFAULT
100
AcDbVertex
100
AcDb2dVertex
 10
30.89553046463411
 20
22.32108746248891
 30
0.0
  0
VERTEX
  5
3C7
330
385
100
AcDbEntity
  8
DEFAULT
100
AcDbVertex
100
AcDb2dVertex
 10
30.91883801114832
 20
22.32999117941861
 30
0.0
  0
VERTEX
  5
3C8
330
385
100
AcDbEntity
  8
DEFAULT
100
AcDbVertex
100
AcDb2dVertex
 10
30.9425897701606
 20
22.3384943767896
 30
0.0
  0
VERTEX
  5
3C9
330
385
100
AcDbEntity
  8
DEFAULT
100
AcDbVertex
100
AcDb2dVertex
 10
30.96651243535081
 20
22.34649015399157
 30
0.0
  0
VERTEX
  5
3CA
330
385
100
AcDbEntity
  8
DEFAULT
100
AcDbVertex
100
AcDb2dVertex
 10
30.99059596613721
 20
22.35397547657713
 30
0.0
  0
VERTEX
  5
3CB
330
385
100
AcDbEntity
  8
DEFAULT
100
AcDbVertex
100
AcDb2dVertex
 10
31.01483032193806
 20
22.36094731009888
 30
0.0
  0
VERTEX
  5
3CC
330
385
100
AcDbEntity
  8
DEFAULT
100
AcDbVertex
100
AcDb2dVertex
 10
31.03939042182393
 20
22.36744954613788
 30
0.0
  0
VERTEX
  5
3CD
330
385
100
AcDbEntity
  8
DEFAULT
100
AcDbVertex
100
AcDb2dVertex
 10
31.06408578747602
 20
22.37342531996449
 30
0.0
  0
VERTEX
  5
3CE
330
385
100
AcDbEntity
  8
DEFAULT
100
AcDbVertex
100
AcDb2dVertex
 10
31.08890876657609
 20
22.37887252102488
 30
0.0
  0
VERTEX
  5
3CF
330
385
100
AcDbEntity
  8
DEFAULT
100
AcDbVertex
100
AcDb2dVertex
 10
31.11385170680587
 20
22.38378903876527
 30
0.0
  0
VERTEX
  5
3D0
330
385
100
AcDbEntity
  8
DEFAULT
100
AcDbVertex
100
AcDb2dVertex
 10
31.1390925007526
 20
22.38820308578943
 30
0.0
  0
VERTEX
  5
3D1
330
385
100
AcDbEntity
  8
DEFAULT
100
AcDbVertex
100
AcDb2dVertex
 10
31.1644315042441
 20
22.39207242608623
 30
0.0
  0
VERTEX
  5
3D2
330
385
100
AcDbEntity
  8
DEFAULT
100
AcDbVertex
100
AcDb2dVertex
 10
31.18985294012276
 20
22.39539310672951
 30
0.0
  0
VERTEX
  5
3D3
330
385
100
AcDbEntity
  8
DEFAULT
100
AcDbVertex
100
AcDb2dVertex
 10
31.21534103123101
 20
22.39816117479311
 30
0.0
  0
VERTEX
  5
3D4
330
385
100
AcDbEntity
  8
DEFAULT
100
AcDbVertex
100
AcDb2dVertex
 10
31.24088000041125
 20
22.40037267735085
 30
0.0
  0
VERTEX
  5
3D5
330
385
100
AcDbEntity
  8
DEFAULT
100
AcDbVertex
100
AcDb2dVertex
 10
31.2664540705059
 20
22.40202366147658
 30
0.0
  0
VERTEX
  5
3D6
330
385
100
AcDbEntity
  8
DEFAULT
100
AcDbVertex
100
AcDb2dVertex
 10
31.29204746435735
 20
22.40311017424412
 30
0.0
  0
VERTEX
  5
3D7
330
385
100
AcDbEntity
  8
DEFAULT
100
AcDbVertex
100
AcDb2dVertex
 10
41.60489421506303
 20
22.49708751967732
 30
0.0
  0
VERTEX
  5
3D8
330
385
100
AcDbEntity
  8
DEFAULT
100
AcDbVertex
100
AcDb2dVertex
 10
41.63519066438298
 20
22.49694343439026
 30
0.0
  0
VERTEX
  5
3D9
330
385
100
AcDbEntity
  8
DEFAULT
100
AcDbVertex
100
AcDb2dVertex
 10
41.66546876878904
 20
22.49598591065264
 30
0.0
  0
VERTEX
  5
3DA
330
385
100
AcDbEntity
  8
DEFAULT
100
AcDbVertex
100
AcDb2dVertex
 10
41.69570978940572
 20
22.49422661044935
 30
0.0
  0
VERTEX
  5
3DB
330
385
100
AcDbEntity
  8
DEFAULT
100
AcDbVertex
100
AcDb2dVertex
 10
41.72589498735751
 20
22.49167719576526
 30
0.0
  0
VERTEX
  5
3DC
330
385
100
AcDbEntity
  8
DEFAULT
100
AcDbVertex
100
AcDb2dVertex
 10
41.75600562376889
 20
22.48834932858527
 30
0.0
  0
VERTEX
  5
3DD
330
385
100
AcDbEntity
  8
DEFAULT
100
AcDbVertex
100
AcDb2dVertex
 10
41.78602295976438
 20
22.48425467089426
 30
0.0
  0
VERTEX
  5
3DE
330
385
100
AcDbEntity
  8
DEFAULT
100
AcDbVertex
100
AcDb2dVertex
 10
41.81592825646847
 20
22.47940488467711
 30
0.0
  0
VERTEX
  5
3DF
330
385
100
AcDbEntity
  8
DEFAULT
100
AcDbVertex
100
AcDb2dVertex
 10
41.84570277500566
 20
22.47381163191872
 30
0.0
  0
VERTEX
  5
3E0
330
385
100
AcDbEntity
  8
DEFAULT
100
AcDbVertex
100
AcDb2dVertex
 10
41.87532846953916
 20
22.46748638984713
 30
0.0
  0
VERTEX
  5
3E1
330
385
100
AcDbEntity
  8
DEFAULT
100
AcDbVertex
100
AcDb2dVertex
 10
41.90479001486375
 20
22.46043990788725
 30
0.0
  0
VERTEX
  5
3E2
330
385
100
AcDbEntity
  8
DEFAULT
100
AcDbVertex
100
AcDb2dVertex
 10
41.93407277889968
 20
22.4526827511317
 30
0.0
  0
VERTEX
  5
3E3
330
385
100
AcDbEntity
  8
DEFAULT
100
AcDbVertex
100
AcDb2dVertex
 10
41.96316212956721
 20
22.44422548467312
 30
0.0
  0
VERTEX
  5
3E4
330
385
100
AcDbEntity
  8
DEFAULT
100
AcDbVertex
100
AcDb2dVertex
 10
41.99204343478657
 20
22.43507867360413
 30
0.0
  0
VERTEX
  5
3E5
330
385
100
AcDbEntity
  8
DEFAULT
100
AcDbVertex
100
AcDb2dVertex
 10
42.02070206247802
 20
22.42525288301736
 30
0.0
  0
VERTEX
  5
3E6
330
385
100
AcDbEntity
  8
DEFAULT
100
AcDbVertex
100
AcDb2dVertex
 10
42.04912338056179
 20
22.41475867800544
 30
0.0
  0
VERTEX
  5
3E7
330
385
100
AcDbEntity
  8
DEFAULT
100
AcDbVertex
100
AcDb2dVertex
 10
42.07729275695813
 20
22.403606623661
 30
0.0
  0
VERTEX
  5
3E8
330
385
100
AcDbEntity
  8
DEFAULT
100
AcDbVertex
100
AcDb2dVertex
 10
42.10519576862742
 20
22.39180689004427
 30
0.0
  0
VERTEX
  5
3E9
330
385
100
AcDbEntity
  8
DEFAULT
100
AcDbVertex
100
AcDb2dVertex
 10
42.13281882869055
 20
22.37936806708588
 30
0.0
  0
VERTEX
  5
3EA
330
385
100
AcDbEntity
  8
DEFAULT
100
AcDbVertex
100
AcDb2dVertex
 10
42.16014855930852
 20
22.36629834968408
 30
0.0
  0
VERTEX
  5
3EB
330
385
100
AcDbEntity
  8
DEFAULT
100
AcDbVertex
100
AcDb2dVertex
 10
42.18717158264239
 20
22.35260593273709
 30
0.0
  0
VERTEX
  5
3EC
330
385
100
AcDbEntity
  8
DEFAULT
100
AcDbVertex
100
AcDb2dVertex
 10
42.21387452085315
 20
22.33829901114317
 30
0.0
  0
VERTEX
  5
3ED
330
385
100
AcDbEntity
  8
DEFAULT
100
AcDbVertex
100
AcDb2dVertex
 10
42.24024399610185
 20
22.32338577980055
 30
0.0
  0
VERTEX
  5
3EE
330
385
100
AcDbEntity
  8
DEFAULT
100
AcDbVertex
100
AcDb2dVertex
 10
42.26626663054948
 20
22.30787443360746
 30
0.0
  0
VERTEX
  5
3EF
330
385
100
AcDbEntity
  8
DEFAULT
100
AcDbVertex
100
AcDb2dVertex
 10
42.29192904635707
 20
22.29177316746215
 30
0.0
  0
VERTEX
  5
3F0
330
385
100
AcDbEntity
  8
DEFAULT
100
AcDbVertex
100
AcDb2dVertex
 10
42.31721761488213
 20
22.27509002109076
 30
0.0
  0
VERTEX
  5
3F1
330
385
100
AcDbEntity
  8
DEFAULT
100
AcDbVertex
100
AcDb2dVertex
 10
42.34211770426806
 20
22.25783241353108
 30
0.0
  0
VERTEX
  5
3F2
330
385
100
AcDbEntity
  8
DEFAULT
100
AcDbVertex
100
AcDb2dVertex
 10
42.36661443185477
 20
22.24000760864881
 30
0.0
  0
VERTEX
  5
3F3
330
385
100
AcDbEntity
  8
DEFAULT
100
AcDbVertex
100
AcDb2dVertex
 10
42.39069291498214
 20
22.22162287030964
 30
0.0
  0
VERTEX
  5
3F4
330
385
100
AcDbEntity
  8
DEFAULT
100
AcDbVertex
100
AcDb2dVertex
 10
42.41433827099007
 20
22.20268546237928
 30
0.0
  0
VERTEX
  5
3F5
330
385
100
AcDbEntity
  8
DEFAULT
100
AcDbVertex
100
AcDb2dVertex
 10
42.43753561721844
 20
22.1832026487234
 30
0.0
  0
VERTEX
  5
3F6
330
385
100
AcDbEntity
  8
DEFAULT
100
AcDbVertex
100
AcDb2dVertex
 10
42.46027007100717
 20
22.16318169320771
 30
0.0
  0
VERTEX
  5
3F7
330
385
100
AcDbEntity
  8
DEFAULT
100
AcDbVertex
100
AcDb2dVertex
 10
42.48252674969613
 20
22.1426298596979
 30
0.0
  0
VERTEX
  5
3F8
330
385
100
AcDbEntity
  8
DEFAULT
100
AcDbVertex
100
AcDb2dVertex
 10
42.50429038149333
 20
22.12155464830451
 30
0.0
  0
VERTEX
  5
3F9
330
385
100
AcDbEntity
  8
DEFAULT
100
AcDbVertex
100
AcDb2dVertex
 10
42.52554413807922
 20
22.09996450411737
 30
0.0
  0
VERTEX
  5
3FA
330
385
100
AcDbEntity
  8
DEFAULT
100
AcDbVertex
100
AcDb2dVertex
 10
42.54627080200235
 20
22.07786810847118
 30
0.0
  0
VERTEX
  5
3FB
330
385
100
AcDbEntity
  8
DEFAULT
100
AcDbVertex
100
AcDb2dVertex
 10
42.56645315581132
 20
22.05527414270061
 30
0.0
  0
VERTEX
  5
3FC
330
385
100
AcDbEntity
  8
DEFAULT
100
AcDbVertex
100
AcDb2dVertex
 10
42.58607398205464
 20
22.03219128814035
 30
0.0
  0
VERTEX
  5
3FD
330
385
100
AcDbEntity
  8
DEFAULT
100
AcDbVertex
100
AcDb2dVertex
 10
42.60511606328091
 20
22.00862822612507
 30
0.0
  0
VERTEX
  5
3FE
330
385
100
AcDbEntity
  8
DEFAULT
100
AcDbVertex
100
AcDb2dVertex
 10
42.62356218203868
 20
21.98459363798946
 30
0.0
  0
VERTEX
  5
3FF
330
385
100
AcDbEntity
  8
DEFAULT
100
AcDbVertex
100
AcDb2dVertex
 10
42.64139512087651
 20
21.96009620506819
 30
0.0
  0
VERTEX
  5
400
330
385
100
AcDbEntity
  8
DEFAULT
100
AcDbVertex
100
AcDb2dVertex
 10
46.4925847530923
 20
16.4466122878412
 30
0.0
  0
VERTEX
  5
401
330
385
100
AcDbEntity
  8
DEFAULT
100
AcDbVertex
100
AcDb2dVertex
 10
46.5958863687944
 20
16.28671729400958
 30
0.0
  0
VERTEX
  5
402
330
385
100
AcDbEntity
  8
DEFAULT
100
AcDbVertex
100
AcDb2dVertex
 10
46.64605226011638
 20
16.20567717691852
 30
0.0
  0
VERTEX
  5
403
330
385
100
AcDbEntity
  8
DEFAULT
100
AcDbVertex
100
AcDb2dVertex
 10
46.7905305597108
 20
15.95737667977568
 30
0.0
  0
VERTEX
  5
404
330
385
100
AcDbEntity
  8
DEFAULT
100
AcDbVertex
100
AcDb2dVertex
 10
46.81549520100153
 20
15.9167091316456
 30
0.0
  0
VERTEX
  5
405
330
385
100
AcDbEntity
  8
DEFAULT
100
AcDbVertex
100
AcDb2dVertex
 10
46.84143162172753
 20
15.87685864085569
 30
0.0
  0
VERTEX
  5
406
330
385
100
AcDbEntity
  8
DEFAULT
100
AcDbVertex
100
AcDb2dVertex
 10
46.8548508265888
 20
15.8573136202133
 30
0.0
  0
VERTEX
  5
407
330
385
100
AcDbEntity
  8
DEFAULT
100
AcDbVertex
100
AcDb2dVertex
 10
46.86861686896094
 20
15.83806145780595
 30
0.0
  0
VERTEX
  5
408
330
385
100
AcDbEntity
  8
DEFAULT
100
AcDbVertex
100
AcDb2dVertex
 10
46.88276437972797
 20
15.81913168493363
 30
0.0
  0
VERTEX
  5
409
330
385
100
AcDbEntity
  8
DEFAULT
100
AcDbVertex
100
AcDb2dVertex
 10
46.89732798977391
 20
15.80055383289635
 30
0.0
  0
VERTEX
  5
40A
330
385
100
AcDbEntity
  8
DEFAULT
100
AcDbVertex
100
AcDb2dVertex
 10
46.91233073106424
 20
15.78234742521063
 30
0.0
  0
VERTEX
  5
40B
330
385
100
AcDbEntity
  8
DEFAULT
100
AcDbVertex
100
AcDb2dVertex
 10
46.92774923989028
 20
15.76449195425912
 30
0.0
  0
VERTEX
  5
40C
330
385
100
AcDbEntity
  8
DEFAULT
100
AcDbVertex
100
AcDb2dVertex
 10
46.94354855362482
 20
15.74695690464097
 30
0.0
  0
VERTEX
  5
40D
330
385
100
AcDbEntity
  8
DEFAULT
100
AcDbVertex
100
AcDb2dVertex
 10
46.95969370964065
 20
15.72971176095537
 30
0.0
  0
VERTEX
  5
40E
330
385
100
AcDbEntity
  8
DEFAULT
100
AcDbVertex
100
AcDb2dVertex
 10
46.99288169800731
 20
15.69596912977843
 30
0.0
  0
VERTEX
  5
40F
330
385
100
AcDbEntity
  8
DEFAULT
100
AcDbVertex
100
AcDb2dVertex
 10
47.3065390553211
 20
15.40362081831291
 30
0.0
  0
VERTEX
  5
410
330
385
100
AcDbEntity
  8
DEFAULT
100
AcDbVertex
100
AcDb2dVertex
 10
47.34169470557849
 20
15.37152154554195
 30
0.0
  0
VERTEX
  5
411
330
385
100
AcDbEntity
  8
DEFAULT
100
AcDbVertex
100
AcDb2dVertex
 10
47.37743488562489
 20
15.34008325480866
 30
0.0
  0
VERTEX
  5
412
330
385
100
AcDbEntity
  8
DEFAULT
100
AcDbVertex
100
AcDb2dVertex
 10
47.41396343889613
 20
15.3095235779236
 30
0.0
  0
VERTEX
  5
413
330
385
100
AcDbEntity
  8
DEFAULT
100
AcDbVertex
100
AcDb2dVertex
 10
47.45148420882802
 20
15.28006014669731
 30
0.0
  0
VERTEX
  5
414
330
385
100
AcDbEntity
  8
DEFAULT
100
AcDbVertex
100
AcDb2dVertex
 10
47.49757828711303
 20
14.25709832279231
 30
0.0
  0
SEQEND
  5
415
330
385
100
AcDbEntity
  8
DEFAULT
  0
LINE
  5
416
330
1F
100
AcDbEntity
  8
DEFAULT
100
AcDbLine
 10
-11.71708317943
 20
22.4324029590123
 30
0.0
 11
-11.59327677841
 21
23.5152773186023
 31
0.0
  0
POLYLINE
  5
417
330
1F
100
AcDbEntity
  8
DEFAULT
100
AcDb2dPolyline
 66
     1
 10
0.0
 20
0.0
 30
0.0
  0
VERTEX
  5
418
330
417
100
AcDbEntity
  8
DEFAULT
100
AcDbVertex
100
AcDb2dVertex
 10
23.32292628711302
 20
30.09096732279231
 30
0.0
  0
VERTEX
  5
419
330
417
100
AcDbEntity
  8
DEFAULT
100
AcDbVertex
100
AcDb2dVertex
 10
22.44938328711303
 20
29.9731023227923
 30
0.0
  0
VERTEX
  5
41A
330
417
100
AcDbEntity
  8
DEFAULT
100
AcDbVertex
100
AcDb2dVertex
 10
21.45416628711303
 20
29.7492363227923
 30
0.0
  0
VERTEX
  5
41B
330
417
100
AcDbEntity
  8
DEFAULT
100
AcDbVertex
100
AcDb2dVertex
 10
27.10989528711302
 20
11.7603063227923
 30
0.0
  0
VERTEX
  5
41C
330
417
100
AcDbEntity
  8
DEFAULT
100
AcDbVertex
100
AcDb2dVertex
 10
28.70407593632303
 20
11.9583859151923
 30
0.0
  0
VERTEX
  5
41D
330
417
100
AcDbEntity
  8
DEFAULT
100
AcDbVertex
100
AcDb2dVertex
 10
28.72371321204701
 20
11.98990844828386
 30
0.0
  0
VERTEX
  5
41E
330
417
100
AcDbEntity
  8
DEFAULT
100
AcDbVertex
100
AcDb2dVertex
 10
28.74246218343981
 20
12.02186307665148
 30
0.0
  0
VERTEX
  5
41F
330
417
100
AcDbEntity
  8
DEFAULT
100
AcDbVertex
100
AcDb2dVertex
 10
28.76035040066405
 20
12.05423472760198
 30
0.0
  0
VERTEX
  5
420
330
417
100
AcDbEntity
  8
DEFAULT
100
AcDbVertex
100
AcDb2dVertex
 10
28.77740541388236
 20
12.08700832844217
 30
0.0
  0
VERTEX
  5
421
330
417
100
AcDbEntity
  8
DEFAULT
100
AcDbVertex
100
AcDb2dVertex
 10
28.79365477325738
 20
12.12016880647886
 30
0.0
  0
VERTEX
  5
422
330
417
100
AcDbEntity
  8
DEFAULT
100
AcDbVertex
100
AcDb2dVertex
 10
28.80912602895172
 20
12.15370108901885
 30
0.0
  0
VERTEX
  5
423
330
417
100
AcDbEntity
  8
DEFAULT
100
AcDbVertex
100
AcDb2dVertex
 10
28.82384673112802
 20
12.18759010336896
 30
0.0
  0
VERTEX
  5
424
330
417
100
AcDbEntity
  8
DEFAULT
100
AcDbVertex
100
AcDb2dVertex
 10
28.83784442994891
 20
12.22182077683599
 30
0.0
  0
VERTEX
  5
425
330
417
100
AcDbEntity
  8
DEFAULT
100
AcDbVertex
100
AcDb2dVertex
 10
28.85114667557701
 20
12.25637803672676
 30
0.0
  0
VERTEX
  5
426
330
417
100
AcDbEntity
  8
DEFAULT
100
AcDbVertex
100
AcDb2dVertex
 10
28.86378101817496
 20
12.29124681034807
 30
0.0
  0
VERTEX
  5
427
330
417
100
AcDbEntity
  8
DEFAULT
100
AcDbVertex
100
AcDb2dVertex
 10
28.87577500790539
 20
12.32641202500674
 30
0.0
  0
VERTEX
  5
428
330
417
100
AcDbEntity
  8
DEFAULT
100
AcDbVertex
100
AcDb2dVertex
 10
28.88715619493092
 20
12.36185860800957
 30
0.0
  0
VERTEX
  5
429
330
417
100
AcDbEntity
  8
DEFAULT
100
AcDbVertex
100
AcDb2dVertex
 10
28.9081903615178
 20
12.43353558827497
 30
0.0
  0
VERTEX
  5
42A
330
417
100
AcDbEntity
  8
DEFAULT
100
AcDbVertex
100
AcDb2dVertex
 10
28.92710391923666
 20
12.50615716959874
 30
0.0
  0
VERTEX
  5
42B
330
417
100
AcDbEntity
  8
DEFAULT
100
AcDbVertex
100
AcDb2dVertex
 10
28.94411726938851
 20
12.57960277043536
 30
0.0
  0
VERTEX
  5
42C
330
417
100
AcDbEntity
  8
DEFAULT
100
AcDbVertex
100
AcDb2dVertex
 10
28.9594508132744
 20
12.6537518092393
 30
0.0
  0
VERTEX
  5
42D
330
417
100
AcDbEntity
  8
DEFAULT
100
AcDbVertex
100
AcDb2dVertex
 10
28.98596008745242
 20
12.80367787456709
 30
0.0
  0
VERTEX
  5
42E
330
417
100
AcDbEntity
  8
DEFAULT
100
AcDbVertex
100
AcDb2dVertex
 10
29.02851861786231
 20
13.10666567282757
 30
0.0
  0
VERTEX
  5
42F
330
417
100
AcDbEntity
  8
DEFAULT
100
AcDbVertex
100
AcDb2dVertex
 10
29.16739071659581
 20
14.30972538154845
 30
0.0
  0
VERTEX
  5
430
330
417
100
AcDbEntity
  8
DEFAULT
100
AcDbVertex
100
AcDb2dVertex
 10
29.78176150610821
 20
20.94472973034084
 30
0.0
  0
VERTEX
  5
431
330
417
100
AcDbEntity
  8
DEFAULT
100
AcDbVertex
100
AcDb2dVertex
 10
29.79133328209459
 20
21.09579165990072
 30
0.0
  0
VERTEX
  5
432
330
417
100
AcDbEntity
  8
DEFAULT
100
AcDbVertex
100
AcDb2dVertex
 10
29.7978749155414
 20
21.24684108320139
 30
0.0
  0
VERTEX
  5
433
330
417
100
AcDbEntity
  8
DEFAULT
100
AcDbVertex
100
AcDb2dVertex
 10
29.80070624103907
 20
21.39786249140779
 30
0.0
  0
VERTEX
  5
434
330
417
100
AcDbEntity
  8
DEFAULT
100
AcDbVertex
100
AcDb2dVertex
 10
29.799147093178
 20
21.54884037568485
 30
0.0
  0
VERTEX
  5
435
330
417
100
AcDbEntity
  8
DEFAULT
100
AcDbVertex
100
AcDb2dVertex
 10
29.79264761118115
 20
21.69973900268321
 30
0.0
  0
VERTEX
  5
436
330
417
100
AcDbEntity
  8
DEFAULT
100
AcDbVertex
100
AcDb2dVertex
 10
29.78117915280164
 20
21.85044174099642
 30
0.0
  0
VERTEX
  5
437
330
417
100
AcDbEntity
  8
DEFAULT
100
AcDbVertex
100
AcDb2dVertex
 10
29.76484338042513
 20
22.00081173470372
 30
0.0
  0
VERTEX
  5
438
330
417
100
AcDbEntity
  8
DEFAULT
100
AcDbVertex
100
AcDb2dVertex
 10
29.7437419564373
 20
22.15071212788436
 30
0.0
  0
VERTEX
  5
439
330
417
100
AcDbEntity
  8
DEFAULT
100
AcDbVertex
100
AcDb2dVertex
 10
29.71797654322379
 20
22.30000606461761
 30
0.0
  0
VERTEX
  5
43A
330
417
100
AcDbEntity
  8
DEFAULT
100
AcDbVertex
100
AcDb2dVertex
 10
29.68764880317028
 20
22.4485566889827
 30
0.0
  0
VERTEX
  5
43B
330
417
100
AcDbEntity
  8
DEFAULT
100
AcDbVertex
100
AcDb2dVertex
 10
29.65286039866242
 20
22.5962271450589
 30
0.0
  0
VERTEX
  5
43C
330
417
100
AcDbEntity
  8
DEFAULT
100
AcDbVertex
100
AcDb2dVertex
 10
29.61371299208588
 20
22.74288057692545
 30
0.0
  0
VERTEX
  5
43D
330
417
100
AcDbEntity
  8
DEFAULT
100
AcDbVertex
100
AcDb2dVertex
 10
29.57027862190847
 20
22.88836341344236
 30
0.0
  0
VERTEX
  5
43E
330
417
100
AcDbEntity
  8
DEFAULT
100
AcDbVertex
100
AcDb2dVertex
 10
29.52251083092662
 20
23.03245522259263
 30
0.0
  0
VERTEX
  5
43F
330
417
100
AcDbEntity
  8
DEFAULT
100
AcDbVertex
100
AcDb2dVertex
 10
29.47033353801891
 20
23.17491885714001
 30
0.0
  0
VERTEX
  5
440
330
417
100
AcDbEntity
  8
DEFAULT
100
AcDbVertex
100
AcDb2dVertex
 10
29.41367066206392
 20
23.31551716984823
 30
0.0
  0
VERTEX
  5
441
330
417
100
AcDbEntity
  8
DEFAULT
100
AcDbVertex
100
AcDb2dVertex
 10
29.35244612194023
 20
23.45401301348107
 30
0.0
  0
VERTEX
  5
442
330
417
100
AcDbEntity
  8
DEFAULT
100
AcDbVertex
100
AcDb2dVertex
 10
29.32009945246467
 20
23.52239840088289
 30
0.0
  0
VERTEX
  5
443
330
417
100
AcDbEntity
  8
DEFAULT
100
AcDbVertex
100
AcDb2dVertex
 10
29.28658383652641
 20
23.59016924080226
 30
0.0
  0
VERTEX
  5
444
330
417
100
AcDbEntity
  8
DEFAULT
100
AcDbVertex
100
AcDb2dVertex
 10
29.25188976398526
 20
23.65729588983466
 30
0.0
  0
VERTEX
  5
445
330
417
100
AcDbEntity
  8
DEFAULT
100
AcDbVertex
100
AcDb2dVertex
 10
29.21600772470105
 20
23.72374870457556
 30
0.0
  0
VERTEX
  5
446
330
417
100
AcDbEntity
  8
DEFAULT
100
AcDbVertex
100
AcDb2dVertex
 10
29.1789282085336
 20
23.78949804162041
 30
0.0
  0
VERTEX
  5
447
330
417
100
AcDbEntity
  8
DEFAULT
100
AcDbVertex
100
AcDb2dVertex
 10
29.14064170534273
 20
23.8545142575647
 30
0.0
  0
VERTEX
  5
448
330
417
100
AcDbEntity
  8
DEFAULT
100
AcDbVertex
100
AcDb2dVertex
 10
29.10115333545388
 20
23.91878048406711
 30
0.0
  0
VERTEX
  5
449
330
417
100
AcDbEntity
  8
DEFAULT
100
AcDbVertex
100
AcDb2dVertex
 10
29.06052674105495
 20
23.98233095303917
 30
0.0
  0
VERTEX
  5
44A
330
417
100
AcDbEntity
  8
DEFAULT
100
AcDbVertex
100
AcDb2dVertex
 10
28.97617196934098
 20
24.10747264629134
 30
0.0
  0
VERTEX
  5
44B
330
417
100
AcDbEntity
  8
DEFAULT
100
AcDbVertex
100
AcDb2dVertex
 10
28.88820357142901
 20
24.23031539311931
 30
0.0
  0
VERTEX
  5
44C
330
417
100
AcDbEntity
  8
DEFAULT
100
AcDbVertex
100
AcDb2dVertex
 10
28.79724772854722
 20
24.35123524932116
 30
0.0
  0
VERTEX
  5
44D
330
417
100
AcDbEntity
  8
DEFAULT
100
AcDbVertex
100
AcDb2dVertex
 10
28.60887843278696
 20
24.58881051303893
 30
0.0
  0
VERTEX
  5
44E
330
417
100
AcDbEntity
  8
DEFAULT
100
AcDbVertex
100
AcDb2dVertex
 10
24.75466786332275
 20
29.25791221574546
 30
0.0
  0
VERTEX
  5
44F
330
417
100
AcDbEntity
  8
DEFAULT
100
AcDbVertex
100
AcDb2dVertex
 10
24.55195802451889
 20
29.48703949122967
 30
0.0
  0
VERTEX
  5
450
330
417
100
AcDbEntity
  8
DEFAULT
100
AcDbVertex
100
AcDb2dVertex
 10
24.44682669163862
 20
29.60002555994986
 30
0.0
  0
VERTEX
  5
451
330
417
100
AcDbEntity
  8
DEFAULT
100
AcDbVertex
100
AcDb2dVertex
 10
24.39299719733021
 20
29.65531312996343
 30
0.0
  0
VERTEX
  5
452
330
417
100
AcDbEntity
  8
DEFAULT
100
AcDbVertex
100
AcDb2dVertex
 10
24.33816774692488
 20
29.70930817584469
 30
0.0
  0
VERTEX
  5
453
330
417
100
AcDbEntity
  8
DEFAULT
100
AcDbVertex
100
AcDb2dVertex
 10
24.2822202872841
 20
29.76164403666764
 30
0.0
  0
VERTEX
  5
454
330
417
100
AcDbEntity
  8
DEFAULT
100
AcDbVertex
100
AcDb2dVertex
 10
24.22503676526934
 20
29.81195405150632
 30
0.0
  0
VERTEX
  5
455
330
417
100
AcDbEntity
  8
DEFAULT
100
AcDbVertex
100
AcDb2dVertex
 10
24.19594458926591
 20
29.83623478514219
 30
0.0
  0
VERTEX
  5
456
330
417
100
AcDbEntity
  8
DEFAULT
100
AcDbVertex
100
AcDb2dVertex
 10
24.16649912774204
 20
29.85987155943474
 30
0.0
  0
VERTEX
  5
457
330
417
100
AcDbEntity
  8
DEFAULT
100
AcDbVertex
100
AcDb2dVertex
 10
24.13668562405539
 20
29.88281854176824
 30
0.0
  0
VERTEX
  5
458
330
417
100
AcDbEntity
  8
DEFAULT
100
AcDbVertex
100
AcDb2dVertex
 10
24.10648932156366
 20
29.90502989952693
 30
0.0
  0
VERTEX
  5
459
330
417
100
AcDbEntity
  8
DEFAULT
100
AcDbVertex
100
AcDb2dVertex
 10
24.07589546362452
 20
29.92645980009506
 30
0.0
  0
VERTEX
  5
45A
330
417
100
AcDbEntity
  8
DEFAULT
100
AcDbVertex
100
AcDb2dVertex
 10
24.04488929359567
 20
29.9470624108569
 30
0.0
  0
VERTEX
  5
45B
330
417
100
AcDbEntity
  8
DEFAULT
100
AcDbVertex
100
AcDb2dVertex
 10
24.01345605483477
 20
29.96679189919668
 30
0.0
  0
VERTEX
  5
45C
330
417
100
AcDbEntity
  8
DEFAULT
100
AcDbVertex
100
AcDb2dVertex
 10
23.98158099069952
 20
29.98560243249867
 30
0.0
  0
VERTEX
  5
45D
330
417
100
AcDbEntity
  8
DEFAULT
100
AcDbVertex
100
AcDb2dVertex
 10
23.9492493445476
 20
30.00344817814712
 30
0.0
  0
VERTEX
  5
45E
330
417
100
AcDbEntity
  8
DEFAULT
100
AcDbVertex
100
AcDb2dVertex
 10
23.91644635973667
 20
30.02028330352627
 30
0.0
  0
VERTEX
  5
45F
330
417
100
AcDbEntity
  8
DEFAULT
100
AcDbVertex
100
AcDb2dVertex
 10
23.88315727962445
 20
30.03606197602038
 30
0.0
  0
VERTEX
  5
460
330
417
100
AcDbEntity
  8
DEFAULT
100
AcDbVertex
100
AcDb2dVertex
 10
23.84936734756859
 20
30.05073836301371
 30
0.0
  0
VERTEX
  5
461
330
417
100
AcDbEntity
  8
DEFAULT
100
AcDbVertex
100
AcDb2dVertex
 10
23.81506180692678
 20
30.0642666318905
 30
0.0
  0
VERTEX
  5
462
330
417
100
AcDbEntity
  8
DEFAULT
100
AcDbVertex
100
AcDb2dVertex
 10
23.79771107193543
 20
30.07058589934277
 30
0.0
  0
VERTEX
  5
463
330
417
100
AcDbEntity
  8
DEFAULT
100
AcDbVertex
100
AcDb2dVertex
 10
23.78022590105672
 20
30.07660095003501
 30
0.0
  0
VERTEX
  5
464
330
417
100
AcDbEntity
  8
DEFAULT
100
AcDbVertex
100
AcDb2dVertex
 10
23.76260444971037
 20
30.08230605489024
 30
0.0
  0
VERTEX
  5
465
330
417
100
AcDbEntity
  8
DEFAULT
100
AcDbVertex
100
AcDb2dVertex
 10
23.74484487331608
 20
30.08769548483149
 30
0.0
  0
VERTEX
  5
466
330
417
100
AcDbEntity
  8
DEFAULT
100
AcDbVertex
100
AcDb2dVertex
 10
23.72694532729357
 20
30.0927635107818
 30
0.0
  0
VERTEX
  5
467
330
417
100
AcDbEntity
  8
DEFAULT
100
AcDbVertex
100
AcDb2dVertex
 10
23.70890396706254
 20
30.0975044036642
 30
0.0
  0
VERTEX
  5
468
330
417
100
AcDbEntity
  8
DEFAULT
100
AcDbVertex
100
AcDb2dVertex
 10
23.6907189480427
 20
30.10191243440171
 30
0.0
  0
VERTEX
  5
469
330
417
100
AcDbEntity
  8
DEFAULT
100
AcDbVertex
100
AcDb2dVertex
 10
23.67238842565378
 20
30.10598187391738
 30
0.0
  0
VERTEX
  5
46A
330
417
100
AcDbEntity
  8
DEFAULT
100
AcDbVertex
100
AcDb2dVertex
 10
23.65391055531547
 20
30.10970699313422
 30
0.0
  0
VERTEX
  5
46B
330
417
100
AcDbEntity
  8
DEFAULT
100
AcDbVertex
100
AcDb2dVertex
 10
23.63528349244748
 20
30.11308206297529
 30
0.0
  0
VERTEX
  5
46C
330
417
100
AcDbEntity
  8
DEFAULT
100
AcDbVertex
100
AcDb2dVertex
 10
23.61650539246954
 20
30.11610135436359
 30
0.0
  0
VERTEX
  5
46D
330
417
100
AcDbEntity
  8
DEFAULT
100
AcDbVertex
100
AcDb2dVertex
 10
23.59757441080134
 20
30.11875913822218
 30
0.0
  0
VERTEX
  5
46E
330
417
100
AcDbEntity
  8
DEFAULT
100
AcDbVertex
100
AcDb2dVertex
 10
23.5784887028626
 20
30.12104968547408
 30
0.0
  0
VERTEX
  5
46F
330
417
100
AcDbEntity
  8
DEFAULT
100
AcDbVertex
100
AcDb2dVertex
 10
23.55924642407303
 20
30.12296726704231
 30
0.0
  0
VERTEX
  5
470
330
417
100
AcDbEntity
  8
DEFAULT
100
AcDbVertex
100
AcDb2dVertex
 10
23.32292628711566
 20
30.09096732279265
 30
0.0
  0
SEQEND
  5
471
330
417
100
AcDbEntity
  8
DEFAULT
  0
LINE
  5
472
330
1F
100
AcDbEntity
  8
DEFAULT
100
AcDbLine
 10
37.14093730751542
 20
0.2361694614365528
 30
0.0
 11
37.14093730751542
 21
0.3149094614365526
 31
0.0
  0
ARC
  5
473
330
1F
100
AcDbEntity
  8
DEFAULT
100
AcDbCircle
 10
37.89325830751542
 20
2.561171461436552
 30
0.0
 40
0.3937004384692384
100
AcDbArc
 50
181.9998602463671
 51
265.8665213273548
  0
LINE
  5
474
330
1F
100
AcDbEntity
  8
DEFAULT
100
AcDbLine
 10
35.60097630751542
 20
2.547432461436552
 30
0.0
 11
35.60417830751542
 21
2.639118461436552
 31
0.0
  0
ARC
  5
475
330
1F
100
AcDbEntity
  8
DEFAULT
100
AcDbCircle
 10
37.45724930751542
 20
2.637744461436552
 30
0.0
 40
0.0393699916941817
100
AcDbArc
 50
2.00001076798396
 51
90.0
  0
ARC
  5
476
330
1F
100
AcDbEntity
  8
DEFAULT
100
AcDbCircle
 10
36.35353630751541
 20
0.4461434614365527
 30
0.0
 40
0.44619476470589
100
AcDbArc
 50
208.0725020428954
 51
269.9999999999991
  0
LINE
  5
477
330
1F
100
AcDbEntity
  8
DEFAULT
100
AcDbLine
 10
24.61849930751541
 20
0.3149094614365526
 30
0.0
 11
23.21574030751542
 21
0.3149094614365526
 31
0.0
  0
LINE
  5
478
330
1F
100
AcDbEntity
  8
DEFAULT
100
AcDbLine
 10
49.88503230751542
 20
0.2361694614365528
 30
0.0
 11
49.88503230751542
 21
0.3149094614365526
 31
0.0
  0
LINE
  5
479
330
1F
100
AcDbEntity
  8
DEFAULT
100
AcDbLine
 10
37.14093730751542
 20
0.3149094614365526
 30
0.0
 11
35.95983530751541
 21
0.3149094614365526
 31
0.0
  0
ARC
  5
47A
330
1F
100
AcDbEntity
  8
DEFAULT
100
AcDbCircle
 10
24.00314230751542
 20
0.4461434614365527
 30
0.0
 40
0.4461943235296068
100
AcDbArc
 50
270.0
 51
331.9274375287829
  0
LINE
  5
47B
330
1F
100
AcDbEntity
  8
DEFAULT
100
AcDbLine
 10
24.61849930751541
 20
0.3149094614365526
 30
0.0
 11
35.91852430751541
 21
0.7487334614365525
 31
0.0
  0
LINE
  5
47C
330
1F
100
AcDbEntity
  8
DEFAULT
100
AcDbLine
 10
48.70393030751543
 20
0.2361694614365528
 30
0.0
 11
49.88503230751542
 21
0.2361694614365528
 31
0.0
  0
ARC
  5
47D
330
1F
100
AcDbEntity
  8
DEFAULT
100
AcDbCircle
 10
49.09763030751542
 20
0.4461434614365527
 30
0.0
 40
0.4461943235296068
100
AcDbArc
 50
208.0725624712171
 51
270.0
  0
LINE
  5
47E
330
1F
100
AcDbEntity
  8
DEFAULT
100
AcDbLine
 10
48.70393030751543
 20
0.2361694614365528
 30
0.0
 11
48.70393030751543
 21
0.3149094614365526
 31
0.0
  0
ARC
  5
47F
330
1F
100
AcDbEntity
  8
DEFAULT
100
AcDbCircle
 10
23.23289330751542
 20
0.3542794614365525
 30
0.0
 40
0.0393699916941807
100
AcDbArc
 50
182.0000107679835
 51
270.0
  0
LINE
  5
480
330
1F
100
AcDbEntity
  8
DEFAULT
100
AcDbLine
 10
24.00313630751541
 20
-0.0000515385634472
 30
0.0
 11
23.60944630751541
 21
-0.0000515385634472
 31
0.0
  0
LINE
  5
481
330
1F
100
AcDbEntity
  8
DEFAULT
100
AcDbLine
 10
37.86488028157324
 20
2.16849510246584
 30
0.0
 11
49.88024330751541
 21
1.096574461436553
 31
0.0
  0
POLYLINE
  5
482
330
1F
100
AcDbEntity
  8
DEFAULT
100
AcDb2dPolyline
 66
     1
 10
0.0
 20
0.0
 30
0.0
  0
VERTEX
  5
483
330
482
100
AcDbEntity
  8
DEFAULT
100
AcDbVertex
100
AcDb2dVertex
 10
37.39740130751542
 20
1.929714461436553
 30
0.0
  0
VERTEX
  5
484
330
482
100
AcDbEntity
  8
DEFAULT
100
AcDbVertex
100
AcDb2dVertex
 10
37.50987510496609
 20
1.937625448007691
 30
0.0
  0
VERTEX
  5
485
330
482
100
AcDbEntity
  8
DEFAULT
100
AcDbVertex
100
AcDb2dVertex
 10
37.62258881743087
 20
1.94327615270136
 30
0.0
  0
VERTEX
  5
486
330
482
100
AcDbEntity
  8
DEFAULT
100
AcDbVertex
100
AcDb2dVertex
 10
37.73554244490973
 20
1.946666575517562
 30
0.0
  0
VERTEX
  5
487
330
482
100
AcDbEntity
  8
DEFAULT
100
AcDbVertex
100
AcDb2dVertex
 10
37.84873598740269
 20
1.947796716456295
 30
0.0
  0
VERTEX
  5
488
330
482
100
AcDbEntity
  8
DEFAULT
100
AcDbVertex
100
AcDb2dVertex
 10
37.96216944490974
 20
1.946666575517562
 30
0.0
  0
VERTEX
  5
489
330
482
100
AcDbEntity
  8
DEFAULT
100
AcDbVertex
100
AcDb2dVertex
 10
38.07584281743087
 20
1.94327615270136
 30
0.0
  0
VERTEX
  5
48A
330
482
100
AcDbEntity
  8
DEFAULT
100
AcDbVertex
100
AcDb2dVertex
 10
38.1897561049661
 20
1.937625448007691
 30
0.0
  0
VERTEX
  5
48B
330
482
100
AcDbEntity
  8
DEFAULT
100
AcDbVertex
100
AcDb2dVertex
 10
49.92909491849542
 20
1.009953510424553
 30
0.0
  0
SEQEND
  5
48C
330
482
100
AcDbEntity
  8
DEFAULT
  0
LINE
  5
48D
330
1F
100
AcDbEntity
  8
DEFAULT
100
AcDbLine
 10
49.88024330751541
 20
1.096574461436553
 30
0.0
 11
49.90722530751542
 21
0.3529054614365528
 31
0.0
  0
ARC
  5
48E
330
1F
100
AcDbEntity
  8
DEFAULT
100
AcDbCircle
 10
37.11619475668957
 20
0.3548625802321465
 30
0.0
 40
0.0469941009368616
100
AcDbArc
 50
301.7695022051402
 51
357.3422388312244
  0
LINE
  5
48F
330
1F
100
AcDbEntity
  8
DEFAULT
100
AcDbLine
 10
35.91446530751541
 20
1.004384461436552
 30
0.0
 11
35.91305799367642
 21
1.059334844725553
 31
0.0
  0
LINE
  5
490
330
1F
100
AcDbEntity
  8
DEFAULT
100
AcDbLine
 10
35.93763430751542
 20
0.3526834614365524
 30
0.0
 11
35.91792730751541
 21
0.7772204614365527
 31
0.0
  0
ARC
  5
491
330
1F
100
AcDbEntity
  8
DEFAULT
100
AcDbCircle
 10
35.98457785834127
 20
0.3548625802321464
 30
0.0
 40
0.0469941009368616
100
AcDbArc
 50
182.6577611687758
 51
238.2304977948599
  0
LINE
  5
492
330
1F
100
AcDbEntity
  8
DEFAULT
100
AcDbLine
 10
37.16313830751542
 20
0.3526834614365524
 30
0.0
 11
37.18284530751542
 21
0.7772204614365527
 31
0.0
  0
LINE
  5
493
330
1F
100
AcDbEntity
  8
DEFAULT
100
AcDbLine
 10
35.70337130751542
 20
1.929714461436553
 30
0.0
 11
35.91305799367642
 21
1.059334844725553
 31
0.0
  0
LINE
  5
494
330
1F
100
AcDbEntity
  8
DEFAULT
100
AcDbLine
 10
37.39740130751542
 20
1.929714461436553
 30
0.0
 11
37.18771462135442
 21
1.059334844725553
 31
0.0
  0
LINE
  5
495
330
1F
100
AcDbEntity
  8
DEFAULT
100
AcDbLine
 10
48.48227330751543
 20
0.3149094614365526
 30
0.0
 11
37.18224830751542
 21
0.7487334614365525
 31
0.0
  0
LINE
  5
496
330
1F
100
AcDbEntity
  8
DEFAULT
100
AcDbLine
 10
37.18284530751542
 20
0.7772204614365527
 30
0.0
 11
37.18630730751543
 21
1.004384461436552
 31
0.0
  0
LINE
  5
497
330
1F
100
AcDbEntity
  8
DEFAULT
100
AcDbLine
 10
36.35354130751541
 20
-0.0000515385634472
 30
0.0
 11
36.74723130751543
 21
-0.0000515385634472
 31
0.0
  0
LINE
  5
498
330
1F
100
AcDbEntity
  8
DEFAULT
100
AcDbLine
 10
35.95983530751541
 20
0.2361694614365528
 30
0.0
 11
37.14093730751542
 21
0.2361694614365528
 31
0.0
  0
LINE
  5
499
330
1F
100
AcDbEntity
  8
DEFAULT
100
AcDbLine
 10
37.18630730751543
 20
1.004384461436552
 30
0.0
 11
37.18771462135442
 21
1.059334844725553
 31
0.0
  0
LINE
  5
49A
330
1F
100
AcDbEntity
  8
DEFAULT
100
AcDbLine
 10
35.91792730751541
 20
0.7772204614365527
 30
0.0
 11
35.91446530751541
 21
1.004384461436552
 31
0.0
  0
LINE
  5
49B
330
1F
100
AcDbEntity
  8
DEFAULT
100
AcDbLine
 10
23.22052930751543
 20
1.096574461436553
 30
0.0
 11
23.19354730751542
 21
0.3529054614365528
 31
0.0
  0
LINE
  5
49C
330
1F
100
AcDbEntity
  8
DEFAULT
100
AcDbLine
 10
24.39684230751541
 20
0.2361694614365528
 30
0.0
 11
23.21574030751542
 21
0.2361694614365528
 31
0.0
  0
LINE
  5
49D
330
1F
100
AcDbEntity
  8
DEFAULT
100
AcDbLine
 10
35.23589233345759
 20
2.16849510246584
 30
0.0
 11
23.22052930751543
 21
1.096574461436553
 31
0.0
  0
LINE
  5
49E
330
1F
100
AcDbEntity
  8
DEFAULT
100
AcDbLine
 10
24.39684230751541
 20
0.2361694614365528
 30
0.0
 11
24.39684230751541
 21
0.3149094614365526
 31
0.0
  0
LINE
  5
49F
330
1F
100
AcDbEntity
  8
DEFAULT
100
AcDbLine
 10
35.95983530751541
 20
0.2361694614365528
 30
0.0
 11
35.95983530751541
 21
0.3149094614365526
 31
0.0
  0
LINE
  5
4A0
330
1F
100
AcDbEntity
  8
DEFAULT
100
AcDbLine
 10
37.49979730751542
 20
2.547432461436552
 30
0.0
 11
37.49659530751543
 21
2.639118461436552
 31
0.0
  0
LINE
  5
4A1
330
1F
100
AcDbEntity
  8
DEFAULT
100
AcDbLine
 10
48.48227330751543
 20
0.3149094614365526
 30
0.0
 11
49.88503230751542
 21
0.3149094614365526
 31
0.0
  0
LINE
  5
4A2
330
1F
100
AcDbEntity
  8
DEFAULT
100
AcDbLine
 10
35.64352430751543
 20
2.677114461436553
 30
0.0
 11
37.45724930751542
 21
2.677114461436553
 31
0.0
  0
ARC
  5
4A3
330
1F
100
AcDbEntity
  8
DEFAULT
100
AcDbCircle
 10
49.86787930751542
 20
0.3542794614365525
 30
0.0
 40
0.0393699916941807
100
AcDbArc
 50
270.0
 51
357.9999892320167
  0
ARC
  5
4A4
330
1F
100
AcDbEntity
  8
DEFAULT
100
AcDbCircle
 10
35.20751530751542
 20
2.561171461436552
 30
0.0
 40
0.3937004024297452
100
AcDbArc
 50
274.1333335196274
 51
358.0001397536329
  0
ARC
  5
4A5
330
1F
100
AcDbEntity
  8
DEFAULT
100
AcDbCircle
 10
36.74723730751541
 20
0.4461434614365527
 30
0.0
 40
0.4461943235296055
100
AcDbArc
 50
270.0
 51
331.9274375287829
  0
ARC
  5
4A6
330
1F
100
AcDbEntity
  8
DEFAULT
100
AcDbCircle
 10
35.64352430751543
 20
2.637744461436552
 30
0.0
 40
0.0393699916941817
100
AcDbArc
 50
90.0
 51
177.999989232016
  0
ARC
  5
4A7
330
1F
100
AcDbEntity
  8
DEFAULT
100
AcDbCircle
 10
49.49133130751542
 20
0.4461434614365527
 30
0.0
 40
0.44619476470589
100
AcDbArc
 50
270.0
 51
331.9274979571043
  0
LINE
  5
4A8
330
1F
100
AcDbEntity
  8
DEFAULT
100
AcDbLine
 10
23.21574030751542
 20
0.2361694614365528
 30
0.0
 11
23.21574030751542
 21
0.3149094614365526
 31
0.0
  0
ARC
  5
4A9
330
1F
100
AcDbEntity
  8
DEFAULT
100
AcDbCircle
 10
23.60944130751542
 20
0.4461434614365527
 30
0.0
 40
0.44619476470589
100
AcDbArc
 50
208.0725020428954
 51
269.9999999999995
  0
LINE
  5
4AA
330
1F
100
AcDbEntity
  8
DEFAULT
100
AcDbLine
 10
35.91305799367642
 20
1.059334844725553
 30
0.0
 11
37.18771517597241
 21
1.059334844725553
 31
0.0
  0
POLYLINE
  5
4AB
330
1F
100
AcDbEntity
  8
DEFAULT
100
AcDb2dPolyline
 66
     1
 10
0.0
 20
0.0
 30
0.0
  0
VERTEX
  5
4AC
330
4AB
100
AcDbEntity
  8
DEFAULT
100
AcDbVertex
100
AcDb2dVertex
 10
35.70337130751542
 20
1.929714461436553
 30
0.0
  0
VERTEX
  5
4AD
330
4AB
100
AcDbEntity
  8
DEFAULT
100
AcDbVertex
100
AcDb2dVertex
 10
35.59089751006474
 20
1.937625448007691
 30
0.0
  0
VERTEX
  5
4AE
330
4AB
100
AcDbEntity
  8
DEFAULT
100
AcDbVertex
100
AcDb2dVertex
 10
35.47818379759997
 20
1.94327615270136
 30
0.0
  0
VERTEX
  5
4AF
330
4AB
100
AcDbEntity
  8
DEFAULT
100
AcDbVertex
100
AcDb2dVertex
 10
35.3652301701211
 20
1.946666575517562
 30
0.0
  0
VERTEX
  5
4B0
330
4AB
100
AcDbEntity
  8
DEFAULT
100
AcDbVertex
100
AcDb2dVertex
 10
35.25203662762815
 20
1.947796716456295
 30
0.0
  0
VERTEX
  5
4B1
330
4AB
100
AcDbEntity
  8
DEFAULT
100
AcDbVertex
100
AcDb2dVertex
 10
35.13860317012111
 20
1.946666575517562
 30
0.0
  0
VERTEX
  5
4B2
330
4AB
100
AcDbEntity
  8
DEFAULT
100
AcDbVertex
100
AcDb2dVertex
 10
35.02492979759997
 20
1.94327615270136
 30
0.0
  0
VERTEX
  5
4B3
330
4AB
100
AcDbEntity
  8
DEFAULT
100
AcDbVertex
100
AcDb2dVertex
 10
34.91101651006473
 20
1.937625448007691
 30
0.0
  0
VERTEX
  5
4B4
330
4AB
100
AcDbEntity
  8
DEFAULT
100
AcDbVertex
100
AcDb2dVertex
 10
23.17167769653542
 20
1.009953510424553
 30
0.0
  0
SEQEND
  5
4B5
330
4AB
100
AcDbEntity
  8
DEFAULT
  0
LINE
  5
4B6
330
1F
100
AcDbEntity
  8
DEFAULT
100
AcDbLine
 10
49.09763630751542
 20
-0.0000515385634472
 30
0.0
 11
49.49132630751542
 21
-0.0000515385634472
 31
0.0
  0
LINE
  5
4B7
330
1F
100
AcDbEntity
  8
DEFAULT
100
AcDbLine
 10
7.358753
 20
59.36005795722445
 30
0.0
 11
7.205443000000002
 21
59.00265695722444
 31
0.0
  0
LINE
  5
4B8
330
1F
100
AcDbEntity
  8
DEFAULT
100
AcDbLine
 10
6.488018422280005
 20
59.10620183077445
 30
0.0
 11
6.707147000000003
 21
59.43890795722444
 31
0.0
  0
LINE
  5
4B9
330
1F
100
AcDbEntity
  8
DEFAULT
100
AcDbLine
 10
1.375
 20
59.75954395722444
 30
0.0
 11
1.375
 21
59.45906995722444
 31
0.0
  0
LINE
  5
4BA
330
1F
100
AcDbEntity
  8
DEFAULT
100
AcDbLine
 10
-7.358753
 20
59.36005795722445
 30
0.0
 11
-7.205443000000002
 21
59.00265695722444
 31
0.0
  0
POLYLINE
  5
4BB
330
1F
100
AcDbEntity
  8
DEFAULT
100
AcDb2dPolyline
 66
     1
 10
0.0
 20
0.0
 30
0.0
  0
VERTEX
  5
4BC
330
4BB
100
AcDbEntity
  8
DEFAULT
100
AcDbVertex
100
AcDb2dVertex
 10
-6.859988770625002
 20
64.72465448806943
 30
0.0
  0
VERTEX
  5
4BD
330
4BB
100
AcDbEntity
  8
DEFAULT
100
AcDbVertex
100
AcDb2dVertex
 10
-6.954456065027863
 20
64.69567598329544
 30
0.0
  0
VERTEX
  5
4BE
330
4BB
100
AcDbEntity
  8
DEFAULT
100
AcDbVertex
100
AcDb2dVertex
 10
-7.048923014767086
 20
64.66475065500346
 30
0.0
  0
VERTEX
  5
4BF
330
4BB
100
AcDbEntity
  8
DEFAULT
100
AcDbVertex
100
AcDb2dVertex
 10
-7.143194122069342
 20
64.63181261845065
 30
0.0
  0
VERTEX
  5
4C0
330
4BB
100
AcDbEntity
  8
DEFAULT
100
AcDbVertex
100
AcDb2dVertex
 10
-7.237073889161305
 20
64.59679598889426
 30
0.0
  0
VERTEX
  5
4C1
330
4BB
100
AcDbEntity
  8
DEFAULT
100
AcDbVertex
100
AcDb2dVertex
 10
-7.330366818269647
 20
64.55963488159145
 30
0.0
  0
VERTEX
  5
4C2
330
4BB
100
AcDbEntity
  8
DEFAULT
100
AcDbVertex
100
AcDb2dVertex
 10
-7.422877411621043
 20
64.52026341179946
 30
0.0
  0
VERTEX
  5
4C3
330
4BB
100
AcDbEntity
  8
DEFAULT
100
AcDbVertex
100
AcDb2dVertex
 10
-7.514410171442162
 20
64.47861569477547
 30
0.0
  0
VERTEX
  5
4C4
330
4BB
100
AcDbEntity
  8
DEFAULT
100
AcDbVertex
100
AcDb2dVertex
 10
-7.604769599959678
 20
64.43462584577671
 30
0.0
  0
VERTEX
  5
4C5
330
4BB
100
AcDbEntity
  8
DEFAULT
100
AcDbVertex
100
AcDb2dVertex
 10
-7.693760199400266
 20
64.38822798006035
 30
0.0
  0
VERTEX
  5
4C6
330
4BB
100
AcDbEntity
  8
DEFAULT
100
AcDbVertex
100
AcDb2dVertex
 10
-7.781186471990598
 20
64.33935621288363
 30
0.0
  0
VERTEX
  5
4C7
330
4BB
100
AcDbEntity
  8
DEFAULT
100
AcDbVertex
100
AcDb2dVertex
 10
-7.866852919957344
 20
64.28794465950372
 30
0.0
  0
VERTEX
  5
4C8
330
4BB
100
AcDbEntity
  8
DEFAULT
100
AcDbVertex
100
AcDb2dVertex
 10
-7.950564045527178
 20
64.23392743517788
 30
0.0
  0
VERTEX
  5
4C9
330
4BB
100
AcDbEntity
  8
DEFAULT
100
AcDbVertex
100
AcDb2dVertex
 10
-7.991625269359089
 20
64.20592110742808
 30
0.0
  0
VERTEX
  5
4CA
330
4BB
100
AcDbEntity
  8
DEFAULT
100
AcDbVertex
100
AcDb2dVertex
 10
-8.032124350926775
 20
64.17723865516325
 30
0.0
  0
VERTEX
  5
4CB
330
4BB
100
AcDbEntity
  8
DEFAULT
100
AcDbVertex
100
AcDb2dVertex
 10
-8.07203685300857
 20
64.14787184279055
 30
0.0
  0
VERTEX
  5
4CC
330
4BB
100
AcDbEntity
  8
DEFAULT
100
AcDbVertex
100
AcDb2dVertex
 10
-8.111338338382808
 20
64.11781243471708
 30
0.0
  0
VERTEX
  5
4CD
330
4BB
100
AcDbEntity
  8
DEFAULT
100
AcDbVertex
100
AcDb2dVertex
 10
-8.150004369827823
 20
64.08705219535003
 30
0.0
  0
VERTEX
  5
4CE
330
4BB
100
AcDbEntity
  8
DEFAULT
100
AcDbVertex
100
AcDb2dVertex
 10
-8.188010510121945
 20
64.05558288909656
 30
0.0
  0
VERTEX
  5
4CF
330
4BB
100
AcDbEntity
  8
DEFAULT
100
AcDbVertex
100
AcDb2dVertex
 10
-8.225332322043513
 20
64.02339628036378
 30
0.0
  0
VERTEX
  5
4D0
330
4BB
100
AcDbEntity
  8
DEFAULT
100
AcDbVertex
100
AcDb2dVertex
 10
-8.261945368370863
 20
63.99048413355888
 30
0.0
  0
VERTEX
  5
4D1
330
4BB
100
AcDbEntity
  8
DEFAULT
100
AcDbVertex
100
AcDb2dVertex
 10
-8.297833709134615
 20
63.95684409056791
 30
0.0
  0
VERTEX
  5
4D2
330
4BB
100
AcDbEntity
  8
DEFAULT
100
AcDbVertex
100
AcDb2dVertex
 10
-8.333015393374547
 20
63.92249730319264
 30
0.0
  0
VERTEX
  5
4D3
330
4BB
100
AcDbEntity
  8
DEFAULT
100
AcDbVertex
100
AcDb2dVertex
 10
-8.36751696738273
 20
63.88747080071376
 30
0.0
  0
VERTEX
  5
4D4
330
4BB
100
AcDbEntity
  8
DEFAULT
100
AcDbVertex
100
AcDb2dVertex
 10
-8.401364977451234
 20
63.85179161241194
 30
0.0
  0
VERTEX
  5
4D5
330
4BB
100
AcDbEntity
  8
DEFAULT
100
AcDbVertex
100
AcDb2dVertex
 10
-8.467206490937476
 20
63.77858329546228
 30
0.0
  0
VERTEX
  5
4D6
330
4BB
100
AcDbEntity
  8
DEFAULT
100
AcDbVertex
100
AcDb2dVertex
 10
-8.530752304169827
 20
63.70308858658915
 30
0.0
  0
VERTEX
  5
4D7
330
4BB
100
AcDbEntity
  8
DEFAULT
100
AcDbVertex
100
AcDb2dVertex
 10
-8.592214787484835
 20
63.62552372003802
 30
0.0
  0
VERTEX
  5
4D8
330
4BB
100
AcDbEntity
  8
DEFAULT
100
AcDbVertex
100
AcDb2dVertex
 10
-8.651806311219051
 20
63.54610493005438
 30
0.0
  0
VERTEX
  5
4D9
330
4BB
100
AcDbEntity
  8
DEFAULT
100
AcDbVertex
100
AcDb2dVertex
 10
-8.709739245709027
 20
63.46504845088371
 30
0.0
  0
VERTEX
  5
4DA
330
4BB
100
AcDbEntity
  8
DEFAULT
100
AcDbVertex
100
AcDb2dVertex
 10
-8.766225961291315
 20
63.38257051677152
 30
0.0
  0
VERTEX
  5
4DB
330
4BB
100
AcDbEntity
  8
DEFAULT
100
AcDbVertex
100
AcDb2dVertex
 10
-8.875710217079032
 20
63.21421522070449
 30
0.0
  0
VERTEX
  5
4DC
330
4BB
100
AcDbEntity
  8
DEFAULT
100
AcDbVertex
100
AcDb2dVertex
 10
-10.06429440148167
 20
61.36079615998719
 30
0.0
  0
VERTEX
  5
4DD
330
4BB
100
AcDbEntity
  8
DEFAULT
100
AcDbVertex
100
AcDb2dVertex
 10
-11.16542279195162
 20
59.69307070531745
 30
0.0
  0
VERTEX
  5
4DE
330
4BB
100
AcDbEntity
  8
DEFAULT
100
AcDbVertex
100
AcDb2dVertex
 10
-11.27556313368156
 20
59.52580432626091
 30
0.0
  0
VERTEX
  5
4DF
330
4BB
100
AcDbEntity
  8
DEFAULT
100
AcDbVertex
100
AcDb2dVertex
 10
-11.32831993390282
 20
59.44118234911164
 30
0.0
  0
VERTEX
  5
4E0
330
4BB
100
AcDbEntity
  8
DEFAULT
100
AcDbVertex
100
AcDb2dVertex
 10
-11.37903620056284
 20
59.35569120871033
 30
0.0
  0
VERTEX
  5
4E1
330
4BB
100
AcDbEntity
  8
DEFAULT
100
AcDbVertex
100
AcDb2dVertex
 10
-11.42733821881256
 20
59.26917342642847
 30
0.0
  0
VERTEX
  5
4E2
330
4BB
100
AcDbEntity
  8
DEFAULT
100
AcDbVertex
100
AcDb2dVertex
 10
-11.47285227380291
 20
59.18147152363755
 30
0.0
  0
VERTEX
  5
4E3
330
4BB
100
AcDbEntity
  8
DEFAULT
100
AcDbVertex
100
AcDb2dVertex
 10
-11.49444702918548
 20
59.13712731497978
 30
0.0
  0
VERTEX
  5
4E4
330
4BB
100
AcDbEntity
  8
DEFAULT
100
AcDbVertex
100
AcDb2dVertex
 10
-11.5152046506848
 20
59.09242802170904
 30
0.0
  0
VERTEX
  5
4E5
330
4BB
100
AcDbEntity
  8
DEFAULT
100
AcDbVertex
100
AcDb2dVertex
 10
-11.53507842394474
 20
59.04735395899677
 30
0.0
  0
VERTEX
  5
4E6
330
4BB
100
AcDbEntity
  8
DEFAULT
100
AcDbVertex
100
AcDb2dVertex
 10
-11.55402163460917
 20
59.00188544201441
 30
0.0
  0
VERTEX
  5
4E7
330
4BB
100
AcDbEntity
  8
DEFAULT
100
AcDbVertex
100
AcDb2dVertex
 10
-11.57198756832195
 20
58.95600278593339
 30
0.0
  0
VERTEX
  5
4E8
330
4BB
100
AcDbEntity
  8
DEFAULT
100
AcDbVertex
100
AcDb2dVertex
 10
-11.58892951072695
 20
58.90968630592516
 30
0.0
  0
VERTEX
  5
4E9
330
4BB
100
AcDbEntity
  8
DEFAULT
100
AcDbVertex
100
AcDb2dVertex
 10
-11.60480074746803
 20
58.86291631716114
 30
0.0
  0
VERTEX
  5
4EA
330
4BB
100
AcDbEntity
  8
DEFAULT
100
AcDbVertex
100
AcDb2dVertex
 10
-11.61955456418906
 20
58.81567313481276
 30
0.0
  0
VERTEX
  5
4EB
330
4BB
100
AcDbEntity
  8
DEFAULT
100
AcDbVertex
100
AcDb2dVertex
 10
-11.63314424653391
 20
58.76793707405147
 30
0.0
  0
VERTEX
  5
4EC
330
4BB
100
AcDbEntity
  8
DEFAULT
100
AcDbVertex
100
AcDb2dVertex
 10
-11.64552308014644
 20
58.7196884500487
 30
0.0
  0
VERTEX
  5
4ED
330
4BB
100
AcDbEntity
  8
DEFAULT
100
AcDbVertex
100
AcDb2dVertex
 10
-11.65664435067051
 20
58.67090757797588
 30
0.0
  0
VERTEX
  5
4EE
330
4BB
100
AcDbEntity
  8
DEFAULT
100
AcDbVertex
100
AcDb2dVertex
 10
-11.66646134375
 20
58.62157477300445
 30
0.0
  0
VERTEX
  5
4EF
330
4BB
100
AcDbEntity
  8
DEFAULT
100
AcDbVertex
100
AcDb2dVertex
 10
-11.66473041285307
 20
58.61078030734976
 30
0.0
  0
VERTEX
  5
4F0
330
4BB
100
AcDbEntity
  8
DEFAULT
100
AcDbVertex
100
AcDb2dVertex
 10
-11.66273837029776
 20
58.60042196539197
 30
0.0
  0
VERTEX
  5
4F1
330
4BB
100
AcDbEntity
  8
DEFAULT
100
AcDbVertex
100
AcDb2dVertex
 10
-11.66048996765348
 20
58.59049248151203
 30
0.0
  0
VERTEX
  5
4F2
330
4BB
100
AcDbEntity
  8
DEFAULT
100
AcDbVertex
100
AcDb2dVertex
 10
-11.65927111616343
 20
58.58568629084529
 30
0.0
  0
VERTEX
  5
4F3
330
4BB
100
AcDbEntity
  8
DEFAULT
100
AcDbVertex
100
AcDb2dVertex
 10
-11.65798995648967
 20
58.58098459009086
 30
0.0
  0
VERTEX
  5
4F4
330
4BB
100
AcDbEntity
  8
DEFAULT
100
AcDbVertex
100
AcDb2dVertex
 10
-11.65664708257839
 20
58.57638647104636
 30
0.0
  0
VERTEX
  5
4F5
330
4BB
100
AcDbEntity
  8
DEFAULT
100
AcDbVertex
100
AcDb2dVertex
 10
-11.65524308837576
 20
58.5718910255094
 30
0.0
  0
VERTEX
  5
4F6
330
4BB
100
AcDbEntity
  8
DEFAULT
100
AcDbVertex
100
AcDb2dVertex
 10
-11.65377856782796
 20
58.56749734527761
 30
0.0
  0
VERTEX
  5
4F7
330
4BB
100
AcDbEntity
  8
DEFAULT
100
AcDbVertex
100
AcDb2dVertex
 10
-11.65225411488117
 20
58.56320452214858
 30
0.0
  0
VERTEX
  5
4F8
330
4BB
100
AcDbEntity
  8
DEFAULT
100
AcDbVertex
100
AcDb2dVertex
 10
-11.65067032348157
 20
58.55901164791996
 30
0.0
  0
VERTEX
  5
4F9
330
4BB
100
AcDbEntity
  8
DEFAULT
100
AcDbVertex
100
AcDb2dVertex
 10
-11.64902778757533
 20
58.55491781438935
 30
0.0
  0
VERTEX
  5
4FA
330
4BB
100
AcDbEntity
  8
DEFAULT
100
AcDbVertex
100
AcDb2dVertex
 10
-11.64732710110865
 20
58.55092211335436
 30
0.0
  0
VERTEX
  5
4FB
330
4BB
100
AcDbEntity
  8
DEFAULT
100
AcDbVertex
100
AcDb2dVertex
 10
-11.64556885802768
 20
58.54702363661262
 30
0.0
  0
VERTEX
  5
4FC
330
4BB
100
AcDbEntity
  8
DEFAULT
100
AcDbVertex
100
AcDb2dVertex
 10
-11.64375365227862
 20
58.54322147596174
 30
0.0
  0
VERTEX
  5
4FD
330
4BB
100
AcDbEntity
  8
DEFAULT
100
AcDbVertex
100
AcDb2dVertex
 10
-11.64188207780765
 20
58.53951472319935
 30
0.0
  0
VERTEX
  5
4FE
330
4BB
100
AcDbEntity
  8
DEFAULT
100
AcDbVertex
100
AcDb2dVertex
 10
-11.63995472856093
 20
58.53590247012303
 30
0.0
  0
VERTEX
  5
4FF
330
4BB
100
AcDbEntity
  8
DEFAULT
100
AcDbVertex
100
AcDb2dVertex
 10
-11.63797219848465
 20
58.53238380853044
 30
0.0
  0
VERTEX
  5
500
330
4BB
100
AcDbEntity
  8
DEFAULT
100
AcDbVertex
100
AcDb2dVertex
 10
-11.63593508152499
 20
58.52895783021918
 30
0.0
  0
VERTEX
  5
501
330
4BB
100
AcDbEntity
  8
DEFAULT
100
AcDbVertex
100
AcDb2dVertex
 10
-11.63384397162812
 20
58.52562362698686
 30
0.0
  0
VERTEX
  5
502
330
4BB
100
AcDbEntity
  8
DEFAULT
100
AcDbVertex
100
AcDb2dVertex
 10
-11.63169946274023
 20
58.5223802906311
 30
0.0
  0
VERTEX
  5
503
330
4BB
100
AcDbEntity
  8
DEFAULT
100
AcDbVertex
100
AcDb2dVertex
 10
-11.6295021488075
 20
58.51922691294952
 30
0.0
  0
VERTEX
  5
504
330
4BB
100
AcDbEntity
  8
DEFAULT
100
AcDbVertex
100
AcDb2dVertex
 10
-11.62725262377609
 20
58.51616258573974
 30
0.0
  0
VERTEX
  5
505
330
4BB
100
AcDbEntity
  8
DEFAULT
100
AcDbVertex
100
AcDb2dVertex
 10
-11.6249514815922
 20
58.51318640079937
 30
0.0
  0
VERTEX
  5
506
330
4BB
100
AcDbEntity
  8
DEFAULT
100
AcDbVertex
100
AcDb2dVertex
 10
-11.62259931620199
 20
58.51029744992603
 30
0.0
  0
VERTEX
  5
507
330
4BB
100
AcDbEntity
  8
DEFAULT
100
AcDbVertex
100
AcDb2dVertex
 10
-11.62019672155166
 20
58.50749482491733
 30
0.0
  0
VERTEX
  5
508
330
4BB
100
AcDbEntity
  8
DEFAULT
100
AcDbVertex
100
AcDb2dVertex
 10
-11.61774429158736
 20
58.50477761757089
 30
0.0
  0
VERTEX
  5
509
330
4BB
100
AcDbEntity
  8
DEFAULT
100
AcDbVertex
100
AcDb2dVertex
 10
-11.6152426202553
 20
58.50214491968434
 30
0.0
  0
VERTEX
  5
50A
330
4BB
100
AcDbEntity
  8
DEFAULT
100
AcDbVertex
100
AcDb2dVertex
 10
-11.61269230150164
 20
58.49959582305528
 30
0.0
  0
VERTEX
  5
50B
330
4BB
100
AcDbEntity
  8
DEFAULT
100
AcDbVertex
100
AcDb2dVertex
 10
-11.61009392927256
 20
58.49712941948133
 30
0.0
  0
VERTEX
  5
50C
330
4BB
100
AcDbEntity
  8
DEFAULT
100
AcDbVertex
100
AcDb2dVertex
 10
-11.60744809751424
 20
58.49474480076012
 30
0.0
  0
VERTEX
  5
50D
330
4BB
100
AcDbEntity
  8
DEFAULT
100
AcDbVertex
100
AcDb2dVertex
 10
-11.60475540017286
 20
58.49244105868924
 30
0.0
  0
VERTEX
  5
50E
330
4BB
100
AcDbEntity
  8
DEFAULT
100
AcDbVertex
100
AcDb2dVertex
 10
-11.6020164311946
 20
58.49021728506634
 30
0.0
  0
VERTEX
  5
50F
330
4BB
100
AcDbEntity
  8
DEFAULT
100
AcDbVertex
100
AcDb2dVertex
 10
-11.59923178452564
 20
58.48807257168902
 30
0.0
  0
VERTEX
  5
510
330
4BB
100
AcDbEntity
  8
DEFAULT
100
AcDbVertex
100
AcDb2dVertex
 10
-11.59640205411215
 20
58.48600601035489
 30
0.0
  0
VERTEX
  5
511
330
4BB
100
AcDbEntity
  8
DEFAULT
100
AcDbVertex
100
AcDb2dVertex
 10
-11.59352783390032
 20
58.48401669286157
 30
0.0
  0
VERTEX
  5
512
330
4BB
100
AcDbEntity
  8
DEFAULT
100
AcDbVertex
100
AcDb2dVertex
 10
-11.59060971783632
 20
58.48210371100669
 30
0.0
  0
VERTEX
  5
513
330
4BB
100
AcDbEntity
  8
DEFAULT
100
AcDbVertex
100
AcDb2dVertex
 10
-11.58764829986633
 20
58.48026615658786
 30
0.0
  0
VERTEX
  5
514
330
4BB
100
AcDbEntity
  8
DEFAULT
100
AcDbVertex
100
AcDb2dVertex
 10
-11.58464417393653
 20
58.4785031214027
 30
0.0
  0
VERTEX
  5
515
330
4BB
100
AcDbEntity
  8
DEFAULT
100
AcDbVertex
100
AcDb2dVertex
 10
-11.5815979339931
 20
58.4768136972488
 30
0.0
  0
VERTEX
  5
516
330
4BB
100
AcDbEntity
  8
DEFAULT
100
AcDbVertex
100
AcDb2dVertex
 10
-11.57851017398221
 20
58.4751969759238
 30
0.0
  0
VERTEX
  5
517
330
4BB
100
AcDbEntity
  8
DEFAULT
100
AcDbVertex
100
AcDb2dVertex
 10
-11.57538148785006
 20
58.47365204922532
 30
0.0
  0
VERTEX
  5
518
330
4BB
100
AcDbEntity
  8
DEFAULT
100
AcDbVertex
100
AcDb2dVertex
 10
-11.5722124695428
 20
58.47217800895098
 30
0.0
  0
VERTEX
  5
519
330
4BB
100
AcDbEntity
  8
DEFAULT
100
AcDbVertex
100
AcDb2dVertex
 10
-11.56900371300663
 20
58.47077394689838
 30
0.0
  0
VERTEX
  5
51A
330
4BB
100
AcDbEntity
  8
DEFAULT
100
AcDbVertex
100
AcDb2dVertex
 10
-11.56575581218773
 20
58.46943895486514
 30
0.0
  0
VERTEX
  5
51B
330
4BB
100
AcDbEntity
  8
DEFAULT
100
AcDbVertex
100
AcDb2dVertex
 10
-11.56246936103226
 20
58.46817212464888
 30
0.0
  0
VERTEX
  5
51C
330
4BB
100
AcDbEntity
  8
DEFAULT
100
AcDbVertex
100
AcDb2dVertex
 10
-11.55914495348641
 20
58.46697254804722
 30
0.0
  0
VERTEX
  5
51D
330
4BB
100
AcDbEntity
  8
DEFAULT
100
AcDbVertex
100
AcDb2dVertex
 10
-11.55578318349636
 20
58.46583931685778
 30
0.0
  0
VERTEX
  5
51E
330
4BB
100
AcDbEntity
  8
DEFAULT
100
AcDbVertex
100
AcDb2dVertex
 10
-11.55238464500828
 20
58.46477152287817
 30
0.0
  0
VERTEX
  5
51F
330
4BB
100
AcDbEntity
  8
DEFAULT
100
AcDbVertex
100
AcDb2dVertex
 10
-11.54894993196836
 20
58.46376825790601
 30
0.0
  0
VERTEX
  5
520
330
4BB
100
AcDbEntity
  8
DEFAULT
100
AcDbVertex
100
AcDb2dVertex
 10
-11.54547963832277
 20
58.46282861373891
 30
0.0
  0
VERTEX
  5
521
330
4BB
100
AcDbEntity
  8
DEFAULT
100
AcDbVertex
100
AcDb2dVertex
 10
-11.5419743580177
 20
58.4619516821745
 30
0.0
  0
VERTEX
  5
522
330
4BB
100
AcDbEntity
  8
DEFAULT
100
AcDbVertex
100
AcDb2dVertex
 10
-11.53843468499931
 20
58.46113655501038
 30
0.0
  0
VERTEX
  5
523
330
4BB
100
AcDbEntity
  8
DEFAULT
100
AcDbVertex
100
AcDb2dVertex
 10
-11.5348612132138
 20
58.46038232404419
 30
0.0
  0
VERTEX
  5
524
330
4BB
100
AcDbEntity
  8
DEFAULT
100
AcDbVertex
100
AcDb2dVertex
 10
-11.52761524912609
 20
58.45905291789601
 30
0.0
  0
VERTEX
  5
525
330
4BB
100
AcDbEntity
  8
DEFAULT
100
AcDbVertex
100
AcDb2dVertex
 10
-11.520241217324
 20
58.45795619811089
 30
0.0
  0
VERTEX
  5
526
330
4BB
100
AcDbEntity
  8
DEFAULT
100
AcDbVertex
100
AcDb2dVertex
 10
-11.51274386937697
 20
58.45708489906977
 30
0.0
  0
VERTEX
  5
527
330
4BB
100
AcDbEntity
  8
DEFAULT
100
AcDbVertex
100
AcDb2dVertex
 10
-11.50512795685441
 20
58.45643175515359
 30
0.0
  0
VERTEX
  5
528
330
4BB
100
AcDbEntity
  8
DEFAULT
100
AcDbVertex
100
AcDb2dVertex
 10
-11.49739823132575
 20
58.45598950074327
 30
0.0
  0
VERTEX
  5
529
330
4BB
100
AcDbEntity
  8
DEFAULT
100
AcDbVertex
100
AcDb2dVertex
 10
-11.48955944436044
 20
58.45575087021975
 30
0.0
  0
VERTEX
  5
52A
330
4BB
100
AcDbEntity
  8
DEFAULT
100
AcDbVertex
100
AcDb2dVertex
 10
-11.48161634752789
 20
58.45570859796396
 30
0.0
  0
VERTEX
  5
52B
330
4BB
100
AcDbEntity
  8
DEFAULT
100
AcDbVertex
100
AcDb2dVertex
 10
-11.47357369239753
 20
58.45585541835685
 30
0.0
  0
VERTEX
  5
52C
330
4BB
100
AcDbEntity
  8
DEFAULT
100
AcDbVertex
100
AcDb2dVertex
 10
-11.4654362305388
 20
58.45618406577933
 30
0.0
  0
VERTEX
  5
52D
330
4BB
100
AcDbEntity
  8
DEFAULT
100
AcDbVertex
100
AcDb2dVertex
 10
-11.45720871352112
 20
58.45668727461235
 30
0.0
  0
VERTEX
  5
52E
330
4BB
100
AcDbEntity
  8
DEFAULT
100
AcDbVertex
100
AcDb2dVertex
 10
-11.44889589291392
 20
58.45735777923684
 30
0.0
  0
VERTEX
  5
52F
330
4BB
100
AcDbEntity
  8
DEFAULT
100
AcDbVertex
100
AcDb2dVertex
 10
-11.44050252028663
 20
58.45818831403376
 30
0.0
  0
VERTEX
  5
530
330
4BB
100
AcDbEntity
  8
DEFAULT
100
AcDbVertex
100
AcDb2dVertex
 10
-11.42349312524949
 20
58.46030041166851
 30
0.0
  0
VERTEX
  5
531
330
4BB
100
AcDbEntity
  8
DEFAULT
100
AcDbVertex
100
AcDb2dVertex
 10
-11.40621854096515
 20
58.46296544256411
 30
0.0
  0
VERTEX
  5
532
330
4BB
100
AcDbEntity
  8
DEFAULT
100
AcDbVertex
100
AcDb2dVertex
 10
-11.38871677998903
 20
58.46612528176801
 30
0.0
  0
VERTEX
  5
533
330
4BB
100
AcDbEntity
  8
DEFAULT
100
AcDbVertex
100
AcDb2dVertex
 10
-11.37102585487655
 20
58.46972180432768
 30
0.0
  0
VERTEX
  5
534
330
4BB
100
AcDbEntity
  8
DEFAULT
100
AcDbVertex
100
AcDb2dVertex
 10
-11.33522856246429
 20
58.47799239970428
 30
0.0
  0
VERTEX
  5
535
330
4BB
100
AcDbEntity
  8
DEFAULT
100
AcDbVertex
100
AcDb2dVertex
 10
-9.657639671154188
 20
58.9081603147355
 30
0.0
  0
VERTEX
  5
536
330
4BB
100
AcDbEntity
  8
DEFAULT
100
AcDbVertex
100
AcDb2dVertex
 10
-9.134653436274654
 20
59.04263679924043
 30
0.0
  0
VERTEX
  5
537
330
4BB
100
AcDbEntity
  8
DEFAULT
100
AcDbVertex
100
AcDb2dVertex
 10
-8.871411860576956
 20
59.1025232697331
 30
0.0
  0
VERTEX
  5
538
330
4BB
100
AcDbEntity
  8
DEFAULT
100
AcDbVertex
100
AcDb2dVertex
 10
-8.607016377522463
 20
59.15687798335165
 30
0.0
  0
VERTEX
  5
539
330
4BB
100
AcDbEntity
  8
DEFAULT
100
AcDbVertex
100
AcDb2dVertex
 10
-8.075780277810436
 20
59.25371258832061
 30
0.0
  0
VERTEX
  5
53A
330
4BB
100
AcDbEntity
  8
DEFAULT
100
AcDbVertex
100
AcDb2dVertex
 10
-7.542035028098246
 20
59.33554853110322
 30
0.0
  0
VERTEX
  5
53B
330
4BB
100
AcDbEntity
  8
DEFAULT
100
AcDbVertex
100
AcDb2dVertex
 10
-6.469911819663317
 20
59.46549237309033
 30
0.0
  0
VERTEX
  5
53C
330
4BB
100
AcDbEntity
  8
DEFAULT
100
AcDbVertex
100
AcDb2dVertex
 10
-5.394755508942613
 20
59.56693659901204
 30
0.0
  0
VERTEX
  5
53D
330
4BB
100
AcDbEntity
  8
DEFAULT
100
AcDbVertex
100
AcDb2dVertex
 10
-3.238886045962519
 20
59.69904178888811
 30
0.0
  0
VERTEX
  5
53E
330
4BB
100
AcDbEntity
  8
DEFAULT
100
AcDbVertex
100
AcDb2dVertex
 10
-1.079963463296591
 20
59.76487431646069
 30
0.0
  0
VERTEX
  5
53F
330
4BB
100
AcDbEntity
  8
DEFAULT
100
AcDbVertex
100
AcDb2dVertex
 10
1.079963463296591
 20
59.76487431646069
 30
0.0
  0
VERTEX
  5
540
330
4BB
100
AcDbEntity
  8
DEFAULT
100
AcDbVertex
100
AcDb2dVertex
 10
3.238886045962519
 20
59.69904178888811
 30
0.0
  0
VERTEX
  5
541
330
4BB
100
AcDbEntity
  8
DEFAULT
100
AcDbVertex
100
AcDb2dVertex
 10
5.394755508942613
 20
59.56693659901203
 30
0.0
  0
VERTEX
  5
542
330
4BB
100
AcDbEntity
  8
DEFAULT
100
AcDbVertex
100
AcDb2dVertex
 10
6.469911819663316
 20
59.46549237309033
 30
0.0
  0
VERTEX
  5
543
330
4BB
100
AcDbEntity
  8
DEFAULT
100
AcDbVertex
100
AcDb2dVertex
 10
7.542035028098245
 20
59.33554853110322
 30
0.0
  0
VERTEX
  5
544
330
4BB
100
AcDbEntity
  8
DEFAULT
100
AcDbVertex
100
AcDb2dVertex
 10
8.075780277810438
 20
59.25371258832062
 30
0.0
  0
VERTEX
  5
545
330
4BB
100
AcDbEntity
  8
DEFAULT
100
AcDbVertex
100
AcDb2dVertex
 10
8.607016377522463
 20
59.15687798335165
 30
0.0
  0
VERTEX
  5
546
330
4BB
100
AcDbEntity
  8
DEFAULT
100
AcDbVertex
100
AcDb2dVertex
 10
8.871411860576956
 20
59.1025232697331
 30
0.0
  0
VERTEX
  5
547
330
4BB
100
AcDbEntity
  8
DEFAULT
100
AcDbVertex
100
AcDb2dVertex
 10
9.134653436274654
 20
59.04263679924043
 30
0.0
  0
VERTEX
  5
548
330
4BB
100
AcDbEntity
  8
DEFAULT
100
AcDbVertex
100
AcDb2dVertex
 10
10.70400027009254
 20
58.64069428995492
 30
0.0
  0
VERTEX
  5
549
330
4BB
100
AcDbEntity
  8
DEFAULT
100
AcDbVertex
100
AcDb2dVertex
 10
11.33522856246429
 20
58.47799239970428
 30
0.0
  0
VERTEX
  5
54A
330
4BB
100
AcDbEntity
  8
DEFAULT
100
AcDbVertex
100
AcDb2dVertex
 10
11.37102585487655
 20
58.46972180432768
 30
0.0
  0
VERTEX
  5
54B
330
4BB
100
AcDbEntity
  8
DEFAULT
100
AcDbVertex
100
AcDb2dVertex
 10
11.38871677998903
 20
58.46612528176801
 30
0.0
  0
VERTEX
  5
54C
330
4BB
100
AcDbEntity
  8
DEFAULT
100
AcDbVertex
100
AcDb2dVertex
 10
11.40621854096515
 20
58.46296544256411
 30
0.0
  0
VERTEX
  5
54D
330
4BB
100
AcDbEntity
  8
DEFAULT
100
AcDbVertex
100
AcDb2dVertex
 10
11.42349312524949
 20
58.46030041166851
 30
0.0
  0
VERTEX
  5
54E
330
4BB
100
AcDbEntity
  8
DEFAULT
100
AcDbVertex
100
AcDb2dVertex
 10
11.44050252028663
 20
58.45818831403376
 30
0.0
  0
VERTEX
  5
54F
330
4BB
100
AcDbEntity
  8
DEFAULT
100
AcDbVertex
100
AcDb2dVertex
 10
11.44889589291392
 20
58.45735777923684
 30
0.0
  0
VERTEX
  5
550
330
4BB
100
AcDbEntity
  8
DEFAULT
100
AcDbVertex
100
AcDb2dVertex
 10
11.45720871352112
 20
58.45668727461235
 30
0.0
  0
VERTEX
  5
551
330
4BB
100
AcDbEntity
  8
DEFAULT
100
AcDbVertex
100
AcDb2dVertex
 10
11.4654362305388
 20
58.45618406577933
 30
0.0
  0
VERTEX
  5
552
330
4BB
100
AcDbEntity
  8
DEFAULT
100
AcDbVertex
100
AcDb2dVertex
 10
11.47357369239753
 20
58.45585541835685
 30
0.0
  0
VERTEX
  5
553
330
4BB
100
AcDbEntity
  8
DEFAULT
100
AcDbVertex
100
AcDb2dVertex
 10
11.48161634752789
 20
58.45570859796396
 30
0.0
  0
VERTEX
  5
554
330
4BB
100
AcDbEntity
  8
DEFAULT
100
AcDbVertex
100
AcDb2dVertex
 10
11.48955944436044
 20
58.45575087021975
 30
0.0
  0
VERTEX
  5
555
330
4BB
100
AcDbEntity
  8
DEFAULT
100
AcDbVertex
100
AcDb2dVertex
 10
11.49739823132575
 20
58.45598950074327
 30
0.0
  0
VERTEX
  5
556
330
4BB
100
AcDbEntity
  8
DEFAULT
100
AcDbVertex
100
AcDb2dVertex
 10
11.50512795685441
 20
58.45643175515359
 30
0.0
  0
VERTEX
  5
557
330
4BB
100
AcDbEntity
  8
DEFAULT
100
AcDbVertex
100
AcDb2dVertex
 10
11.51274386937697
 20
58.45708489906977
 30
0.0
  0
VERTEX
  5
558
330
4BB
100
AcDbEntity
  8
DEFAULT
100
AcDbVertex
100
AcDb2dVertex
 10
11.520241217324
 20
58.45795619811089
 30
0.0
  0
VERTEX
  5
559
330
4BB
100
AcDbEntity
  8
DEFAULT
100
AcDbVertex
100
AcDb2dVertex
 10
11.52761524912609
 20
58.45905291789601
 30
0.0
  0
VERTEX
  5
55A
330
4BB
100
AcDbEntity
  8
DEFAULT
100
AcDbVertex
100
AcDb2dVertex
 10
11.5348612132138
 20
58.46038232404419
 30
0.0
  0
VERTEX
  5
55B
330
4BB
100
AcDbEntity
  8
DEFAULT
100
AcDbVertex
100
AcDb2dVertex
 10
11.53843468499931
 20
58.46113655501038
 30
0.0
  0
VERTEX
  5
55C
330
4BB
100
AcDbEntity
  8
DEFAULT
100
AcDbVertex
100
AcDb2dVertex
 10
11.5419743580177
 20
58.4619516821745
 30
0.0
  0
VERTEX
  5
55D
330
4BB
100
AcDbEntity
  8
DEFAULT
100
AcDbVertex
100
AcDb2dVertex
 10
11.54547963832277
 20
58.46282861373891
 30
0.0
  0
VERTEX
  5
55E
330
4BB
100
AcDbEntity
  8
DEFAULT
100
AcDbVertex
100
AcDb2dVertex
 10
11.54894993196836
 20
58.46376825790601
 30
0.0
  0
VERTEX
  5
55F
330
4BB
100
AcDbEntity
  8
DEFAULT
100
AcDbVertex
100
AcDb2dVertex
 10
11.55238464500828
 20
58.46477152287817
 30
0.0
  0
VERTEX
  5
560
330
4BB
100
AcDbEntity
  8
DEFAULT
100
AcDbVertex
100
AcDb2dVertex
 10
11.55578318349636
 20
58.46583931685778
 30
0.0
  0
VERTEX
  5
561
330
4BB
100
AcDbEntity
  8
DEFAULT
100
AcDbVertex
100
AcDb2dVertex
 10
11.55914495348641
 20
58.46697254804722
 30
0.0
  0
VERTEX
  5
562
330
4BB
100
AcDbEntity
  8
DEFAULT
100
AcDbVertex
100
AcDb2dVertex
 10
11.56246936103226
 20
58.46817212464888
 30
0.0
  0
VERTEX
  5
563
330
4BB
100
AcDbEntity
  8
DEFAULT
100
AcDbVertex
100
AcDb2dVertex
 10
11.56575581218773
 20
58.46943895486514
 30
0.0
  0
VERTEX
  5
564
330
4BB
100
AcDbEntity
  8
DEFAULT
100
AcDbVertex
100
AcDb2dVertex
 10
11.56900371300663
 20
58.47077394689838
 30
0.0
  0
VERTEX
  5
565
330
4BB
100
AcDbEntity
  8
DEFAULT
100
AcDbVertex
100
AcDb2dVertex
 10
11.5722124695428
 20
58.47217800895098
 30
0.0
  0
VERTEX
  5
566
330
4BB
100
AcDbEntity
  8
DEFAULT
100
AcDbVertex
100
AcDb2dVertex
 10
11.57538148785006
 20
58.47365204922532
 30
0.0
  0
VERTEX
  5
567
330
4BB
100
AcDbEntity
  8
DEFAULT
100
AcDbVertex
100
AcDb2dVertex
 10
11.57851017398221
 20
58.4751969759238
 30
0.0
  0
VERTEX
  5
568
330
4BB
100
AcDbEntity
  8
DEFAULT
100
AcDbVertex
100
AcDb2dVertex
 10
11.5815979339931
 20
58.4768136972488
 30
0.0
  0
VERTEX
  5
569
330
4BB
100
AcDbEntity
  8
DEFAULT
100
AcDbVertex
100
AcDb2dVertex
 10
11.58464417393653
 20
58.4785031214027
 30
0.0
  0
VERTEX
  5
56A
330
4BB
100
AcDbEntity
  8
DEFAULT
100
AcDbVertex
100
AcDb2dVertex
 10
11.58764829986633
 20
58.48026615658786
 30
0.0
  0
VERTEX
  5
56B
330
4BB
100
AcDbEntity
  8
DEFAULT
100
AcDbVertex
100
AcDb2dVertex
 10
11.59060971783632
 20
58.48210371100669
 30
0.0
  0
VERTEX
  5
56C
330
4BB
100
AcDbEntity
  8
DEFAULT
100
AcDbVertex
100
AcDb2dVertex
 10
11.59352783390032
 20
58.48401669286157
 30
0.0
  0
VERTEX
  5
56D
330
4BB
100
AcDbEntity
  8
DEFAULT
100
AcDbVertex
100
AcDb2dVertex
 10
11.59640205411215
 20
58.48600601035489
 30
0.0
  0
VERTEX
  5
56E
330
4BB
100
AcDbEntity
  8
DEFAULT
100
AcDbVertex
100
AcDb2dVertex
 10
11.59923178452564
 20
58.48807257168902
 30
0.0
  0
VERTEX
  5
56F
330
4BB
100
AcDbEntity
  8
DEFAULT
100
AcDbVertex
100
AcDb2dVertex
 10
11.6020164311946
 20
58.49021728506634
 30
0.0
  0
VERTEX
  5
570
330
4BB
100
AcDbEntity
  8
DEFAULT
100
AcDbVertex
100
AcDb2dVertex
 10
11.60475540017286
 20
58.49244105868924
 30
0.0
  0
VERTEX
  5
571
330
4BB
100
AcDbEntity
  8
DEFAULT
100
AcDbVertex
100
AcDb2dVertex
 10
11.60744809751424
 20
58.49474480076012
 30
0.0
  0
VERTEX
  5
572
330
4BB
100
AcDbEntity
  8
DEFAULT
100
AcDbVertex
100
AcDb2dVertex
 10
11.61009392927256
 20
58.49712941948133
 30
0.0
  0
VERTEX
  5
573
330
4BB
100
AcDbEntity
  8
DEFAULT
100
AcDbVertex
100
AcDb2dVertex
 10
11.61269230150164
 20
58.49959582305528
 30
0.0
  0
VERTEX
  5
574
330
4BB
100
AcDbEntity
  8
DEFAULT
100
AcDbVertex
100
AcDb2dVertex
 10
11.6152426202553
 20
58.50214491968434
 30
0.0
  0
VERTEX
  5
575
330
4BB
100
AcDbEntity
  8
DEFAULT
100
AcDbVertex
100
AcDb2dVertex
 10
11.61774429158736
 20
58.50477761757089
 30
0.0
  0
VERTEX
  5
576
330
4BB
100
AcDbEntity
  8
DEFAULT
100
AcDbVertex
100
AcDb2dVertex
 10
11.62019672155166
 20
58.50749482491733
 30
0.0
  0
VERTEX
  5
577
330
4BB
100
AcDbEntity
  8
DEFAULT
100
AcDbVertex
100
AcDb2dVertex
 10
11.62259931620199
 20
58.51029744992603
 30
0.0
  0
VERTEX
  5
578
330
4BB
100
AcDbEntity
  8
DEFAULT
100
AcDbVertex
100
AcDb2dVertex
 10
11.6249514815922
 20
58.51318640079937
 30
0.0
  0
VERTEX
  5
579
330
4BB
100
AcDbEntity
  8
DEFAULT
100
AcDbVertex
100
AcDb2dVertex
 10
11.62725262377609
 20
58.51616258573974
 30
0.0
  0
VERTEX
  5
57A
330
4BB
100
AcDbEntity
  8
DEFAULT
100
AcDbVertex
100
AcDb2dVertex
 10
11.6295021488075
 20
58.51922691294952
 30
0.0
  0
VERTEX
  5
57B
330
4BB
100
AcDbEntity
  8
DEFAULT
100
AcDbVertex
100
AcDb2dVertex
 10
11.63169946274023
 20
58.5223802906311
 30
0.0
  0
VERTEX
  5
57C
330
4BB
100
AcDbEntity
  8
DEFAULT
100
AcDbVertex
100
AcDb2dVertex
 10
11.63384397162812
 20
58.52562362698686
 30
0.0
  0
VERTEX
  5
57D
330
4BB
100
AcDbEntity
  8
DEFAULT
100
AcDbVertex
100
AcDb2dVertex
 10
11.63593508152499
 20
58.52895783021918
 30
0.0
  0
VERTEX
  5
57E
330
4BB
100
AcDbEntity
  8
DEFAULT
100
AcDbVertex
100
AcDb2dVertex
 10
11.63797219848465
 20
58.53238380853044
 30
0.0
  0
VERTEX
  5
57F
330
4BB
100
AcDbEntity
  8
DEFAULT
100
AcDbVertex
100
AcDb2dVertex
 10
11.63995472856093
 20
58.53590247012303
 30
0.0
  0
VERTEX
  5
580
330
4BB
100
AcDbEntity
  8
DEFAULT
100
AcDbVertex
100
AcDb2dVertex
 10
11.64188207780765
 20
58.53951472319935
 30
0.0
  0
VERTEX
  5
581
330
4BB
100
AcDbEntity
  8
DEFAULT
100
AcDbVertex
100
AcDb2dVertex
 10
11.64375365227862
 20
58.54322147596174
 30
0.0
  0
VERTEX
  5
582
330
4BB
100
AcDbEntity
  8
DEFAULT
100
AcDbVertex
100
AcDb2dVertex
 10
11.64556885802768
 20
58.54702363661262
 30
0.0
  0
VERTEX
  5
583
330
4BB
100
AcDbEntity
  8
DEFAULT
100
AcDbVertex
100
AcDb2dVertex
 10
11.64732710110865
 20
58.55092211335436
 30
0.0
  0
VERTEX
  5
584
330
4BB
100
AcDbEntity
  8
DEFAULT
100
AcDbVertex
100
AcDb2dVertex
 10
11.64902778757533
 20
58.55491781438935
 30
0.0
  0
VERTEX
  5
585
330
4BB
100
AcDbEntity
  8
DEFAULT
100
AcDbVertex
100
AcDb2dVertex
 10
11.65067032348157
 20
58.55901164791996
 30
0.0
  0
VERTEX
  5
586
330
4BB
100
AcDbEntity
  8
DEFAULT
100
AcDbVertex
100
AcDb2dVertex
 10
11.65225411488117
 20
58.56320452214858
 30
0.0
  0
VERTEX
  5
587
330
4BB
100
AcDbEntity
  8
DEFAULT
100
AcDbVertex
100
AcDb2dVertex
 10
11.65377856782796
 20
58.56749734527761
 30
0.0
  0
VERTEX
  5
588
330
4BB
100
AcDbEntity
  8
DEFAULT
100
AcDbVertex
100
AcDb2dVertex
 10
11.65524308837576
 20
58.5718910255094
 30
0.0
  0
VERTEX
  5
589
330
4BB
100
AcDbEntity
  8
DEFAULT
100
AcDbVertex
100
AcDb2dVertex
 10
11.65664708257839
 20
58.57638647104636
 30
0.0
  0
VERTEX
  5
58A
330
4BB
100
AcDbEntity
  8
DEFAULT
100
AcDbVertex
100
AcDb2dVertex
 10
11.65798995648967
 20
58.58098459009086
 30
0.0
  0
VERTEX
  5
58B
330
4BB
100
AcDbEntity
  8
DEFAULT
100
AcDbVertex
100
AcDb2dVertex
 10
11.65927111616343
 20
58.58568629084529
 30
0.0
  0
VERTEX
  5
58C
330
4BB
100
AcDbEntity
  8
DEFAULT
100
AcDbVertex
100
AcDb2dVertex
 10
11.66048996765348
 20
58.59049248151203
 30
0.0
  0
VERTEX
  5
58D
330
4BB
100
AcDbEntity
  8
DEFAULT
100
AcDbVertex
100
AcDb2dVertex
 10
11.66273837029776
 20
58.60042196539197
 30
0.0
  0
VERTEX
  5
58E
330
4BB
100
AcDbEntity
  8
DEFAULT
100
AcDbVertex
100
AcDb2dVertex
 10
11.66473041285307
 20
58.61078030734976
 30
0.0
  0
VERTEX
  5
58F
330
4BB
100
AcDbEntity
  8
DEFAULT
100
AcDbVertex
100
AcDb2dVertex
 10
11.66646134375
 20
58.62157477300445
 30
0.0
  0
VERTEX
  5
590
330
4BB
100
AcDbEntity
  8
DEFAULT
100
AcDbVertex
100
AcDb2dVertex
 10
11.65664435067051
 20
58.67090757797588
 30
0.0
  0
VERTEX
  5
591
330
4BB
100
AcDbEntity
  8
DEFAULT
100
AcDbVertex
100
AcDb2dVertex
 10
11.64552308014644
 20
58.7196884500487
 30
0.0
  0
VERTEX
  5
592
330
4BB
100
AcDbEntity
  8
DEFAULT
100
AcDbVertex
100
AcDb2dVertex
 10
11.63314424653391
 20
58.76793707405147
 30
0.0
  0
VERTEX
  5
593
330
4BB
100
AcDbEntity
  8
DEFAULT
100
AcDbVertex
100
AcDb2dVertex
 10
11.61955456418906
 20
58.81567313481276
 30
0.0
  0
VERTEX
  5
594
330
4BB
100
AcDbEntity
  8
DEFAULT
100
AcDbVertex
100
AcDb2dVertex
 10
11.60480074746803
 20
58.86291631716114
 30
0.0
  0
VERTEX
  5
595
330
4BB
100
AcDbEntity
  8
DEFAULT
100
AcDbVertex
100
AcDb2dVertex
 10
11.58892951072695
 20
58.90968630592516
 30
0.0
  0
VERTEX
  5
596
330
4BB
100
AcDbEntity
  8
DEFAULT
100
AcDbVertex
100
AcDb2dVertex
 10
11.57198756832195
 20
58.95600278593339
 30
0.0
  0
VERTEX
  5
597
330
4BB
100
AcDbEntity
  8
DEFAULT
100
AcDbVertex
100
AcDb2dVertex
 10
11.55402163460917
 20
59.00188544201441
 30
0.0
  0
VERTEX
  5
598
330
4BB
100
AcDbEntity
  8
DEFAULT
100
AcDbVertex
100
AcDb2dVertex
 10
11.53507842394474
 20
59.04735395899677
 30
0.0
  0
VERTEX
  5
599
330
4BB
100
AcDbEntity
  8
DEFAULT
100
AcDbVertex
100
AcDb2dVertex
 10
11.5152046506848
 20
59.09242802170904
 30
0.0
  0
VERTEX
  5
59A
330
4BB
100
AcDbEntity
  8
DEFAULT
100
AcDbVertex
100
AcDb2dVertex
 10
11.49444702918548
 20
59.13712731497978
 30
0.0
  0
VERTEX
  5
59B
330
4BB
100
AcDbEntity
  8
DEFAULT
100
AcDbVertex
100
AcDb2dVertex
 10
11.47285227380291
 20
59.18147152363755
 30
0.0
  0
VERTEX
  5
59C
330
4BB
100
AcDbEntity
  8
DEFAULT
100
AcDbVertex
100
AcDb2dVertex
 10
11.42733821881256
 20
59.26917342642847
 30
0.0
  0
VERTEX
  5
59D
330
4BB
100
AcDbEntity
  8
DEFAULT
100
AcDbVertex
100
AcDb2dVertex
 10
11.37903620056284
 20
59.35569120871033
 30
0.0
  0
VERTEX
  5
59E
330
4BB
100
AcDbEntity
  8
DEFAULT
100
AcDbVertex
100
AcDb2dVertex
 10
11.32831993390282
 20
59.44118234911164
 30
0.0
  0
VERTEX
  5
59F
330
4BB
100
AcDbEntity
  8
DEFAULT
100
AcDbVertex
100
AcDb2dVertex
 10
11.27556313368156
 20
59.52580432626091
 30
0.0
  0
VERTEX
  5
5A0
330
4BB
100
AcDbEntity
  8
DEFAULT
100
AcDbVertex
100
AcDb2dVertex
 10
11.16542279195162
 20
59.69307070531745
 30
0.0
  0
VERTEX
  5
5A1
330
4BB
100
AcDbEntity
  8
DEFAULT
100
AcDbVertex
100
AcDb2dVertex
 10
10.06429440148167
 20
61.36079615998719
 30
0.0
  0
VERTEX
  5
5A2
330
4BB
100
AcDbEntity
  8
DEFAULT
100
AcDbVertex
100
AcDb2dVertex
 10
8.875710217079032
 20
63.21421522070449
 30
0.0
  0
VERTEX
  5
5A3
330
4BB
100
AcDbEntity
  8
DEFAULT
100
AcDbVertex
100
AcDb2dVertex
 10
8.766225961291315
 20
63.38257051677152
 30
0.0
  0
VERTEX
  5
5A4
330
4BB
100
AcDbEntity
  8
DEFAULT
100
AcDbVertex
100
AcDb2dVertex
 10
8.709739245709027
 20
63.46504845088371
 30
0.0
  0
VERTEX
  5
5A5
330
4BB
100
AcDbEntity
  8
DEFAULT
100
AcDbVertex
100
AcDb2dVertex
 10
8.651806311219051
 20
63.54610493005438
 30
0.0
  0
VERTEX
  5
5A6
330
4BB
100
AcDbEntity
  8
DEFAULT
100
AcDbVertex
100
AcDb2dVertex
 10
8.592214787484835
 20
63.62552372003802
 30
0.0
  0
VERTEX
  5
5A7
330
4BB
100
AcDbEntity
  8
DEFAULT
100
AcDbVertex
100
AcDb2dVertex
 10
8.530752304169827
 20
63.70308858658915
 30
0.0
  0
VERTEX
  5
5A8
330
4BB
100
AcDbEntity
  8
DEFAULT
100
AcDbVertex
100
AcDb2dVertex
 10
8.467206490937476
 20
63.77858329546228
 30
0.0
  0
VERTEX
  5
5A9
330
4BB
100
AcDbEntity
  8
DEFAULT
100
AcDbVertex
100
AcDb2dVertex
 10
8.401364977451234
 20
63.85179161241194
 30
0.0
  0
VERTEX
  5
5AA
330
4BB
100
AcDbEntity
  8
DEFAULT
100
AcDbVertex
100
AcDb2dVertex
 10
8.36751696738273
 20
63.88747080071376
 30
0.0
  0
VERTEX
  5
5AB
330
4BB
100
AcDbEntity
  8
DEFAULT
100
AcDbVertex
100
AcDb2dVertex
 10
8.333015393374547
 20
63.92249730319264
 30
0.0
  0
VERTEX
  5
5AC
330
4BB
100
AcDbEntity
  8
DEFAULT
100
AcDbVertex
100
AcDb2dVertex
 10
8.297833709134615
 20
63.95684409056791
 30
0.0
  0
VERTEX
  5
5AD
330
4BB
100
AcDbEntity
  8
DEFAULT
100
AcDbVertex
100
AcDb2dVertex
 10
8.261945368370863
 20
63.99048413355888
 30
0.0
  0
VERTEX
  5
5AE
330
4BB
100
AcDbEntity
  8
DEFAULT
100
AcDbVertex
100
AcDb2dVertex
 10
8.225332322043513
 20
64.02339628036378
 30
0.0
  0
VERTEX
  5
5AF
330
4BB
100
AcDbEntity
  8
DEFAULT
100
AcDbVertex
100
AcDb2dVertex
 10
8.188010510121945
 20
64.05558288909656
 30
0.0
  0
VERTEX
  5
5B0
330
4BB
100
AcDbEntity
  8
DEFAULT
100
AcDbVertex
100
AcDb2dVertex
 10
8.150004369827823
 20
64.08705219535003
 30
0.0
  0
VERTEX
  5
5B1
330
4BB
100
AcDbEntity
  8
DEFAULT
100
AcDbVertex
100
AcDb2dVertex
 10
8.111338338382808
 20
64.11781243471708
 30
0.0
  0
VERTEX
  5
5B2
330
4BB
100
AcDbEntity
  8
DEFAULT
100
AcDbVertex
100
AcDb2dVertex
 10
8.07203685300857
 20
64.14787184279055
 30
0.0
  0
VERTEX
  5
5B3
330
4BB
100
AcDbEntity
  8
DEFAULT
100
AcDbVertex
100
AcDb2dVertex
 10
8.032124350926775
 20
64.17723865516325
 30
0.0
  0
VERTEX
  5
5B4
330
4BB
100
AcDbEntity
  8
DEFAULT
100
AcDbVertex
100
AcDb2dVertex
 10
7.991625269359089
 20
64.20592110742808
 30
0.0
  0
VERTEX
  5
5B5
330
4BB
100
AcDbEntity
  8
DEFAULT
100
AcDbVertex
100
AcDb2dVertex
 10
7.950564045527178
 20
64.23392743517788
 30
0.0
  0
VERTEX
  5
5B6
330
4BB
100
AcDbEntity
  8
DEFAULT
100
AcDbVertex
100
AcDb2dVertex
 10
7.866852919957344
 20
64.28794465950372
 30
0.0
  0
VERTEX
  5
5B7
330
4BB
100
AcDbEntity
  8
DEFAULT
100
AcDbVertex
100
AcDb2dVertex
 10
7.781186471990598
 20
64.33935621288363
 30
0.0
  0
VERTEX
  5
5B8
330
4BB
100
AcDbEntity
  8
DEFAULT
100
AcDbVertex
100
AcDb2dVertex
 10
7.693760199400266
 20
64.38822798006035
 30
0.0
  0
VERTEX
  5
5B9
330
4BB
100
AcDbEntity
  8
DEFAULT
100
AcDbVertex
100
AcDb2dVertex
 10
7.604769599959678
 20
64.43462584577671
 30
0.0
  0
VERTEX
  5
5BA
330
4BB
100
AcDbEntity
  8
DEFAULT
100
AcDbVertex
100
AcDb2dVertex
 10
7.514410171442162
 20
64.47861569477547
 30
0.0
  0
VERTEX
  5
5BB
330
4BB
100
AcDbEntity
  8
DEFAULT
100
AcDbVertex
100
AcDb2dVertex
 10
7.422877411621043
 20
64.52026341179946
 30
0.0
  0
VERTEX
  5
5BC
330
4BB
100
AcDbEntity
  8
DEFAULT
100
AcDbVertex
100
AcDb2dVertex
 10
7.330366818269647
 20
64.55963488159145
 30
0.0
  0
VERTEX
  5
5BD
330
4BB
100
AcDbEntity
  8
DEFAULT
100
AcDbVertex
100
AcDb2dVertex
 10
7.237073889161305
 20
64.59679598889426
 30
0.0
  0
VERTEX
  5
5BE
330
4BB
100
AcDbEntity
  8
DEFAULT
100
AcDbVertex
100
AcDb2dVertex
 10
7.143194122069342
 20
64.63181261845065
 30
0.0
  0
VERTEX
  5
5BF
330
4BB
100
AcDbEntity
  8
DEFAULT
100
AcDbVertex
100
AcDb2dVertex
 10
7.048923014767086
 20
64.66475065500346
 30
0.0
  0
VERTEX
  5
5C0
330
4BB
100
AcDbEntity
  8
DEFAULT
100
AcDbVertex
100
AcDb2dVertex
 10
6.954456065027863
 20
64.69567598329544
 30
0.0
  0
VERTEX
  5
5C1
330
4BB
100
AcDbEntity
  8
DEFAULT
100
AcDbVertex
100
AcDb2dVertex
 10
6.859988770625002
 20
64.72465448806943
 30
0.0
  0
VERTEX
  5
5C2
330
4BB
100
AcDbEntity
  8
DEFAULT
100
AcDbVertex
100
AcDb2dVertex
 10
6.191172035851626
 20
64.91747846457264
 30
0.0
  0
VERTEX
  5
5C3
330
4BB
100
AcDbEntity
  8
DEFAULT
100
AcDbVertex
100
AcDb2dVertex
 10
5.516965963601789
 20
65.09053095191871
 30
0.0
  0
VERTEX
  5
5C4
330
4BB
100
AcDbEntity
  8
DEFAULT
100
AcDbVertex
100
AcDb2dVertex
 10
4.837933051357124
 20
65.24355129081036
 30
0.0
  0
VERTEX
  5
5C5
330
4BB
100
AcDbEntity
  8
DEFAULT
100
AcDbVertex
100
AcDb2dVertex
 10
4.154670142705918
 20
65.37641940503002
 30
0.0
  0
VERTEX
  5
5C6
330
4BB
100
AcDbEntity
  8
DEFAULT
100
AcDbVertex
100
AcDb2dVertex
 10
3.467781461323511
 20
65.48904733019579
 30
0.0
  0
VERTEX
  5
5C7
330
4BB
100
AcDbEntity
  8
DEFAULT
100
AcDbVertex
100
AcDb2dVertex
 10
2.77786640512682
 20
65.58133496618933
 30
0.0
  0
VERTEX
  5
5C8
330
4BB
100
AcDbEntity
  8
DEFAULT
100
AcDbVertex
100
AcDb2dVertex
 10
2.085524658358487
 20
65.6531897212194
 30
0.0
  0
VERTEX
  5
5C9
330
4BB
100
AcDbEntity
  8
DEFAULT
100
AcDbVertex
100
AcDb2dVertex
 10
1.391361876322494
 20
65.70456117254011
 30
0.0
  0
VERTEX
  5
5CA
330
4BB
100
AcDbEntity
  8
DEFAULT
100
AcDbVertex
100
AcDb2dVertex
 10
0.6959849822475567
 20
65.735410360808
 30
0.0
  0
VERTEX
  5
5CB
330
4BB
100
AcDbEntity
  8
DEFAULT
100
AcDbVertex
100
AcDb2dVertex
 10
0.0
 20
65.74570201124445
 30
0.0
  0
VERTEX
  5
5CC
330
4BB
100
AcDbEntity
  8
DEFAULT
100
AcDbVertex
100
AcDb2dVertex
 10
-0.6959849822475567
 20
65.735410360808
 30
0.0
  0
VERTEX
  5
5CD
330
4BB
100
AcDbEntity
  8
DEFAULT
100
AcDbVertex
100
AcDb2dVertex
 10
-1.391361876322494
 20
65.70456117254012
 30
0.0
  0
VERTEX
  5
5CE
330
4BB
100
AcDbEntity
  8
DEFAULT
100
AcDbVertex
100
AcDb2dVertex
 10
-2.085524658358487
 20
65.65318972121943
 30
0.0
  0
VERTEX
  5
5CF
330
4BB
100
AcDbEntity
  8
DEFAULT
100
AcDbVertex
100
AcDb2dVertex
 10
-2.77786640512682
 20
65.58133496618933
 30
0.0
  0
VERTEX
  5
5D0
330
4BB
100
AcDbEntity
  8
DEFAULT
100
AcDbVertex
100
AcDb2dVertex
 10
-3.467781461323511
 20
65.48904733019577
 30
0.0
  0
VERTEX
  5
5D1
330
4BB
100
AcDbEntity
  8
DEFAULT
100
AcDbVertex
100
AcDb2dVertex
 10
-4.154670142705918
 20
65.37641940502999
 30
0.0
  0
VERTEX
  5
5D2
330
4BB
100
AcDbEntity
  8
DEFAULT
100
AcDbVertex
100
AcDb2dVertex
 10
-4.837933051357124
 20
65.24355129081036
 30
0.0
  0
VERTEX
  5
5D3
330
4BB
100
AcDbEntity
  8
DEFAULT
100
AcDbVertex
100
AcDb2dVertex
 10
-5.516965963601789
 20
65.0905309519187
 30
0.0
  0
VERTEX
  5
5D4
330
4BB
100
AcDbEntity
  8
DEFAULT
100
AcDbVertex
100
AcDb2dVertex
 10
-6.191172035851626
 20
64.91747846457264
 30
0.0
  0
VERTEX
  5
5D5
330
4BB
100
AcDbEntity
  8
DEFAULT
100
AcDbVertex
100
AcDb2dVertex
 10
-6.859988770625002
 20
64.72465448806943
 30
0.0
  0
SEQEND
  5
5D6
330
4BB
100
AcDbEntity
  8
DEFAULT
  0
LINE
  5
5D7
330
1F
100
AcDbEntity
  8
DEFAULT
100
AcDbLine
 10
-1.375
 20
59.75954395722444
 30
0.0
 11
-1.375
 21
59.45906995722444
 31
0.0
  0
POLYLINE
  5
5D8
330
1F
100
AcDbEntity
  8
DEFAULT
100
AcDb2dPolyline
 66
     1
 10
0.0
 20
0.0
 30
0.0
  0
VERTEX
  5
5D9
330
5D8
100
AcDbEntity
  8
DEFAULT
100
AcDbVertex
100
AcDb2dVertex
 10
11.666454
 20
58.62158095722445
 30
0.0
  0
VERTEX
  5
5DA
330
5D8
100
AcDbEntity
  8
DEFAULT
100
AcDbVertex
100
AcDb2dVertex
 10
11.71707915853
 20
59.79284030861945
 30
0.0
  0
VERTEX
  5
5DB
330
5D8
100
AcDbEntity
  8
DEFAULT
100
AcDbVertex
100
AcDb2dVertex
 10
11.70716533337625
 20
59.84145057514731
 30
0.0
  0
VERTEX
  5
5DC
330
5D8
100
AcDbEntity
  8
DEFAULT
100
AcDbVertex
100
AcDb2dVertex
 10
11.69598883254311
 20
59.88952655108695
 30
0.0
  0
VERTEX
  5
5DD
330
5D8
100
AcDbEntity
  8
DEFAULT
100
AcDbVertex
100
AcDb2dVertex
 10
11.68359484978027
 20
59.93708726421424
 30
0.0
  0
VERTEX
  5
5DE
330
5D8
100
AcDbEntity
  8
DEFAULT
100
AcDbVertex
100
AcDb2dVertex
 10
11.67002857883743
 20
59.98415174230504
 30
0.0
  0
VERTEX
  5
5DF
330
5D8
100
AcDbEntity
  8
DEFAULT
100
AcDbVertex
100
AcDb2dVertex
 10
11.65533521346426
 20
60.03073901313517
 30
0.0
  0
VERTEX
  5
5E0
330
5D8
100
AcDbEntity
  8
DEFAULT
100
AcDbVertex
100
AcDb2dVertex
 10
11.63955994741044
 20
60.0768681044805
 30
0.0
  0
VERTEX
  5
5E1
330
5D8
100
AcDbEntity
  8
DEFAULT
100
AcDbVertex
100
AcDb2dVertex
 10
11.62274797442567
 20
60.12255804411688
 30
0.0
  0
VERTEX
  5
5E2
330
5D8
100
AcDbEntity
  8
DEFAULT
100
AcDbVertex
100
AcDb2dVertex
 10
11.60494448825963
 20
60.16782785982015
 30
0.0
  0
VERTEX
  5
5E3
330
5D8
100
AcDbEntity
  8
DEFAULT
100
AcDbVertex
100
AcDb2dVertex
 10
11.586194682662
 20
60.21269657936617
 30
0.0
  0
VERTEX
  5
5E4
330
5D8
100
AcDbEntity
  8
DEFAULT
100
AcDbVertex
100
AcDb2dVertex
 10
11.56654375138248
 20
60.25718323053077
 30
0.0
  0
VERTEX
  5
5E5
330
5D8
100
AcDbEntity
  8
DEFAULT
100
AcDbVertex
100
AcDb2dVertex
 10
11.54603688817074
 20
60.30130684108983
 30
0.0
  0
VERTEX
  5
5E6
330
5D8
100
AcDbEntity
  8
DEFAULT
100
AcDbVertex
100
AcDb2dVertex
 10
11.52471928677648
 20
60.34508643881918
 30
0.0
  0
VERTEX
  5
5E7
330
5D8
100
AcDbEntity
  8
DEFAULT
100
AcDbVertex
100
AcDb2dVertex
 10
11.47983264443911
 20
60.43168970689216
 30
0.0
  0
VERTEX
  5
5E8
330
5D8
100
AcDbEntity
  8
DEFAULT
100
AcDbVertex
100
AcDb2dVertex
 10
11.43224537436786
 20
60.51714525695651
 30
0.0
  0
VERTEX
  5
5E9
330
5D8
100
AcDbEntity
  8
DEFAULT
100
AcDbVertex
100
AcDb2dVertex
 10
11.38231902656021
 20
60.60160531121904
 30
0.0
  0
VERTEX
  5
5EA
330
5D8
100
AcDbEntity
  8
DEFAULT
100
AcDbVertex
100
AcDb2dVertex
 10
11.33041515101364
 20
60.68522209188654
 30
0.0
  0
VERTEX
  5
5EB
330
5D8
100
AcDbEntity
  8
DEFAULT
100
AcDbVertex
100
AcDb2dVertex
 10
10.13869581379727
 20
62.49844251913725
 30
0.0
  0
VERTEX
  5
5EC
330
5D8
100
AcDbEntity
  8
DEFAULT
100
AcDbVertex
100
AcDb2dVertex
 10
8.969705031041226
 20
64.32939603326594
 30
0.0
  0
VERTEX
  5
5ED
330
5D8
100
AcDbEntity
  8
DEFAULT
100
AcDbVertex
100
AcDb2dVertex
 10
8.862314168939882
 20
64.49580865926183
 30
0.0
  0
VERTEX
  5
5EE
330
5D8
100
AcDbEntity
  8
DEFAULT
100
AcDbVertex
100
AcDb2dVertex
 10
8.806930877744584
 20
64.57741165930443
 30
0.0
  0
VERTEX
  5
5EF
330
5D8
100
AcDbEntity
  8
DEFAULT
100
AcDbVertex
100
AcDb2dVertex
 10
8.750144958873557
 20
64.65767260219744
 30
0.0
  0
VERTEX
  5
5F0
330
5D8
100
AcDbEntity
  8
DEFAULT
100
AcDbVertex
100
AcDb2dVertex
 10
8.691748371642316
 20
64.73638660155626
 30
0.0
  0
VERTEX
  5
5F1
330
5D8
100
AcDbEntity
  8
DEFAULT
100
AcDbVertex
100
AcDb2dVertex
 10
8.63153307536638
 20
64.81334877099641
 30
0.0
  0
VERTEX
  5
5F2
330
5D8
100
AcDbEntity
  8
DEFAULT
100
AcDbVertex
100
AcDb2dVertex
 10
8.569291029361265
 20
64.88835422413331
 30
0.0
  0
VERTEX
  5
5F3
330
5D8
100
AcDbEntity
  8
DEFAULT
100
AcDbVertex
100
AcDb2dVertex
 10
8.504814192942487
 20
64.96119807458243
 30
0.0
  0
VERTEX
  5
5F4
330
5D8
100
AcDbEntity
  8
DEFAULT
100
AcDbVertex
100
AcDb2dVertex
 10
8.47167271561407
 20
64.99674537180388
 30
0.0
  0
VERTEX
  5
5F5
330
5D8
100
AcDbEntity
  8
DEFAULT
100
AcDbVertex
100
AcDb2dVertex
 10
8.437894525425557
 20
65.03167543595919
 30
0.0
  0
VERTEX
  5
5F6
330
5D8
100
AcDbEntity
  8
DEFAULT
100
AcDbVertex
100
AcDb2dVertex
 10
8.403453617291387
 20
65.06596265625028
 30
0.0
  0
VERTEX
  5
5F7
330
5D8
100
AcDbEntity
  8
DEFAULT
100
AcDbVertex
100
AcDb2dVertex
 10
8.368323986125997
 20
65.09958142187908
 30
0.0
  0
VERTEX
  5
5F8
330
5D8
100
AcDbEntity
  8
DEFAULT
100
AcDbVertex
100
AcDb2dVertex
 10
8.332487716297488
 20
65.13251109977608
 30
0.0
  0
VERTEX
  5
5F9
330
5D8
100
AcDbEntity
  8
DEFAULT
100
AcDbVertex
100
AcDb2dVertex
 10
8.295959249988583
 20
65.16475096778606
 30
0.0
  0
VERTEX
  5
5FA
330
5D8
100
AcDbEntity
  8
DEFAULT
100
AcDbVertex
100
AcDb2dVertex
 10
8.258761118835668
 20
65.19630528148231
 30
0.0
  0
VERTEX
  5
5FB
330
5D8
100
AcDbEntity
  8
DEFAULT
100
AcDbVertex
100
AcDb2dVertex
 10
8.220915854475134
 20
65.22717829643813
 30
0.0
  0
VERTEX
  5
5FC
330
5D8
100
AcDbEntity
  8
DEFAULT
100
AcDbVertex
100
AcDb2dVertex
 10
8.18244598854336
 20
65.25737426822687
 30
0.0
  0
VERTEX
  5
5FD
330
5D8
100
AcDbEntity
  8
DEFAULT
100
AcDbVertex
100
AcDb2dVertex
 10
8.143374052676736
 20
65.28689745242184
 30
0.0
  0
VERTEX
  5
5FE
330
5D8
100
AcDbEntity
  8
DEFAULT
100
AcDbVertex
100
AcDb2dVertex
 10
8.103722578511643
 20
65.31575210459633
 30
0.0
  0
VERTEX
  5
5FF
330
5D8
100
AcDbEntity
  8
DEFAULT
100
AcDbVertex
100
AcDb2dVertex
 10
8.063514097684472
 20
65.34394248032368
 30
0.0
  0
VERTEX
  5
600
330
5D8
100
AcDbEntity
  8
DEFAULT
100
AcDbVertex
100
AcDb2dVertex
 10
7.981516242589424
 20
65.39834742473018
 30
0.0
  0
VERTEX
  5
601
330
5D8
100
AcDbEntity
  8
DEFAULT
100
AcDbVertex
100
AcDb2dVertex
 10
7.897560740482676
 20
65.45014633022785
 30
0.0
  0
VERTEX
  5
602
330
5D8
100
AcDbEntity
  8
DEFAULT
100
AcDbVertex
100
AcDb2dVertex
 10
7.811827844455312
 20
65.49937324140325
 30
0.0
  0
VERTEX
  5
603
330
5D8
100
AcDbEntity
  8
DEFAULT
100
AcDbVertex
100
AcDb2dVertex
 10
7.724497807598413
 20
65.54606220284288
 30
0.0
  0
VERTEX
  5
604
330
5D8
100
AcDbEntity
  8
DEFAULT
100
AcDbVertex
100
AcDb2dVertex
 10
7.635750883003064
 20
65.59024725913324
 30
0.0
  0
VERTEX
  5
605
330
5D8
100
AcDbEntity
  8
DEFAULT
100
AcDbVertex
100
AcDb2dVertex
 10
7.54576732376035
 20
65.63196245486087
 30
0.0
  0
VERTEX
  5
606
330
5D8
100
AcDbEntity
  8
DEFAULT
100
AcDbVertex
100
AcDb2dVertex
 10
7.45472738296135
 20
65.67124183461227
 30
0.0
  0
VERTEX
  5
607
330
5D8
100
AcDbEntity
  8
DEFAULT
100
AcDbVertex
100
AcDb2dVertex
 10
7.362811313697149
 20
65.70811944297401
 30
0.0
  0
VERTEX
  5
608
330
5D8
100
AcDbEntity
  8
DEFAULT
100
AcDbVertex
100
AcDb2dVertex
 10
7.270199369058831
 20
65.74262932453256
 30
0.0
  0
VERTEX
  5
609
330
5D8
100
AcDbEntity
  8
DEFAULT
100
AcDbVertex
100
AcDb2dVertex
 10
7.177071802137479
 20
65.77480552387448
 30
0.0
  0
VERTEX
  5
60A
330
5D8
100
AcDbEntity
  8
DEFAULT
100
AcDbVertex
100
AcDb2dVertex
 10
7.083608866024175
 20
65.80468208558628
 30
0.0
  0
VERTEX
  5
60B
330
5D8
100
AcDbEntity
  8
DEFAULT
100
AcDbVertex
100
AcDb2dVertex
 10
6.989990813810003
 20
65.83229305425445
 30
0.0
  0
VERTEX
  5
60C
330
5D8
100
AcDbEntity
  8
DEFAULT
100
AcDbVertex
100
AcDb2dVertex
 10
6.306318127371079
 20
66.01618671733377
 30
0.0
  0
VERTEX
  5
60D
330
5D8
100
AcDbEntity
  8
DEFAULT
100
AcDbVertex
100
AcDb2dVertex
 10
5.617792758721537
 20
66.18101705725138
 30
0.0
  0
VERTEX
  5
60E
330
5D8
100
AcDbEntity
  8
DEFAULT
100
AcDbVertex
100
AcDb2dVertex
 10
4.925025133489621
 20
66.32700208687744
 30
0.0
  0
VERTEX
  5
60F
330
5D8
100
AcDbEntity
  8
DEFAULT
100
AcDbVertex
100
AcDb2dVertex
 10
4.228510307261833
 20
66.45386371655682
 30
0.0
  0
VERTEX
  5
610
330
5D8
100
AcDbEntity
  8
DEFAULT
100
AcDbVertex
100
AcDb2dVertex
 10
3.528729629389293
 20
66.56126258394822
 30
0.0
  0
VERTEX
  5
611
330
5D8
100
AcDbEntity
  8
DEFAULT
100
AcDbVertex
100
AcDb2dVertex
 10
2.826224994323371
 20
66.64911033849083
 30
0.0
  0
VERTEX
  5
612
330
5D8
100
AcDbEntity
  8
DEFAULT
100
AcDbVertex
100
AcDb2dVertex
 10
2.121552439586762
 20
66.71741662374194
 30
0.0
  0
VERTEX
  5
613
330
5D8
100
AcDbEntity
  8
DEFAULT
100
AcDbVertex
100
AcDb2dVertex
 10
1.415264029887211
 20
66.76633204795073
 30
0.0
  0
VERTEX
  5
614
330
5D8
100
AcDbEntity
  8
DEFAULT
100
AcDbVertex
100
AcDb2dVertex
 10
0.707905345276814
 20
66.79593953622609
 30
0.0
  0
VERTEX
  5
615
330
5D8
100
AcDbEntity
  8
DEFAULT
100
AcDbVertex
100
AcDb2dVertex
 10
0.0
 20
66.80591031642444
 30
0.0
  0
VERTEX
  5
616
330
5D8
100
AcDbEntity
  8
DEFAULT
100
AcDbVertex
100
AcDb2dVertex
 10
-0.707905345276814
 20
66.79593953622609
 30
0.0
  0
VERTEX
  5
617
330
5D8
100
AcDbEntity
  8
DEFAULT
100
AcDbVertex
100
AcDb2dVertex
 10
-1.415264029887211
 20
66.76633204795073
 30
0.0
  0
VERTEX
  5
618
330
5D8
100
AcDbEntity
  8
DEFAULT
100
AcDbVertex
100
AcDb2dVertex
 10
-2.121552439586762
 20
66.71741662374197
 30
0.0
  0
VERTEX
  5
619
330
5D8
100
AcDbEntity
  8
DEFAULT
100
AcDbVertex
100
AcDb2dVertex
 10
-2.826224994323372
 20
66.64911033849083
 30
0.0
  0
VERTEX
  5
61A
330
5D8
100
AcDbEntity
  8
DEFAULT
100
AcDbVertex
100
AcDb2dVertex
 10
-3.528729629389294
 20
66.56126258394822
 30
0.0
  0
VERTEX
  5
61B
330
5D8
100
AcDbEntity
  8
DEFAULT
100
AcDbVertex
100
AcDb2dVertex
 10
-4.228510307261833
 20
66.45386371655684
 30
0.0
  0
VERTEX
  5
61C
330
5D8
100
AcDbEntity
  8
DEFAULT
100
AcDbVertex
100
AcDb2dVertex
 10
-4.925025133489621
 20
66.32700208687746
 30
0.0
  0
VERTEX
  5
61D
330
5D8
100
AcDbEntity
  8
DEFAULT
100
AcDbVertex
100
AcDb2dVertex
 10
-5.617792758721537
 20
66.1810170572514
 30
0.0
  0
VERTEX
  5
61E
330
5D8
100
AcDbEntity
  8
DEFAULT
100
AcDbVertex
100
AcDb2dVertex
 10
-6.306318127371079
 20
66.01618671733377
 30
0.0
  0
VERTEX
  5
61F
330
5D8
100
AcDbEntity
  8
DEFAULT
100
AcDbVertex
100
AcDb2dVertex
 10
-6.989990813810003
 20
65.83229305425445
 30
0.0
  0
VERTEX
  5
620
330
5D8
100
AcDbEntity
  8
DEFAULT
100
AcDbVertex
100
AcDb2dVertex
 10
-7.083608866024175
 20
65.80468208558628
 30
0.0
  0
VERTEX
  5
621
330
5D8
100
AcDbEntity
  8
DEFAULT
100
AcDbVertex
100
AcDb2dVertex
 10
-7.177071802137479
 20
65.77480552387448
 30
0.0
  0
VERTEX
  5
622
330
5D8
100
AcDbEntity
  8
DEFAULT
100
AcDbVertex
100
AcDb2dVertex
 10
-7.270199369058831
 20
65.74262932453256
 30
0.0
  0
VERTEX
  5
623
330
5D8
100
AcDbEntity
  8
DEFAULT
100
AcDbVertex
100
AcDb2dVertex
 10
-7.362811313697149
 20
65.70811944297401
 30
0.0
  0
VERTEX
  5
624
330
5D8
100
AcDbEntity
  8
DEFAULT
100
AcDbVertex
100
AcDb2dVertex
 10
-7.45472738296135
 20
65.67124183461227
 30
0.0
  0
VERTEX
  5
625
330
5D8
100
AcDbEntity
  8
DEFAULT
100
AcDbVertex
100
AcDb2dVertex
 10
-7.54576732376035
 20
65.63196245486087
 30
0.0
  0
VERTEX
  5
626
330
5D8
100
AcDbEntity
  8
DEFAULT
100
AcDbVertex
100
AcDb2dVertex
 10
-7.635750883003064
 20
65.59024725913324
 30
0.0
  0
VERTEX
  5
627
330
5D8
100
AcDbEntity
  8
DEFAULT
100
AcDbVertex
100
AcDb2dVertex
 10
-7.724497807598413
 20
65.54606220284288
 30
0.0
  0
VERTEX
  5
628
330
5D8
100
AcDbEntity
  8
DEFAULT
100
AcDbVertex
100
AcDb2dVertex
 10
-7.811827844455312
 20
65.49937324140325
 30
0.0
  0
VERTEX
  5
629
330
5D8
100
AcDbEntity
  8
DEFAULT
100
AcDbVertex
100
AcDb2dVertex
 10
-7.897560740482676
 20
65.45014633022785
 30
0.0
  0
VERTEX
  5
62A
330
5D8
100
AcDbEntity
  8
DEFAULT
100
AcDbVertex
100
AcDb2dVertex
 10
-7.981516242589424
 20
65.39834742473018
 30
0.0
  0
VERTEX
  5
62B
330
5D8
100
AcDbEntity
  8
DEFAULT
100
AcDbVertex
100
AcDb2dVertex
 10
-8.063514097684472
 20
65.34394248032368
 30
0.0
  0
VERTEX
  5
62C
330
5D8
100
AcDbEntity
  8
DEFAULT
100
AcDbVertex
100
AcDb2dVertex
 10
-8.103722578511643
 20
65.31575210459633
 30
0.0
  0
VERTEX
  5
62D
330
5D8
100
AcDbEntity
  8
DEFAULT
100
AcDbVertex
100
AcDb2dVertex
 10
-8.143374052676736
 20
65.28689745242184
 30
0.0
  0
VERTEX
  5
62E
330
5D8
100
AcDbEntity
  8
DEFAULT
100
AcDbVertex
100
AcDb2dVertex
 10
-8.18244598854336
 20
65.25737426822687
 30
0.0
  0
VERTEX
  5
62F
330
5D8
100
AcDbEntity
  8
DEFAULT
100
AcDbVertex
100
AcDb2dVertex
 10
-8.220915854475134
 20
65.22717829643813
 30
0.0
  0
VERTEX
  5
630
330
5D8
100
AcDbEntity
  8
DEFAULT
100
AcDbVertex
100
AcDb2dVertex
 10
-8.258761118835668
 20
65.19630528148231
 30
0.0
  0
VERTEX
  5
631
330
5D8
100
AcDbEntity
  8
DEFAULT
100
AcDbVertex
100
AcDb2dVertex
 10
-8.295959249988583
 20
65.16475096778606
 30
0.0
  0
VERTEX
  5
632
330
5D8
100
AcDbEntity
  8
DEFAULT
100
AcDbVertex
100
AcDb2dVertex
 10
-8.332487716297488
 20
65.13251109977608
 30
0.0
  0
VERTEX
  5
633
330
5D8
100
AcDbEntity
  8
DEFAULT
100
AcDbVertex
100
AcDb2dVertex
 10
-8.368323986125997
 20
65.09958142187908
 30
0.0
  0
VERTEX
  5
634
330
5D8
100
AcDbEntity
  8
DEFAULT
100
AcDbVertex
100
AcDb2dVertex
 10
-8.403453617291387
 20
65.06596265625028
 30
0.0
  0
VERTEX
  5
635
330
5D8
100
AcDbEntity
  8
DEFAULT
100
AcDbVertex
100
AcDb2dVertex
 10
-8.437894525425557
 20
65.03167543595919
 30
0.0
  0
VERTEX
  5
636
330
5D8
100
AcDbEntity
  8
DEFAULT
100
AcDbVertex
100
AcDb2dVertex
 10
-8.47167271561407
 20
64.99674537180388
 30
0.0
  0
VERTEX
  5
637
330
5D8
100
AcDbEntity
  8
DEFAULT
100
AcDbVertex
100
AcDb2dVertex
 10
-8.504814192942487
 20
64.96119807458243
 30
0.0
  0
VERTEX
  5
638
330
5D8
100
AcDbEntity
  8
DEFAULT
100
AcDbVertex
100
AcDb2dVertex
 10
-8.569291029361265
 20
64.88835422413331
 30
0.0
  0
VERTEX
  5
639
330
5D8
100
AcDbEntity
  8
DEFAULT
100
AcDbVertex
100
AcDb2dVertex
 10
-8.63153307536638
 20
64.81334877099641
 30
0.0
  0
VERTEX
  5
63A
330
5D8
100
AcDbEntity
  8
DEFAULT
100
AcDbVertex
100
AcDb2dVertex
 10
-8.691748371642316
 20
64.73638660155626
 30
0.0
  0
VERTEX
  5
63B
330
5D8
100
AcDbEntity
  8
DEFAULT
100
AcDbVertex
100
AcDb2dVertex
 10
-8.750144958873557
 20
64.65767260219744
 30
0.0
  0
VERTEX
  5
63C
330
5D8
100
AcDbEntity
  8
DEFAULT
100
AcDbVertex
100
AcDb2dVertex
 10
-8.806930877744584
 20
64.57741165930443
 30
0.0
  0
VERTEX
  5
63D
330
5D8
100
AcDbEntity
  8
DEFAULT
100
AcDbVertex
100
AcDb2dVertex
 10
-8.862314168939882
 20
64.49580865926183
 30
0.0
  0
VERTEX
  5
63E
330
5D8
100
AcDbEntity
  8
DEFAULT
100
AcDbVertex
100
AcDb2dVertex
 10
-8.969705031041226
 20
64.32939603326594
 30
0.0
  0
VERTEX
  5
63F
330
5D8
100
AcDbEntity
  8
DEFAULT
100
AcDbVertex
100
AcDb2dVertex
 10
-10.13869581379727
 20
62.49844251913726
 30
0.0
  0
VERTEX
  5
640
330
5D8
100
AcDbEntity
  8
DEFAULT
100
AcDbVertex
100
AcDb2dVertex
 10
-11.33041515101364
 20
60.68522209188654
 30
0.0
  0
VERTEX
  5
641
330
5D8
100
AcDbEntity
  8
DEFAULT
100
AcDbVertex
100
AcDb2dVertex
 10
-11.38231902656021
 20
60.60160531121904
 30
0.0
  0
VERTEX
  5
642
330
5D8
100
AcDbEntity
  8
DEFAULT
100
AcDbVertex
100
AcDb2dVertex
 10
-11.43224537436786
 20
60.51714525695651
 30
0.0
  0
VERTEX
  5
643
330
5D8
100
AcDbEntity
  8
DEFAULT
100
AcDbVertex
100
AcDb2dVertex
 10
-11.47983264443911
 20
60.43168970689216
 30
0.0
  0
VERTEX
  5
644
330
5D8
100
AcDbEntity
  8
DEFAULT
100
AcDbVertex
100
AcDb2dVertex
 10
-11.52471928677648
 20
60.34508643881918
 30
0.0
  0
VERTEX
  5
645
330
5D8
100
AcDbEntity
  8
DEFAULT
100
AcDbVertex
100
AcDb2dVertex
 10
-11.54603688817074
 20
60.30130684108983
 30
0.0
  0
VERTEX
  5
646
330
5D8
100
AcDbEntity
  8
DEFAULT
100
AcDbVertex
100
AcDb2dVertex
 10
-11.56654375138248
 20
60.25718323053077
 30
0.0
  0
VERTEX
  5
647
330
5D8
100
AcDbEntity
  8
DEFAULT
100
AcDbVertex
100
AcDb2dVertex
 10
-11.586194682662
 20
60.21269657936617
 30
0.0
  0
VERTEX
  5
648
330
5D8
100
AcDbEntity
  8
DEFAULT
100
AcDbVertex
100
AcDb2dVertex
 10
-11.60494448825963
 20
60.16782785982015
 30
0.0
  0
VERTEX
  5
649
330
5D8
100
AcDbEntity
  8
DEFAULT
100
AcDbVertex
100
AcDb2dVertex
 10
-11.62274797442567
 20
60.12255804411688
 30
0.0
  0
VERTEX
  5
64A
330
5D8
100
AcDbEntity
  8
DEFAULT
100
AcDbVertex
100
AcDb2dVertex
 10
-11.63955994741044
 20
60.0768681044805
 30
0.0
  0
VERTEX
  5
64B
330
5D8
100
AcDbEntity
  8
DEFAULT
100
AcDbVertex
100
AcDb2dVertex
 10
-11.65533521346426
 20
60.03073901313517
 30
0.0
  0
VERTEX
  5
64C
330
5D8
100
AcDbEntity
  8
DEFAULT
100
AcDbVertex
100
AcDb2dVertex
 10
-11.67002857883743
 20
59.98415174230504
 30
0.0
  0
VERTEX
  5
64D
330
5D8
100
AcDbEntity
  8
DEFAULT
100
AcDbVertex
100
AcDb2dVertex
 10
-11.68359484978027
 20
59.93708726421424
 30
0.0
  0
VERTEX
  5
64E
330
5D8
100
AcDbEntity
  8
DEFAULT
100
AcDbVertex
100
AcDb2dVertex
 10
-11.69598883254311
 20
59.88952655108695
 30
0.0
  0
VERTEX
  5
64F
330
5D8
100
AcDbEntity
  8
DEFAULT
100
AcDbVertex
100
AcDb2dVertex
 10
-11.70716533337625
 20
59.84145057514731
 30
0.0
  0
VERTEX
  5
650
330
5D8
100
AcDbEntity
  8
DEFAULT
100
AcDbVertex
100
AcDb2dVertex
 10
-11.71707915853
 20
59.79284030861945
 30
0.0
  0
VERTEX
  5
651
330
5D8
100
AcDbEntity
  8
DEFAULT
100
AcDbVertex
100
AcDb2dVertex
 10
-11.666454
 20
58.62158095722445
 30
0.0
  0
SEQEND
  5
652
330
5D8
100
AcDbEntity
  8
DEFAULT
  0
LINE
  5
653
330
1F
100
AcDbEntity
  8
DEFAULT
100
AcDbLine
 10
-6.488018422280004
 20
59.10620183077445
 30
0.0
 11
-6.707147000000003
 21
59.43890795722444
 31
0.0
  0
POLYLINE
  5
654
330
1F
100
AcDbEntity
  8
DEFAULT
100
AcDb2dPolyline
 66
     1
 10
0.0
 20
0.0
 30
0.0
  0
VERTEX
  5
655
330
654
100
AcDbEntity
  8
DEFAULT
100
AcDbVertex
100
AcDb2dVertex
 10
-12.023105108835
 20
57.76138708764944
 30
0.0
  0
VERTEX
  5
656
330
654
100
AcDbEntity
  8
DEFAULT
100
AcDbVertex
100
AcDb2dVertex
 10
-12.03062813910509
 20
57.75858211811323
 30
0.0
  0
VERTEX
  5
657
330
654
100
AcDbEntity
  8
DEFAULT
100
AcDbVertex
100
AcDb2dVertex
 10
-12.03801229372412
 20
57.75556783486842
 30
0.0
  0
VERTEX
  5
658
330
654
100
AcDbEntity
  8
DEFAULT
100
AcDbVertex
100
AcDb2dVertex
 10
-12.04526033582474
 20
57.75235014405469
 30
0.0
  0
VERTEX
  5
659
330
654
100
AcDbEntity
  8
DEFAULT
100
AcDbVertex
100
AcDb2dVertex
 10
-12.05237502853961
 20
57.74893495181173
 30
0.0
  0
VERTEX
  5
65A
330
654
100
AcDbEntity
  8
DEFAULT
100
AcDbVertex
100
AcDb2dVertex
 10
-12.05935913500139
 20
57.74532816427924
 30
0.0
  0
VERTEX
  5
65B
330
654
100
AcDbEntity
  8
DEFAULT
100
AcDbVertex
100
AcDb2dVertex
 10
-12.06621541834275
 20
57.74153568759689
 30
0.0
  0
VERTEX
  5
65C
330
654
100
AcDbEntity
  8
DEFAULT
100
AcDbVertex
100
AcDb2dVertex
 10
-12.07294664169633
 20
57.73756342790439
 30
0.0
  0
VERTEX
  5
65D
330
654
100
AcDbEntity
  8
DEFAULT
100
AcDbVertex
100
AcDb2dVertex
 10
-12.0795555681948
 20
57.73341729134141
 30
0.0
  0
VERTEX
  5
65E
330
654
100
AcDbEntity
  8
DEFAULT
100
AcDbVertex
100
AcDb2dVertex
 10
-12.08604496097082
 20
57.72910318404764
 30
0.0
  0
VERTEX
  5
65F
330
654
100
AcDbEntity
  8
DEFAULT
100
AcDbVertex
100
AcDb2dVertex
 10
-12.09241758315704
 20
57.72462701216277
 30
0.0
  0
VERTEX
  5
660
330
654
100
AcDbEntity
  8
DEFAULT
100
AcDbVertex
100
AcDb2dVertex
 10
-12.09867619788613
 20
57.71999468182649
 30
0.0
  0
VERTEX
  5
661
330
654
100
AcDbEntity
  8
DEFAULT
100
AcDbVertex
100
AcDb2dVertex
 10
-12.10482356829074
 20
57.71521209917848
 30
0.0
  0
VERTEX
  5
662
330
654
100
AcDbEntity
  8
DEFAULT
100
AcDbVertex
100
AcDb2dVertex
 10
-12.11086245750354
 20
57.71028517035843
 30
0.0
  0
VERTEX
  5
663
330
654
100
AcDbEntity
  8
DEFAULT
100
AcDbVertex
100
AcDb2dVertex
 10
-12.11679562865717
 20
57.70521980150605
 30
0.0
  0
VERTEX
  5
664
330
654
100
AcDbEntity
  8
DEFAULT
100
AcDbVertex
100
AcDb2dVertex
 10
-12.1226258448843
 20
57.70002189876099
 30
0.0
  0
VERTEX
  5
665
330
654
100
AcDbEntity
  8
DEFAULT
100
AcDbVertex
100
AcDb2dVertex
 10
-12.1283558693176
 20
57.69469736826296
 30
0.0
  0
VERTEX
  5
666
330
654
100
AcDbEntity
  8
DEFAULT
100
AcDbVertex
100
AcDb2dVertex
 10
-12.13398846508971
 20
57.68925211615165
 30
0.0
  0
VERTEX
  5
667
330
654
100
AcDbEntity
  8
DEFAULT
100
AcDbVertex
100
AcDb2dVertex
 10
-12.1395263953333
 20
57.68369204856673
 30
0.0
  0
VERTEX
  5
668
330
654
100
AcDbEntity
  8
DEFAULT
100
AcDbVertex
100
AcDb2dVertex
 10
-12.15032931176554
 20
57.67225109153486
 30
0.0
  0
VERTEX
  5
669
330
654
100
AcDbEntity
  8
DEFAULT
100
AcDbVertex
100
AcDb2dVertex
 10
-12.1607867236756
 20
57.66042174628484
 30
0.0
  0
VERTEX
  5
66A
330
654
100
AcDbEntity
  8
DEFAULT
100
AcDbVertex
100
AcDb2dVertex
 10
-12.17092073612474
 20
57.64825126193418
 30
0.0
  0
VERTEX
  5
66B
330
654
100
AcDbEntity
  8
DEFAULT
100
AcDbVertex
100
AcDb2dVertex
 10
-12.18075345417424
 20
57.63578688760038
 30
0.0
  0
VERTEX
  5
66C
330
654
100
AcDbEntity
  8
DEFAULT
100
AcDbVertex
100
AcDb2dVertex
 10
-12.19030698288536
 20
57.62307587240094
 30
0.0
  0
VERTEX
  5
66D
330
654
100
AcDbEntity
  8
DEFAULT
100
AcDbVertex
100
AcDb2dVertex
 10
-12.19960342731939
 20
57.61016546545336
 30
0.0
  0
VERTEX
  5
66E
330
654
100
AcDbEntity
  8
DEFAULT
100
AcDbVertex
100
AcDb2dVertex
 10
-12.20866489253758
 20
57.59710291587514
 30
0.0
  0
VERTEX
  5
66F
330
654
100
AcDbEntity
  8
DEFAULT
100
AcDbVertex
100
AcDb2dVertex
 10
-12.22615015279953
 20
57.57065157252092
 30
0.0
  0
VERTEX
  5
670
330
654
100
AcDbEntity
  8
DEFAULT
100
AcDbVertex
100
AcDb2dVertex
 10
-12.24283384030123
 20
57.54380577139889
 30
0.0
  0
VERTEX
  5
671
330
654
100
AcDbEntity
  8
DEFAULT
100
AcDbVertex
100
AcDb2dVertex
 10
-12.25876587890067
 20
57.51659062879382
 30
0.0
  0
VERTEX
  5
672
330
654
100
AcDbEntity
  8
DEFAULT
100
AcDbVertex
100
AcDb2dVertex
 10
-12.27399619245583
 20
57.48903126099044
 30
0.0
  0
VERTEX
  5
673
330
654
100
AcDbEntity
  8
DEFAULT
100
AcDbVertex
100
AcDb2dVertex
 10
-12.28857470482471
 20
57.46115278427352
 30
0.0
  0
VERTEX
  5
674
330
654
100
AcDbEntity
  8
DEFAULT
100
AcDbVertex
100
AcDb2dVertex
 10
-12.30255133986528
 20
57.43298031492779
 30
0.0
  0
VERTEX
  5
675
330
654
100
AcDbEntity
  8
DEFAULT
100
AcDbVertex
100
AcDb2dVertex
 10
-12.31597602143554
 20
57.40453896923799
 30
0.0
  0
VERTEX
  5
676
330
654
100
AcDbEntity
  8
DEFAULT
100
AcDbVertex
100
AcDb2dVertex
 10
-12.32889867339348
 20
57.37585386348889
 30
0.0
  0
VERTEX
  5
677
330
654
100
AcDbEntity
  8
DEFAULT
100
AcDbVertex
100
AcDb2dVertex
 10
-12.3533886949811
 20
57.31783905456893
 30
0.0
  0
VERTEX
  5
678
330
654
100
AcDbEntity
  8
DEFAULT
100
AcDbVertex
100
AcDb2dVertex
 10
-12.3761763508759
 20
57.25906790653176
 30
0.0
  0
VERTEX
  5
679
330
654
100
AcDbEntity
  8
DEFAULT
100
AcDbVertex
100
AcDb2dVertex
 10
-12.39736769840244
 20
57.19965865535843
 30
0.0
  0
VERTEX
  5
67A
330
654
100
AcDbEntity
  8
DEFAULT
100
AcDbVertex
100
AcDb2dVertex
 10
-12.41706879488524
 20
57.13972953702996
 30
0.0
  0
VERTEX
  5
67B
330
654
100
AcDbEntity
  8
DEFAULT
100
AcDbVertex
100
AcDb2dVertex
 10
-12.43537327913834
 20
57.07938380740312
 30
0.0
  0
VERTEX
  5
67C
330
654
100
AcDbEntity
  8
DEFAULT
100
AcDbVertex
100
AcDb2dVertex
 10
-12.45232511593367
 20
57.01866480183749
 30
0.0
  0
VERTEX
  5
67D
330
654
100
AcDbEntity
  8
DEFAULT
100
AcDbVertex
100
AcDb2dVertex
 10
-12.46795585153263
 20
56.9576008755684
 30
0.0
  0
VERTEX
  5
67E
330
654
100
AcDbEntity
  8
DEFAULT
100
AcDbVertex
100
AcDb2dVertex
 10
-12.48229703219665
 20
56.89622038383121
 30
0.0
  0
VERTEX
  5
67F
330
654
100
AcDbEntity
  8
DEFAULT
100
AcDbVertex
100
AcDb2dVertex
 10
-12.49537196103989
 20
56.83455156445172
 30
0.0
  0
VERTEX
  5
680
330
654
100
AcDbEntity
  8
DEFAULT
100
AcDbVertex
100
AcDb2dVertex
 10
-12.50717096858746
 20
56.77262218561783
 30
0.0
  0
VERTEX
  5
681
330
654
100
AcDbEntity
  8
DEFAULT
100
AcDbVertex
100
AcDb2dVertex
 10
-12.51767614221724
 20
56.71045989810795
 30
0.0
  0
VERTEX
  5
682
330
654
100
AcDbEntity
  8
DEFAULT
100
AcDbVertex
100
AcDb2dVertex
 10
-12.52686956930711
 20
56.64809235270046
 30
0.0
  0
VERTEX
  5
683
330
654
100
AcDbEntity
  8
DEFAULT
100
AcDbVertex
100
AcDb2dVertex
 10
-13.73964044178018
 20
47.05201347402078
 30
0.0
  0
VERTEX
  5
684
330
654
100
AcDbEntity
  8
DEFAULT
100
AcDbVertex
100
AcDb2dVertex
 10
-13.7451127140605
 20
46.99832744287796
 30
0.0
  0
VERTEX
  5
685
330
654
100
AcDbEntity
  8
DEFAULT
100
AcDbVertex
100
AcDb2dVertex
 10
-13.74908678437252
 20
46.94451016507171
 30
0.0
  0
VERTEX
  5
686
330
654
100
AcDbEntity
  8
DEFAULT
100
AcDbVertex
100
AcDb2dVertex
 10
-13.75155883306522
 20
46.89060286125724
 30
0.0
  0
VERTEX
  5
687
330
654
100
AcDbEntity
  8
DEFAULT
100
AcDbVertex
100
AcDb2dVertex
 10
-13.75252504048759
 20
46.83664675208976
 30
0.0
  0
VERTEX
  5
688
330
654
100
AcDbEntity
  8
DEFAULT
100
AcDbVertex
100
AcDb2dVertex
 10
-13.75197734483671
 20
46.78268390336994
 30
0.0
  0
VERTEX
  5
689
330
654
100
AcDbEntity
  8
DEFAULT
100
AcDbVertex
100
AcDb2dVertex
 10
-13.74989071709806
 20
46.72875985631851
 30
0.0
  0
VERTEX
  5
68A
330
654
100
AcDbEntity
  8
DEFAULT
100
AcDbVertex
100
AcDb2dVertex
 10
-13.74623588698947
 20
46.67492099730612
 30
0.0
  0
VERTEX
  5
68B
330
654
100
AcDbEntity
  8
DEFAULT
100
AcDbVertex
100
AcDb2dVertex
 10
-13.74098358422877
 20
46.62121371270342
 30
0.0
  0
VERTEX
  5
68C
330
654
100
AcDbEntity
  8
DEFAULT
100
AcDbVertex
100
AcDb2dVertex
 10
-13.73409797635987
 20
46.56768833021967
 30
0.0
  0
VERTEX
  5
68D
330
654
100
AcDbEntity
  8
DEFAULT
100
AcDbVertex
100
AcDb2dVertex
 10
-13.72551698223088
 20
46.5144109429187
 30
0.0
  0
VERTEX
  5
68E
330
654
100
AcDbEntity
  8
DEFAULT
100
AcDbVertex
100
AcDb2dVertex
 10
-13.71517195851599
 20
46.46145158520292
 30
0.0
  0
VERTEX
  5
68F
330
654
100
AcDbEntity
  8
DEFAULT
100
AcDbVertex
100
AcDb2dVertex
 10
-13.70931648452451
 20
46.43511305319025
 30
0.0
  0
VERTEX
  5
690
330
654
100
AcDbEntity
  8
DEFAULT
100
AcDbVertex
100
AcDb2dVertex
 10
-13.70299426188939
 20
46.40888029147478
 30
0.0
  0
VERTEX
  5
691
330
654
100
AcDbEntity
  8
DEFAULT
100
AcDbVertex
100
AcDb2dVertex
 10
-13.69619537303904
 20
46.38276355656843
 30
0.0
  0
VERTEX
  5
692
330
654
100
AcDbEntity
  8
DEFAULT
100
AcDbVertex
100
AcDb2dVertex
 10
-13.68890455177851
 20
46.35677911382948
 30
0.0
  0
VERTEX
  5
693
330
654
100
AcDbEntity
  8
DEFAULT
100
AcDbVertex
100
AcDb2dVertex
 10
-13.68110519475703
 20
46.33094473082784
 30
0.0
  0
VERTEX
  5
694
330
654
100
AcDbEntity
  8
DEFAULT
100
AcDbVertex
100
AcDb2dVertex
 10
-13.67278069862378
 20
46.30527817513337
 30
0.0
  0
VERTEX
  5
695
330
654
100
AcDbEntity
  8
DEFAULT
100
AcDbVertex
100
AcDb2dVertex
 10
-13.66391446002799
 20
46.27979721431598
 30
0.0
  0
VERTEX
  5
696
330
654
100
AcDbEntity
  8
DEFAULT
100
AcDbVertex
100
AcDb2dVertex
 10
-13.65448987561886
 20
46.25451961594555
 30
0.0
  0
VERTEX
  5
697
330
654
100
AcDbEntity
  8
DEFAULT
100
AcDbVertex
100
AcDb2dVertex
 10
-13.6444903420456
 20
46.22946314759199
 30
0.0
  0
VERTEX
  5
698
330
654
100
AcDbEntity
  8
DEFAULT
100
AcDbVertex
100
AcDb2dVertex
 10
-13.63389925595741
 20
46.20464557682517
 30
0.0
  0
VERTEX
  5
699
330
654
100
AcDbEntity
  8
DEFAULT
100
AcDbVertex
100
AcDb2dVertex
 10
-13.62269826274487
 20
46.18008870902416
 30
0.0
  0
VERTEX
  5
69A
330
654
100
AcDbEntity
  8
DEFAULT
100
AcDbVertex
100
AcDb2dVertex
 10
-13.6108620027639
 20
46.15583050080475
 30
0.0
  0
VERTEX
  5
69B
330
654
100
AcDbEntity
  8
DEFAULT
100
AcDbVertex
100
AcDb2dVertex
 10
-13.59836336511182
 20
46.13191294659188
 30
0.0
  0
VERTEX
  5
69C
330
654
100
AcDbEntity
  8
DEFAULT
100
AcDbVertex
100
AcDb2dVertex
 10
-13.58517523888591
 20
46.10837804081054
 30
0.0
  0
VERTEX
  5
69D
330
654
100
AcDbEntity
  8
DEFAULT
100
AcDbVertex
100
AcDb2dVertex
 10
-13.57127051318347
 20
46.08526777788566
 30
0.0
  0
VERTEX
  5
69E
330
654
100
AcDbEntity
  8
DEFAULT
100
AcDbVertex
100
AcDb2dVertex
 10
-13.55662207710181
 20
46.06262415224221
 30
0.0
  0
VERTEX
  5
69F
330
654
100
AcDbEntity
  8
DEFAULT
100
AcDbVertex
100
AcDb2dVertex
 10
-13.54901049551168
 20
46.05149045165882
 30
0.0
  0
VERTEX
  5
6A0
330
654
100
AcDbEntity
  8
DEFAULT
100
AcDbVertex
100
AcDb2dVertex
 10
-13.54120281973822
 20
46.04048915830515
 30
0.0
  0
VERTEX
  5
6A1
330
654
100
AcDbEntity
  8
DEFAULT
100
AcDbVertex
100
AcDb2dVertex
 10
-13.53319566091861
 20
46.02962552148432
 30
0.0
  0
VERTEX
  5
6A2
330
654
100
AcDbEntity
  8
DEFAULT
100
AcDbVertex
100
AcDb2dVertex
 10
-13.09862960771627
 20
45.48275828514036
 30
0.0
  0
VERTEX
  5
6A3
330
654
100
AcDbEntity
  8
DEFAULT
100
AcDbVertex
100
AcDb2dVertex
 10
-12.1978838930935
 20
44.40041619321575
 30
0.0
  0
VERTEX
  5
6A4
330
654
100
AcDbEntity
  8
DEFAULT
100
AcDbVertex
100
AcDb2dVertex
 10
-11.27881275120978
 20
43.3641364383824
 30
0.0
  0
VERTEX
  5
6A5
330
654
100
AcDbEntity
  8
DEFAULT
100
AcDbVertex
100
AcDb2dVertex
 10
-10.4078729655478
 20
42.43856399263669
 30
0.0
  0
VERTEX
  5
6A6
330
654
100
AcDbEntity
  8
DEFAULT
100
AcDbVertex
100
AcDb2dVertex
 10
-10.013509198845
 20
42.03618621061944
 30
0.0
  0
VERTEX
  5
6A7
330
654
100
AcDbEntity
  8
DEFAULT
100
AcDbVertex
100
AcDb2dVertex
 10
-9.972357739456296
 20
41.99593284255678
 30
0.0
  0
VERTEX
  5
6A8
330
654
100
AcDbEntity
  8
DEFAULT
100
AcDbVertex
100
AcDb2dVertex
 10
-9.930055897396011
 20
41.95691993806979
 30
0.0
  0
VERTEX
  5
6A9
330
654
100
AcDbEntity
  8
DEFAULT
100
AcDbVertex
100
AcDb2dVertex
 10
-9.886666451046114
 20
41.91913008651387
 30
0.0
  0
VERTEX
  5
6AA
330
654
100
AcDbEntity
  8
DEFAULT
100
AcDbVertex
100
AcDb2dVertex
 10
-9.842252178788568
 20
41.88254587724443
 30
0.0
  0
VERTEX
  5
6AB
330
654
100
AcDbEntity
  8
DEFAULT
100
AcDbVertex
100
AcDb2dVertex
 10
-9.796875859005336
 20
41.84714989961689
 30
0.0
  0
VERTEX
  5
6AC
330
654
100
AcDbEntity
  8
DEFAULT
100
AcDbVertex
100
AcDb2dVertex
 10
-9.750600270078385
 20
41.81292474298667
 30
0.0
  0
VERTEX
  5
6AD
330
654
100
AcDbEntity
  8
DEFAULT
100
AcDbVertex
100
AcDb2dVertex
 10
-9.703488190389677
 20
41.77985299670917
 30
0.0
  0
VERTEX
  5
6AE
330
654
100
AcDbEntity
  8
DEFAULT
100
AcDbVertex
100
AcDb2dVertex
 10
-9.65560239832118
 20
41.74791725013981
 30
0.0
  0
VERTEX
  5
6AF
330
654
100
AcDbEntity
  8
DEFAULT
100
AcDbVertex
100
AcDb2dVertex
 10
-9.607000178316792
 20
41.7170989079054
 30
0.0
  0
VERTEX
  5
6B0
330
654
100
AcDbEntity
  8
DEFAULT
100
AcDbVertex
100
AcDb2dVertex
 10
-9.55772462884136
 20
41.68737953218579
 30
0.0
  0
VERTEX
  5
6B1
330
654
100
AcDbEntity
  8
DEFAULT
100
AcDbVertex
100
AcDb2dVertex
 10
-9.507813392307835
 20
41.6587394408219
 30
0.0
  0
VERTEX
  5
6B2
330
654
100
AcDbEntity
  8
DEFAULT
100
AcDbVertex
100
AcDb2dVertex
 10
-9.457304111129174
 20
41.63115895165462
 30
0.0
  0
VERTEX
  5
6B3
330
654
100
AcDbEntity
  8
DEFAULT
100
AcDbVertex
100
AcDb2dVertex
 10
-9.406234427718324
 20
41.60461838252482
 30
0.0
  0
VERTEX
  5
6B4
330
654
100
AcDbEntity
  8
DEFAULT
100
AcDbVertex
100
AcDb2dVertex
 10
-9.354641984488232
 20
41.5790980512734
 30
0.0
  0
VERTEX
  5
6B5
330
654
100
AcDbEntity
  8
DEFAULT
100
AcDbVertex
100
AcDb2dVertex
 10
-9.302564423851853
 20
41.55457827574125
 30
0.0
  0
VERTEX
  5
6B6
330
654
100
AcDbEntity
  8
DEFAULT
100
AcDbVertex
100
AcDb2dVertex
 10
-9.250039388222138
 20
41.53103937376925
 30
0.0
  0
VERTEX
  5
6B7
330
654
100
AcDbEntity
  8
DEFAULT
100
AcDbVertex
100
AcDb2dVertex
 10
-9.197102249768694
 20
41.50846088176161
 30
0.0
  0
VERTEX
  5
6B8
330
654
100
AcDbEntity
  8
DEFAULT
100
AcDbVertex
100
AcDb2dVertex
 10
-9.143779299687758
 20
41.48681921037578
 30
0.0
  0
VERTEX
  5
6B9
330
654
100
AcDbEntity
  8
DEFAULT
100
AcDbVertex
100
AcDb2dVertex
 10
-9.036072048454967
 20
41.44624884635265
 30
0.0
  0
VERTEX
  5
6BA
330
654
100
AcDbEntity
  8
DEFAULT
100
AcDbVertex
100
AcDb2dVertex
 10
-8.927109802146894
 20
41.40913331546604
 30
0.0
  0
VERTEX
  5
6BB
330
654
100
AcDbEntity
  8
DEFAULT
100
AcDbVertex
100
AcDb2dVertex
 10
-8.817084728386668
 20
41.3752776514821
 30
0.0
  0
VERTEX
  5
6BC
330
654
100
AcDbEntity
  8
DEFAULT
100
AcDbVertex
100
AcDb2dVertex
 10
-8.706174313673728
 20
41.34449497002409
 30
0.0
  0
VERTEX
  5
6BD
330
654
100
AcDbEntity
  8
DEFAULT
100
AcDbVertex
100
AcDb2dVertex
 10
-8.594497320012758
 20
41.3166307141435
 30
0.0
  0
VERTEX
  5
6BE
330
654
100
AcDbEntity
  8
DEFAULT
100
AcDbVertex
100
AcDb2dVertex
 10
-8.482157828284752
 20
41.29153840874891
 30
0.0
  0
VERTEX
  5
6BF
330
654
100
AcDbEntity
  8
DEFAULT
100
AcDbVertex
100
AcDb2dVertex
 10
-8.369259919370709
 20
41.26907157874886
 30
0.0
  0
VERTEX
  5
6C0
330
654
100
AcDbEntity
  8
DEFAULT
100
AcDbVertex
100
AcDb2dVertex
 10
-8.255900415008668
 20
41.24909280523538
 30
0.0
  0
VERTEX
  5
6C1
330
654
100
AcDbEntity
  8
DEFAULT
100
AcDbVertex
100
AcDb2dVertex
 10
-8.142147100364852
 20
41.2315008940341
 30
0.0
  0
VERTEX
  5
6C2
330
654
100
AcDbEntity
  8
DEFAULT
100
AcDbVertex
100
AcDb2dVertex
 10
-8.02806050146254
 20
41.21620370715409
 30
0.0
  0
VERTEX
  5
6C3
330
654
100
AcDbEntity
  8
DEFAULT
100
AcDbVertex
100
AcDb2dVertex
 10
-7.913701144325001
 20
41.20310910660444
 30
0.0
  0
VERTEX
  5
6C4
330
654
100
AcDbEntity
  8
DEFAULT
100
AcDbVertex
100
AcDb2dVertex
 10
-6.335061089658081
 20
41.05176303130493
 30
0.0
  0
VERTEX
  5
6C5
330
654
100
AcDbEntity
  8
DEFAULT
100
AcDbVertex
100
AcDb2dVertex
 10
-4.753864073093192
 20
40.93002168717462
 30
0.0
  0
VERTEX
  5
6C6
330
654
100
AcDbEntity
  8
DEFAULT
100
AcDbVertex
100
AcDb2dVertex
 10
-3.170579337786364
 20
40.8394542879801
 30
0.0
  0
VERTEX
  5
6C7
330
654
100
AcDbEntity
  8
DEFAULT
100
AcDbVertex
100
AcDb2dVertex
 10
-1.585735570161398
 20
40.78247266937412
 30
0.0
  0
VERTEX
  5
6C8
330
654
100
AcDbEntity
  8
DEFAULT
100
AcDbVertex
100
AcDb2dVertex
 10
0.0
 20
40.76248855335444
 30
0.0
  0
VERTEX
  5
6C9
330
654
100
AcDbEntity
  8
DEFAULT
100
AcDbVertex
100
AcDb2dVertex
 10
1.585735570161398
 20
40.78247266937412
 30
0.0
  0
VERTEX
  5
6CA
330
654
100
AcDbEntity
  8
DEFAULT
100
AcDbVertex
100
AcDb2dVertex
 10
3.170579337786365
 20
40.8394542879801
 30
0.0
  0
VERTEX
  5
6CB
330
654
100
AcDbEntity
  8
DEFAULT
100
AcDbVertex
100
AcDb2dVertex
 10
4.753864073093192
 20
40.93002168717462
 30
0.0
  0
VERTEX
  5
6CC
330
654
100
AcDbEntity
  8
DEFAULT
100
AcDbVertex
100
AcDb2dVertex
 10
6.335061089658082
 20
41.05176303130493
 30
0.0
  0
VERTEX
  5
6CD
330
654
100
AcDbEntity
  8
DEFAULT
100
AcDbVertex
100
AcDb2dVertex
 10
7.913701144325001
 20
41.20310910660444
 30
0.0
  0
VERTEX
  5
6CE
330
654
100
AcDbEntity
  8
DEFAULT
100
AcDbVertex
100
AcDb2dVertex
 10
8.02806050146254
 20
41.21620370715409
 30
0.0
  0
VERTEX
  5
6CF
330
654
100
AcDbEntity
  8
DEFAULT
100
AcDbVertex
100
AcDb2dVertex
 10
8.142147100364852
 20
41.2315008940341
 30
0.0
  0
VERTEX
  5
6D0
330
654
100
AcDbEntity
  8
DEFAULT
100
AcDbVertex
100
AcDb2dVertex
 10
8.255900415008668
 20
41.24909280523538
 30
0.0
  0
VERTEX
  5
6D1
330
654
100
AcDbEntity
  8
DEFAULT
100
AcDbVertex
100
AcDb2dVertex
 10
8.369259919370709
 20
41.26907157874886
 30
0.0
  0
VERTEX
  5
6D2
330
654
100
AcDbEntity
  8
DEFAULT
100
AcDbVertex
100
AcDb2dVertex
 10
8.482157828284752
 20
41.29153840874891
 30
0.0
  0
VERTEX
  5
6D3
330
654
100
AcDbEntity
  8
DEFAULT
100
AcDbVertex
100
AcDb2dVertex
 10
8.594497320012758
 20
41.3166307141435
 30
0.0
  0
VERTEX
  5
6D4
330
654
100
AcDbEntity
  8
DEFAULT
100
AcDbVertex
100
AcDb2dVertex
 10
8.706174313673728
 20
41.34449497002409
 30
0.0
  0
VERTEX
  5
6D5
330
654
100
AcDbEntity
  8
DEFAULT
100
AcDbVertex
100
AcDb2dVertex
 10
8.81708472838667
 20
41.3752776514821
 30
0.0
  0
VERTEX
  5
6D6
330
654
100
AcDbEntity
  8
DEFAULT
100
AcDbVertex
100
AcDb2dVertex
 10
8.927109802146894
 20
41.40913331546604
 30
0.0
  0
VERTEX
  5
6D7
330
654
100
AcDbEntity
  8
DEFAULT
100
AcDbVertex
100
AcDb2dVertex
 10
9.036072048454967
 20
41.44624884635265
 30
0.0
  0
VERTEX
  5
6D8
330
654
100
AcDbEntity
  8
DEFAULT
100
AcDbVertex
100
AcDb2dVertex
 10
9.143779299687758
 20
41.48681921037578
 30
0.0
  0
VERTEX
  5
6D9
330
654
100
AcDbEntity
  8
DEFAULT
100
AcDbVertex
100
AcDb2dVertex
 10
9.197102249768694
 20
41.50846088176161
 30
0.0
  0
VERTEX
  5
6DA
330
654
100
AcDbEntity
  8
DEFAULT
100
AcDbVertex
100
AcDb2dVertex
 10
9.250039388222138
 20
41.53103937376925
 30
0.0
  0
VERTEX
  5
6DB
330
654
100
AcDbEntity
  8
DEFAULT
100
AcDbVertex
100
AcDb2dVertex
 10
9.302564423851853
 20
41.55457827574125
 30
0.0
  0
VERTEX
  5
6DC
330
654
100
AcDbEntity
  8
DEFAULT
100
AcDbVertex
100
AcDb2dVertex
 10
9.354641984488232
 20
41.5790980512734
 30
0.0
  0
VERTEX
  5
6DD
330
654
100
AcDbEntity
  8
DEFAULT
100
AcDbVertex
100
AcDb2dVertex
 10
9.406234427718324
 20
41.60461838252482
 30
0.0
  0
VERTEX
  5
6DE
330
654
100
AcDbEntity
  8
DEFAULT
100
AcDbVertex
100
AcDb2dVertex
 10
9.457304111129176
 20
41.63115895165461
 30
0.0
  0
VERTEX
  5
6DF
330
654
100
AcDbEntity
  8
DEFAULT
100
AcDbVertex
100
AcDb2dVertex
 10
9.507813392307838
 20
41.6587394408219
 30
0.0
  0
VERTEX
  5
6E0
330
654
100
AcDbEntity
  8
DEFAULT
100
AcDbVertex
100
AcDb2dVertex
 10
9.557724628841363
 20
41.68737953218579
 30
0.0
  0
VERTEX
  5
6E1
330
654
100
AcDbEntity
  8
DEFAULT
100
AcDbVertex
100
AcDb2dVertex
 10
9.607000178316795
 20
41.71709890790538
 30
0.0
  0
VERTEX
  5
6E2
330
654
100
AcDbEntity
  8
DEFAULT
100
AcDbVertex
100
AcDb2dVertex
 10
9.655602398321184
 20
41.74791725013981
 30
0.0
  0
VERTEX
  5
6E3
330
654
100
AcDbEntity
  8
DEFAULT
100
AcDbVertex
100
AcDb2dVertex
 10
9.703488190389681
 20
41.77985299670917
 30
0.0
  0
VERTEX
  5
6E4
330
654
100
AcDbEntity
  8
DEFAULT
100
AcDbVertex
100
AcDb2dVertex
 10
9.750600270078387
 20
41.81292474298667
 30
0.0
  0
VERTEX
  5
6E5
330
654
100
AcDbEntity
  8
DEFAULT
100
AcDbVertex
100
AcDb2dVertex
 10
9.79687585900534
 20
41.84714989961689
 30
0.0
  0
VERTEX
  5
6E6
330
654
100
AcDbEntity
  8
DEFAULT
100
AcDbVertex
100
AcDb2dVertex
 10
9.84225217878857
 20
41.88254587724443
 30
0.0
  0
VERTEX
  5
6E7
330
654
100
AcDbEntity
  8
DEFAULT
100
AcDbVertex
100
AcDb2dVertex
 10
9.886666451046118
 20
41.91913008651387
 30
0.0
  0
VERTEX
  5
6E8
330
654
100
AcDbEntity
  8
DEFAULT
100
AcDbVertex
100
AcDb2dVertex
 10
9.930055897396013
 20
41.95691993806979
 30
0.0
  0
VERTEX
  5
6E9
330
654
100
AcDbEntity
  8
DEFAULT
100
AcDbVertex
100
AcDb2dVertex
 10
9.972357739456296
 20
41.99593284255678
 30
0.0
  0
VERTEX
  5
6EA
330
654
100
AcDbEntity
  8
DEFAULT
100
AcDbVertex
100
AcDb2dVertex
 10
10.013509198845
 20
42.03618621061944
 30
0.0
  0
VERTEX
  5
6EB
330
654
100
AcDbEntity
  8
DEFAULT
100
AcDbVertex
100
AcDb2dVertex
 10
10.83271914848752
 20
42.88373487366454
 30
0.0
  0
VERTEX
  5
6EC
330
654
100
AcDbEntity
  8
DEFAULT
100
AcDbVertex
100
AcDb2dVertex
 10
11.7369111867468
 20
43.87223108711491
 30
0.0
  0
VERTEX
  5
6ED
330
654
100
AcDbEntity
  8
DEFAULT
100
AcDbVertex
100
AcDb2dVertex
 10
12.65402889026299
 20
44.94025988335548
 30
0.0
  0
VERTEX
  5
6EE
330
654
100
AcDbEntity
  8
DEFAULT
100
AcDbVertex
100
AcDb2dVertex
 10
13.52498563019
 20
46.01890479049944
 30
0.0
  0
VERTEX
  5
6EF
330
654
100
AcDbEntity
  8
DEFAULT
100
AcDbVertex
100
AcDb2dVertex
 10
13.53319566091861
 20
46.02962552148432
 30
0.0
  0
VERTEX
  5
6F0
330
654
100
AcDbEntity
  8
DEFAULT
100
AcDbVertex
100
AcDb2dVertex
 10
13.54120281973822
 20
46.04048915830515
 30
0.0
  0
VERTEX
  5
6F1
330
654
100
AcDbEntity
  8
DEFAULT
100
AcDbVertex
100
AcDb2dVertex
 10
13.54901049551168
 20
46.05149045165882
 30
0.0
  0
VERTEX
  5
6F2
330
654
100
AcDbEntity
  8
DEFAULT
100
AcDbVertex
100
AcDb2dVertex
 10
13.55662207710181
 20
46.06262415224221
 30
0.0
  0
VERTEX
  5
6F3
330
654
100
AcDbEntity
  8
DEFAULT
100
AcDbVertex
100
AcDb2dVertex
 10
13.57127051318347
 20
46.08526777788566
 30
0.0
  0
VERTEX
  5
6F4
330
654
100
AcDbEntity
  8
DEFAULT
100
AcDbVertex
100
AcDb2dVertex
 10
13.58517523888591
 20
46.10837804081054
 30
0.0
  0
VERTEX
  5
6F5
330
654
100
AcDbEntity
  8
DEFAULT
100
AcDbVertex
100
AcDb2dVertex
 10
13.59836336511182
 20
46.13191294659188
 30
0.0
  0
VERTEX
  5
6F6
330
654
100
AcDbEntity
  8
DEFAULT
100
AcDbVertex
100
AcDb2dVertex
 10
13.6108620027639
 20
46.15583050080475
 30
0.0
  0
VERTEX
  5
6F7
330
654
100
AcDbEntity
  8
DEFAULT
100
AcDbVertex
100
AcDb2dVertex
 10
13.62269826274487
 20
46.18008870902416
 30
0.0
  0
VERTEX
  5
6F8
330
654
100
AcDbEntity
  8
DEFAULT
100
AcDbVertex
100
AcDb2dVertex
 10
13.63389925595741
 20
46.20464557682517
 30
0.0
  0
VERTEX
  5
6F9
330
654
100
AcDbEntity
  8
DEFAULT
100
AcDbVertex
100
AcDb2dVertex
 10
13.6444903420456
 20
46.22946314759199
 30
0.0
  0
VERTEX
  5
6FA
330
654
100
AcDbEntity
  8
DEFAULT
100
AcDbVertex
100
AcDb2dVertex
 10
13.65448987561886
 20
46.25451961594555
 30
0.0
  0
VERTEX
  5
6FB
330
654
100
AcDbEntity
  8
DEFAULT
100
AcDbVertex
100
AcDb2dVertex
 10
13.66391446002799
 20
46.27979721431598
 30
0.0
  0
VERTEX
  5
6FC
330
654
100
AcDbEntity
  8
DEFAULT
100
AcDbVertex
100
AcDb2dVertex
 10
13.67278069862378
 20
46.30527817513337
 30
0.0
  0
VERTEX
  5
6FD
330
654
100
AcDbEntity
  8
DEFAULT
100
AcDbVertex
100
AcDb2dVertex
 10
13.68110519475703
 20
46.33094473082784
 30
0.0
  0
VERTEX
  5
6FE
330
654
100
AcDbEntity
  8
DEFAULT
100
AcDbVertex
100
AcDb2dVertex
 10
13.68890455177851
 20
46.35677911382948
 30
0.0
  0
VERTEX
  5
6FF
330
654
100
AcDbEntity
  8
DEFAULT
100
AcDbVertex
100
AcDb2dVertex
 10
13.69619537303904
 20
46.38276355656843
 30
0.0
  0
VERTEX
  5
700
330
654
100
AcDbEntity
  8
DEFAULT
100
AcDbVertex
100
AcDb2dVertex
 10
13.70299426188939
 20
46.40888029147478
 30
0.0
  0
VERTEX
  5
701
330
654
100
AcDbEntity
  8
DEFAULT
100
AcDbVertex
100
AcDb2dVertex
 10
13.70931648452451
 20
46.43511305319025
 30
0.0
  0
VERTEX
  5
702
330
654
100
AcDbEntity
  8
DEFAULT
100
AcDbVertex
100
AcDb2dVertex
 10
13.71517195851598
 20
46.46145158520292
 30
0.0
  0
VERTEX
  5
703
330
654
100
AcDbEntity
  8
DEFAULT
100
AcDbVertex
100
AcDb2dVertex
 10
13.72551698223087
 20
46.5144109429187
 30
0.0
  0
VERTEX
  5
704
330
654
100
AcDbEntity
  8
DEFAULT
100
AcDbVertex
100
AcDb2dVertex
 10
13.73409797635986
 20
46.56768833021967
 30
0.0
  0
VERTEX
  5
705
330
654
100
AcDbEntity
  8
DEFAULT
100
AcDbVertex
100
AcDb2dVertex
 10
13.74098358422877
 20
46.62121371270342
 30
0.0
  0
VERTEX
  5
706
330
654
100
AcDbEntity
  8
DEFAULT
100
AcDbVertex
100
AcDb2dVertex
 10
13.74623588698947
 20
46.67492099730612
 30
0.0
  0
VERTEX
  5
707
330
654
100
AcDbEntity
  8
DEFAULT
100
AcDbVertex
100
AcDb2dVertex
 10
13.74989071709806
 20
46.72875985631851
 30
0.0
  0
VERTEX
  5
708
330
654
100
AcDbEntity
  8
DEFAULT
100
AcDbVertex
100
AcDb2dVertex
 10
13.75197734483671
 20
46.78268390336994
 30
0.0
  0
VERTEX
  5
709
330
654
100
AcDbEntity
  8
DEFAULT
100
AcDbVertex
100
AcDb2dVertex
 10
13.75252504048759
 20
46.83664675208976
 30
0.0
  0
VERTEX
  5
70A
330
654
100
AcDbEntity
  8
DEFAULT
100
AcDbVertex
100
AcDb2dVertex
 10
13.75155883306522
 20
46.89060286125724
 30
0.0
  0
VERTEX
  5
70B
330
654
100
AcDbEntity
  8
DEFAULT
100
AcDbVertex
100
AcDb2dVertex
 10
13.74908678437252
 20
46.94451016507171
 30
0.0
  0
VERTEX
  5
70C
330
654
100
AcDbEntity
  8
DEFAULT
100
AcDbVertex
100
AcDb2dVertex
 10
13.7451127140605
 20
46.99832744287796
 30
0.0
  0
VERTEX
  5
70D
330
654
100
AcDbEntity
  8
DEFAULT
100
AcDbVertex
100
AcDb2dVertex
 10
13.73964044178018
 20
47.05201347402078
 30
0.0
  0
VERTEX
  5
70E
330
654
100
AcDbEntity
  8
DEFAULT
100
AcDbVertex
100
AcDb2dVertex
 10
12.52686956930711
 20
56.64809235270046
 30
0.0
  0
VERTEX
  5
70F
330
654
100
AcDbEntity
  8
DEFAULT
100
AcDbVertex
100
AcDb2dVertex
 10
12.51767614221724
 20
56.71045989810795
 30
0.0
  0
VERTEX
  5
710
330
654
100
AcDbEntity
  8
DEFAULT
100
AcDbVertex
100
AcDb2dVertex
 10
12.50717096858746
 20
56.77262218561783
 30
0.0
  0
VERTEX
  5
711
330
654
100
AcDbEntity
  8
DEFAULT
100
AcDbVertex
100
AcDb2dVertex
 10
12.49537196103989
 20
56.83455156445172
 30
0.0
  0
VERTEX
  5
712
330
654
100
AcDbEntity
  8
DEFAULT
100
AcDbVertex
100
AcDb2dVertex
 10
12.48229703219666
 20
56.89622038383121
 30
0.0
  0
VERTEX
  5
713
330
654
100
AcDbEntity
  8
DEFAULT
100
AcDbVertex
100
AcDb2dVertex
 10
12.46795585153263
 20
56.9576008755684
 30
0.0
  0
VERTEX
  5
714
330
654
100
AcDbEntity
  8
DEFAULT
100
AcDbVertex
100
AcDb2dVertex
 10
12.45232511593367
 20
57.01866480183749
 30
0.0
  0
VERTEX
  5
715
330
654
100
AcDbEntity
  8
DEFAULT
100
AcDbVertex
100
AcDb2dVertex
 10
12.43537327913834
 20
57.07938380740312
 30
0.0
  0
VERTEX
  5
716
330
654
100
AcDbEntity
  8
DEFAULT
100
AcDbVertex
100
AcDb2dVertex
 10
12.41706879488524
 20
57.13972953702996
 30
0.0
  0
VERTEX
  5
717
330
654
100
AcDbEntity
  8
DEFAULT
100
AcDbVertex
100
AcDb2dVertex
 10
12.39736769840244
 20
57.19965865535843
 30
0.0
  0
VERTEX
  5
718
330
654
100
AcDbEntity
  8
DEFAULT
100
AcDbVertex
100
AcDb2dVertex
 10
12.3761763508759
 20
57.25906790653176
 30
0.0
  0
VERTEX
  5
719
330
654
100
AcDbEntity
  8
DEFAULT
100
AcDbVertex
100
AcDb2dVertex
 10
12.3533886949811
 20
57.31783905456893
 30
0.0
  0
VERTEX
  5
71A
330
654
100
AcDbEntity
  8
DEFAULT
100
AcDbVertex
100
AcDb2dVertex
 10
12.32889867339348
 20
57.37585386348889
 30
0.0
  0
VERTEX
  5
71B
330
654
100
AcDbEntity
  8
DEFAULT
100
AcDbVertex
100
AcDb2dVertex
 10
12.31597602143554
 20
57.40453896923799
 30
0.0
  0
VERTEX
  5
71C
330
654
100
AcDbEntity
  8
DEFAULT
100
AcDbVertex
100
AcDb2dVertex
 10
12.30255133986528
 20
57.43298031492779
 30
0.0
  0
VERTEX
  5
71D
330
654
100
AcDbEntity
  8
DEFAULT
100
AcDbVertex
100
AcDb2dVertex
 10
12.28857470482471
 20
57.46115278427352
 30
0.0
  0
VERTEX
  5
71E
330
654
100
AcDbEntity
  8
DEFAULT
100
AcDbVertex
100
AcDb2dVertex
 10
12.27399619245583
 20
57.48903126099044
 30
0.0
  0
VERTEX
  5
71F
330
654
100
AcDbEntity
  8
DEFAULT
100
AcDbVertex
100
AcDb2dVertex
 10
12.25876587890067
 20
57.51659062879382
 30
0.0
  0
VERTEX
  5
720
330
654
100
AcDbEntity
  8
DEFAULT
100
AcDbVertex
100
AcDb2dVertex
 10
12.24283384030123
 20
57.54380577139889
 30
0.0
  0
VERTEX
  5
721
330
654
100
AcDbEntity
  8
DEFAULT
100
AcDbVertex
100
AcDb2dVertex
 10
12.22615015279953
 20
57.57065157252092
 30
0.0
  0
VERTEX
  5
722
330
654
100
AcDbEntity
  8
DEFAULT
100
AcDbVertex
100
AcDb2dVertex
 10
12.20866489253758
 20
57.59710291587514
 30
0.0
  0
VERTEX
  5
723
330
654
100
AcDbEntity
  8
DEFAULT
100
AcDbVertex
100
AcDb2dVertex
 10
12.19960342731939
 20
57.61016546545336
 30
0.0
  0
VERTEX
  5
724
330
654
100
AcDbEntity
  8
DEFAULT
100
AcDbVertex
100
AcDb2dVertex
 10
12.19030698288536
 20
57.62307587240094
 30
0.0
  0
VERTEX
  5
725
330
654
100
AcDbEntity
  8
DEFAULT
100
AcDbVertex
100
AcDb2dVertex
 10
12.18075345417424
 20
57.63578688760038
 30
0.0
  0
VERTEX
  5
726
330
654
100
AcDbEntity
  8
DEFAULT
100
AcDbVertex
100
AcDb2dVertex
 10
12.17092073612474
 20
57.64825126193418
 30
0.0
  0
VERTEX
  5
727
330
654
100
AcDbEntity
  8
DEFAULT
100
AcDbVertex
100
AcDb2dVertex
 10
12.1607867236756
 20
57.66042174628484
 30
0.0
  0
VERTEX
  5
728
330
654
100
AcDbEntity
  8
DEFAULT
100
AcDbVertex
100
AcDb2dVertex
 10
12.15032931176554
 20
57.67225109153486
 30
0.0
  0
VERTEX
  5
729
330
654
100
AcDbEntity
  8
DEFAULT
100
AcDbVertex
100
AcDb2dVertex
 10
12.1395263953333
 20
57.68369204856673
 30
0.0
  0
VERTEX
  5
72A
330
654
100
AcDbEntity
  8
DEFAULT
100
AcDbVertex
100
AcDb2dVertex
 10
12.13398846508971
 20
57.68925211615165
 30
0.0
  0
VERTEX
  5
72B
330
654
100
AcDbEntity
  8
DEFAULT
100
AcDbVertex
100
AcDb2dVertex
 10
12.1283558693176
 20
57.69469736826296
 30
0.0
  0
VERTEX
  5
72C
330
654
100
AcDbEntity
  8
DEFAULT
100
AcDbVertex
100
AcDb2dVertex
 10
12.1226258448843
 20
57.70002189876099
 30
0.0
  0
VERTEX
  5
72D
330
654
100
AcDbEntity
  8
DEFAULT
100
AcDbVertex
100
AcDb2dVertex
 10
12.11679562865717
 20
57.70521980150605
 30
0.0
  0
VERTEX
  5
72E
330
654
100
AcDbEntity
  8
DEFAULT
100
AcDbVertex
100
AcDb2dVertex
 10
12.11086245750354
 20
57.71028517035843
 30
0.0
  0
VERTEX
  5
72F
330
654
100
AcDbEntity
  8
DEFAULT
100
AcDbVertex
100
AcDb2dVertex
 10
12.10482356829074
 20
57.71521209917848
 30
0.0
  0
VERTEX
  5
730
330
654
100
AcDbEntity
  8
DEFAULT
100
AcDbVertex
100
AcDb2dVertex
 10
12.09867619788613
 20
57.71999468182649
 30
0.0
  0
VERTEX
  5
731
330
654
100
AcDbEntity
  8
DEFAULT
100
AcDbVertex
100
AcDb2dVertex
 10
12.09241758315704
 20
57.72462701216277
 30
0.0
  0
VERTEX
  5
732
330
654
100
AcDbEntity
  8
DEFAULT
100
AcDbVertex
100
AcDb2dVertex
 10
12.08604496097082
 20
57.72910318404764
 30
0.0
  0
VERTEX
  5
733
330
654
100
AcDbEntity
  8
DEFAULT
100
AcDbVertex
100
AcDb2dVertex
 10
12.0795555681948
 20
57.73341729134141
 30
0.0
  0
VERTEX
  5
734
330
654
100
AcDbEntity
  8
DEFAULT
100
AcDbVertex
100
AcDb2dVertex
 10
12.07294664169633
 20
57.73756342790439
 30
0.0
  0
VERTEX
  5
735
330
654
100
AcDbEntity
  8
DEFAULT
100
AcDbVertex
100
AcDb2dVertex
 10
12.06621541834275
 20
57.74153568759689
 30
0.0
  0
VERTEX
  5
736
330
654
100
AcDbEntity
  8
DEFAULT
100
AcDbVertex
100
AcDb2dVertex
 10
12.05935913500139
 20
57.74532816427924
 30
0.0
  0
VERTEX
  5
737
330
654
100
AcDbEntity
  8
DEFAULT
100
AcDbVertex
100
AcDb2dVertex
 10
12.05237502853961
 20
57.74893495181173
 30
0.0
  0
VERTEX
  5
738
330
654
100
AcDbEntity
  8
DEFAULT
100
AcDbVertex
100
AcDb2dVertex
 10
12.04526033582474
 20
57.75235014405469
 30
0.0
  0
VERTEX
  5
739
330
654
100
AcDbEntity
  8
DEFAULT
100
AcDbVertex
100
AcDb2dVertex
 10
12.03801229372412
 20
57.75556783486842
 30
0.0
  0
VERTEX
  5
73A
330
654
100
AcDbEntity
  8
DEFAULT
100
AcDbVertex
100
AcDb2dVertex
 10
12.03062813910509
 20
57.75858211811323
 30
0.0
  0
VERTEX
  5
73B
330
654
100
AcDbEntity
  8
DEFAULT
100
AcDbVertex
100
AcDb2dVertex
 10
12.023105108835
 20
57.76138708764944
 30
0.0
  0
VERTEX
  5
73C
330
654
100
AcDbEntity
  8
DEFAULT
100
AcDbVertex
100
AcDb2dVertex
 10
10.7474554577548
 20
58.14625925492952
 30
0.0
  0
VERTEX
  5
73D
330
654
100
AcDbEntity
  8
DEFAULT
100
AcDbVertex
100
AcDb2dVertex
 10
9.471805822610246
 20
58.53113158066298
 30
0.0
  0
VERTEX
  5
73E
330
654
100
AcDbEntity
  8
DEFAULT
100
AcDbVertex
100
AcDb2dVertex
 10
9.150648226018866
 20
58.61939055573154
 30
0.0
  0
VERTEX
  5
73F
330
654
100
AcDbEntity
  8
DEFAULT
100
AcDbVertex
100
AcDb2dVertex
 10
8.828031555651787
 20
58.70195231690592
 30
0.0
  0
VERTEX
  5
740
330
654
100
AcDbEntity
  8
DEFAULT
100
AcDbVertex
100
AcDb2dVertex
 10
8.503869531519571
 20
58.77792621677256
 30
0.0
  0
VERTEX
  5
741
330
654
100
AcDbEntity
  8
DEFAULT
100
AcDbVertex
100
AcDb2dVertex
 10
8.178075873632778
 20
58.84642160791793
 30
0.0
  0
VERTEX
  5
742
330
654
100
AcDbEntity
  8
DEFAULT
100
AcDbVertex
100
AcDb2dVertex
 10
7.850647185356625
 20
58.9069806351597
 30
0.0
  0
VERTEX
  5
743
330
654
100
AcDbEntity
  8
DEFAULT
100
AcDbVertex
100
AcDb2dVertex
 10
7.521911603474946
 20
58.96087661224036
 30
0.0
  0
VERTEX
  5
744
330
654
100
AcDbEntity
  8
DEFAULT
100
AcDbVertex
100
AcDb2dVertex
 10
6.201361480579649
 20
59.14040048615284
 30
0.0
  0
VERTEX
  5
745
330
654
100
AcDbEntity
  8
DEFAULT
100
AcDbVertex
100
AcDb2dVertex
 10
5.538996377559223
 20
59.2114571376836
 30
0.0
  0
VERTEX
  5
746
330
654
100
AcDbEntity
  8
DEFAULT
100
AcDbVertex
100
AcDb2dVertex
 10
4.158390624468718
 20
59.32710000102199
 30
0.0
  0
VERTEX
  5
747
330
654
100
AcDbEntity
  8
DEFAULT
100
AcDbVertex
100
AcDb2dVertex
 10
2.774236381014205
 20
59.40984609285209
 30
0.0
  0
VERTEX
  5
748
330
654
100
AcDbEntity
  8
DEFAULT
100
AcDbVertex
100
AcDb2dVertex
 10
1.387710775867224
 20
59.45955419705547
 30
0.0
  0
VERTEX
  5
749
330
654
100
AcDbEntity
  8
DEFAULT
100
AcDbVertex
100
AcDb2dVertex
 10
-0.0000023152255843
 20
59.47613933879571
 30
0.0
  0
VERTEX
  5
74A
330
654
100
AcDbEntity
  8
DEFAULT
100
AcDbVertex
100
AcDb2dVertex
 10
-1.387715632671329
 20
59.45957314730129
 30
0.0
  0
VERTEX
  5
74B
330
654
100
AcDbEntity
  8
DEFAULT
100
AcDbVertex
100
AcDb2dVertex
 10
-2.774241916489803
 20
59.40988397713082
 30
0.0
  0
VERTEX
  5
74C
330
654
100
AcDbEntity
  8
DEFAULT
100
AcDbVertex
100
AcDb2dVertex
 10
-4.158397289774084
 20
59.32715678695402
 30
0.0
  0
VERTEX
  5
74D
330
654
100
AcDbEntity
  8
DEFAULT
100
AcDbVertex
100
AcDb2dVertex
 10
-5.539004621924331
 20
59.21153277681474
 30
0.0
  0
VERTEX
  5
74E
330
654
100
AcDbEntity
  8
DEFAULT
100
AcDbVertex
100
AcDb2dVertex
 10
-6.201362592372708
 20
59.14040993057303
 30
0.0
  0
VERTEX
  5
74F
330
654
100
AcDbEntity
  8
DEFAULT
100
AcDbVertex
100
AcDb2dVertex
 10
-7.521911603474944
 20
58.96087661224036
 30
0.0
  0
VERTEX
  5
750
330
654
100
AcDbEntity
  8
DEFAULT
100
AcDbVertex
100
AcDb2dVertex
 10
-7.850647185356621
 20
58.9069806351597
 30
0.0
  0
VERTEX
  5
751
330
654
100
AcDbEntity
  8
DEFAULT
100
AcDbVertex
100
AcDb2dVertex
 10
-8.178075873632775
 20
58.84642160791793
 30
0.0
  0
VERTEX
  5
752
330
654
100
AcDbEntity
  8
DEFAULT
100
AcDbVertex
100
AcDb2dVertex
 10
-8.503869531519568
 20
58.77792621677256
 30
0.0
  0
VERTEX
  5
753
330
654
100
AcDbEntity
  8
DEFAULT
100
AcDbVertex
100
AcDb2dVertex
 10
-8.828031555651783
 20
58.70195231690592
 30
0.0
  0
VERTEX
  5
754
330
654
100
AcDbEntity
  8
DEFAULT
100
AcDbVertex
100
AcDb2dVertex
 10
-9.150648226018863
 20
58.61939055573156
 30
0.0
  0
VERTEX
  5
755
330
654
100
AcDbEntity
  8
DEFAULT
100
AcDbVertex
100
AcDb2dVertex
 10
-9.471805822610245
 20
58.53113158066299
 30
0.0
  0
VERTEX
  5
756
330
654
100
AcDbEntity
  8
DEFAULT
100
AcDbVertex
100
AcDb2dVertex
 10
-12.023105108835
 20
57.76138708764944
 30
0.0
  0
SEQEND
  5
757
330
654
100
AcDbEntity
  8
DEFAULT
  0
POLYLINE
  5
758
330
1F
100
AcDbEntity
  8
DEFAULT
100
AcDb2dPolyline
 66
     1
 10
0.0
 20
0.0
 30
0.0
  0
VERTEX
  5
759
330
758
100
AcDbEntity
  8
DEFAULT
100
AcDbVertex
100
AcDb2dVertex
 10
7.11886992622
 20
59.01648348784445
 30
0.0
  0
VERTEX
  5
75A
330
758
100
AcDbEntity
  8
DEFAULT
100
AcDbVertex
100
AcDb2dVertex
 10
7.490189262579373
 20
58.95217312605519
 30
0.0
  0
VERTEX
  5
75B
330
758
100
AcDbEntity
  8
DEFAULT
100
AcDbVertex
100
AcDb2dVertex
 10
7.675105809128652
 20
58.91594674908379
 30
0.0
  0
VERTEX
  5
75C
330
758
100
AcDbEntity
  8
DEFAULT
100
AcDbVertex
100
AcDb2dVertex
 10
7.859257754341818
 20
58.87624090834501
 30
0.0
  0
VERTEX
  5
75D
330
758
100
AcDbEntity
  8
DEFAULT
100
AcDbVertex
100
AcDb2dVertex
 10
8.042505595391932
 20
58.83270707597215
 30
0.0
  0
VERTEX
  5
75E
330
758
100
AcDbEntity
  8
DEFAULT
100
AcDbVertex
100
AcDb2dVertex
 10
8.588174509132037
 20
58.68557311488174
 30
0.0
  0
VERTEX
  5
75F
330
758
100
AcDbEntity
  8
DEFAULT
100
AcDbVertex
100
AcDb2dVertex
 10
10.758936786565
 20
58.05315706509944
 30
0.0
  0
VERTEX
  5
760
330
758
100
AcDbEntity
  8
DEFAULT
100
AcDbVertex
100
AcDb2dVertex
 10
10.76652864514898
 20
58.0504519143337
 30
0.0
  0
VERTEX
  5
761
330
758
100
AcDbEntity
  8
DEFAULT
100
AcDbVertex
100
AcDb2dVertex
 10
10.77398759662299
 20
58.0475375821858
 30
0.0
  0
VERTEX
  5
762
330
758
100
AcDbEntity
  8
DEFAULT
100
AcDbVertex
100
AcDb2dVertex
 10
10.78131617054952
 20
58.04441988813043
 30
0.0
  0
VERTEX
  5
763
330
758
100
AcDbEntity
  8
DEFAULT
100
AcDbVertex
100
AcDb2dVertex
 10
10.78851689649106
 20
58.04110465164229
 30
0.0
  0
VERTEX
  5
764
330
758
100
AcDbEntity
  8
DEFAULT
100
AcDbVertex
100
AcDb2dVertex
 10
10.79559230401009
 20
58.03759769219605
 30
0.0
  0
VERTEX
  5
765
330
758
100
AcDbEntity
  8
DEFAULT
100
AcDbVertex
100
AcDb2dVertex
 10
10.80254492266909
 20
58.0339048292664
 30
0.0
  0
VERTEX
  5
766
330
758
100
AcDbEntity
  8
DEFAULT
100
AcDbVertex
100
AcDb2dVertex
 10
10.80937728203056
 20
58.03003188232803
 30
0.0
  0
VERTEX
  5
767
330
758
100
AcDbEntity
  8
DEFAULT
100
AcDbVertex
100
AcDb2dVertex
 10
10.81609191165698
 20
58.02598467085562
 30
0.0
  0
VERTEX
  5
768
330
758
100
AcDbEntity
  8
DEFAULT
100
AcDbVertex
100
AcDb2dVertex
 10
10.82269134111083
 20
58.02176901432387
 30
0.0
  0
VERTEX
  5
769
330
758
100
AcDbEntity
  8
DEFAULT
100
AcDbVertex
100
AcDb2dVertex
 10
10.82917809995461
 20
58.01739073220746
 30
0.0
  0
VERTEX
  5
76A
330
758
100
AcDbEntity
  8
DEFAULT
100
AcDbVertex
100
AcDb2dVertex
 10
10.8355547177508
 20
58.01285564398108
 30
0.0
  0
VERTEX
  5
76B
330
758
100
AcDbEntity
  8
DEFAULT
100
AcDbVertex
100
AcDb2dVertex
 10
10.84182372406188
 20
58.00816956911942
 30
0.0
  0
VERTEX
  5
76C
330
758
100
AcDbEntity
  8
DEFAULT
100
AcDbVertex
100
AcDb2dVertex
 10
10.84798764845034
 20
58.00333832709715
 30
0.0
  0
VERTEX
  5
76D
330
758
100
AcDbEntity
  8
DEFAULT
100
AcDbVertex
100
AcDb2dVertex
 10
10.85404902047867
 20
57.99836773738897
 30
0.0
  0
VERTEX
  5
76E
330
758
100
AcDbEntity
  8
DEFAULT
100
AcDbVertex
100
AcDb2dVertex
 10
10.86001036970935
 20
57.99326361946957
 30
0.0
  0
VERTEX
  5
76F
330
758
100
AcDbEntity
  8
DEFAULT
100
AcDbVertex
100
AcDb2dVertex
 10
10.86587422570488
 20
57.98803179281364
 30
0.0
  0
VERTEX
  5
770
330
758
100
AcDbEntity
  8
DEFAULT
100
AcDbVertex
100
AcDb2dVertex
 10
10.87164311802773
 20
57.98267807689585
 30
0.0
  0
VERTEX
  5
771
330
758
100
AcDbEntity
  8
DEFAULT
100
AcDbVertex
100
AcDb2dVertex
 10
10.8773195762404
 20
57.97720829119091
 30
0.0
  0
VERTEX
  5
772
330
758
100
AcDbEntity
  8
DEFAULT
100
AcDbVertex
100
AcDb2dVertex
 10
10.88840530858511
 20
57.96594378831827
 30
0.0
  0
VERTEX
  5
773
330
758
100
AcDbEntity
  8
DEFAULT
100
AcDbVertex
100
AcDb2dVertex
 10
10.8991516592389
 20
57.95428483999324
 30
0.0
  0
VERTEX
  5
774
330
758
100
AcDbEntity
  8
DEFAULT
100
AcDbVertex
100
AcDb2dVertex
 10
10.90957886470168
 20
57.94227800201331
 30
0.0
  0
VERTEX
  5
775
330
758
100
AcDbEntity
  8
DEFAULT
100
AcDbVertex
100
AcDb2dVertex
 10
10.91970716147331
 20
57.92996983017596
 30
0.0
  0
VERTEX
  5
776
330
758
100
AcDbEntity
  8
DEFAULT
100
AcDbVertex
100
AcDb2dVertex
 10
10.9295567860537
 20
57.91740688027871
 30
0.0
  0
VERTEX
  5
777
330
758
100
AcDbEntity
  8
DEFAULT
100
AcDbVertex
100
AcDb2dVertex
 10
10.93914797494274
 20
57.90463570811905
 30
0.0
  0
VERTEX
  5
778
330
758
100
AcDbEntity
  8
DEFAULT
100
AcDbVertex
100
AcDb2dVertex
 10
10.94850096464031
 20
57.89170286949447
 30
0.0
  0
VERTEX
  5
779
330
758
100
AcDbEntity
  8
DEFAULT
100
AcDbVertex
100
AcDb2dVertex
 10
10.96655479616304
 20
57.86548112962075
 30
0.0
  0
VERTEX
  5
77A
330
758
100
AcDbEntity
  8
DEFAULT
100
AcDbVertex
100
AcDb2dVertex
 10
10.98378759287765
 20
57.83882781932022
 30
0.0
  0
VERTEX
  5
77B
330
758
100
AcDbEntity
  8
DEFAULT
100
AcDbVertex
100
AcDb2dVertex
 10
11.00025017233759
 20
57.81177181167823
 30
0.0
  0
VERTEX
  5
77C
330
758
100
AcDbEntity
  8
DEFAULT
100
AcDbVertex
100
AcDb2dVertex
 10
11.01599335209627
 20
57.78434197978011
 30
0.0
  0
VERTEX
  5
77D
330
758
100
AcDbEntity
  8
DEFAULT
100
AcDbVertex
100
AcDb2dVertex
 10
11.03106794970711
 20
57.7565671967112
 30
0.0
  0
VERTEX
  5
77E
330
758
100
AcDbEntity
  8
DEFAULT
100
AcDbVertex
100
AcDb2dVertex
 10
11.04552478272354
 20
57.72847633555683
 30
0.0
  0
VERTEX
  5
77F
330
758
100
AcDbEntity
  8
DEFAULT
100
AcDbVertex
100
AcDb2dVertex
 10
11.05941466869899
 20
57.70009826940235
 30
0.0
  0
VERTEX
  5
780
330
758
100
AcDbEntity
  8
DEFAULT
100
AcDbVertex
100
AcDb2dVertex
 10
11.07278842518688
 20
57.67146187133309
 30
0.0
  0
VERTEX
  5
781
330
758
100
AcDbEntity
  8
DEFAULT
100
AcDbVertex
100
AcDb2dVertex
 10
11.0981409167563
 20
57.61351121200079
 30
0.0
  0
VERTEX
  5
782
330
758
100
AcDbEntity
  8
DEFAULT
100
AcDbVertex
100
AcDb2dVertex
 10
11.12173928207239
 20
57.55476354328852
 30
0.0
  0
VERTEX
  5
783
330
758
100
AcDbEntity
  8
DEFAULT
100
AcDbVertex
100
AcDb2dVertex
 10
11.14369064261839
 20
57.49533969113408
 30
0.0
  0
VERTEX
  5
784
330
758
100
AcDbEntity
  8
DEFAULT
100
AcDbVertex
100
AcDb2dVertex
 10
11.16410211987751
 20
57.43536048147524
 30
0.0
  0
VERTEX
  5
785
330
758
100
AcDbEntity
  8
DEFAULT
100
AcDbVertex
100
AcDb2dVertex
 10
11.18306862862471
 20
57.37493196173436
 30
0.0
  0
VERTEX
  5
786
330
758
100
AcDbEntity
  8
DEFAULT
100
AcDbVertex
100
AcDb2dVertex
 10
11.2006362568018
 20
57.31410106527204
 30
0.0
  0
VERTEX
  5
787
330
758
100
AcDbEntity
  8
DEFAULT
100
AcDbVertex
100
AcDb2dVertex
 10
11.21683888564234
 20
57.25289994693343
 30
0.0
  0
VERTEX
  5
788
330
758
100
AcDbEntity
  8
DEFAULT
100
AcDbVertex
100
AcDb2dVertex
 10
11.23171039637985
 20
57.19136076156368
 30
0.0
  0
VERTEX
  5
789
330
758
100
AcDbEntity
  8
DEFAULT
100
AcDbVertex
100
AcDb2dVertex
 10
11.24527618250903
 20
57.12951524156669
 30
0.0
  0
VERTEX
  5
78A
330
758
100
AcDbEntity
  8
DEFAULT
100
AcDbVertex
100
AcDb2dVertex
 10
11.25752783444895
 20
57.06739274401469
 30
0.0
  0
VERTEX
  5
78B
330
758
100
AcDbEntity
  8
DEFAULT
100
AcDbVertex
100
AcDb2dVertex
 10
11.26844845009081
 20
57.00502220240929
 30
0.0
  0
VERTEX
  5
78C
330
758
100
AcDbEntity
  8
DEFAULT
100
AcDbVertex
100
AcDb2dVertex
 10
11.27802112732581
 20
56.94243255025211
 30
0.0
  0
VERTEX
  5
78D
330
758
100
AcDbEntity
  8
DEFAULT
100
AcDbVertex
100
AcDb2dVertex
 10
12.6388248796876
 20
46.65518331117809
 30
0.0
  0
VERTEX
  5
78E
330
758
100
AcDbEntity
  8
DEFAULT
100
AcDbVertex
100
AcDb2dVertex
 10
12.6446355462296
 20
46.60131766681889
 30
0.0
  0
VERTEX
  5
78F
330
758
100
AcDbEntity
  8
DEFAULT
100
AcDbVertex
100
AcDb2dVertex
 10
12.64887983364568
 20
46.54730648144591
 30
0.0
  0
VERTEX
  5
790
330
758
100
AcDbEntity
  8
DEFAULT
100
AcDbVertex
100
AcDb2dVertex
 10
12.6515553080752
 20
46.49319469173321
 30
0.0
  0
VERTEX
  5
791
330
758
100
AcDbEntity
  8
DEFAULT
100
AcDbVertex
100
AcDb2dVertex
 10
12.65265953565753
 20
46.43902723435478
 30
0.0
  0
VERTEX
  5
792
330
758
100
AcDbEntity
  8
DEFAULT
100
AcDbVertex
100
AcDb2dVertex
 10
12.65218606758818
 20
46.38484981526281
 30
0.0
  0
VERTEX
  5
793
330
758
100
AcDbEntity
  8
DEFAULT
100
AcDbVertex
100
AcDb2dVertex
 10
12.65011239528723
 20
46.33071121752199
 30
0.0
  0
VERTEX
  5
794
330
758
100
AcDbEntity
  8
DEFAULT
100
AcDbVertex
100
AcDb2dVertex
 10
12.6464119952309
 20
46.27666099347518
 30
0.0
  0
VERTEX
  5
795
330
758
100
AcDbEntity
  8
DEFAULT
100
AcDbVertex
100
AcDb2dVertex
 10
12.64105834389541
 20
46.22274869546517
 30
0.0
  0
VERTEX
  5
796
330
758
100
AcDbEntity
  8
DEFAULT
100
AcDbVertex
100
AcDb2dVertex
 10
12.63401883069262
 20
46.16902764531883
 30
0.0
  0
VERTEX
  5
797
330
758
100
AcDbEntity
  8
DEFAULT
100
AcDbVertex
100
AcDb2dVertex
 10
12.62523649677695
 20
46.11556624279906
 30
0.0
  0
VERTEX
  5
798
330
758
100
AcDbEntity
  8
DEFAULT
100
AcDbVertex
100
AcDb2dVertex
 10
12.61464829623848
 20
46.06243665715277
 30
0.0
  0
VERTEX
  5
799
330
758
100
AcDbEntity
  8
DEFAULT
100
AcDbVertex
100
AcDb2dVertex
 10
12.60865729413883
 20
46.03601884854685
 30
0.0
  0
VERTEX
  5
79A
330
758
100
AcDbEntity
  8
DEFAULT
100
AcDbVertex
100
AcDb2dVertex
 10
12.60219118316725
 20
46.00971105762689
 30
0.0
  0
VERTEX
  5
79B
330
758
100
AcDbEntity
  8
DEFAULT
100
AcDbVertex
100
AcDb2dVertex
 10
12.59524089527936
 20
45.98352371467168
 30
0.0
  0
VERTEX
  5
79C
330
758
100
AcDbEntity
  8
DEFAULT
100
AcDbVertex
100
AcDb2dVertex
 10
12.58779261320824
 20
45.9574728864516
 30
0.0
  0
VERTEX
  5
79D
330
758
100
AcDbEntity
  8
DEFAULT
100
AcDbVertex
100
AcDb2dVertex
 10
12.5798313323813
 20
45.93157604886
 30
0.0
  0
VERTEX
  5
79E
330
758
100
AcDbEntity
  8
DEFAULT
100
AcDbVertex
100
AcDb2dVertex
 10
12.571342048226
 20
45.90585067779021
 30
0.0
  0
VERTEX
  5
79F
330
758
100
AcDbEntity
  8
DEFAULT
100
AcDbVertex
100
AcDb2dVertex
 10
12.56230975616976
 20
45.88031424913554
 30
0.0
  0
VERTEX
  5
7A0
330
758
100
AcDbEntity
  8
DEFAULT
100
AcDbVertex
100
AcDb2dVertex
 10
12.55271945164001
 20
45.85498423878933
 30
0.0
  0
VERTEX
  5
7A1
330
758
100
AcDbEntity
  8
DEFAULT
100
AcDbVertex
100
AcDb2dVertex
 10
12.5425561300642
 20
45.82987812264489
 30
0.0
  0
VERTEX
  5
7A2
330
758
100
AcDbEntity
  8
DEFAULT
100
AcDbVertex
100
AcDb2dVertex
 10
12.53180478686974
 20
45.80501337659555
 30
0.0
  0
VERTEX
  5
7A3
330
758
100
AcDbEntity
  8
DEFAULT
100
AcDbVertex
100
AcDb2dVertex
 10
12.5204489651484
 20
45.78041099221063
 30
0.0
  0
VERTEX
  5
7A4
330
758
100
AcDbEntity
  8
DEFAULT
100
AcDbVertex
100
AcDb2dVertex
 10
12.50846639864928
 20
45.75610602376342
 30
0.0
  0
VERTEX
  5
7A5
330
758
100
AcDbEntity
  8
DEFAULT
100
AcDbVertex
100
AcDb2dVertex
 10
12.49583336878577
 20
45.73213704120323
 30
0.0
  0
VERTEX
  5
7A6
330
758
100
AcDbEntity
  8
DEFAULT
100
AcDbVertex
100
AcDb2dVertex
 10
12.48252615697129
 20
45.70854261447934
 30
0.0
  0
VERTEX
  5
7A7
330
758
100
AcDbEntity
  8
DEFAULT
100
AcDbVertex
100
AcDb2dVertex
 10
12.46852104461924
 20
45.68536131354106
 30
0.0
  0
VERTEX
  5
7A8
330
758
100
AcDbEntity
  8
DEFAULT
100
AcDbVertex
100
AcDb2dVertex
 10
12.45379431314305
 20
45.66263170833766
 30
0.0
  0
VERTEX
  5
7A9
330
758
100
AcDbEntity
  8
DEFAULT
100
AcDbVertex
100
AcDb2dVertex
 10
12.43832224395613
 20
45.64039236881847
 30
0.0
  0
VERTEX
  5
7AA
330
758
100
AcDbEntity
  8
DEFAULT
100
AcDbVertex
100
AcDb2dVertex
 10
12.43029929566283
 20
45.62946860179959
 30
0.0
  0
VERTEX
  5
7AB
330
758
100
AcDbEntity
  8
DEFAULT
100
AcDbVertex
100
AcDb2dVertex
 10
12.42208111847187
 20
45.61868186493275
 30
0.0
  0
VERTEX
  5
7AC
330
758
100
AcDbEntity
  8
DEFAULT
100
AcDbVertex
100
AcDb2dVertex
 10
11.67563185166087
 20
44.68279595773463
 30
0.0
  0
VERTEX
  5
7AD
330
758
100
AcDbEntity
  8
DEFAULT
100
AcDbVertex
100
AcDb2dVertex
 10
10.90774104671285
 20
43.76401151589523
 30
0.0
  0
VERTEX
  5
7AE
330
758
100
AcDbEntity
  8
DEFAULT
100
AcDbVertex
100
AcDb2dVertex
 10
10.11900476880592
 20
42.86305856329261
 30
0.0
  0
VERTEX
  5
7AF
330
758
100
AcDbEntity
  8
DEFAULT
100
AcDbVertex
100
AcDb2dVertex
 10
9.310051890469552
 20
41.98063905996889
 30
0.0
  0
VERTEX
  5
7B0
330
758
100
AcDbEntity
  8
DEFAULT
100
AcDbVertex
100
AcDb2dVertex
 10
9.28237673746696
 20
41.95175701563579
 30
0.0
  0
VERTEX
  5
7B1
330
758
100
AcDbEntity
  8
DEFAULT
100
AcDbVertex
100
AcDb2dVertex
 10
9.254161209977095
 20
41.92339768710923
 30
0.0
  0
VERTEX
  5
7B2
330
758
100
AcDbEntity
  8
DEFAULT
100
AcDbVertex
100
AcDb2dVertex
 10
9.225410904900553
 20
41.89557856775343
 30
0.0
  0
VERTEX
  5
7B3
330
758
100
AcDbEntity
  8
DEFAULT
100
AcDbVertex
100
AcDb2dVertex
 10
9.196131419137927
 20
41.8683171509326
 30
0.0
  0
VERTEX
  5
7B4
330
758
100
AcDbEntity
  8
DEFAULT
100
AcDbVertex
100
AcDb2dVertex
 10
9.166328349589811
 20
41.84163093001097
 30
0.0
  0
VERTEX
  5
7B5
330
758
100
AcDbEntity
  8
DEFAULT
100
AcDbVertex
100
AcDb2dVertex
 10
9.1360072931568
 20
41.81553739835276
 30
0.0
  0
VERTEX
  5
7B6
330
758
100
AcDbEntity
  8
DEFAULT
100
AcDbVertex
100
AcDb2dVertex
 10
9.10517384673949
 20
41.79005404932218
 30
0.0
  0
VERTEX
  5
7B7
330
758
100
AcDbEntity
  8
DEFAULT
100
AcDbVertex
100
AcDb2dVertex
 10
9.073833607238472
 20
41.76519837628345
 30
0.0
  0
VERTEX
  5
7B8
330
758
100
AcDbEntity
  8
DEFAULT
100
AcDbVertex
100
AcDb2dVertex
 10
9.04198574672045
 20
41.74097969305713
 30
0.0
  0
VERTEX
  5
7B9
330
758
100
AcDbEntity
  8
DEFAULT
100
AcDbVertex
100
AcDb2dVertex
 10
9.009652686867037
 20
41.71741155442739
 30
0.0
  0
VERTEX
  5
7BA
330
758
100
AcDbEntity
  8
DEFAULT
100
AcDbVertex
100
AcDb2dVertex
 10
8.976850680703834
 20
41.69449900586747
 30
0.0
  0
VERTEX
  5
7BB
330
758
100
AcDbEntity
  8
DEFAULT
100
AcDbVertex
100
AcDb2dVertex
 10
8.943595981256436
 20
41.67224709285057
 30
0.0
  0
VERTEX
  5
7BC
330
758
100
AcDbEntity
  8
DEFAULT
100
AcDbVertex
100
AcDb2dVertex
 10
8.909904841550443
 20
41.65066086084991
 30
0.0
  0
VERTEX
  5
7BD
330
758
100
AcDbEntity
  8
DEFAULT
100
AcDbVertex
100
AcDb2dVertex
 10
8.875793514611454
 20
41.62974535533871
 30
0.0
  0
VERTEX
  5
7BE
330
758
100
AcDbEntity
  8
DEFAULT
100
AcDbVertex
100
AcDb2dVertex
 10
8.841278253465067
 20
41.60950562179018
 30
0.0
  0
VERTEX
  5
7BF
330
758
100
AcDbEntity
  8
DEFAULT
100
AcDbVertex
100
AcDb2dVertex
 10
8.80637531113688
 20
41.58994670567753
 30
0.0
  0
VERTEX
  5
7C0
330
758
100
AcDbEntity
  8
DEFAULT
100
AcDbVertex
100
AcDb2dVertex
 10
8.771101515910209
 20
41.57107066823694
 30
0.0
  0
VERTEX
  5
7C1
330
758
100
AcDbEntity
  8
DEFAULT
100
AcDbVertex
100
AcDb2dVertex
 10
8.735475997099224
 20
41.55286763375642
 30
0.0
  0
VERTEX
  5
7C2
330
758
100
AcDbEntity
  8
DEFAULT
100
AcDbVertex
100
AcDb2dVertex
 10
8.699518459275815
 20
41.53532474228694
 30
0.0
  0
VERTEX
  5
7C3
330
758
100
AcDbEntity
  8
DEFAULT
100
AcDbVertex
100
AcDb2dVertex
 10
8.663248607011868
 20
41.51842913387947
 30
0.0
  0
VERTEX
  5
7C4
330
758
100
AcDbEntity
  8
DEFAULT
100
AcDbVertex
100
AcDb2dVertex
 10
8.589850777449914
 20
41.48652832645445
 30
0.0
  0
VERTEX
  5
7C5
330
758
100
AcDbEntity
  8
DEFAULT
100
AcDbVertex
100
AcDb2dVertex
 10
8.51544014498847
 20
41.4570623318891
 30
0.0
  0
VERTEX
  5
7C6
330
758
100
AcDbEntity
  8
DEFAULT
100
AcDbVertex
100
AcDb2dVertex
 10
8.440165952201937
 20
41.42991837753922
 30
0.0
  0
VERTEX
  5
7C7
330
758
100
AcDbEntity
  8
DEFAULT
100
AcDbVertex
100
AcDb2dVertex
 10
8.36414386566194
 20
41.40494411855268
 30
0.0
  0
VERTEX
  5
7C8
330
758
100
AcDbEntity
  8
DEFAULT
100
AcDbVertex
100
AcDb2dVertex
 10
8.287481157939403
 20
41.3819773170254
 30
0.0
  0
VERTEX
  5
7C9
330
758
100
AcDbEntity
  8
DEFAULT
100
AcDbVertex
100
AcDb2dVertex
 10
8.210285101605256
 20
41.36085573505329
 30
0.0
  0
VERTEX
  5
7CA
330
758
100
AcDbEntity
  8
DEFAULT
100
AcDbVertex
100
AcDb2dVertex
 10
8.132654123024313
 20
41.34142365620428
 30
0.0
  0
VERTEX
  5
7CB
330
758
100
AcDbEntity
  8
DEFAULT
100
AcDbVertex
100
AcDb2dVertex
 10
8.054651263736947
 20
41.32355144993443
 30
0.0
  0
VERTEX
  5
7CC
330
758
100
AcDbEntity
  8
DEFAULT
100
AcDbVertex
100
AcDb2dVertex
 10
7.897746684380003
 20
41.29199421884444
 30
0.0
  0
VERTEX
  5
7CD
330
758
100
AcDbEntity
  8
DEFAULT
100
AcDbVertex
100
AcDb2dVertex
 10
7.506417312640464
 20
41.23215895669387
 30
0.0
  0
VERTEX
  5
7CE
330
758
100
AcDbEntity
  8
DEFAULT
100
AcDbVertex
100
AcDb2dVertex
 10
7.113556678715238
 20
41.18411809733299
 30
0.0
  0
VERTEX
  5
7CF
330
758
100
AcDbEntity
  8
DEFAULT
100
AcDbVertex
100
AcDb2dVertex
 10
6.325248164637289
 20
41.1091353277621
 30
0.0
  0
VERTEX
  5
7D0
330
758
100
AcDbEntity
  8
DEFAULT
100
AcDbVertex
100
AcDb2dVertex
 10
4.746596205622781
 20
40.98439978038624
 30
0.0
  0
VERTEX
  5
7D1
330
758
100
AcDbEntity
  8
DEFAULT
100
AcDbVertex
100
AcDb2dVertex
 10
3.165817972508109
 20
40.89043623896997
 30
0.0
  0
VERTEX
  5
7D2
330
758
100
AcDbEntity
  8
DEFAULT
100
AcDbVertex
100
AcDb2dVertex
 10
1.583402378572165
 20
40.8301999250334
 30
0.0
  0
VERTEX
  5
7D3
330
758
100
AcDbEntity
  8
DEFAULT
100
AcDbVertex
100
AcDb2dVertex
 10
0.0
 20
40.80859295575444
 30
0.0
  0
VERTEX
  5
7D4
330
758
100
AcDbEntity
  8
DEFAULT
100
AcDbVertex
100
AcDb2dVertex
 10
-1.583402378572165
 20
40.8301999250334
 30
0.0
  0
VERTEX
  5
7D5
330
758
100
AcDbEntity
  8
DEFAULT
100
AcDbVertex
100
AcDb2dVertex
 10
-3.165817972508109
 20
40.89043623896997
 30
0.0
  0
VERTEX
  5
7D6
330
758
100
AcDbEntity
  8
DEFAULT
100
AcDbVertex
100
AcDb2dVertex
 10
-4.746596205622781
 20
40.98439978038623
 30
0.0
  0
VERTEX
  5
7D7
330
758
100
AcDbEntity
  8
DEFAULT
100
AcDbVertex
100
AcDb2dVertex
 10
-6.325248164637289
 20
41.1091353277621
 30
0.0
  0
VERTEX
  5
7D8
330
758
100
AcDbEntity
  8
DEFAULT
100
AcDbVertex
100
AcDb2dVertex
 10
-7.113556678715238
 20
41.18411809733299
 30
0.0
  0
VERTEX
  5
7D9
330
758
100
AcDbEntity
  8
DEFAULT
100
AcDbVertex
100
AcDb2dVertex
 10
-7.506417312640464
 20
41.23215895669387
 30
0.0
  0
VERTEX
  5
7DA
330
758
100
AcDbEntity
  8
DEFAULT
100
AcDbVertex
100
AcDb2dVertex
 10
-7.897746684380003
 20
41.29199421884444
 30
0.0
  0
VERTEX
  5
7DB
330
758
100
AcDbEntity
  8
DEFAULT
100
AcDbVertex
100
AcDb2dVertex
 10
-8.054651263736947
 20
41.32355144993442
 30
0.0
  0
VERTEX
  5
7DC
330
758
100
AcDbEntity
  8
DEFAULT
100
AcDbVertex
100
AcDb2dVertex
 10
-8.132654123024313
 20
41.34142365620428
 30
0.0
  0
VERTEX
  5
7DD
330
758
100
AcDbEntity
  8
DEFAULT
100
AcDbVertex
100
AcDb2dVertex
 10
-8.210285101605256
 20
41.36085573505328
 30
0.0
  0
VERTEX
  5
7DE
330
758
100
AcDbEntity
  8
DEFAULT
100
AcDbVertex
100
AcDb2dVertex
 10
-8.287481157939403
 20
41.3819773170254
 30
0.0
  0
VERTEX
  5
7DF
330
758
100
AcDbEntity
  8
DEFAULT
100
AcDbVertex
100
AcDb2dVertex
 10
-8.36414386566194
 20
41.40494411855268
 30
0.0
  0
VERTEX
  5
7E0
330
758
100
AcDbEntity
  8
DEFAULT
100
AcDbVertex
100
AcDb2dVertex
 10
-8.440165952201939
 20
41.42991837753922
 30
0.0
  0
VERTEX
  5
7E1
330
758
100
AcDbEntity
  8
DEFAULT
100
AcDbVertex
100
AcDb2dVertex
 10
-8.515440144988471
 20
41.4570623318891
 30
0.0
  0
VERTEX
  5
7E2
330
758
100
AcDbEntity
  8
DEFAULT
100
AcDbVertex
100
AcDb2dVertex
 10
-8.589850777449918
 20
41.48652832645445
 30
0.0
  0
VERTEX
  5
7E3
330
758
100
AcDbEntity
  8
DEFAULT
100
AcDbVertex
100
AcDb2dVertex
 10
-8.66324860701187
 20
41.51842913387947
 30
0.0
  0
VERTEX
  5
7E4
330
758
100
AcDbEntity
  8
DEFAULT
100
AcDbVertex
100
AcDb2dVertex
 10
-8.699518459275815
 20
41.53532474228694
 30
0.0
  0
VERTEX
  5
7E5
330
758
100
AcDbEntity
  8
DEFAULT
100
AcDbVertex
100
AcDb2dVertex
 10
-8.735475997099224
 20
41.55286763375642
 30
0.0
  0
VERTEX
  5
7E6
330
758
100
AcDbEntity
  8
DEFAULT
100
AcDbVertex
100
AcDb2dVertex
 10
-8.771101515910209
 20
41.57107066823694
 30
0.0
  0
VERTEX
  5
7E7
330
758
100
AcDbEntity
  8
DEFAULT
100
AcDbVertex
100
AcDb2dVertex
 10
-8.80637531113688
 20
41.58994670567753
 30
0.0
  0
VERTEX
  5
7E8
330
758
100
AcDbEntity
  8
DEFAULT
100
AcDbVertex
100
AcDb2dVertex
 10
-8.841278253465067
 20
41.60950562179018
 30
0.0
  0
VERTEX
  5
7E9
330
758
100
AcDbEntity
  8
DEFAULT
100
AcDbVertex
100
AcDb2dVertex
 10
-8.875793514611454
 20
41.62974535533871
 30
0.0
  0
VERTEX
  5
7EA
330
758
100
AcDbEntity
  8
DEFAULT
100
AcDbVertex
100
AcDb2dVertex
 10
-8.909904841550443
 20
41.65066086084991
 30
0.0
  0
VERTEX
  5
7EB
330
758
100
AcDbEntity
  8
DEFAULT
100
AcDbVertex
100
AcDb2dVertex
 10
-8.943595981256436
 20
41.67224709285057
 30
0.0
  0
VERTEX
  5
7EC
330
758
100
AcDbEntity
  8
DEFAULT
100
AcDbVertex
100
AcDb2dVertex
 10
-8.976850680703834
 20
41.69449900586747
 30
0.0
  0
VERTEX
  5
7ED
330
758
100
AcDbEntity
  8
DEFAULT
100
AcDbVertex
100
AcDb2dVertex
 10
-9.009652686867037
 20
41.71741155442739
 30
0.0
  0
VERTEX
  5
7EE
330
758
100
AcDbEntity
  8
DEFAULT
100
AcDbVertex
100
AcDb2dVertex
 10
-9.04198574672045
 20
41.74097969305713
 30
0.0
  0
VERTEX
  5
7EF
330
758
100
AcDbEntity
  8
DEFAULT
100
AcDbVertex
100
AcDb2dVertex
 10
-9.07383360723847
 20
41.76519837628345
 30
0.0
  0
VERTEX
  5
7F0
330
758
100
AcDbEntity
  8
DEFAULT
100
AcDbVertex
100
AcDb2dVertex
 10
-9.10517384673949
 20
41.79005404932218
 30
0.0
  0
VERTEX
  5
7F1
330
758
100
AcDbEntity
  8
DEFAULT
100
AcDbVertex
100
AcDb2dVertex
 10
-9.1360072931568
 20
41.81553739835276
 30
0.0
  0
VERTEX
  5
7F2
330
758
100
AcDbEntity
  8
DEFAULT
100
AcDbVertex
100
AcDb2dVertex
 10
-9.166328349589811
 20
41.84163093001097
 30
0.0
  0
VERTEX
  5
7F3
330
758
100
AcDbEntity
  8
DEFAULT
100
AcDbVertex
100
AcDb2dVertex
 10
-9.196131419137927
 20
41.8683171509326
 30
0.0
  0
VERTEX
  5
7F4
330
758
100
AcDbEntity
  8
DEFAULT
100
AcDbVertex
100
AcDb2dVertex
 10
-9.225410904900553
 20
41.89557856775343
 30
0.0
  0
VERTEX
  5
7F5
330
758
100
AcDbEntity
  8
DEFAULT
100
AcDbVertex
100
AcDb2dVertex
 10
-9.254161209977095
 20
41.92339768710923
 30
0.0
  0
VERTEX
  5
7F6
330
758
100
AcDbEntity
  8
DEFAULT
100
AcDbVertex
100
AcDb2dVertex
 10
-9.28237673746696
 20
41.95175701563579
 30
0.0
  0
VERTEX
  5
7F7
330
758
100
AcDbEntity
  8
DEFAULT
100
AcDbVertex
100
AcDb2dVertex
 10
-9.310051890469552
 20
41.98063905996889
 30
0.0
  0
VERTEX
  5
7F8
330
758
100
AcDbEntity
  8
DEFAULT
100
AcDbVertex
100
AcDb2dVertex
 10
-10.11900476880592
 20
42.86305856329261
 30
0.0
  0
VERTEX
  5
7F9
330
758
100
AcDbEntity
  8
DEFAULT
100
AcDbVertex
100
AcDb2dVertex
 10
-10.90774104671285
 20
43.76401151589523
 30
0.0
  0
VERTEX
  5
7FA
330
758
100
AcDbEntity
  8
DEFAULT
100
AcDbVertex
100
AcDb2dVertex
 10
-11.67563185166087
 20
44.68279595773463
 30
0.0
  0
VERTEX
  5
7FB
330
758
100
AcDbEntity
  8
DEFAULT
100
AcDbVertex
100
AcDb2dVertex
 10
-12.42208111847187
 20
45.61868186493275
 30
0.0
  0
VERTEX
  5
7FC
330
758
100
AcDbEntity
  8
DEFAULT
100
AcDbVertex
100
AcDb2dVertex
 10
-12.43029929566283
 20
45.62946860179959
 30
0.0
  0
VERTEX
  5
7FD
330
758
100
AcDbEntity
  8
DEFAULT
100
AcDbVertex
100
AcDb2dVertex
 10
-12.43832224395613
 20
45.64039236881847
 30
0.0
  0
VERTEX
  5
7FE
330
758
100
AcDbEntity
  8
DEFAULT
100
AcDbVertex
100
AcDb2dVertex
 10
-12.45379431314305
 20
45.66263170833766
 30
0.0
  0
VERTEX
  5
7FF
330
758
100
AcDbEntity
  8
DEFAULT
100
AcDbVertex
100
AcDb2dVertex
 10
-12.46852104461924
 20
45.68536131354106
 30
0.0
  0
VERTEX
  5
800
330
758
100
AcDbEntity
  8
DEFAULT
100
AcDbVertex
100
AcDb2dVertex
 10
-12.48252615697129
 20
45.70854261447934
 30
0.0
  0
VERTEX
  5
801
330
758
100
AcDbEntity
  8
DEFAULT
100
AcDbVertex
100
AcDb2dVertex
 10
-12.49583336878577
 20
45.73213704120323
 30
0.0
  0
VERTEX
  5
802
330
758
100
AcDbEntity
  8
DEFAULT
100
AcDbVertex
100
AcDb2dVertex
 10
-12.50846639864928
 20
45.75610602376342
 30
0.0
  0
VERTEX
  5
803
330
758
100
AcDbEntity
  8
DEFAULT
100
AcDbVertex
100
AcDb2dVertex
 10
-12.5204489651484
 20
45.78041099221063
 30
0.0
  0
VERTEX
  5
804
330
758
100
AcDbEntity
  8
DEFAULT
100
AcDbVertex
100
AcDb2dVertex
 10
-12.53180478686973
 20
45.80501337659555
 30
0.0
  0
VERTEX
  5
805
330
758
100
AcDbEntity
  8
DEFAULT
100
AcDbVertex
100
AcDb2dVertex
 10
-12.54255613006419
 20
45.82987812264489
 30
0.0
  0
VERTEX
  5
806
330
758
100
AcDbEntity
  8
DEFAULT
100
AcDbVertex
100
AcDb2dVertex
 10
-12.55271945164001
 20
45.85498423878933
 30
0.0
  0
VERTEX
  5
807
330
758
100
AcDbEntity
  8
DEFAULT
100
AcDbVertex
100
AcDb2dVertex
 10
-12.56230975616976
 20
45.88031424913555
 30
0.0
  0
VERTEX
  5
808
330
758
100
AcDbEntity
  8
DEFAULT
100
AcDbVertex
100
AcDb2dVertex
 10
-12.571342048226
 20
45.90585067779022
 30
0.0
  0
VERTEX
  5
809
330
758
100
AcDbEntity
  8
DEFAULT
100
AcDbVertex
100
AcDb2dVertex
 10
-12.5798313323813
 20
45.93157604886001
 30
0.0
  0
VERTEX
  5
80A
330
758
100
AcDbEntity
  8
DEFAULT
100
AcDbVertex
100
AcDb2dVertex
 10
-12.58779261320824
 20
45.9574728864516
 30
0.0
  0
VERTEX
  5
80B
330
758
100
AcDbEntity
  8
DEFAULT
100
AcDbVertex
100
AcDb2dVertex
 10
-12.59524089527936
 20
45.98352371467168
 30
0.0
  0
VERTEX
  5
80C
330
758
100
AcDbEntity
  8
DEFAULT
100
AcDbVertex
100
AcDb2dVertex
 10
-12.60219118316725
 20
46.0097110576269
 30
0.0
  0
VERTEX
  5
80D
330
758
100
AcDbEntity
  8
DEFAULT
100
AcDbVertex
100
AcDb2dVertex
 10
-12.60865729413883
 20
46.03601884854685
 30
0.0
  0
VERTEX
  5
80E
330
758
100
AcDbEntity
  8
DEFAULT
100
AcDbVertex
100
AcDb2dVertex
 10
-12.61464829623848
 20
46.06243665715277
 30
0.0
  0
VERTEX
  5
80F
330
758
100
AcDbEntity
  8
DEFAULT
100
AcDbVertex
100
AcDb2dVertex
 10
-12.62523649677695
 20
46.11556624279906
 30
0.0
  0
VERTEX
  5
810
330
758
100
AcDbEntity
  8
DEFAULT
100
AcDbVertex
100
AcDb2dVertex
 10
-12.63401883069262
 20
46.16902764531883
 30
0.0
  0
VERTEX
  5
811
330
758
100
AcDbEntity
  8
DEFAULT
100
AcDbVertex
100
AcDb2dVertex
 10
-12.64105834389541
 20
46.22274869546517
 30
0.0
  0
VERTEX
  5
812
330
758
100
AcDbEntity
  8
DEFAULT
100
AcDbVertex
100
AcDb2dVertex
 10
-12.6464119952309
 20
46.27666099347518
 30
0.0
  0
VERTEX
  5
813
330
758
100
AcDbEntity
  8
DEFAULT
100
AcDbVertex
100
AcDb2dVertex
 10
-12.65011239528723
 20
46.33071121752199
 30
0.0
  0
VERTEX
  5
814
330
758
100
AcDbEntity
  8
DEFAULT
100
AcDbVertex
100
AcDb2dVertex
 10
-12.65218606758818
 20
46.38484981526281
 30
0.0
  0
VERTEX
  5
815
330
758
100
AcDbEntity
  8
DEFAULT
100
AcDbVertex
100
AcDb2dVertex
 10
-12.65265953565753
 20
46.43902723435478
 30
0.0
  0
VERTEX
  5
816
330
758
100
AcDbEntity
  8
DEFAULT
100
AcDbVertex
100
AcDb2dVertex
 10
-12.6515553080752
 20
46.49319469173321
 30
0.0
  0
VERTEX
  5
817
330
758
100
AcDbEntity
  8
DEFAULT
100
AcDbVertex
100
AcDb2dVertex
 10
-12.64887983364568
 20
46.54730648144591
 30
0.0
  0
VERTEX
  5
818
330
758
100
AcDbEntity
  8
DEFAULT
100
AcDbVertex
100
AcDb2dVertex
 10
-12.6446355462296
 20
46.60131766681889
 30
0.0
  0
VERTEX
  5
819
330
758
100
AcDbEntity
  8
DEFAULT
100
AcDbVertex
100
AcDb2dVertex
 10
-12.6388248796876
 20
46.65518331117809
 30
0.0
  0
VERTEX
  5
81A
330
758
100
AcDbEntity
  8
DEFAULT
100
AcDbVertex
100
AcDb2dVertex
 10
-11.27802112732581
 20
56.94243255025212
 30
0.0
  0
VERTEX
  5
81B
330
758
100
AcDbEntity
  8
DEFAULT
100
AcDbVertex
100
AcDb2dVertex
 10
-11.26844845009081
 20
57.00502220240929
 30
0.0
  0
VERTEX
  5
81C
330
758
100
AcDbEntity
  8
DEFAULT
100
AcDbVertex
100
AcDb2dVertex
 10
-11.25752783444895
 20
57.0673927440147
 30
0.0
  0
VERTEX
  5
81D
330
758
100
AcDbEntity
  8
DEFAULT
100
AcDbVertex
100
AcDb2dVertex
 10
-11.24527618250903
 20
57.1295152415667
 30
0.0
  0
VERTEX
  5
81E
330
758
100
AcDbEntity
  8
DEFAULT
100
AcDbVertex
100
AcDb2dVertex
 10
-11.23171039637985
 20
57.19136076156369
 30
0.0
  0
VERTEX
  5
81F
330
758
100
AcDbEntity
  8
DEFAULT
100
AcDbVertex
100
AcDb2dVertex
 10
-11.21683888564234
 20
57.25289994693344
 30
0.0
  0
VERTEX
  5
820
330
758
100
AcDbEntity
  8
DEFAULT
100
AcDbVertex
100
AcDb2dVertex
 10
-11.2006362568018
 20
57.31410106527205
 30
0.0
  0
VERTEX
  5
821
330
758
100
AcDbEntity
  8
DEFAULT
100
AcDbVertex
100
AcDb2dVertex
 10
-11.18306862862471
 20
57.37493196173437
 30
0.0
  0
VERTEX
  5
822
330
758
100
AcDbEntity
  8
DEFAULT
100
AcDbVertex
100
AcDb2dVertex
 10
-11.16410211987751
 20
57.43536048147524
 30
0.0
  0
VERTEX
  5
823
330
758
100
AcDbEntity
  8
DEFAULT
100
AcDbVertex
100
AcDb2dVertex
 10
-11.14369064261839
 20
57.49533969113408
 30
0.0
  0
VERTEX
  5
824
330
758
100
AcDbEntity
  8
DEFAULT
100
AcDbVertex
100
AcDb2dVertex
 10
-11.12173928207239
 20
57.55476354328852
 30
0.0
  0
VERTEX
  5
825
330
758
100
AcDbEntity
  8
DEFAULT
100
AcDbVertex
100
AcDb2dVertex
 10
-11.0981409167563
 20
57.61351121200079
 30
0.0
  0
VERTEX
  5
826
330
758
100
AcDbEntity
  8
DEFAULT
100
AcDbVertex
100
AcDb2dVertex
 10
-11.07278842518688
 20
57.67146187133309
 30
0.0
  0
VERTEX
  5
827
330
758
100
AcDbEntity
  8
DEFAULT
100
AcDbVertex
100
AcDb2dVertex
 10
-11.05941466869899
 20
57.70009826940235
 30
0.0
  0
VERTEX
  5
828
330
758
100
AcDbEntity
  8
DEFAULT
100
AcDbVertex
100
AcDb2dVertex
 10
-11.04552478272354
 20
57.72847633555683
 30
0.0
  0
VERTEX
  5
829
330
758
100
AcDbEntity
  8
DEFAULT
100
AcDbVertex
100
AcDb2dVertex
 10
-11.03106794970711
 20
57.7565671967112
 30
0.0
  0
VERTEX
  5
82A
330
758
100
AcDbEntity
  8
DEFAULT
100
AcDbVertex
100
AcDb2dVertex
 10
-11.01599335209627
 20
57.78434197978011
 30
0.0
  0
VERTEX
  5
82B
330
758
100
AcDbEntity
  8
DEFAULT
100
AcDbVertex
100
AcDb2dVertex
 10
-11.00025017233759
 20
57.81177181167823
 30
0.0
  0
VERTEX
  5
82C
330
758
100
AcDbEntity
  8
DEFAULT
100
AcDbVertex
100
AcDb2dVertex
 10
-10.98378759287765
 20
57.83882781932022
 30
0.0
  0
VERTEX
  5
82D
330
758
100
AcDbEntity
  8
DEFAULT
100
AcDbVertex
100
AcDb2dVertex
 10
-10.96655479616304
 20
57.86548112962075
 30
0.0
  0
VERTEX
  5
82E
330
758
100
AcDbEntity
  8
DEFAULT
100
AcDbVertex
100
AcDb2dVertex
 10
-10.94850096464031
 20
57.89170286949447
 30
0.0
  0
VERTEX
  5
82F
330
758
100
AcDbEntity
  8
DEFAULT
100
AcDbVertex
100
AcDb2dVertex
 10
-10.93914797494274
 20
57.90463570811905
 30
0.0
  0
VERTEX
  5
830
330
758
100
AcDbEntity
  8
DEFAULT
100
AcDbVertex
100
AcDb2dVertex
 10
-10.9295567860537
 20
57.91740688027871
 30
0.0
  0
VERTEX
  5
831
330
758
100
AcDbEntity
  8
DEFAULT
100
AcDbVertex
100
AcDb2dVertex
 10
-10.91970716147331
 20
57.92996983017596
 30
0.0
  0
VERTEX
  5
832
330
758
100
AcDbEntity
  8
DEFAULT
100
AcDbVertex
100
AcDb2dVertex
 10
-10.90957886470168
 20
57.94227800201331
 30
0.0
  0
VERTEX
  5
833
330
758
100
AcDbEntity
  8
DEFAULT
100
AcDbVertex
100
AcDb2dVertex
 10
-10.8991516592389
 20
57.95428483999324
 30
0.0
  0
VERTEX
  5
834
330
758
100
AcDbEntity
  8
DEFAULT
100
AcDbVertex
100
AcDb2dVertex
 10
-10.88840530858511
 20
57.96594378831827
 30
0.0
  0
VERTEX
  5
835
330
758
100
AcDbEntity
  8
DEFAULT
100
AcDbVertex
100
AcDb2dVertex
 10
-10.8773195762404
 20
57.97720829119091
 30
0.0
  0
VERTEX
  5
836
330
758
100
AcDbEntity
  8
DEFAULT
100
AcDbVertex
100
AcDb2dVertex
 10
-10.87164311802773
 20
57.98267807689585
 30
0.0
  0
VERTEX
  5
837
330
758
100
AcDbEntity
  8
DEFAULT
100
AcDbVertex
100
AcDb2dVertex
 10
-10.86587422570488
 20
57.98803179281364
 30
0.0
  0
VERTEX
  5
838
330
758
100
AcDbEntity
  8
DEFAULT
100
AcDbVertex
100
AcDb2dVertex
 10
-10.86001036970935
 20
57.99326361946957
 30
0.0
  0
VERTEX
  5
839
330
758
100
AcDbEntity
  8
DEFAULT
100
AcDbVertex
100
AcDb2dVertex
 10
-10.85404902047867
 20
57.99836773738897
 30
0.0
  0
VERTEX
  5
83A
330
758
100
AcDbEntity
  8
DEFAULT
100
AcDbVertex
100
AcDb2dVertex
 10
-10.84798764845034
 20
58.00333832709715
 30
0.0
  0
VERTEX
  5
83B
330
758
100
AcDbEntity
  8
DEFAULT
100
AcDbVertex
100
AcDb2dVertex
 10
-10.84182372406188
 20
58.00816956911942
 30
0.0
  0
VERTEX
  5
83C
330
758
100
AcDbEntity
  8
DEFAULT
100
AcDbVertex
100
AcDb2dVertex
 10
-10.8355547177508
 20
58.01285564398108
 30
0.0
  0
VERTEX
  5
83D
330
758
100
AcDbEntity
  8
DEFAULT
100
AcDbVertex
100
AcDb2dVertex
 10
-10.82917809995461
 20
58.01739073220746
 30
0.0
  0
VERTEX
  5
83E
330
758
100
AcDbEntity
  8
DEFAULT
100
AcDbVertex
100
AcDb2dVertex
 10
-10.82269134111083
 20
58.02176901432387
 30
0.0
  0
VERTEX
  5
83F
330
758
100
AcDbEntity
  8
DEFAULT
100
AcDbVertex
100
AcDb2dVertex
 10
-10.81609191165698
 20
58.02598467085562
 30
0.0
  0
VERTEX
  5
840
330
758
100
AcDbEntity
  8
DEFAULT
100
AcDbVertex
100
AcDb2dVertex
 10
-10.80937728203056
 20
58.03003188232803
 30
0.0
  0
VERTEX
  5
841
330
758
100
AcDbEntity
  8
DEFAULT
100
AcDbVertex
100
AcDb2dVertex
 10
-10.80254492266909
 20
58.0339048292664
 30
0.0
  0
VERTEX
  5
842
330
758
100
AcDbEntity
  8
DEFAULT
100
AcDbVertex
100
AcDb2dVertex
 10
-10.79559230401009
 20
58.03759769219605
 30
0.0
  0
VERTEX
  5
843
330
758
100
AcDbEntity
  8
DEFAULT
100
AcDbVertex
100
AcDb2dVertex
 10
-10.78851689649106
 20
58.04110465164229
 30
0.0
  0
VERTEX
  5
844
330
758
100
AcDbEntity
  8
DEFAULT
100
AcDbVertex
100
AcDb2dVertex
 10
-10.78131617054952
 20
58.04441988813043
 30
0.0
  0
VERTEX
  5
845
330
758
100
AcDbEntity
  8
DEFAULT
100
AcDbVertex
100
AcDb2dVertex
 10
-10.77398759662299
 20
58.0475375821858
 30
0.0
  0
VERTEX
  5
846
330
758
100
AcDbEntity
  8
DEFAULT
100
AcDbVertex
100
AcDb2dVertex
 10
-10.76652864514898
 20
58.0504519143337
 30
0.0
  0
VERTEX
  5
847
330
758
100
AcDbEntity
  8
DEFAULT
100
AcDbVertex
100
AcDb2dVertex
 10
-10.758936786565
 20
58.05315706509944
 30
0.0
  0
VERTEX
  5
848
330
758
100
AcDbEntity
  8
DEFAULT
100
AcDbVertex
100
AcDb2dVertex
 10
-10.03534948941666
 20
58.2639623470803
 30
0.0
  0
VERTEX
  5
849
330
758
100
AcDbEntity
  8
DEFAULT
100
AcDbVertex
100
AcDb2dVertex
 10
-8.224959378891825
 20
58.78589861178028
 30
0.0
  0
VERTEX
  5
84A
330
758
100
AcDbEntity
  8
DEFAULT
100
AcDbVertex
100
AcDb2dVertex
 10
-8.042505595391933
 20
58.83270707597214
 30
0.0
  0
VERTEX
  5
84B
330
758
100
AcDbEntity
  8
DEFAULT
100
AcDbVertex
100
AcDb2dVertex
 10
-7.859257754341819
 20
58.876240908345
 30
0.0
  0
VERTEX
  5
84C
330
758
100
AcDbEntity
  8
DEFAULT
100
AcDbVertex
100
AcDb2dVertex
 10
-7.675105809128653
 20
58.91594674908379
 30
0.0
  0
VERTEX
  5
84D
330
758
100
AcDbEntity
  8
DEFAULT
100
AcDbVertex
100
AcDb2dVertex
 10
-7.490189262579374
 20
58.95217312605519
 30
0.0
  0
VERTEX
  5
84E
330
758
100
AcDbEntity
  8
DEFAULT
100
AcDbVertex
100
AcDb2dVertex
 10
-7.11886992622
 20
59.01648348784445
 30
0.0
  0
SEQEND
  5
84F
330
758
100
AcDbEntity
  8
DEFAULT
  0
LINE
  5
850
330
1F
100
AcDbEntity
  8
DEFAULT
100
AcDbLine
 10
-12.153544
 20
0.236221
 30
0.0
 11
-13.334646
 21
0.236221
 31
0.0
  0
LINE
  5
851
330
1F
100
AcDbEntity
  8
DEFAULT
100
AcDbLine
 10
-12.54725
 20
0.0
 30
0.0
 11
-12.94094
 21
0.0
 31
0.0
  0
LINE
  5
852
330
1F
100
AcDbEntity
  8
DEFAULT
100
AcDbLine
 10
-0.6373283138389993
 20
1.059386383289
 30
0.0
 11
0.6373288684570007
 21
1.059386383289
 31
0.0
  0
LINE
  5
853
330
1F
100
AcDbEntity
  8
DEFAULT
100
AcDbLine
 10
-0.847014999999999
 20
1.929766
 30
0.0
 11
-0.6373283138389993
 21
1.059386383289
 31
0.0
  0
LINE
  5
854
330
1F
100
AcDbEntity
  8
DEFAULT
100
AcDbLine
 10
11.931887
 20
0.3149609999999998
 30
0.0
 11
0.6318619999999999
 21
0.7487849999999997
 31
0.0
  0
LINE
  5
855
330
1F
100
AcDbEntity
  8
DEFAULT
100
AcDbLine
 10
-0.1968449999999997
 20
0.0
 30
0.0
 11
0.1968449999999997
 21
0.0
 31
0.0
  0
ARC
  5
856
330
1F
100
AcDbEntity
  8
DEFAULT
100
AcDbCircle
 10
0.1968510000000006
 20
0.4461949999999999
 30
0.0
 40
0.4461943235296055
100
AcDbArc
 50
270.0
 51
331.9274375287827
  0
ARC
  5
857
330
1F
100
AcDbEntity
  8
DEFAULT
100
AcDbCircle
 10
12.547244
 20
0.4461949999999999
 30
0.0
 40
0.4461943235296068
100
AcDbArc
 50
208.0725624712171
 51
270.0
  0
LINE
  5
858
330
1F
100
AcDbEntity
  8
DEFAULT
100
AcDbLine
 10
12.54725
 20
0.0
 30
0.0
 11
12.94094
 21
0.0
 31
0.0
  0
ARC
  5
859
330
1F
100
AcDbEntity
  8
DEFAULT
100
AcDbCircle
 10
-12.940945
 20
0.4461949999999999
 30
0.0
 40
0.44619476470589
100
AcDbArc
 50
208.072502042896
 51
270.0
  0
LINE
  5
85A
330
1F
100
AcDbEntity
  8
DEFAULT
100
AcDbLine
 10
0.6324590000000008
 20
0.7772719999999999
 30
0.0
 11
0.6359209999999997
 21
1.004435999999999
 31
0.0
  0
LINE
  5
85B
330
1F
100
AcDbEntity
  8
DEFAULT
100
AcDbLine
 10
0.6359209999999997
 20
1.004435999999999
 30
0.0
 11
0.6373283138390011
 21
1.059386383289
 31
0.0
  0
ARC
  5
85C
330
1F
100
AcDbEntity
  8
DEFAULT
100
AcDbCircle
 10
-0.1968499999999995
 20
0.4461949999999999
 30
0.0
 40
0.44619476470589
100
AcDbArc
 50
208.0725020428958
 51
269.9999999999999
  0
LINE
  5
85D
330
1F
100
AcDbEntity
  8
DEFAULT
100
AcDbLine
 10
13.329857
 20
1.096626
 30
0.0
 11
13.356839
 21
0.352957
 31
0.0
  0
LINE
  5
85E
330
1F
100
AcDbEntity
  8
DEFAULT
100
AcDbLine
 10
-11.931887
 20
0.3149609999999998
 30
0.0
 11
-13.334646
 21
0.3149609999999998
 31
0.0
  0
LINE
  5
85F
330
1F
100
AcDbEntity
  8
DEFAULT
100
AcDbLine
 10
-11.931887
 20
0.3149609999999998
 30
0.0
 11
-0.6318619999999999
 21
0.7487849999999997
 31
0.0
  0
LINE
  5
860
330
1F
100
AcDbEntity
  8
DEFAULT
100
AcDbLine
 10
11.931887
 20
0.3149609999999998
 30
0.0
 11
13.334646
 21
0.3149609999999998
 31
0.0
  0
LINE
  5
861
330
1F
100
AcDbEntity
  8
DEFAULT
100
AcDbLine
 10
-13.334646
 20
0.236221
 30
0.0
 11
-13.334646
 21
0.3149609999999998
 31
0.0
  0
LINE
  5
862
330
1F
100
AcDbEntity
  8
DEFAULT
100
AcDbLine
 10
0.5905509999999996
 20
0.236221
 30
0.0
 11
0.5905509999999996
 21
0.3149609999999998
 31
0.0
  0
LINE
  5
863
330
1F
100
AcDbEntity
  8
DEFAULT
100
AcDbLine
 10
0.9494109999999993
 20
2.547483999999999
 30
0.0
 11
0.9462089999999994
 21
2.63917
 31
0.0
  0
LINE
  5
864
330
1F
100
AcDbEntity
  8
DEFAULT
100
AcDbLine
 10
-0.5905509999999996
 20
0.236221
 30
0.0
 11
-0.5905509999999996
 21
0.3149609999999998
 31
0.0
  0
LINE
  5
865
330
1F
100
AcDbEntity
  8
DEFAULT
100
AcDbLine
 10
0.8470150000000005
 20
1.929766
 30
0.0
 11
0.6373283138390011
 21
1.059386383289
 31
0.0
  0
ARC
  5
866
330
1F
100
AcDbEntity
  8
DEFAULT
100
AcDbCircle
 10
0.9068630000000011
 20
2.637795999999999
 30
0.0
 40
0.0393699916941817
100
AcDbArc
 50
2.000010767984079
 51
90.0
  0
ARC
  5
867
330
1F
100
AcDbEntity
  8
DEFAULT
100
AcDbCircle
 10
13.317493
 20
0.3543309999999997
 30
0.0
 40
0.0393699916941807
100
AcDbArc
 50
270.0
 51
357.9999892320163
  0
ARC
  5
868
330
1F
100
AcDbEntity
  8
DEFAULT
100
AcDbCircle
 10
-1.342870999999999
 20
2.561222999999999
 30
0.0
 40
0.3937004024297452
100
AcDbArc
 50
274.1333335196277
 51
358.0001397536329
  0
ARC
  5
869
330
1F
100
AcDbEntity
  8
DEFAULT
100
AcDbCircle
 10
1.342872
 20
2.561222999999999
 30
0.0
 40
0.3937004384692384
100
AcDbArc
 50
181.9998602463671
 51
265.8665213273553
  0
ARC
  5
86A
330
1F
100
AcDbEntity
  8
DEFAULT
100
AcDbCircle
 10
-0.9068620000000003
 20
2.637795999999999
 30
0.0
 40
0.0393699916941817
100
AcDbArc
 50
90.0
 51
177.9999892320159
  0
LINE
  5
86B
330
1F
100
AcDbEntity
  8
DEFAULT
100
AcDbLine
 10
-12.153544
 20
0.236221
 30
0.0
 11
-12.153544
 21
0.3149609999999998
 31
0.0
  0
ARC
  5
86C
330
1F
100
AcDbEntity
  8
DEFAULT
100
AcDbCircle
 10
-0.5658084491741491
 20
0.3549141187955935
 30
0.0
 40
0.0469941009368686
100
AcDbArc
 50
182.6577611687751
 51
238.2304977948548
  0
ARC
  5
86D
330
1F
100
AcDbEntity
  8
DEFAULT
100
AcDbCircle
 10
0.5658084491741509
 20
0.3549141187955937
 30
0.0
 40
0.0469941009368722
100
AcDbArc
 50
301.7695022051527
 51
357.3422388312248
  0
LINE
  5
86E
330
1F
100
AcDbEntity
  8
DEFAULT
100
AcDbLine
 10
0.6127520000000004
 20
0.3527349999999996
 30
0.0
 11
0.6324590000000008
 21
0.7772719999999999
 31
0.0
  0
LINE
  5
86F
330
1F
100
AcDbEntity
  8
DEFAULT
100
AcDbLine
 10
-0.632458999999999
 20
0.7772719999999999
 30
0.0
 11
-0.6359209999999997
 21
1.004435999999999
 31
0.0
  0
ARC
  5
870
330
1F
100
AcDbEntity
  8
DEFAULT
100
AcDbCircle
 10
-13.317493
 20
0.3543309999999997
 30
0.0
 40
0.0393699916941807
100
AcDbArc
 50
182.0000107679837
 51
270.0
  0
LINE
  5
871
330
1F
100
AcDbEntity
  8
DEFAULT
100
AcDbLine
 10
0.5905509999999996
 20
0.3149609999999998
 30
0.0
 11
-0.5905509999999996
 21
0.3149609999999998
 31
0.0
  0
LINE
  5
872
330
1F
100
AcDbEntity
  8
DEFAULT
100
AcDbLine
 10
12.153544
 20
0.236221
 30
0.0
 11
13.334646
 21
0.236221
 31
0.0
  0
LINE
  5
873
330
1F
100
AcDbEntity
  8
DEFAULT
100
AcDbLine
 10
-0.6359209999999997
 20
1.004435999999999
 30
0.0
 11
-0.6373283138389993
 21
1.059386383289
 31
0.0
  0
LINE
  5
874
330
1F
100
AcDbEntity
  8
DEFAULT
100
AcDbLine
 10
-0.6127520000000004
 20
0.3527349999999996
 30
0.0
 11
-0.632458999999999
 21
0.7772719999999999
 31
0.0
  0
LINE
  5
875
330
1F
100
AcDbEntity
  8
DEFAULT
100
AcDbLine
 10
-0.9068620000000003
 20
2.677166
 30
0.0
 11
0.9068630000000011
 21
2.677166
 31
0.0
  0
ARC
  5
876
330
1F
100
AcDbEntity
  8
DEFAULT
100
AcDbCircle
 10
12.940945
 20
0.4461949999999999
 30
0.0
 40
0.44619476470589
100
AcDbArc
 50
270.0
 51
331.9274979571039
  0
LINE
  5
877
330
1F
100
AcDbEntity
  8
DEFAULT
100
AcDbLine
 10
13.334646
 20
0.236221
 30
0.0
 11
13.334646
 21
0.3149609999999998
 31
0.0
  0
LINE
  5
878
330
1F
100
AcDbEntity
  8
DEFAULT
100
AcDbLine
 10
-0.9494100000000003
 20
2.547483999999999
 30
0.0
 11
-0.9462080000000004
 21
2.63917
 31
0.0
  0
POLYLINE
  5
879
330
1F
100
AcDbEntity
  8
DEFAULT
100
AcDb2dPolyline
 66
     1
 10
0.0
 20
0.0
 30
0.0
  0
VERTEX
  5
87A
330
879
100
AcDbEntity
  8
DEFAULT
100
AcDbVertex
100
AcDb2dVertex
 10
-0.7874009999999991
 20
2.677166
 30
0.0
  0
VERTEX
  5
87B
330
879
100
AcDbEntity
  8
DEFAULT
100
AcDbVertex
100
AcDb2dVertex
 10
-0.7874009999999991
 20
12.77862346563333
 30
0.0
  0
VERTEX
  5
87C
330
879
100
AcDbEntity
  8
DEFAULT
100
AcDbVertex
100
AcDb2dVertex
 10
-0.7371902047848633
 20
12.80475106880619
 30
0.0
  0
VERTEX
  5
87D
330
879
100
AcDbEntity
  8
DEFAULT
100
AcDbVertex
100
AcDb2dVertex
 10
-0.686113636515775
 20
12.82914286614766
 30
0.0
  0
VERTEX
  5
87E
330
879
100
AcDbEntity
  8
DEFAULT
100
AcDbVertex
100
AcDb2dVertex
 10
-0.6342312806431863
 20
12.85177021139195
 30
0.0
  0
VERTEX
  5
87F
330
879
100
AcDbEntity
  8
DEFAULT
100
AcDbVertex
100
AcDb2dVertex
 10
-0.5816040689523174
 20
12.8726065304848
 30
0.0
  0
VERTEX
  5
880
330
879
100
AcDbEntity
  8
DEFAULT
100
AcDbVertex
100
AcDb2dVertex
 10
-0.5282938080035209
 20
12.89162735279262
 30
0.0
  0
VERTEX
  5
881
330
879
100
AcDbEntity
  8
DEFAULT
100
AcDbVertex
100
AcDb2dVertex
 10
-0.4743631065452913
 20
12.90881033984137
 30
0.0
  0
VERTEX
  5
882
330
879
100
AcDbEntity
  8
DEFAULT
100
AcDbVertex
100
AcDb2dVertex
 10
-0.4198753019851681
 20
12.92413531155137
 30
0.0
  0
VERTEX
  5
883
330
879
100
AcDbEntity
  8
DEFAULT
100
AcDbVertex
100
AcDb2dVertex
 10
-0.3648943860048847
 20
12.93758426993719
 30
0.0
  0
VERTEX
  5
884
330
879
100
AcDbEntity
  8
DEFAULT
100
AcDbVertex
100
AcDb2dVertex
 10
-0.3094849294071224
 20
12.9491414202449
 30
0.0
  0
VERTEX
  5
885
330
879
100
AcDbEntity
  8
DEFAULT
100
AcDbVertex
100
AcDb2dVertex
 10
-0.253712006282134
 20
12.95879318950181
 30
0.0
  0
VERTEX
  5
886
330
879
100
AcDbEntity
  8
DEFAULT
100
AcDbVertex
100
AcDb2dVertex
 10
-0.1976411175832933
 20
12.9665282424568
 30
0.0
  0
VERTEX
  5
887
330
879
100
AcDbEntity
  8
DEFAULT
100
AcDbVertex
100
AcDb2dVertex
 10
-0.1413381142013284
 20
12.97233749489278
 30
0.0
  0
VERTEX
  5
888
330
879
100
AcDbEntity
  8
DEFAULT
100
AcDbVertex
100
AcDb2dVertex
 10
-0.0848691196275805
 20
12.97621412429529
 30
0.0
  0
VERTEX
  5
889
330
879
100
AcDbEntity
  8
DEFAULT
100
AcDbVertex
100
AcDb2dVertex
 10
-0.0283004522971148
 20
12.97815357786511
 30
0.0
  0
VERTEX
  5
88A
330
879
100
AcDbEntity
  8
DEFAULT
100
AcDbVertex
100
AcDb2dVertex
 10
0.0283014522971161
 20
12.97815357786511
 30
0.0
  0
VERTEX
  5
88B
330
879
100
AcDbEntity
  8
DEFAULT
100
AcDbVertex
100
AcDb2dVertex
 10
0.0848701196275817
 20
12.97621412429529
 30
0.0
  0
VERTEX
  5
88C
330
879
100
AcDbEntity
  8
DEFAULT
100
AcDbVertex
100
AcDb2dVertex
 10
0.1413391142013296
 20
12.97233749489278
 30
0.0
  0
VERTEX
  5
88D
330
879
100
AcDbEntity
  8
DEFAULT
100
AcDbVertex
100
AcDb2dVertex
 10
0.1976421175832943
 20
12.96652824245681
 30
0.0
  0
VERTEX
  5
88E
330
879
100
AcDbEntity
  8
DEFAULT
100
AcDbVertex
100
AcDb2dVertex
 10
0.2537130062821353
 20
12.95879318950181
 30
0.0
  0
VERTEX
  5
88F
330
879
100
AcDbEntity
  8
DEFAULT
100
AcDbVertex
100
AcDb2dVertex
 10
0.3094859294071237
 20
12.9491414202449
 30
0.0
  0
VERTEX
  5
890
330
879
100
AcDbEntity
  8
DEFAULT
100
AcDbVertex
100
AcDb2dVertex
 10
0.3648953860048858
 20
12.93758426993719
 30
0.0
  0
VERTEX
  5
891
330
879
100
AcDbEntity
  8
DEFAULT
100
AcDbVertex
100
AcDb2dVertex
 10
0.4198763019851693
 20
12.92413531155137
 30
0.0
  0
VERTEX
  5
892
330
879
100
AcDbEntity
  8
DEFAULT
100
AcDbVertex
100
AcDb2dVertex
 10
0.4743641065452924
 20
12.90881033984137
 30
0.0
  0
VERTEX
  5
893
330
879
100
AcDbEntity
  8
DEFAULT
100
AcDbVertex
100
AcDb2dVertex
 10
0.5282948080035219
 20
12.89162735279262
 30
0.0
  0
VERTEX
  5
894
330
879
100
AcDbEntity
  8
DEFAULT
100
AcDbVertex
100
AcDb2dVertex
 10
0.5816050689523187
 20
12.8726065304848
 30
0.0
  0
VERTEX
  5
895
330
879
100
AcDbEntity
  8
DEFAULT
100
AcDbVertex
100
AcDb2dVertex
 10
0.6342322806431875
 20
12.85177021139195
 30
0.0
  0
VERTEX
  5
896
330
879
100
AcDbEntity
  8
DEFAULT
100
AcDbVertex
100
AcDb2dVertex
 10
0.6861146365157761
 20
12.82914286614766
 30
0.0
  0
VERTEX
  5
897
330
879
100
AcDbEntity
  8
DEFAULT
100
AcDbVertex
100
AcDb2dVertex
 10
0.7371912047848646
 20
12.80475106880619
 30
0.0
  0
VERTEX
  5
898
330
879
100
AcDbEntity
  8
DEFAULT
100
AcDbVertex
100
AcDb2dVertex
 10
0.7874020000000003
 20
12.77862346563333
 30
0.0
  0
VERTEX
  5
899
330
879
100
AcDbEntity
  8
DEFAULT
100
AcDbVertex
100
AcDb2dVertex
 10
0.7874020000000002
 20
2.677166
 30
0.0
  0
SEQEND
  5
89A
330
879
100
AcDbEntity
  8
DEFAULT
  0
LINE
  5
89B
330
1F
100
AcDbEntity
  8
DEFAULT
100
AcDbLine
 10
12.153544
 20
0.236221
 30
0.0
 11
12.153544
 21
0.3149609999999998
 31
0.0
  0
LINE
  5
89C
330
1F
100
AcDbEntity
  8
DEFAULT
100
AcDbLine
 10
-0.5905509999999996
 20
0.236221
 30
0.0
 11
0.5905509999999996
 21
0.236221
 31
0.0
  0
ARC
  5
89D
330
1F
100
AcDbEntity
  8
DEFAULT
100
AcDbCircle
 10
-12.547244
 20
0.4461949999999999
 30
0.0
 40
0.4461943235296068
100
AcDbArc
 50
270.0
 51
331.9274375287827
  0
LINE
  5
89E
330
1F
100
AcDbEntity
  8
DEFAULT
100
AcDbLine
 10
-1.31449397405782
 20
2.168546641029288
 30
0.0
 11
-13.329857
 21
1.096626
 31
0.0
  0
LINE
  5
89F
330
1F
100
AcDbEntity
  8
DEFAULT
100
AcDbLine
 10
-13.329857
 20
1.096626
 30
0.0
 11
-13.356839
 21
0.352957
 31
0.0
  0
POLYLINE
  5
8A0
330
1F
100
AcDbEntity
  8
DEFAULT
100
AcDb2dPolyline
 66
     1
 10
0.0
 20
0.0
 30
0.0
  0
VERTEX
  5
8A1
330
8A0
100
AcDbEntity
  8
DEFAULT
100
AcDbVertex
100
AcDb2dVertex
 10
0.8470150000000005
 20
1.929766
 30
0.0
  0
VERTEX
  5
8A2
330
8A0
100
AcDbEntity
  8
DEFAULT
100
AcDbVertex
100
AcDb2dVertex
 10
0.959488797450679
 20
1.937676986571137
 30
0.0
  0
VERTEX
  5
8A3
330
8A0
100
AcDbEntity
  8
DEFAULT
100
AcDbVertex
100
AcDb2dVertex
 10
1.072202509915449
 20
1.943327691264807
 30
0.0
  0
VERTEX
  5
8A4
330
8A0
100
AcDbEntity
  8
DEFAULT
100
AcDbVertex
100
AcDb2dVertex
 10
1.185156137394312
 20
1.946718114081008
 30
0.0
  0
VERTEX
  5
8A5
330
8A0
100
AcDbEntity
  8
DEFAULT
100
AcDbVertex
100
AcDb2dVertex
 10
1.298349679887266
 20
1.947848255019742
 30
0.0
  0
VERTEX
  5
8A6
330
8A0
100
AcDbEntity
  8
DEFAULT
100
AcDbVertex
100
AcDb2dVertex
 10
1.411783137394312
 20
1.946718114081008
 30
0.0
  0
VERTEX
  5
8A7
330
8A0
100
AcDbEntity
  8
DEFAULT
100
AcDbVertex
100
AcDb2dVertex
 10
1.52545650991545
 20
1.943327691264807
 30
0.0
  0
VERTEX
  5
8A8
330
8A0
100
AcDbEntity
  8
DEFAULT
100
AcDbVertex
100
AcDb2dVertex
 10
1.639369797450679
 20
1.937676986571137
 30
0.0
  0
VERTEX
  5
8A9
330
8A0
100
AcDbEntity
  8
DEFAULT
100
AcDbVertex
100
AcDb2dVertex
 10
13.37870861098
 20
1.010005048988
 30
0.0
  0
SEQEND
  5
8AA
330
8A0
100
AcDbEntity
  8
DEFAULT
  0
POLYLINE
  5
8AB
330
1F
100
AcDbEntity
  8
DEFAULT
100
AcDb2dPolyline
 66
     1
 10
0.0
 20
0.0
 30
0.0
  0
VERTEX
  5
8AC
330
8AB
100
AcDbEntity
  8
DEFAULT
100
AcDbVertex
100
AcDb2dVertex
 10
-0.847014999999999
 20
1.929766
 30
0.0
  0
VERTEX
  5
8AD
330
8AB
100
AcDbEntity
  8
DEFAULT
100
AcDbVertex
100
AcDb2dVertex
 10
-0.9594887974506775
 20
1.937676986571137
 30
0.0
  0
VERTEX
  5
8AE
330
8AB
100
AcDbEntity
  8
DEFAULT
100
AcDbVertex
100
AcDb2dVertex
 10
-1.072202509915448
 20
1.943327691264807
 30
0.0
  0
VERTEX
  5
8AF
330
8AB
100
AcDbEntity
  8
DEFAULT
100
AcDbVertex
100
AcDb2dVertex
 10
-1.18515613739431
 20
1.946718114081008
 30
0.0
  0
VERTEX
  5
8B0
330
8AB
100
AcDbEntity
  8
DEFAULT
100
AcDbVertex
100
AcDb2dVertex
 10
-1.298349679887264
 20
1.947848255019742
 30
0.0
  0
VERTEX
  5
8B1
330
8AB
100
AcDbEntity
  8
DEFAULT
100
AcDbVertex
100
AcDb2dVertex
 10
-1.41178313739431
 20
1.946718114081008
 30
0.0
  0
VERTEX
  5
8B2
330
8AB
100
AcDbEntity
  8
DEFAULT
100
AcDbVertex
100
AcDb2dVertex
 10
-1.525456509915448
 20
1.943327691264807
 30
0.0
  0
VERTEX
  5
8B3
330
8AB
100
AcDbEntity
  8
DEFAULT
100
AcDbVertex
100
AcDb2dVertex
 10
-1.639369797450678
 20
1.937676986571137
 30
0.0
  0
VERTEX
  5
8B4
330
8AB
100
AcDbEntity
  8
DEFAULT
100
AcDbVertex
100
AcDb2dVertex
 10
-13.37870861098
 20
1.010005048988
 30
0.0
  0
SEQEND
  5
8B5
330
8AB
100
AcDbEntity
  8
DEFAULT
  0
LINE
  5
8B6
330
1F
100
AcDbEntity
  8
DEFAULT
100
AcDbLine
 10
1.31449397405782
 20
2.168546641029288
 30
0.0
 11
13.329857
 21
1.096626
 31
0.0
  0
ENDSEC
  0
SECTION
  2
OBJECTS
  0
DICTIONARY
  5
C
330
0
100
AcDbDictionary
  3
ACAD_GROUP
350
D
  3
ACAD_LAYOUT
350
1A
  3
ACAD_MLEADERSTYLE
350
8D9
  3
ACAD_MLINESTYLE
350
17
  3
ACAD_PLOTSETTINGS
350
19
  3
ACAD_VISUALSTYLE
350
2A
  3
ACDBHEADERROUNDTRIPXREC
350
8B7
  3
ACDBVARIABLEDICTIONARY
350
8D7
  0
DICTIONARY
  5
D
102
{ACAD_REACTORS
330
C
102
}
330
C
100
AcDbDictionary
  0
DICTIONARY
  5
1A
102
{ACAD_REACTORS
330
C
102
}
330
C
100
AcDbDictionary
  0
DICTIONARY
  5
8D9
102
{ACAD_REACTORS
330
C
102
}
330
C
100
AcDbDictionary
  0
DICTIONARY
  5
17
102
{ACAD_REACTORS
330
C
102
}
330
C
100
AcDbDictionary
  3
STANDARD
350
18
  0
DICTIONARY
  5
19
102
{ACAD_REACTORS
330
C
102
}
330
C
100
AcDbDictionary
  0
DICTIONARY
  5
2A
102
{ACAD_REACTORS
330
C
102
}
330
C
100
AcDbDictionary
  3
2DWIREFRAME
350
2F
  3
3D_HIDDEN
350
31
  3
3DWIREFRAME
350
30
  3
BASIC
350
32
  3
BRIGHTEN
350
36
  3
COLORCHANGE
350
3A
  3
CONCEPTUAL
350
34
  3
DIM
350
35
  3
FACEPATTERN
350
39
  3
FLAT
350
2B
  3
FLATWITHEDGES
350
2C
  3
GOURAUD
350
2D
  3
GOURAUDWITHEDGES
350
2E
  3
LINEPATTERN
350
38
  3
REALISTIC
350
33
  3
THICKEN
350
37
  0
DICTIONARY
  5
8B7
102
{ACAD_REACTORS
330
C
102
}
330
C
100
AcDbDictionary
  3
CEPSNTYPE
350
8C0
  3
DIMSTYLEDATA
350
8D6
  3
FINGERPRINTGUID
350
8C1
  3
HYPERLINKBASE
350
8BA
  3
INSUNITS
350
8BF
  3
LAYOUTDICT
350
8BC
  3
LWETCUNION
350
8BE
  3
PLOTSETDICT
350
8BD
  3
PSVPSCALE
350
8C3
  3
PUCSBASE
350
8C6
  3
PUCSORGBACK
350
8CC
  3
PUCSORGBOTTOM
350
8C8
  3
PUCSORGFRONT
350
8CB
  3
PUCSORGLEFT
350
8C9
  3
PUCSORGRIGHT
350
8CA
  3
PUCSORGTOP
350
8C7
  3
PUCSORTHOREF
350
8C4
  3
PUCSORTHOVIEW
350
8C5
  3
STYLESHEET
350
8BB
  3
TSTACKALIGN
350
8B8
  3
TSTACKSIZE
350
8B9
  3
UCSBASE
350
8CF
  3
UCSORGBACK
350
8D5
  3
UCSORGBOTTOM
350
8D1
  3
UCSORGFRONT
350
8D4
  3
UCSORGLEFT
350
8D2
  3
UCSORGRIGHT
350
8D3
  3
UCSORGTOP
350
8D0
  3
UCSORTHOREF
350
8CD
  3
UCSORTHOVIEW
350
8CE
  3
VERSIONGUID
350
8C2
  0
DICTIONARY
  5
8D7
102
{ACAD_REACTORS
330
C
102
}
330
C
100
AcDbDictionary
  0
MLINESTYLE
  5
18
102
{ACAD_REACTORS
330
17
102
}
330
17
100
AcDbMlineStyle
  2
Standard
 70
     0
  3

 62
   256
 51
90.0
 52
90.0
 71
     2
 49
0.5
 62
   256
  6
BYLAYER
 49
-0.5
 62
   256
  6
BYLAYER
  0
ACAD_PROXY_OBJECT
  5
2F
102
{ACAD_REACTORS
330
2A
102
}
330
2A
100
AcDbProxyObject
 90
      499
 91
      501
 93
      436
310
42CC9915DA5C99599C985B595049028333333333333E3BF0000000000000FB0107901411070040501600405405064090741402480A0340
1001
ACAD
1000
AcDbSavedByObjectVersion
1070
     0
  0
ACAD_PROXY_OBJECT
  5
31
102
{ACAD_REACTORS
330
2A
102
}
330
2A
100
AcDbProxyObject
 90
      499
 91
      501
 93
      500
310
424CD108121A5919195B90640502408333333333333E3BF0000000000000FB01079024090700405020000000000001110200405405064090740C02480A0340
1001
ACAD
1000
AcDbSavedByObjectVersion
1070
     0
  0
ACAD_PROXY_OBJECT
  5
30
102
{ACAD_REACTORS
330
2A
102
}
330
2A
100
AcDbProxyObject
 90
      499
 91
      501
 93
      436
310
42CCD915DA5C99599C985B595059028333333333333E3BF0000000000000FB0107901411070040501600405405064090741402480A0340
1001
ACAD
1000
AcDbSavedByObjectVersion
1070
     0
  0
ACAD_PROXY_OBJECT
  5
32
102
{ACAD_REACTORS
330
2A
102
}
330
2A
100
AcDbProxyObject
 90
      499
 91
      501
 93
      388
310
4150985CDA58D07406404333333333333E3BF0000000000000FB0107A41107004050150841D405064090741402480A0350
1001
ACAD
1000
AcDbSavedByObjectVersion
1070
     0
  0
ACAD_PROXY_OBJECT
  5
36
102
{ACAD_REACTORS
330
2A
102
}
330
2A
100
AcDbProxyObject
 90
      499
 91
      501
 93
      428
310
42109C9A59DA1D195B90C409028333333333333E3BF0000000000000FB010790141107004050150841D405064090741402480A029950
1001
ACAD
1000
AcDbSavedByObjectVersion
1070
     0
  0
ACAD_PROXY_OBJECT
  5
3A
102
{ACAD_REACTORS
330
2A
102
}
330
2A
100
AcDbProxyObject
 90
      499
 91
      501
 93
      452
310
42D0DBDB1BDC90DA185B99D95104090240C333333333333E3BF0000000000000FB0108901411070040501508421405064090741402480A0350
1001
ACAD
1000
AcDbSavedByObjectVersion
1070
     0
  0
ACAD_PROXY_OBJECT
  5
34
102
{ACAD_REACTORS
330
2A
102
}
330
2A
100
AcDbProxyObject
 90
      499
 91
      501
 93
      500
310
4290DBDB98D95C1D1D585B10940D028333333333333E3BF0000000000000FB0107902409070040501000000000000111010841D405064090740C02480A0340
1001
ACAD
1000
AcDbSavedByObjectVersion
1070
     0
  0
ACAD_PROXY_OBJECT
  5
35
102
{ACAD_REACTORS
330
2A
102
}
330
2A
100
AcDbProxyObject
 90
      499
 91
      501
 93
      412
310
40D11A5B50B409028333333333333E3BF0000000000000FB010790141107004050150841D405064090741402480A02677FFFFFD0
1001
ACAD
1000
AcDbSavedByObjectVersion
1070
     0
  0
ACAD_PROXY_OBJECT
  5
39
102
{ACAD_REACTORS
330
2A
102
}
330
2A
100
AcDbProxyObject
 90
      499
 91
      501
 93
      444
310
42D19858D95C185D1D195C9B90F409028333333333333E3BF0000000000000FB010790141107004050150841D405064090741402480A0350
1001
ACAD
1000
AcDbSavedByObjectVersion
1070
     0
  0
ACAD_PROXY_OBJECT
  5
2B
102
{ACAD_REACTORS
330
2A
102
}
330
2A
100
AcDbProxyObject
 90
      499
 91
      501
 93
      388
310
41119B185D240901404333333333333E3BF0000000000000F9010740A41107004050150841D405064090741402480A1B50
1001
ACAD
1000
AcDbSavedByObjectVersion
1070
     0
  0
ACAD_PROXY_OBJECT
  5
2C
102
{ACAD_REACTORS
330
2A
102
}
330
2A
100
AcDbProxyObject
 90
      499
 91
      501
 93
      476
310
43519B185D15DA5D1A115919D95CD0140901404333333333333E3BF0000000000000F9010740901411070040501600405405064090741402480A1B50
1001
ACAD
1000
AcDbSavedByObjectVersion
1070
     0
  0
ACAD_PROXY_OBJECT
  5
2D
102
{ACAD_REACTORS
330
2A
102
}
330
2A
100
AcDbProxyObject
 90
      499
 91
      501
 93
      412
310
41D1DBDD5C985D5910240902404333333333333E3BF0000000000000F9010740A411070040501641D405064090741402480A1B50
1001
ACAD
1000
AcDbSavedByObjectVersion
1070
     0
  0
ACAD_PROXY_OBJECT
  5
2E
102
{ACAD_REACTORS
330
2A
102
}
330
2A
100
AcDbProxyObject
 90
      499
 91
      501
 93
      500
310
4411DBDD5C985D5915DA5D1A115919D95CD0340902404333333333333E3BF0000000000000F9010740901411070040501600405405064090741402480A1B50
1001
ACAD
1000
AcDbSavedByObjectVersion
1070
     0
  0
ACAD_PROXY_OBJECT
  5
38
102
{ACAD_REACTORS
330
2A
102
}
330
2A
100
AcDbProxyObject
 90
      499
 91
      501
 93
      444
310
42D31A5B995C185D1D195C9B90E409028333333333333E3BF0000000000000FB010790141107004050750841D405064090741402483A0350
1001
ACAD
1000
AcDbSavedByObjectVersion
1070
     0
  0
ACAD_PROXY_OBJECT
  5
33
102
{ACAD_REACTORS
330
2A
102
}
330
2A
100
AcDbProxyObject
 90
      499
 91
      501
 93
      420
310
425499585B1A5CDD1A58D08409028333333333333E3BF0000000000000FB01079019070040501508421405064090741402480A1B40
1001
ACAD
1000
AcDbSavedByObjectVersion
1070
     0
  0
ACAD_PROXY_OBJECT
  5
37
102
{ACAD_REACTORS
330
2A
102
}
330
2A
100
AcDbProxyObject
 90
      499
 91
      501
 93
      412
310
41D51A1A58DAD95B90D409028333333333333E3BF0000000000000FB010790141107004050150C41D405064090741402480A0350
1001
ACAD
1000
AcDbSavedByObjectVersion
1070
     0
  0
ACAD_PROXY_OBJECT
  5
8C0
102
{ACAD_REACTORS
330
8B7
102
}
330
8B7
100
AcDbProxyObject
 90
      499
 91
      502
 93
       58
310
4196800000000000
  0
ACAD_PROXY_OBJECT
  5
8D6
102
{ACAD_REACTORS
330
8B7
102
}
330
8B7
100
AcDbProxyObject
 90
      499
 91
      502
 93
      370
310
4B7A00C180079114D51653117A80C040079ECB8105C0518000800B811500550044400000000000003A80C040079F40
  0
ACAD_PROXY_OBJECT
  5
8C1
102
{ACAD_REACTORS
330
8B7
102
}
330
8B7
100
AcDbProxyObject
 90
      499
 91
      502
 93
      354
310
4AC0400980079ECE4E0CCE4C8DCC514B518DCC8E4B4D0DD0910B4E105090CB4E50508DCE0D910C0E51114D5F40
  0
ACAD_PROXY_OBJECT
  5
8BA
102
{ACAD_REACTORS
330
8B7
102
}
330
8B7
100
AcDbProxyObject
 90
      499
 91
      502
 93
       50
310
41404000000780
  0
ACAD_PROXY_OBJECT
  5
8BF
102
{ACAD_REACTORS
330
8B7
102
}
330
8B7
100
AcDbProxyObject
 90
      499
 91
      502
 93
       58
310
4196800040000000
  0
ACAD_PROXY_OBJECT
  5
8BC
102
{ACAD_REACTORS
330
8B7
102
}
330
8B7
100
AcDbProxyObject
 90
      499
 91
      502
 93
       90
310
429500468000000000000000
  0
ACAD_PROXY_OBJECT
  5
8BE
102
{ACAD_REACTORS
330
8B7
102
}
330
8B7
100
AcDbProxyObject
 90
      499
 91
      502
 93
       58
310
419680074A800000
  0
ACAD_PROXY_OBJECT
  5
8BD
102
{ACAD_REACTORS
330
8B7
102
}
330
8B7
100
AcDbProxyObject
 90
      499
 91
      502
 93
       90
310
429500464000000000000000
  0
ACAD_PROXY_OBJECT
  5
8C3
102
{ACAD_REACTORS
330
8B7
102
}
330
8B7
100
AcDbProxyObject
 90
      499
 91
      502
 93
       90
310
428A00000000000000000000
  0
ACAD_PROXY_OBJECT
  5
8C6
102
{ACAD_REACTORS
330
8B7
102
}
330
8B7
100
AcDbProxyObject
 90
      499
 91
      502
 93
       90
310
429500400000000000000000
  0
ACAD_PROXY_OBJECT
  5
8CC
102
{ACAD_REACTORS
330
8B7
102
}
330
8B7
100
AcDbProxyObject
 90
      499
 91
      502
 93
      218
310
46828000000000000000000000000000000000000000000000000000
  0
ACAD_PROXY_OBJECT
  5
8C8
102
{ACAD_REACTORS
330
8B7
102
}
330
8B7
100
AcDbProxyObject
 90
      499
 91
      502
 93
      218
310
46828000000000000000000000000000000000000000000000000000
  0
ACAD_PROXY_OBJECT
  5
8CB
102
{ACAD_REACTORS
330
8B7
102
}
330
8B7
100
AcDbProxyObject
 90
      499
 91
      502
 93
      218
310
46828000000000000000000000000000000000000000000000000000
  0
ACAD_PROXY_OBJECT
  5
8C9
102
{ACAD_REACTORS
330
8B7
102
}
330
8B7
100
AcDbProxyObject
 90
      499
 91
      502
 93
      218
310
46828000000000000000000000000000000000000000000000000000
  0
ACAD_PROXY_OBJECT
  5
8CA
102
{ACAD_REACTORS
330
8B7
102
}
330
8B7
100
AcDbProxyObject
 90
      499
 91
      502
 93
      218
310
46828000000000000000000000000000000000000000000000000000
  0
ACAD_PROXY_OBJECT
  5
8C7
102
{ACAD_REACTORS
330
8B7
102
}
330
8B7
100
AcDbProxyObject
 90
      499
 91
      502
 93
      218
310
46828000000000000000000000000000000000000000000000000000
  0
ACAD_PROXY_OBJECT
  5
8C4
102
{ACAD_REACTORS
330
8B7
102
}
330
8B7
100
AcDbProxyObject
 90
      499
 91
      502
 93
       90
310
429500400000000000000000
  0
ACAD_PROXY_OBJECT
  5
8C5
102
{ACAD_REACTORS
330
8B7
102
}
330
8B7
100
AcDbProxyObject
 90
      499
 91
      502
 93
       42
310
411180000000
  0
ACAD_PROXY_OBJECT
  5
8BB
102
{ACAD_REACTORS
330
8B7
102
}
330
8B7
100
AcDbProxyObject
 90
      499
 91
      502
 93
       50
310
41404000000780
  0
ACAD_PROXY_OBJECT
  5
8B8
102
{ACAD_REACTORS
330
8B7
102
}
330
8B7
100
AcDbProxyObject
 90
      499
 91
      502
 93
       58
310
4196800040000000
  0
ACAD_PROXY_OBJECT
  5
8B9
102
{ACAD_REACTORS
330
8B7
102
}
330
8B7
100
AcDbProxyObject
 90
      499
 91
      502
 93
       58
310
4196801180000000
  0
ACAD_PROXY_OBJECT
  5
8CF
102
{ACAD_REACTORS
330
8B7
102
}
330
8B7
100
AcDbProxyObject
 90
      499
 91
      502
 93
       90
310
429500400000000000000000
  0
ACAD_PROXY_OBJECT
  5
8D5
102
{ACAD_REACTORS
330
8B7
102
}
330
8B7
100
AcDbProxyObject
 90
      499
 91
      502
 93
      218
310
46828000000000000000000000000000000000000000000000000000
  0
ACAD_PROXY_OBJECT
  5
8D1
102
{ACAD_REACTORS
330
8B7
102
}
330
8B7
100
AcDbProxyObject
 90
      499
 91
      502
 93
      218
310
46828000000000000000000000000000000000000000000000000000
  0
ACAD_PROXY_OBJECT
  5
8D4
102
{ACAD_REACTORS
330
8B7
102
}
330
8B7
100
AcDbProxyObject
 90
      499
 91
      502
 93
      218
310
46828000000000000000000000000000000000000000000000000000
  0
ACAD_PROXY_OBJECT
  5
8D2
102
{ACAD_REACTORS
330
8B7
102
}
330
8B7
100
AcDbProxyObject
 90
      499
 91
      502
 93
      218
310
46828000000000000000000000000000000000000000000000000000
  0
ACAD_PROXY_OBJECT
  5
8D3
102
{ACAD_REACTORS
330
8B7
102
}
330
8B7
100
AcDbProxyObject
 90
      499
 91
      502
 93
      218
310
46828000000000000000000000000000000000000000000000000000
  0
ACAD_PROXY_OBJECT
  5
8D0
102
{ACAD_REACTORS
330
8B7
102
}
330
8B7
100
AcDbProxyObject
 90
      499
 91
      502
 93
      218
310
46828000000000000000000000000000000000000000000000000000
  0
ACAD_PROXY_OBJECT
  5
8CD
102
{ACAD_REACTORS
330
8B7
102
}
330
8B7
100
AcDbProxyObject
 90
      499
 91
      502
 93
       90
310
429500400000000000000000
  0
ACAD_PROXY_OBJECT
  5
8CE
102
{ACAD_REACTORS
330
8B7
102
}
330
8B7
100
AcDbProxyObject
 90
      499
 91
      502
 93
       42
310
411180000000
  0
ACAD_PROXY_OBJECT
  5
8C2
102
{ACAD_REACTORS
330
8B7
102
}
330
8B7
100
AcDbProxyObject
 90
      499
 91
      502
 93
      354
310
4AC0400980079ED19051508C50CCCC8B514C0C4E4B4C4C510D4B4E4C8E508B4C0C10CC11118C8D4D9150CD1F40
  0
ENDSEC
  0
EOF
