  0
SECTION
  2
HEADER
  9
$ACADVER
  1
AC1015
  9
$ACADMAINTVER
 70
     6
  9
$DWGCODEPAGE
  3
ANSI_1252
  9
$INSBASE
 10
0.0
 20
0.0
 30
0.0
  9
$EXTMIN
 10
-13.75252504048759
 20
0.0581688130953336
 30
0.0
  9
$EXTMAX
 10
47.49758853294303
 20
66.80591031642444
 30
0.0
  9
$LIMMIN
 10
0.0
 20
0.0
  9
$LIMMAX
 10
12.0
 20
9.0
  9
$ORTHOMODE
 70
     0
  9
$REGENMODE
 70
     1
  9
$FILLMODE
 70
     1
  9
$QTEXTMODE
 70
     0
  9
$MIRRTEXT
 70
     1
  9
$LTSCALE
 40
0.0393700787401575
  9
$ATTMODE
 70
     1
  9
$TEXTSIZE
 40
0.2
  9
$TRACEWID
 40
0.05
  9
$TEXTSTYLE
  7
Standard
  9
$CLAYER
  8
DEFAULT
  9
$CELTYPE
  6
ByLayer
  9
$CECOLOR
 62
   256
  9
$CELTSCALE
 40
1.0
  9
$DISPSILH
 70
     0
  9
$DIMSCALE
 40
1.0
  9
$DIMASZ
 40
0.18
  9
$DIMEXO
 40
0.0625
  9
$DIMDLI
 40
0.38
  9
$DIMRND
 40
0.0
  9
$DIMDLE
 40
0.0
  9
$DIMEXE
 40
0.18
  9
$DIMTP
 40
0.0
  9
$DIMTM
 40
0.0
  9
$DIMTXT
 40
0.18
  9
$DIMCEN
 40
0.09
  9
$DIMTSZ
 40
0.0
  9
$DIMTOL
 70
     0
  9
$DIMLIM
 70
     0
  9
$DIMTIH
 70
     1
  9
$DIMTOH
 70
     1
  9
$DIMSE1
 70
     0
  9
$DIMSE2
 70
     0
  9
$DIMTAD
 70
     0
  9
$DIMZIN
 70
     0
  9
$DIMBLK
  1

  9
$DIMASO
 70
     1
  9
$DIMSHO
 70
     1
  9
$DIMPOST
  1

  9
$DIMAPOST
  1

  9
$DIMALT
 70
     0
  9
$DIMALTD
 70
     2
  9
$DIMALTF
 40
25.4
  9
$DIMLFAC
 40
1.0
  9
$DIMTOFL
 70
     0
  9
$DIMTVP
 40
0.0
  9
$DIMTIX
 70
     0
  9
$DIMSOXD
 70
     0
  9
$DIMSAH
 70
     0
  9
$DIMBLK1
  1

  9
$DIMBLK2
  1

  9
$DIMSTYLE
  2
Standard
  9
$DIMCLRD
 70
     0
  9
$DIMCLRE
 70
     0
  9
$DIMCLRT
 70
     0
  9
$DIMTFAC
 40
1.0
  9
$DIMGAP
 40
0.09
  9
$DIMJUST
 70
     0
  9
$DIMSD1
 70
     0
  9
$DIMSD2
 70
     0
  9
$DIMTOLJ
 70
     1
  9
$DIMTZIN
 70
     0
  9
$DIMALTZ
 70
     0
  9
$DIMALTTZ
 70
     0
  9
$DIMUPT
 70
     0
  9
$DIMDEC
 70
     4
  9
$DIMTDEC
 70
     4
  9
$DIMALTU
 70
     2
  9
$DIMALTTD
 70
     2
  9
$DIMTXSTY
  7
Standard
  9
$DIMAUNIT
 70
     0
  9
$DIMADEC
 70
     0
  9
$DIMALTRND
 40
0.0
  9
$DIMAZIN
 70
     0
  9
$DIMDSEP
 70
    46
  9
$DIMATFIT
 70
     3
  9
$DIMFRAC
 70
     0
  9
$DIMLDRBLK
  1

  9
$DIMLUNIT
 70
     2
  9
$DIMLWD
 70
    -2
  9
$DIMLWE
 70
    -2
  9
$DIMTMOVE
 70
     2
  9
$LUNITS
 70
     2
  9
$LUPREC
 70
     3
  9
$SKETCHINC
 40
0.1
  9
$FILLETRAD
 40
0.5
  9
$AUNITS
 70
     0
  9
$AUPREC
 70
     0
  9
$MENU
  1
.
  9
$ELEVATION
 40
0.0
  9
$PELEVATION
 40
0.0
  9
$THICKNESS
 40
0.0
  9
$LIMCHECK
 70
     0
  9
$CHAMFERA
 40
0.5
  9
$CHAMFERB
 40
0.5
  9
$CHAMFERC
 40
1.0
  9
$CHAMFERD
 40
0.0
  9
$SKPOLY
 70
     0
  9
$TDCREATE
 40
2455345.635695011
  9
$TDUCREATE
 40
2455345.802361678
  9
$TDUPDATE
 40
2455345.635695023
  9
$TDUUPDATE
 40
2455345.80236169
  9
$TDINDWG
 40
0.0000000116
  9
$TDUSRTIMER
 40
0.0000000116
  9
$USRTIMER
 70
     1
  9
$ANGBASE
 50
0.0
  9
$ANGDIR
 70
     0
  9
$PDMODE
 70
     0
  9
$PDSIZE
 40
0.0
  9
$PLINEWID
 40
0.0
  9
$SPLFRAME
 70
     0
  9
$SPLINETYPE
 70
     6
  9
$SPLINESEGS
 70
     8
  9
$HANDSEED
  5
71
  9
$SURFTAB1
 70
     6
  9
$SURFTAB2
 70
     6
  9
$SURFTYPE
 70
     6
  9
$SURFU
 70
     6
  9
$SURFV
 70
     6
  9
$UCSBASE
  2

  9
$UCSNAME
  2

  9
$UCSORG
 10
0.0
 20
0.0
 30
0.0
  9
$UCSXDIR
 10
1.0
 20
0.0
 30
0.0
  9
$UCSYDIR
 10
0.0
 20
1.0
 30
0.0
  9
$UCSORTHOREF
  2

  9
$UCSORTHOVIEW
 70
     0
  9
$UCSORGTOP
 10
0.0
 20
0.0
 30
0.0
  9
$UCSORGBOTTOM
 10
0.0
 20
0.0
 30
0.0
  9
$UCSORGLEFT
 10
0.0
 20
0.0
 30
0.0
  9
$UCSORGRIGHT
 10
0.0
 20
0.0
 30
0.0
  9
$UCSORGFRONT
 10
0.0
 20
0.0
 30
0.0
  9
$UCSORGBACK
 10
0.0
 20
0.0
 30
0.0
  9
$PUCSBASE
  2

  9
$PUCSNAME
  2

  9
$PUCSORG
 10
0.0
 20
0.0
 30
0.0
  9
$PUCSXDIR
 10
1.0
 20
0.0
 30
0.0
  9
$PUCSYDIR
 10
0.0
 20
1.0
 30
0.0
  9
$PUCSORTHOREF
  2

  9
$PUCSORTHOVIEW
 70
     0
  9
$PUCSORGTOP
 10
0.0
 20
0.0
 30
0.0
  9
$PUCSORGBOTTOM
 10
0.0
 20
0.0
 30
0.0
  9
$PUCSORGLEFT
 10
0.0
 20
0.0
 30
0.0
  9
$PUCSORGRIGHT
 10
0.0
 20
0.0
 30
0.0
  9
$PUCSORGFRONT
 10
0.0
 20
0.0
 30
0.0
  9
$PUCSORGBACK
 10
0.0
 20
0.0
 30
0.0
  9
$USERI1
 70
     0
  9
$USERI2
 70
     0
  9
$USERI3
 70
     0
  9
$USERI4
 70
     0
  9
$USERI5
 70
     0
  9
$USERR1
 40
0.0
  9
$USERR2
 40
0.0
  9
$USERR3
 40
0.0
  9
$USERR4
 40
0.0
  9
$USERR5
 40
0.0
  9
$WORLDVIEW
 70
     1
  9
$SHADEDGE
 70
     3
  9
$SHADEDIF
 70
    70
  9
$TILEMODE
 70
     1
  9
$MAXACTVP
 70
    64
  9
$PINSBASE
 10
0.0
 20
0.0
 30
0.0
  9
$PLIMCHECK
 70
     0
  9
$PEXTMIN
 10
1.000000000000000E+20
 20
1.000000000000000E+20
 30
1.000000000000000E+20
  9
$PEXTMAX
 10
-1.000000000000000E+20
 20
-1.000000000000000E+20
 30
-1.000000000000000E+20
  9
$PLIMMIN
 10
0.0
 20
0.0
  9
$PLIMMAX
 10
12.0
 20
9.0
  9
$UNITMODE
 70
     0
  9
$VISRETAIN
 70
     1
  9
$PLINEGEN
 70
     0
  9
$PSLTSCALE
 70
     1
  9
$TREEDEPTH
 70
  3020
  9
$CMLSTYLE
  2
Standard
  9
$CMLJUST
 70
     0
  9
$CMLSCALE
 40
1.0
  9
$PROXYGRAPHICS
 70
     1
  9
$MEASUREMENT
 70
     0
  9
$CELWEIGHT
370
    -1
  9
$ENDCAPS
280
     0
  9
$JOINSTYLE
280
     0
  9
$LWDISPLAY
290
     0
  9
$INSUNITS
 70
     1
  9
$HYPERLINKBASE
  1

  9
$STYLESHEET
  1

  9
$XEDIT
290
     1
  9
$CEPSNTYPE
380
     0
  9
$PSTYLEMODE
290
     1
  9
$FINGERPRINTGUID
  2
{A2E88A77-AC78-454B-996F-3178A7CB2867}
  9
$VERSIONGUID
  2
{FAEB1C32-E019-11D5-929B-00C0DF256EC4}
  9
$EXTNAMES
290
     1
  9
$PSVPSCALE
 40
0.0
  9
$OLESTARTUP
290
     0
  0
ENDSEC
  0
SECTION
  2
CLASSES
  0
CLASS
  1
ACDBDICTIONARYWDFLT
  2
AcDbDictionaryWithDefault
  3
ObjectDBX Classes
 90
        0
280
     0
281
     0
  0
CLASS
  1
VISUALSTYLE
  2
AcDbVisualStyle
  3
ObjectDBX Classes
 90
     4095
280
     0
281
     0
  0
CLASS
  1
ACDBPLACEHOLDER
  2
AcDbPlaceHolder
  3
ObjectDBX Classes
 90
        0
280
     0
281
     0
  0
CLASS
  1
LAYOUT
  2
AcDbLayout
  3
ObjectDBX Classes
 90
        0
280
     0
281
     0
  0
ENDSEC
  0
SECTION
  2
TABLES
  0
TABLE
  2
VPORT
  5
8
330
0
100
AcDbSymbolTable
 70
     1
  0
VPORT
  5
29
330
8
100
AcDbSymbolTableRecord
100
AcDbViewportTableRecord
  2
*Active
 70
     0
 10
0.0
 20
0.0
 11
1.0
 21
1.0
 12
16.87253174622772
 22
33.43203956475989
 13
0.0
 23
0.0
 14
0.5
 24
0.5
 15
0.5
 25
0.5
 16
0.0
 26
0.0
 36
1.0
 17
0.0
 27
0.0
 37
0.0
 40
68.08269633339569
 41
0.9176357460780259
 42
50.0
 43
0.0
 44
0.0
 50
0.0
 51
0.0
 71
     0
 72
   100
 73
     1
 74
     3
 75
     0
 76
     0
 77
     0
 78
     0
281
     0
 65
     1
110
0.0
120
0.0
130
0.0
111
1.0
121
0.0
131
0.0
112
0.0
122
1.0
132
0.0
 79
     0
146
0.0
  0
ENDTAB
  0
TABLE
  2
LTYPE
  5
5
330
0
100
AcDbSymbolTable
 70
     1
  0
LTYPE
  5
14
330
5
100
AcDbSymbolTableRecord
100
AcDbLinetypeTableRecord
  2
ByBlock
 70
     0
  3

 72
    65
 73
     0
 40
0.0
  0
LTYPE
  5
15
330
5
100
AcDbSymbolTableRecord
100
AcDbLinetypeTableRecord
  2
ByLayer
 70
     0
  3

 72
    65
 73
     0
 40
0.0
  0
LTYPE
  5
16
330
5
100
AcDbSymbolTableRecord
100
AcDbLinetypeTableRecord
  2
Continuous
 70
     0
  3
Solid line
 72
    65
 73
     0
 40
0.0
  0
ENDTAB
  0
TABLE
  2
LAYER
  5
2
330
0
100
AcDbSymbolTable
 70
     2
  0
LAYER
  5
10
330
2
100
AcDbSymbolTableRecord
100
AcDbLayerTableRecord
  2
0
 70
     0
 62
     7
  6
Continuous
370
    -3
390
F
  0
LAYER
  5
3B
330
2
100
AcDbSymbolTableRecord
100
AcDbLayerTableRecord
  2
DEFAULT
 70
     0
 62
     7
  6
Continuous
370
    -3
390
F
  0
ENDTAB
  0
TABLE
  2
STYLE
  5
3
330
0
100
AcDbSymbolTable
 70
     1
  0
STYLE
  5
11
330
3
100
AcDbSymbolTableRecord
100
AcDbTextStyleTableRecord
  2
Standard
 70
     0
 40
0.0
 41
1.0
 50
0.0
 71
     0
 42
0.2
  3
txt
  4

  0
ENDTAB
  0
TABLE
  2
VIEW
  5
6
330
0
100
AcDbSymbolTable
 70
     0
  0
ENDTAB
  0
TABLE
  2
UCS
  5
7
330
0
100
AcDbSymbolTable
 70
     0
  0
ENDTAB
  0
TABLE
  2
APPID
  5
9
330
0
100
AcDbSymbolTable
 70
     1
  0
APPID
  5
12
330
9
100
AcDbSymbolTableRecord
100
AcDbRegAppTableRecord
  2
ACAD
 70
     0
  0
ENDTAB
  0
TABLE
  2
DIMSTYLE
  5
A
330
0
100
AcDbSymbolTable
 70
     1
100
AcDbDimStyleTable
  0
DIMSTYLE
105
27
330
A
100
AcDbSymbolTableRecord
100
AcDbDimStyleTableRecord
  2
Standard
 70
     0
340
11
  0
ENDTAB
  0
TABLE
  2
BLOCK_RECORD
  5
1
330
0
100
AcDbSymbolTable
 70
     1
  0
BLOCK_RECORD
  5
1F
330
1
100
AcDbSymbolTableRecord
100
AcDbBlockTableRecord
  2
*Model_Space
340
22
  0
BLOCK_RECORD
  5
1B
330
1
100
AcDbSymbolTableRecord
100
AcDbBlockTableRecord
  2
*Paper_Space
340
1E
  0
BLOCK_RECORD
  5
23
330
1
100
AcDbSymbolTableRecord
100
AcDbBlockTableRecord
  2
*Paper_Space0
340
26
  0
ENDTAB
  0
ENDSEC
  0
SECTION
  2
BLOCKS
  0
BLOCK
  5
20
330
1F
100
AcDbEntity
  8
0
100
AcDbBlockBegin
  2
*Model_Space
 70
     0
 10
0.0
 20
0.0
 30
0.0
  3
*Model_Space
  1

  0
ENDBLK
  5
21
330
1F
100
AcDbEntity
  8
0
100
AcDbBlockEnd
  0
BLOCK
  5
1C
330
1B
100
AcDbEntity
 67
     1
  8
0
100
AcDbBlockBegin
  2
*Paper_Space
 70
     0
 10
0.0
 20
0.0
 30
0.0
  3
*Paper_Space
  1

  0
ENDBLK
  5
1D
330
1B
100
AcDbEntity
 67
     1
  8
0
100
AcDbBlockEnd
  0
BLOCK
  5
24
330
23
100
AcDbEntity
  8
0
100
AcDbBlockBegin
  2
*Paper_Space0
 70
     0
 10
0.0
 20
0.0
 30
0.0
  3
*Paper_Space0
  1

  0
ENDBLK
  5
25
330
23
100
AcDbEntity
  8
0
100
AcDbBlockEnd
  0
ENDSEC
  0
SECTION
  2
ENTITIES
  0
SPLINE
  5
3C
330
1F
100
AcDbEntity
  8
DEFAULT
100
AcDbSpline
210
0.0
220
0.0
230
1.0
 70
    24
 71
     2
 72
     6
 73
     3
 74
     0
 42
0.0000000001
 43
0.0000000001
 40
0.0
 40
0.0
 40
0.0
 40
1.0
 40
1.0
 40
1.0
 10
30.01746428711302
 20
12.98890181652497
 30
0.0
 10
35.54898078711302
 20
13.66632231652497
 30
0.0
 10
41.08049728711302
 20
14.34374281652497
 30
0.0
  0
SPLINE
  5
3D
330
1F
100
AcDbEntity
  8
DEFAULT
100
AcDbSpline
210
0.0
220
0.0
230
1.0
 70
    24
 71
     2
 72
     6
 73
     3
 74
     0
 42
0.0000000001
 43
0.0000000001
 40
0.0
 40
0.0
 40
0.0
 40
1.0
 40
1.0
 40
1.0
 10
43.12455428711303
 20
14.59406981652497
 30
0.0
 10
45.31106628711303
 20
14.86184281652497
 30
0.0
 10
47.49757828711303
 20
15.12961581652498
 30
0.0
  0
SPLINE
  5
3E
330
1F
100
AcDbEntity
  8
DEFAULT
100
AcDbSpline
210
0.0
220
0.0
230
1.0
 70
    12
 71
     3
 72
    53
 73
    49
 74
     0
 42
0.0000000001
 43
0.0000000001
 40
0.0
 40
0.0
 40
0.0
 40
0.0
 40
1.000000005036964
 40
2.000000010073929
 40
3.000000015110893
 40
4.000000020147858
 40
5.0
 40
5.0
 40
5.0
 40
6.0
 40
6.0
 40
6.0
 40
6.061022828208115
 40
6.122079913616673
 40
6.183140667869009
 40
6.24422474384945
 40
6.305433665290473
 40
6.366838105552264
 40
6.428499200910659
 40
6.490466013687245
 40
6.61533701421126
 40
6.741800291333464
 40
6.805748392577095
 40
6.870179252788522
 40
7.0
 40
7.0
 40
7.0
 40
8.0
 40
8.0
 40
8.0
 40
8.999999767938538
 40
9.999999825953903
 40
10.99999988396927
 40
11.99999994198464
 40
13.0
 40
13.0
 40
13.0
 40
13.01097446148422
 40
13.01097446148422
 40
13.01097446148422
 40
14.01091411059059
 40
15.01092922703484
 40
16.01094434347909
 40
17.01095945992333
 40
18.01097446148422
 40
18.01097446148422
 40
18.01097446148422
 40
19.01097446148422
 40
19.01097446148422
 40
19.01097446148422
 40
19.01097446148422
 10
29.09120110859302
 20
14.42201476073497
 30
0.0
 41
1.0
 10
29.16300527297149
 20
14.53742570374813
 30
0.0
 41
1.0
 10
29.23228891455902
 20
14.80129153485261
 30
0.0
 41
1.0
 10
29.32426315400424
 20
15.19544711458513
 30
0.0
 41
1.0
 10
29.39730278170403
 20
15.59486393527058
 30
0.0
 41
1.0
 10
29.45287881072404
 20
15.99667371763786
 30
0.0
 41
1.0
 10
29.48266489933105
 20
16.26549212267649
 30
0.0
 41
1.0
 10
29.49870653076802
 20
16.39974879769997
 30
0.0
 41
1.0
 10
29.73477772058469
 20
18.38196839236331
 30
0.0
 41
1.0
 10
29.97084891040136
 20
20.36418798702664
 30
0.0
 41
1.0
 10
30.20692010021802
 20
22.34640758168997
 30
0.0
 41
1.0
 10
30.21071394624616
 20
22.37826464799327
 30
0.0
 41
1.0
 10
30.2216778880109
 20
22.44164207132797
 30
0.0
 41
1.0
 10
30.24768810399302
 20
22.53450566209497
 30
0.0
 41
1.0
 10
30.28278655024302
 20
22.62436906712497
 30
0.0
 41
1.0
 10
30.32648056922303
 20
22.71045882951498
 30
0.0
 41
1.0
 10
30.37817381941302
 20
22.79220195407498
 30
0.0
 41
1.0
 10
30.43733001114302
 20
22.86909120913497
 30
0.0
 41
1.0
 10
30.50340962838303
 20
22.94066271111497
 30
0.0
 41
1.0
 10
30.60021939344302
 20
23.02860090292497
 30
0.0
 41
1.0
 10
30.73619128099302
 20
23.12308275340497
 30
0.0
 41
1.0
 10
30.88704013634302
 20
23.19375566196497
 30
0.0
 41
1.0
 10
31.01469672232303
 20
23.23492017963498
 30
0.0
 41
1.0
 10
31.1470782556527
 20
23.26546217150939
 30
0.0
 41
1.0
 10
31.24939519228069
 20
23.27552559992942
 30
0.0
 41
1.0
 10
31.31764440480802
 20
23.27614575645998
 30
0.0
 41
1.0
 10
34.74672767489302
 20
23.30729884210998
 30
0.0
 41
1.0
 10
38.17581094497802
 20
23.33845192775998
 30
0.0
 41
1.0
 10
41.60489421506303
 20
23.36960501340998
 30
0.0
 41
1.0
 10
41.68569254968986
 20
23.37031573678738
 30
0.0
 41
1.0
 10
41.84729764689691
 20
23.35413503857242
 30
0.0
 41
1.0
 10
42.08013621047475
 20
23.2830284826192
 30
0.0
 41
1.0
 10
42.29591407546657
 20
23.17049572843732
 30
0.0
 41
1.0
 10
42.48778176580142
 20
23.02073257080039
 30
0.0
 41
1.0
 10
42.59467349493683
 20
22.89854959622982
 30
0.0
 41
1.0
 10
42.64139512087651
 20
22.83261369880086
 30
0.0
 41
1.0
 10
43.86357674422364
 20
21.10679076531146
 30
0.0
 41
0.9999899634581109
 10
45.07627002672217
 20
19.3742874548417
 30
0.0
 41
0.9999899634581109
 10
46.2794384546313
 20
17.63515593241772
 30
0.0
 41
1.0
 10
46.35160355753267
 20
17.53064209322671
 30
0.0
 41
1.0
 10
46.49396523698341
 20
17.31967681072672
 30
0.0
 41
1.0
 10
46.69925904399592
 20
16.99989467446821
 30
0.0
 41
1.0
 10
46.87809683615571
 20
16.65679603553418
 30
0.0
 41
1.0
 10
47.1723215387577
 20
16.41134915256827
 30
0.0
 41
1.0
 10
47.34992467263029
 20
16.22949167899017
 30
0.0
 41
1.0
 10
47.45148420882802
 20
16.15257764042997
 30
0.0
 41
1.0
 10
47.46684890158969
 20
15.81159036579498
 30
0.0
 41
1.0
 10
47.48221359435136
 20
15.47060309115997
 30
0.0
 41
1.0
 10
47.49757828711303
 20
15.12961581652498
 30
0.0
 41
1.0
  0
SPLINE
  5
3F
330
1F
100
AcDbEntity
  8
DEFAULT
100
AcDbSpline
210
0.0
220
0.0
230
1.0
 70
     8
 71
     3
 72
    12
 73
     8
 74
     0
 42
0.0000000001
 43
0.0000000001
 40
0.0
 40
0.0
 40
0.0
 40
0.0
 40
1.0
 40
2.0
 40
3.0
 40
4.0
 40
5.0
 40
5.0
 40
5.0
 40
5.0
 10
25.50110786174303
 20
0.2375559405301746
 30
0.0
 10
25.54067673833704
 20
0.2508684552447071
 30
0.0
 10
25.62769557885311
 20
0.2317029748164507
 30
0.0
 10
25.75197972705073
 20
0.2046076091221465
 30
0.0
 10
25.87639428362263
 20
0.1687637555679971
 30
0.0
 10
25.99607481354392
 20
0.1256163177010584
 30
0.0
 10
26.07990611176738
 20
0.0955582931839541
 30
0.0
 10
26.10643954378303
 20
0.0632622568456749
 30
0.0
  0
SPLINE
  5
40
330
1F
100
AcDbEntity
  8
DEFAULT
100
AcDbSpline
210
0.0
220
0.0
230
1.0
 70
     8
 71
     3
 72
    12
 73
     8
 74
     0
 42
0.0000000001
 43
0.0000000001
 40
0.0
 40
0.0
 40
0.0
 40
0.0
 40
1.0
 40
2.0
 40
3.0
 40
4.0
 40
5.0
 40
5.0
 40
5.0
 40
5.0
 10
46.11837540816302
 20
0.1893075693988737
 30
0.0
 10
46.08043185483484
 20
0.2068570921637388
 30
0.0
 10
45.99179850713678
 20
0.1962283432890169
 30
0.0
 10
45.86542587804306
 20
0.181306854348243
 30
0.0
 10
45.7380346992226
 20
0.157516553597092
 30
0.0
 10
45.61477205306495
 20
0.1258391455128049
 30
0.0
 10
45.52833466386704
 20
0.1037195917384194
 30
0.0
 10
45.49917459202302
 20
0.0737342522583737
 30
0.0
  0
SPLINE
  5
41
330
1F
100
AcDbEntity
  8
DEFAULT
100
AcDbSpline
210
0.0
220
0.0
230
1.0
 70
     8
 71
     2
 72
     8
 73
     5
 74
     0
 42
0.0000000001
 43
0.0000000001
 40
0.0
 40
0.0
 40
0.0
 40
0.7916596177303669
 40
0.7916596177303669
 40
1.791659617730367
 40
1.791659617730367
 40
1.791659617730367
 10
29.66903528711302
 20
12.94623081652497
 30
0.0
 10
29.27614078711303
 20
12.89811481652497
 30
0.0
 10
28.88324628711303
 20
12.84999881652497
 30
0.0
 10
28.87331678711302
 20
13.00097231652498
 30
0.0
 10
28.86338728711302
 20
13.15194581652498
 30
0.0
  0
SPLINE
  5
42
330
1F
100
AcDbEntity
  8
DEFAULT
100
AcDbSpline
210
0.0
220
0.0
230
1.0
 70
     8
 71
     3
 72
    49
 73
    45
 74
     0
 42
0.0000000001
 43
0.0000000001
 40
-5.0
 40
-5.0
 40
-5.0
 40
-5.0
 40
-3.999998047975587
 40
-2.999996095951174
 40
-1.999994143926761
 40
-0.9999921919023477
 40
0.0
 40
0.0
 40
0.0
 40
0.10088850829438
 40
0.2124322751621375
 40
0.332798251833383
 40
0.4601539951635184
 40
0.5926516300744187
 40
0.7282461676644467
 40
0.8647567410313601
 40
1.0
 40
1.0
 40
1.0
 40
2.000000095258053
 40
3.000000190516106
 40
4.000000285774159
 40
5.000000381032212
 40
6.0
 40
6.0
 40
6.0
 40
7.0
 40
7.0
 40
7.0
 40
8.000000102771406
 40
9.000000205542811
 40
10.00000030831422
 40
11.00000041108562
 40
12.0
 40
12.0
 40
12.0
 40
13.0
 40
13.0
 40
13.0
 40
13.99999993669511
 40
14.99999995252133
 40
15.99999996834755
 40
16.99999998417378
 40
18.0
 40
18.0
 40
18.0
 40
18.0
 10
47.49758853294303
 20
15.12961665311497
 30
0.0
 10
47.3835373841592
 20
15.22219264662206
 30
0.0
 10
47.151138609409
 20
15.40779581758659
 30
0.0
 10
46.87797404444699
 20
15.75427992281986
 30
0.0
 10
46.67541545797238
 20
16.14942597044636
 30
0.0
 10
46.4597471449153
 20
16.53477099328587
 30
0.0
 10
46.30776369544419
 20
16.78758983759245
 30
0.0
 10
46.22389087567302
 20
16.90879294135497
 30
0.0
 10
46.08985498979337
 20
17.10292263909562
 30
0.0
 10
45.80738005150631
 20
17.51151423758258
 30
0.0
 10
45.36460617706302
 20
18.15144703374497
 30
0.0
 10
44.88660847549302
 20
18.84226616880498
 30
0.0
 10
44.38094249047302
 20
19.57352243026497
 30
0.0
 10
43.85543625300302
 20
20.33435227013497
 30
0.0
 10
43.31843898762303
 20
21.11326146161498
 30
0.0
 10
42.77877692233302
 20
21.89813065415498
 30
0.0
 10
42.41962798464303
 20
22.42234053503498
 30
0.0
 10
42.24117229579802
 20
22.68341720847998
 30
0.0
 10
42.19543798488246
 20
22.75028837267902
 30
0.0
 10
42.09002829098159
 20
22.87434744850339
 30
0.0
 10
41.8993773487292
 20
23.02674155401885
 30
0.0
 10
41.68401932450706
 20
23.14151179478551
 30
0.0
 10
41.45102984768957
 20
23.21438241706801
 30
0.0
 10
41.28907854662975
 20
23.23148120798745
 30
0.0
 10
41.20806417075302
 20
23.23118798221497
 30
0.0
 10
38.00937083102635
 20
23.21889922912164
 30
0.0
 10
34.81067749129969
 20
23.20661047602831
 30
0.0
 10
31.61198415157302
 20
23.19432172293498
 30
0.0
 10
31.50664614096827
 20
23.19388595835511
 30
0.0
 10
31.29619510795212
 20
23.16417721343652
 30
0.0
 10
31.00328249246342
 20
23.0383370078638
 30
0.0
 10
30.75446374726963
 20
22.83865878621589
 30
0.0
 10
30.57237814390142
 20
22.57598666367167
 30
0.0
 10
30.51118500330727
 20
22.37147051019389
 30
0.0
 10
30.49869007766803
 20
22.26684767795497
 30
0.0
 10
30.23061496397469
 20
20.02395713390664
 30
0.0
 10
29.96253985028136
 20
17.78106658985831
 30
0.0
 10
29.69446473658802
 20
15.53817604580998
 30
0.0
 10
29.67280528409388
 20
15.35739155832761
 30
0.0
 10
29.63026036069666
 20
14.99559943604277
 30
0.0
 10
29.55624821708439
 20
14.45463445915926
 30
0.0
 10
29.45949227049305
 20
13.91561917402005
 30
0.0
 10
29.33996101566064
 20
13.3869522681009
 30
0.0
 10
29.25599433748684
 20
13.02172270073413
 30
0.0
 10
29.13696523543303
 20
12.88603133232497
 30
0.0
  0
SPLINE
  5
43
330
1F
100
AcDbEntity
  8
DEFAULT
100
AcDbSpline
210
0.0
220
0.0
230
1.0
 70
     8
 71
     3
 72
    12
 73
     8
 74
     0
 42
0.0000000001
 43
0.0000000001
 40
0.0
 40
0.0
 40
0.0
 40
0.0
 40
1.0
 40
2.0
 40
3.0
 40
4.0
 40
5.0
 40
5.0
 40
5.0
 40
5.0
 10
40.29509072251302
 20
14.11541274172497
 30
0.0
 10
40.23484837337176
 20
14.09842638065039
 30
0.0
 10
40.13188999527492
 20
14.01553062729197
 30
0.0
 10
40.08427985155822
 20
13.82656669269993
 30
0.0
 10
40.13805510241295
 20
13.64146675903009
 30
0.0
 10
40.27954218372749
 20
13.50743317285858
 30
0.0
 10
40.41087114138935
 20
13.49267810668526
 30
0.0
 10
40.47090228711302
 20
13.51056081652497
 30
0.0
  0
SPLINE
  5
44
330
1F
100
AcDbEntity
  8
DEFAULT
100
AcDbSpline
210
0.0
220
0.0
230
1.0
 70
     8
 71
     3
 72
    12
 73
     8
 74
     0
 42
0.0000000001
 43
0.0000000001
 40
0.0
 40
0.0
 40
0.0
 40
0.0
 40
1.0
 40
2.0
 40
3.0
 40
4.0
 40
5.0
 40
5.0
 40
5.0
 40
5.0
 10
32.02855777744301
 20
13.07846610945497
 30
0.0
 10
32.09044076692807
 20
13.0817119075855
 30
0.0
 10
32.21255086357766
 20
13.03454349065044
 30
0.0
 10
32.31387446715549
 20
12.87099628387519
 30
0.0
 10
32.32235740216719
 20
12.68123496108265
 30
0.0
 10
32.23595006215682
 20
12.50931789047002
 30
0.0
 10
32.11851320329384
 20
12.45151119833927
 30
0.0
 10
32.05658928711301
 20
12.44918881652498
 30
0.0
  0
SPLINE
  5
45
330
1F
100
AcDbEntity
  8
DEFAULT
100
AcDbSpline
210
0.0
220
0.0
230
1.0
 70
     8
 71
     3
 72
    24
 73
    20
 74
     0
 42
0.0000000001
 43
0.0000000001
 40
0.0
 40
0.0
 40
0.0
 40
0.0
 40
1.0
 40
2.0
 40
3.0
 40
4.0
 40
5.0
 40
6.0
 40
7.0
 40
8.0
 40
9.0
 40
10.0
 40
11.0
 40
12.0
 40
13.0
 40
14.0
 40
15.0
 40
16.0
 40
17.0
 40
17.0
 40
17.0
 40
17.0
 10
27.28973492252303
 20
12.65666753997497
 30
0.0
 10
27.51204156888717
 20
12.98655618945153
 30
0.0
 10
27.62127811170722
 20
13.80761529568909
 30
0.0
 10
27.80194740343471
 20
14.99590479445759
 30
0.0
 10
27.94200842838422
 20
16.20067978444793
 30
0.0
 10
28.08893479407657
 20
17.40156521429928
 30
0.0
 10
28.23256189036286
 20
18.60355249401682
 30
0.0
 10
28.37756386094621
 20
19.80561716320022
 30
0.0
 10
28.51990130368476
 20
21.00632774041608
 30
0.0
 10
28.66763189858397
 20
22.21284377106142
 30
0.0
 10
28.48538181671745
 20
23.41982575965287
 30
0.0
 10
28.03108580662334
 20
24.55573256782424
 30
0.0
 10
27.26404905534114
 20
25.49992532049731
 30
0.0
 10
26.49575928440621
 20
26.43315122789193
 30
0.0
 10
25.7273392609825
 20
27.36929334822461
 30
0.0
 10
24.96115794912159
 20
28.30511764244884
 30
0.0
 10
24.18644341579333
 20
29.23953843767373
 30
0.0
 10
23.44318837495375
 20
30.17953630461865
 30
0.0
 10
22.85781241229865
 20
30.78250027742884
 30
0.0
 10
22.44948641385303
 20
30.84526557315498
 30
0.0
  0
SPLINE
  5
46
330
1F
100
AcDbEntity
  8
DEFAULT
100
AcDbSpline
210
0.0
220
0.0
230
1.0
 70
    15
 71
     3
 72
   111
 73
   107
 74
     0
 42
0.0000000001
 43
0.0000000001
 40
-5.0
 40
-5.0
 40
-5.0
 40
-5.0
 40
-4.0
 40
-3.0
 40
-2.0
 40
-1.0
 40
-0.0000000000000003
 40
-0.0000000000000003
 40
-0.0000000000000003
 40
1.0
 40
1.0
 40
1.0
 40
2.000008301016858
 40
3.000016602033715
 40
4.000024903050572
 40
5.00003320406743
 40
6.0
 40
6.0
 40
6.0
 40
7.0
 40
7.0
 40
7.0
 40
8.0
 40
9.0
 40
9.999999999999998
 40
11.0
 40
12.0
 40
12.0
 40
12.0
 40
13.14792210548874
 40
13.14792210548874
 40
13.14792210548874
 40
14.14792210548874
 40
15.14792210548874
 40
16.14792210548874
 40
17.14792210548874
 40
18.14792210548874
 40
18.14792210548874
 40
18.14792210548874
 40
19.14792210548874
 40
19.14792210548874
 40
19.14792210548874
 40
20.14792210548874
 40
20.14792210548874
 40
20.14792210548874
 40
21.14792210548874
 40
22.14792210548874
 40
23.14792210548874
 40
24.14792210548874
 40
25.14792210548874
 40
25.14792210548874
 40
25.14792210548874
 40
28.02402091506039
 40
28.02402091506039
 40
28.02402091506039
 40
29.02402091506039
 40
30.02402091506039
 40
31.02402091506039
 40
32.02402091506039
 40
33.02402091506039
 40
33.02402091506039
 40
33.02402091506039
 40
34.02402091506039
 40
34.02402091506039
 40
34.02402091506039
 40
35.02396090903589
 40
36.02397591054201
 40
37.02399091204813
 40
38.02400591355426
 40
39.02402091506039
 40
39.02402091506039
 40
39.02402091506039
 40
40.02402091506039
 40
40.02402091506039
 40
40.02402091506039
 40
41.02402056886596
 40
42.02402065541457
 40
43.02402074196318
 40
44.02402082851179
 40
45.02402091506039
 40
45.02402091506039
 40
45.02402091506039
 40
46.21745820204551
 40
46.21745820204551
 40
46.21745820204551
 40
47.21745823081464
 40
48.21745825958376
 40
49.21745828835289
 40
50.21745831712202
 40
51.21745820204551
 40
51.21745820204551
 40
51.21745820204551
 40
52.21745820204551
 40
52.21745820204551
 40
52.21745820204551
 40
53.21745820204551
 40
54.21745820204551
 40
55.21745820204551
 40
56.21745820204551
 40
57.21745820204551
 40
57.21745820204551
 40
57.21745820204551
 40
58.39101248131117
 40
58.39101248131117
 40
58.39101248131117
 40
58.45975491241111
 40
58.45975491241111
 40
58.45975491241111
 40
58.45975491241111
 10
42.60295027786849
 20
14.77886089024338
 30
0.0
 41
1.0
 10
42.71816055229291
 20
14.79384315887856
 30
0.0
 41
1.0
 10
42.95445751715668
 20
14.746742176606
 30
0.0
 41
1.0
 10
43.22546047949056
 20
14.5177914636288
 30
0.0
 41
1.0
 10
43.41339060240928
 20
14.22324041375556
 30
0.0
 41
1.0
 10
43.54357531907279
 20
13.90001416816484
 30
0.0
 41
1.0
 10
43.59964097434271
 20
13.67483133930609
 30
0.0
 41
1.0
 10
43.62094530262803
 20
13.56101787672997
 30
0.0
 41
1.0
 10
44.4534231509647
 20
9.103787648807291
 30
0.0
 41
1.0
 10
45.28590099930136
 20
4.646557420884608
 30
0.0
 41
1.0
 10
46.11837884763803
 20
0.1893271929619238
 30
0.0
 41
1.0
 10
46.08921533628744
 20
0.1593222299017541
 30
0.0
 41
1.0
 10
46.0027779471482
 20
0.1372026761523569
 30
0.0
 41
1.0
 10
45.87951530096748
 20
0.1055252680579557
 30
0.0
 41
1.0
 10
45.75212412215789
 20
0.0817349673095556
 30
0.0
 41
1.0
 10
45.62575324139264
 20
0.0668136848055732
 30
0.0
 41
1.0
 10
45.53712182406899
 20
0.0561851706366885
 30
0.0
 41
1.0
 10
45.49917143956802
 20
0.0737150343916739
 30
0.0
 41
1.0
 10
44.66669143897635
 20
4.530932317486108
 30
0.0
 41
1.0
 10
43.83421143838469
 20
8.98814960058054
 30
0.0
 41
1.0
 10
43.00173143779303
 20
13.44536688367497
 30
0.0
 41
1.0
 10
42.9919759000465
 20
13.49757820159576
 30
0.0
 41
1.0
 10
42.96876273801601
 20
13.60132665156449
 30
0.0
 41
1.0
 10
42.92204568969225
 20
13.75378780480901
 30
0.0
 41
1.0
 10
42.86159454550007
 20
13.90154871648439
 30
0.0
 41
1.0
 10
42.78357782642362
 20
14.04060905211118
 30
0.0
 41
1.0
 10
42.71464996512807
 20
14.12334667910413
 30
0.0
 41
1.0
 10
42.66934006215304
 20
14.1518392860049
 30
0.0
 41
1.0
 10
42.30231357698744
 20
14.04364667326332
 30
0.0
 41
0.9999988008639878
 10
41.93508254494748
 20
13.93615038786733
 30
0.0
 41
0.9999988008639878
 10
41.56764828711577
 20
13.82935081652579
 30
0.0
 41
1.0
 10
41.42287984092764
 20
13.78727197475443
 30
0.0
 41
1.0
 10
41.13331088663784
 20
13.70309834532084
 30
0.0
 41
1.0
 10
40.69907781721194
 20
13.57689773599997
 30
0.0
 41
1.0
 10
40.2644591605506
 20
13.4505055305836
 30
0.0
 41
1.0
 10
39.81748455098938
 20
13.37724999755179
 30
0.0
 41
1.0
 10
39.5191135619018
 20
13.3348211151231
 30
0.0
 41
1.0
 10
39.36938618736302
 20
13.31686150003998
 30
0.0
 41
1.0
 10
39.36939288727969
 20
13.31680760553498
 30
0.0
 41
1.0
 10
39.36939958719636
 20
13.31675371102997
 30
0.0
 41
1.0
 10
39.36940628711302
 20
13.31669981652497
 30
0.0
 41
1.0
 10
37.28400491517635
 20
13.06130983331497
 30
0.0
 41
1.0
 10
35.19860354323969
 20
12.80591985010498
 30
0.0
 41
1.0
 10
33.11320217130302
 20
12.55052986689497
 30
0.0
 41
1.0
 10
32.97702892252001
 20
12.53377054101711
 30
0.0
 41
1.0
 10
32.70440143085641
 20
12.50296692849826
 30
0.0
 41
1.0
 10
32.29481974981559
 20
12.46127681633534
 30
0.0
 41
1.0
 10
31.88368664419859
 20
12.44108664685418
 30
0.0
 41
1.0
 10
31.4725002264643
 20
12.42329561387347
 30
0.0
 41
1.0
 10
31.19838708719668
 20
12.41093510656449
 30
0.0
 41
1.0
 10
31.06132828711302
 20
12.40485481652497
 30
0.0
 41
1.0
 10
30.66713561141205
 20
12.38732275822107
 30
0.0
 41
1.0
 10
30.2729429357111
 20
12.36979069991715
 30
0.0
 41
1.0
 10
29.87875026001013
 20
12.35225864161324
 30
0.0
 41
1.0
 10
29.82669916066603
 20
12.33494900221329
 30
0.0
 41
1.0
 10
29.74367589374336
 20
12.26137610608278
 30
0.0
 41
1.0
 10
29.64589073431783
 20
12.1312854711605
 30
0.0
 41
1.0
 10
29.5668004765236
 20
11.98841964467663
 30
0.0
 41
1.0
 10
29.50257492250843
 20
11.83864708179888
 30
0.0
 41
1.0
 10
29.4684456919754
 20
11.73547272427008
 30
0.0
 41
1.0
 10
29.45341248766303
 20
11.68331679234497
 30
0.0
 41
1.0
 10
28.33775313025803
 20
7.809960540458424
 30
0.0
 41
1.0
 10
27.22209377285303
 20
3.936604288571875
 30
0.0
 41
1.0
 10
26.10643441544802
 20
0.0632480366853243
 30
0.0
 41
1.0
 10
26.06686414017369
 20
0.0499511796666184
 30
0.0
 41
1.0
 10
25.97984871932615
 20
0.0691159000005372
 30
0.0
 41
1.0
 10
25.85556767847343
 20
0.0962105882522107
 30
0.0
 41
1.0
 10
25.73115312188844
 20
0.1320544418148836
 30
0.0
 41
1.0
 10
25.61147259202342
 20
0.1752018796483553
 30
0.0
 41
1.0
 10
25.52764129364671
 20
0.2052599042492339
 30
0.0
 41
1.0
 10
25.50111257442802
 20
0.237570378527574
 30
0.0
 41
1.0
 10
26.61677520847969
 20
4.110936124931707
 30
0.0
 41
1.0
 10
27.73243784253135
 20
7.984301871335841
 30
0.0
 41
1.0
 10
28.84810047658302
 20
11.85766761773997
 30
0.0
 41
1.0
 10
28.87766235189869
 20
11.96017322019307
 30
0.0
 41
1.0
 10
28.94870819056775
 20
12.1618101649569
 30
0.0
 41
1.0
 10
29.09451387403231
 20
12.44769342929861
 30
0.0
 41
1.0
 10
29.2863441081915
 20
12.70574532592871
 30
0.0
 41
1.0
 10
29.53693501091388
 20
12.91107636970318
 30
0.0
 41
1.0
 10
29.74508939116167
 20
12.97710915636924
 30
0.0
 41
1.0
 10
29.85205928711308
 20
12.98153381652402
 30
0.0
 41
1.0
 10
30.24947546035467
 20
12.99928528110641
 30
0.0
 41
0.9999999950428408
 10
30.64689379565807
 20
13.01698828119417
 30
0.0
 41
0.9999999950428408
 10
31.04431428686365
 20
13.03464281651304
 30
0.0
 41
1.0
 10
31.17739329941926
 20
13.04055456031923
 30
0.0
 41
1.0
 10
31.44355062285785
 20
13.05250888994631
 30
0.0
 41
1.0
 10
31.84278915650301
 20
13.06994972315079
 30
0.0
 41
1.0
 10
32.24201954000081
 20
13.08896067252783
 30
0.0
 41
1.0
 10
32.63969807988022
 20
13.12962380222352
 30
0.0
 41
1.0
 10
32.90441163282239
 20
13.15949655975128
 30
0.0
 41
1.0
 10
33.03663033828802
 20
13.17577987131497
 30
0.0
 41
1.0
 10
35.12203167697469
 20
13.43116991569831
 30
0.0
 41
1.0
 10
37.20743301566135
 20
13.68655996008164
 30
0.0
 41
1.0
 10
39.29283435434802
 20
13.94195000446497
 30
0.0
 41
1.0
 10
39.4369710433163
 20
13.95938987052613
 30
0.0
 41
1.0
 10
39.72418831377551
 20
14.00033867069958
 30
0.0
 41
1.0
 10
40.15461129354719
 20
14.07080273452901
 30
0.0
 41
1.0
 10
40.57186747116126
 20
14.19693544876109
 30
0.0
 41
1.0
 10
40.99025506340182
 20
14.31718956421448
 30
0.0
 41
1.0
 10
41.26894450356153
 20
14.39858370876921
 30
0.0
 41
1.0
 10
41.40833628711304
 20
14.43903581652489
 30
0.0
 41
1.0
 10
41.78402102283763
 20
14.54806117673251
 30
0.0
 41
0.9999997807688196
 10
42.15979405271882
 20
14.65678182714742
 30
0.0
 41
0.9999997807688196
 10
42.53565512962797
 20
14.76519769626918
 30
0.0
 41
1.0
 10
42.55769548661976
 20
14.77155516344472
 30
0.0
 41
0.9978403884113499
 10
42.58017575134513
 20
14.77611941845557
 30
0.0
 41
0.9978403884113499
 10
42.60295027786848
 20
14.77886089024338
 30
0.0
 41
1.0
  0
SPLINE
  5
47
330
1F
100
AcDbEntity
  8
DEFAULT
100
AcDbSpline
210
0.0
220
0.0
230
1.0
 70
    15
 71
     3
 72
    39
 73
    35
 74
     0
 42
0.0000000001
 43
0.0000000001
 40
-3.020084733267288
 40
-3.020084733267288
 40
-3.020084733267288
 40
-3.020084733267288
 40
-2.020084733267288
 40
-2.020084733267288
 40
-2.020084733267288
 40
-1.0
 40
-1.0
 40
-1.0
 40
0.0
 40
0.0
 40
0.0
 40
1.606439375526191
 40
1.606439375526191
 40
1.606439375526191
 40
2.606439375526191
 40
3.606439375526191
 40
4.606439375526191
 40
5.606439375526191
 40
6.606439375526191
 40
7.606439375526191
 40
8.60643937552619
 40
9.60643937552619
 40
10.60643937552619
 40
11.60643937552619
 40
12.60643937552619
 40
13.60643937552619
 40
14.60643937552619
 40
15.60643937552619
 40
16.60643937552619
 40
17.60643937552619
 40
18.60643937552619
 40
18.60643937552619
 40
18.60643937552619
 40
18.84491622515374
 40
18.84491622515374
 40
18.84491622515374
 40
18.84491622515374
 10
23.32292628711302
 20
30.96348481652497
 30
0.0
 41
1.0
 10
23.03174528711303
 20
30.92419648319164
 30
0.0
 41
1.0
 10
22.74056428711303
 20
30.8849081498583
 30
0.0
 41
1.0
 10
22.44938328711303
 20
30.84561981652497
 30
0.0
 41
1.0
 10
22.11764428711303
 20
30.77099781652497
 30
0.0
 41
1.0
 10
21.78590528711303
 20
30.69637581652497
 30
0.0
 41
1.0
 10
21.45416628711303
 20
30.62175381652497
 30
0.0
 41
1.0
 10
23.33940928711303
 20
24.62544381652497
 30
0.0
 41
1.0
 10
25.22465228711303
 20
18.62913381652497
 30
0.0
 41
1.0
 10
27.10989528711302
 20
12.63282381652497
 30
0.0
 41
1.0
 10
27.64128883684969
 20
12.69885034732498
 30
0.0
 41
1.0
 10
28.17268238658636
 20
12.76487687812497
 30
0.0
 41
1.0
 10
28.70407593632303
 20
12.83090340892497
 30
0.0
 41
1.0
 10
28.91837578994567
 20
13.16478566196453
 30
0.0
 41
1.0
 10
29.03436382996829
 20
13.98518350155044
 30
0.0
 41
1.0
 10
29.17327461736633
 20
15.17977825098807
 30
0.0
 41
1.0
 10
29.27688200014128
 20
16.38916074618396
 30
0.0
 41
1.0
 10
29.39137555543125
 20
17.59448028358227
 30
0.0
 41
1.0
 10
29.50244006521584
 20
18.80082263989238
 30
0.0
 41
1.0
 10
29.61613453556764
 20
20.0071566387373
 30
0.0
 41
1.0
 10
29.72282231686956
 20
21.21249088217117
 30
0.0
 41
1.0
 10
29.85323390670675
 20
22.4219875522379
 30
0.0
 41
1.0
 10
29.65912461537143
 20
23.62770612538229
 30
0.0
 41
1.0
 10
29.19254558432283
 20
24.75957637018162
 30
0.0
 41
1.0
 10
28.41454327939362
 20
25.69617890167543
 30
0.0
 41
1.0
 10
27.6457224894169
 20
26.63005428848919
 30
0.0
 41
1.0
 10
26.87346052910407
 20
27.56427712596037
 30
0.0
 41
1.0
 10
26.10421345063426
 20
28.49854872703546
 30
0.0
 41
1.0
 10
25.32630872371294
 20
29.43224652808001
 30
0.0
 41
1.0
 10
24.57951201625375
 20
30.36777208274918
 30
0.0
 41
1.0
 10
23.97143157767483
 20
30.9585953947146
 30
0.0
 41
1.0
 10
23.55924642407303
 20
30.99548476077497
 30
0.0
 41
1.0
 10
23.48047809468279
 20
30.98478084345673
 30
0.0
 41
0.9999999253843388
 10
23.40170470981839
 20
30.97411419457751
 30
0.0
 41
0.9999999253843388
 10
23.32292628711566
 20
30.96348481652532
 30
0.0
 41
1.0
  0
SPLINE
  5
48
330
1F
100
AcDbEntity
  8
DEFAULT
100
AcDbSpline
210
0.0
220
0.0
230
1.0
 70
    24
 71
     2
 72
     6
 73
     3
 74
     0
 42
0.0000000001
 43
0.0000000001
 40
0.0
 40
0.0
 40
0.0
 40
1.0
 40
1.0
 40
1.0
 10
27.90305728711302
 20
12.72790781652497
 30
0.0
 10
28.70005078711302
 20
12.79544981652498
 30
0.0
 10
29.49704428711302
 20
12.86299181652497
 30
0.0
  0
SPLINE
  5
49
330
1F
100
AcDbEntity
  8
DEFAULT
100
AcDbSpline
210
0.0
220
0.0
230
1.0
 70
    12
 71
     2
 72
     8
 73
     5
 74
     0
 42
0.0000000001
 43
0.0000000001
 40
0.0
 40
0.0
 40
0.0
 40
1.0
 40
1.0
 40
2.079015120643954
 40
2.079015120643954
 40
2.079015120643954
 10
29.15347028711303
 20
12.52025481652498
 30
0.0
 41
1.0
 10
28.54145778412079
 20
12.46838935183352
 30
0.0
 41
1.0
 10
27.92944528112855
 20
12.41652388714207
 30
0.0
 41
1.0
 10
27.59384548587675
 20
12.38808336860625
 30
0.0
 41
0.8579617583199624
 10
27.41030622769038
 20
12.67048277790454
 30
0.0
 41
1.0
  0
SPLINE
  5
4A
330
1F
100
AcDbEntity
  8
DEFAULT
100
AcDbSpline
210
0.0
220
0.0
230
1.0
 70
    12
 71
     3
 72
    87
 73
    83
 74
     0
 42
0.0000000001
 43
0.0000000001
 40
0.0
 40
0.0
 40
0.0
 40
0.0
 40
1.000000062383138
 40
2.000000124766277
 40
3.000000187149416
 40
4.000000249532554
 40
5.0
 40
5.0
 40
5.0
 40
5.999999637289338
 40
7.000000189431116
 40
8.000000741572894
 40
9.000001293714671
 40
10.0
 40
10.0
 40
10.0
 40
10.01843324670228
 40
10.01843324670228
 40
10.01843324670228
 40
11.01843324670228
 40
12.01843324670228
 40
13.01843324670228
 40
14.01843324670228
 40
15.01843324670228
 40
15.01843324670228
 40
15.01843324670228
 40
15.11005889333082
 40
15.11005889333082
 40
15.11005889333082
 40
16.10985450805635
 40
17.10990560437497
 40
18.10995670069359
 40
19.1100077970122
 40
20.11005889333082
 40
20.11005889333082
 40
20.11005889333082
 40
21.11005889333082
 40
22.11005889333082
 40
23.11005889333082
 40
24.11005889333082
 40
25.11005889333082
 40
25.11005889333082
 40
25.11005889333082
 40
26.11005889333082
 40
27.11005889333082
 40
28.11005889333082
 40
29.11005889333082
 40
30.11005889333082
 40
30.11005889333082
 40
30.11005889333082
 40
31.11010998964943
 40
32.11016108596805
 40
33.11021218228667
 40
34.11026327860528
 40
35.11005889333082
 40
35.11005889333082
 40
35.11005889333082
 40
35.20168453995936
 40
35.20168453995936
 40
35.20168453995936
 40
36.20168453995936
 40
37.20168453995936
 40
38.20168453995936
 40
39.20168453995936
 40
40.20168453995936
 40
40.20168453995936
 40
40.20168453995936
 40
40.22011778666164
 40
40.22011778666164
 40
40.22011778666164
 40
41.22011649294697
 40
42.22011704508874
 40
43.22011759723053
 40
44.2201181493723
 40
45.22011778666164
 40
45.22011778666164
 40
45.22011778666164
 40
46.22011753712908
 40
47.22011759951222
 40
48.22011766189537
 40
49.2201177242785
 40
50.22011778666164
 40
50.22011778666164
 40
50.22011778666164
 40
50.22011778666164
 10
7.11886992622
 20
59.01648348784445
 30
0.0
 41
1.0
 10
7.366807516104104
 20
58.97646342122587
 30
0.0
 41
1.0
 10
7.861835065069801
 20
58.88705014449043
 30
0.0
 41
1.0
 10
8.58891252415045
 20
58.68807481251474
 30
0.0
 41
1.0
 10
9.311561893120624
 20
58.47408929474103
 30
0.0
 41
1.0
 10
10.03541191364141
 20
58.26417439004506
 30
0.0
 41
1.0
 10
10.51772857104064
 20
58.12338304322934
 30
0.0
 41
1.0
 10
10.758936786565
 20
58.05315706509944
 30
0.0
 41
1.0
 10
10.84063444338055
 20
58.02543844910195
 30
0.0
 41
1.0
 10
10.95780075974244
 20
57.89661419904336
 30
0.0
 41
1.0
 10
11.07775175248435
 20
57.67390943218042
 30
0.0
 41
1.0
 10
11.16792281802057
 20
57.43651923231952
 30
0.0
 41
1.0
 10
11.23516965332245
 20
57.1921766777334
 30
0.0
 41
1.0
 10
11.26616369533207
 20
57.02601863416215
 30
0.0
 41
1.0
 10
11.27802112732581
 20
56.94243255025211
 30
0.0
 41
1.0
 10
11.76322097067152
 20
53.5175787505604
 30
0.0
 41
0.9999716848184407
 10
12.21683506562424
 20
50.08839857300973
 30
0.0
 41
0.9999716848184407
 10
12.6388248796876
 20
46.65518331117809
 30
0.0
 41
1.0
 10
12.64761560611171
 20
46.58347945123013
 30
0.0
 41
1.0
 10
12.65685601754506
 20
46.43905585033259
 30
0.0
 41
1.0
 10
12.64553774336991
 20
46.22224875311942
 30
0.0
 41
1.0
 10
12.60734307234775
 20
46.00844130998073
 30
0.0
 41
1.0
 10
12.53823706624259
 20
45.80225235271902
 30
0.0
 41
1.0
 10
12.4664372780144
 20
45.67583714338397
 30
0.0
 41
1.0
 10
12.42208111847187
 20
45.61868186493275
 30
0.0
 41
1.0
 10
11.4406768781208
 20
44.35888510491294
 30
0.0
 41
0.9993005174265283
 10
10.40260769081345
 20
43.14535532699293
 30
0.0
 41
0.9993005174265283
 10
9.310051890469552
 20
41.98063905996889
 30
0.0
 41
1.0
 10
9.236976956801755
 20
41.90293887032899
 30
0.0
 41
1.0
 10
9.079159538590371
 20
41.75829809187422
 30
0.0
 41
1.0
 10
8.810337211469685
 20
41.58263083464712
 30
0.0
 41
1.0
 10
8.51772058852018
 20
41.45084384317593
 30
0.0
 41
1.0
 10
8.21142130438042
 20
41.35636778398375
 30
0.0
 41
1.0
 10
8.002676970519929
 20
41.31133554880046
 30
0.0
 41
1.0
 10
7.897746684380003
 20
41.29199421884444
 30
0.0
 41
1.0
 10
7.377217979109915
 20
41.20276379420409
 30
0.0
 41
1.0
 10
6.325318449806666
 20
41.10625210542598
 30
0.0
 41
1.0
 10
4.747047444835533
 20
40.97878390627552
 30
0.0
 41
1.0
 10
3.166069004587893
 20
40.88501095178937
 30
0.0
 41
1.0
 10
1.583584371861549
 20
40.82378972038682
 30
0.0
 41
1.0
 10
0.5278666435531172
 20
40.80861638470476
 30
0.0
 41
1.0
 10
0.0
 20
40.80859295575444
 30
0.0
 41
1.0
 10
-0.5278666435531172
 20
40.80861638470476
 30
0.0
 41
1.0
 10
-1.583584371861549
 20
40.82378972038682
 30
0.0
 41
1.0
 10
-3.166069004587893
 20
40.88501095178937
 30
0.0
 41
1.0
 10
-4.747047444835533
 20
40.97878390627552
 30
0.0
 41
1.0
 10
-6.325318449806666
 20
41.10625210542598
 30
0.0
 41
1.0
 10
-7.377217979109915
 20
41.20276379420409
 30
0.0
 41
1.0
 10
-7.897746684380003
 20
41.29199421884444
 30
0.0
 41
1.0
 10
-8.002676970519929
 20
41.31133554880046
 30
0.0
 41
1.0
 10
-8.21142130438042
 20
41.35636778398375
 30
0.0
 41
1.0
 10
-8.51772058852018
 20
41.45084384317593
 30
0.0
 41
1.0
 10
-8.810337211469685
 20
41.58263083464712
 30
0.0
 41
1.0
 10
-9.079159538590371
 20
41.75829809187422
 30
0.0
 41
1.0
 10
-9.236976956801755
 20
41.90293887032899
 30
0.0
 41
1.0
 10
-9.310051890469552
 20
41.98063905996889
 30
0.0
 41
1.0
 10
-10.40260769081345
 20
43.14535532699293
 30
0.0
 41
0.9993005174265283
 10
-11.4406768781208
 20
44.35888510491294
 30
0.0
 41
0.9993005174265283
 10
-12.42208111847187
 20
45.61868186493275
 30
0.0
 41
1.0
 10
-12.4664372780144
 20
45.67583714338397
 30
0.0
 41
1.0
 10
-12.53823706624259
 20
45.80225235271902
 30
0.0
 41
1.0
 10
-12.60734307234775
 20
46.00844130998073
 30
0.0
 41
1.0
 10
-12.64553774336991
 20
46.22224875311942
 30
0.0
 41
1.0
 10
-12.65685601754506
 20
46.43905585033259
 30
0.0
 41
1.0
 10
-12.64761560611171
 20
46.58347945123013
 30
0.0
 41
1.0
 10
-12.6388248796876
 20
46.65518331117809
 30
0.0
 41
1.0
 10
-12.21683506562424
 20
50.08839857300971
 30
0.0
 41
0.9999716848184407
 10
-11.76322097067152
 20
53.5175787505604
 30
0.0
 41
0.9999716848184407
 10
-11.27802112732581
 20
56.94243255025212
 30
0.0
 41
1.0
 10
-11.26616369533207
 20
57.02601863416215
 30
0.0
 41
1.0
 10
-11.23516965332245
 20
57.1921766777334
 30
0.0
 41
1.0
 10
-11.16792281802057
 20
57.43651923231952
 30
0.0
 41
1.0
 10
-11.07775175248435
 20
57.67390943218042
 30
0.0
 41
1.0
 10
-10.95780075974244
 20
57.89661419904336
 30
0.0
 41
1.0
 10
-10.84063444338055
 20
58.02543844910195
 30
0.0
 41
1.0
 10
-10.758936786565
 20
58.05315706509944
 30
0.0
 41
1.0
 10
-10.51772857104064
 20
58.12338304322934
 30
0.0
 41
1.0
 10
-10.03541191364141
 20
58.26417439004506
 30
0.0
 41
1.0
 10
-9.311561893120624
 20
58.47408929474103
 30
0.0
 41
1.0
 10
-8.58891252415045
 20
58.68807481251474
 30
0.0
 41
1.0
 10
-7.861835065069801
 20
58.88705014449043
 30
0.0
 41
1.0
 10
-7.366807516104104
 20
58.97646342122587
 30
0.0
 41
1.0
 10
-7.11886992622
 20
59.01648348784445
 30
0.0
 41
1.0
  0
SPLINE
  5
4B
330
1F
100
AcDbEntity
  8
DEFAULT
100
AcDbSpline
210
0.0
220
0.0
230
1.0
 70
    15
 71
     3
 72
   110
 73
   106
 74
     0
 42
0.0000000001
 43
0.0000000001
 40
5.0
 40
5.0
 40
5.0
 40
5.0
 40
6.0
 40
7.0
 40
8.0
 40
9.0
 40
10.0
 40
10.0
 40
10.0
 40
10.01977460973808
 40
10.01977460973808
 40
10.01977460973808
 40
11.0197743754475
 40
12.01977443402015
 40
13.01977449259279
 40
14.01977455116544
 40
15.01977460973808
 40
15.01977460973808
 40
15.01977460973808
 40
15.14871108517811
 40
15.28073599703471
 40
15.34725615120835
 40
15.41376777789882
 40
15.48001131317066
 40
15.54572686566888
 40
15.610646672629
 40
15.67449768987689
 40
15.7978963325303
 40
15.91372496268073
 40
16.01977460973808
 40
16.01977460973808
 40
16.01977460973808
 40
17.01975329419779
 40
18.01975862308286
 40
19.01976395196793
 40
20.01976928085301
 40
21.01977460973808
 40
21.01977460973808
 40
21.01977460973808
 40
22.01977460973808
 40
23.01977460973808
 40
24.01977460973808
 40
25.01977460973808
 40
26.01977460973808
 40
26.01977460973808
 40
26.01977460973808
 40
27.01977460973808
 40
28.01977460973808
 40
29.01977460973808
 40
30.01977460973808
 40
31.01977460973808
 40
31.01977460973808
 40
31.01977460973808
 40
32.01977993862315
 40
33.01978526750823
 40
34.0197905963933
 40
35.01979592527837
 40
36.01977460973808
 40
36.01977460973808
 40
36.01977460973808
 40
36.12582425679543
 40
36.24165288694586
 40
36.36505152959927
 40
36.42890254684716
 40
36.49382235380729
 40
36.5595379063055
 40
36.62578144157735
 40
36.69229306826781
 40
36.75881322244145
 40
36.89083813429804
 40
37.01977460973808
 40
37.01977460973808
 40
37.01977460973808
 40
38.01977466831072
 40
39.01977472688337
 40
40.01977478545601
 40
41.01977484402866
 40
42.01977460973808
 40
42.01977460973808
 40
42.01977460973808
 40
42.03954921947616
 40
42.03954921947616
 40
42.03954921947616
 40
43.03954921947616
 40
44.03954921947616
 40
45.03954921947616
 40
46.03954921947616
 40
47.03954921947616
 40
47.03954921947616
 40
47.03954921947616
 40
48.03954921947616
 40
49.03954921947616
 40
50.03954921947616
 40
51.03954921947616
 40
52.03954921947616
 40
52.03954921947616
 40
52.03954921947616
 40
52.23051745113342
 40
52.23051745113342
 40
52.23051745113342
 40
53.23051731995172
 40
54.23051735274714
 40
55.23051738554257
 40
56.230517418338
 40
57.23051745113342
 40
57.23051745113342
 40
57.23051745113342
 40
57.23051745113342
 10
-12.023105108835
 20
57.76138708764944
 30
0.0
 41
1.0
 10
-12.10410125966001
 20
57.73260475198347
 30
0.0
 41
1.0
 10
-12.21774752313211
 20
57.60157837243565
 30
0.0
 41
1.0
 10
-12.33372113477309
 20
57.37818606375087
 30
0.0
 41
1.0
 10
-12.42075997813641
 20
57.14080055349422
 30
0.0
 41
1.0
 10
-12.48565172199274
 20
56.89698894445201
 30
0.0
 41
1.0
 10
-12.51549412537928
 20
56.731373629274
 30
0.0
 41
1.0
 10
-12.52686956930711
 20
56.64809235270046
 30
0.0
 41
1.0
 10
-12.96274690780331
 20
53.45344858805327
 30
0.0
 41
0.9999674139996074
 10
-13.36701703884098
 20
50.25465139248671
 30
0.0
 41
0.9999674139996074
 10
-13.73964044178018
 20
47.05201347402078
 30
0.0
 41
1.0
 10
-13.74793390851012
 20
46.9805379172305
 30
0.0
 41
1.0
 10
-13.75655080420633
 20
46.83666695688333
 30
0.0
 41
1.0
 10
-13.74532156538683
 20
46.62073915062254
 30
0.0
 41
1.0
 10
-13.70806443852278
 20
46.40765869576793
 30
0.0
 41
1.0
 10
-13.64038625185837
 20
46.20190781515441
 30
0.0
 41
1.0
 10
-13.56931947714495
 20
46.07569160809513
 30
0.0
 41
1.0
 10
-13.52498563019
 20
46.01890479049944
 30
0.0
 41
1.0
 10
-13.38421023407
 20
45.83912527896444
 30
0.0
 41
1.0
 10
-13.0965011788
 20
45.47744649141445
 30
0.0
 41
1.0
 10
-12.72889161745
 20
45.02887615991444
 30
0.0
 41
1.0
 10
-12.42733664831
 20
44.66916208490444
 30
0.0
 41
1.0
 10
-12.19854773775
 20
44.40047211541444
 30
0.0
 41
1.0
 10
-11.96856198388
 20
44.13468689592444
 30
0.0
 41
1.0
 10
-11.73820035678
 20
43.87297101934444
 30
0.0
 41
1.0
 10
-11.50853139956
 20
43.61630567676445
 30
0.0
 41
1.0
 10
-11.20820008944
 20
43.28581178319444
 30
0.0
 41
1.0
 10
-10.84295001405
 20
42.89251373498444
 30
0.0
 41
1.0
 10
-10.42083469499062
 20
42.45012173385156
 30
0.0
 41
1.0
 10
-10.14588598168737
 20
42.16940212812536
 30
0.0
 41
1.0
 10
-10.013509198845
 20
42.03618621061944
 30
0.0
 41
1.0
 10
-9.905361620376752
 20
41.92717446822293
 30
0.0
 41
1.0
 10
-9.663182467910023
 20
41.73598308634939
 30
0.0
 41
1.0
 10
-9.254410935746247
 20
41.52078666549146
 30
0.0
 41
1.0
 10
-8.819406487930731
 20
41.36710458303182
 30
0.0
 41
1.0
 10
-8.370471482850832
 20
41.26246091127385
 30
0.0
 41
1.0
 10
-8.066335225543748
 20
41.21914113333528
 30
0.0
 41
1.0
 10
-7.913701144325001
 20
41.20310910660444
 30
0.0
 41
1.0
 10
-7.387962756348538
 20
41.14786122326289
 30
0.0
 41
1.0
 10
-6.335488319156521
 20
41.04683877857326
 30
0.0
 41
1.0
 10
-4.754213286377858
 20
40.92485062792882
 30
0.0
 41
1.0
 10
-3.170842973891197
 20
40.83388883275914
 30
0.0
 41
1.0
 10
-1.585890844775542
 20
40.77631976891524
 30
0.0
 41
1.0
 10
-0.5286349935751973
 20
40.76255199485482
 30
0.0
 41
1.0
 10
0.0
 20
40.76248855335444
 30
0.0
 41
1.0
 10
0.5286349935751973
 20
40.76255199485482
 30
0.0
 41
1.0
 10
1.585890844775542
 20
40.77631976891524
 30
0.0
 41
1.0
 10
3.170842973891197
 20
40.83388883275914
 30
0.0
 41
1.0
 10
4.754213286377858
 20
40.92485062792882
 30
0.0
 41
1.0
 10
6.335488319156521
 20
41.04683877857326
 30
0.0
 41
1.0
 10
7.387962756348538
 20
41.14786122326289
 30
0.0
 41
1.0
 10
7.913701144325001
 20
41.20310910660444
 30
0.0
 41
1.0
 10
8.066335225543748
 20
41.21914113333528
 30
0.0
 41
1.0
 10
8.370471482850832
 20
41.26246091127385
 30
0.0
 41
1.0
 10
8.819406487930731
 20
41.36710458303182
 30
0.0
 41
1.0
 10
9.254410935746247
 20
41.52078666549146
 30
0.0
 41
1.0
 10
9.663182467910023
 20
41.73598308634939
 30
0.0
 41
1.0
 10
9.905361620376752
 20
41.92717446822293
 30
0.0
 41
1.0
 10
10.013509198845
 20
42.03618621061944
 30
0.0
 41
1.0
 10
10.14588598168737
 20
42.16940212812536
 30
0.0
 41
1.0
 10
10.42083469499062
 20
42.45012173385156
 30
0.0
 41
1.0
 10
10.84295001405
 20
42.89251373498444
 30
0.0
 41
1.0
 10
11.20820008944
 20
43.28581178319444
 30
0.0
 41
1.0
 10
11.50853139956
 20
43.61630567676445
 30
0.0
 41
1.0
 10
11.73820035678
 20
43.87297101934444
 30
0.0
 41
1.0
 10
11.96856198388
 20
44.13468689592444
 30
0.0
 41
1.0
 10
12.19854773775
 20
44.40047211541444
 30
0.0
 41
1.0
 10
12.42733664831
 20
44.66916208490444
 30
0.0
 41
1.0
 10
12.72889161745
 20
45.02887615991444
 30
0.0
 41
1.0
 10
13.0965011788
 20
45.47744649141445
 30
0.0
 41
1.0
 10
13.38421023407
 20
45.83912527896444
 30
0.0
 41
1.0
 10
13.52498563019
 20
46.01890479049944
 30
0.0
 41
1.0
 10
13.56931947714495
 20
46.07569160809513
 30
0.0
 41
1.0
 10
13.64038625185837
 20
46.20190781515441
 30
0.0
 41
1.0
 10
13.70806443852278
 20
46.40765869576793
 30
0.0
 41
1.0
 10
13.74532156538683
 20
46.62073915062254
 30
0.0
 41
1.0
 10
13.75655080420633
 20
46.83666695688333
 30
0.0
 41
1.0
 10
13.74793390851012
 20
46.9805379172305
 30
0.0
 41
1.0
 10
13.73964044178018
 20
47.05201347402078
 30
0.0
 41
1.0
 10
13.36701703884098
 20
50.25465139248671
 30
0.0
 41
0.9999674139996074
 10
12.96274690780331
 20
53.45344858805327
 30
0.0
 41
0.9999674139996074
 10
12.52686956930711
 20
56.64809235270046
 30
0.0
 41
1.0
 10
12.51549412537928
 20
56.731373629274
 30
0.0
 41
1.0
 10
12.48565172199274
 20
56.89698894445201
 30
0.0
 41
1.0
 10
12.42075997813641
 20
57.14080055349422
 30
0.0
 41
1.0
 10
12.33372113477309
 20
57.37818606375087
 30
0.0
 41
1.0
 10
12.21774752313211
 20
57.60157837243565
 30
0.0
 41
1.0
 10
12.10410125966001
 20
57.73260475198347
 30
0.0
 41
1.0
 10
12.023105108835
 20
57.76138708764944
 30
0.0
 41
1.0
 10
11.59811717970845
 20
57.89047884927136
 30
0.0
 41
1.0
 10
10.74631153455024
 20
58.14225376125486
 30
0.0
 41
1.0
 10
9.475466606040273
 20
58.54394909127807
 30
0.0
 41
1.0
 10
8.182656976950154
 20
58.86873935761074
 30
0.0
 41
1.0
 10
6.862360727955783
 20
59.05962312578652
 30
0.0
 41
1.0
 10
5.981375674598961
 20
59.1704018273436
 30
0.0
 41
1.0
 10
5.538996377559223
 20
59.2114571376836
 30
0.0
 41
1.0
 10
1.851955746276048
 20
59.56461019120793
 30
0.0
 41
0.9969632361630495
 10
-1.851959168419893
 20
59.56463548105092
 30
0.0
 41
0.9969632361630495
 10
-5.539004621924331
 20
59.21153277681474
 30
0.0
 41
1.0
 10
-5.981375819060344
 20
59.17040180917844
 30
0.0
 41
1.0
 10
-6.862360800121905
 20
59.05962311535299
 30
0.0
 41
1.0
 10
-8.182656976950154
 20
58.86873935761074
 30
0.0
 41
1.0
 10
-9.475466606040273
 20
58.54394909127807
 30
0.0
 41
1.0
 10
-10.74631153455024
 20
58.14225376125486
 30
0.0
 41
1.0
 10
-11.59811717970845
 20
57.89047884927136
 30
0.0
 41
1.0
 10
-12.023105108835
 20
57.76138708764944
 30
0.0
 41
1.0
  0
SPLINE
  5
4C
330
1F
100
AcDbEntity
  8
DEFAULT
100
AcDbSpline
210
0.0
220
0.0
230
1.0
 70
    12
 71
     2
 72
    10
 73
     7
 74
     0
 42
0.0000000001
 43
0.0000000001
 40
0.0
 40
0.0
 40
0.0
 40
1.0
 40
1.0
 40
1.063869921414017
 40
1.063869921414017
 40
2.031607753884072
 40
2.031607753884072
 40
2.031607753884072
 10
-6.488018422280004
 20
59.10620183077445
 30
0.0
 41
1.0
 10
-6.556617090240779
 20
59.16341395659254
 30
0.0
 41
0.9965669793447701
 10
-6.614834661130002
 20
59.23116142168444
 30
0.0
 41
1.0
 10
-6.618352785535285
 20
59.23563640120578
 30
0.0
 41
1.0
 10
-6.62187090994057
 20
59.24011138072712
 30
0.0
 41
1.0
 10
-6.664508954970287
 20
59.33950966897578
 30
0.0
 41
1.0
 10
-6.707147000000003
 20
59.43890795722444
 30
0.0
 41
1.0
  0
SPLINE
  5
4D
330
1F
100
AcDbEntity
  8
DEFAULT
100
AcDbSpline
210
0.0
220
0.0
230
1.0
 70
     8
 71
     3
 72
    39
 73
    35
 74
     0
 42
0.0000000001
 43
0.0000000001
 40
-1.0
 40
-1.0
 40
-1.0
 40
-1.0
 40
0.0
 40
0.0
 40
0.0
 40
1.0
 40
2.0
 40
3.0
 40
4.0
 40
5.0
 40
5.0
 40
5.0
 40
6.0
 40
7.0
 40
8.0
 40
9.0
 40
10.0
 40
10.0
 40
10.0
 40
11.0
 40
12.0
 40
13.0
 40
14.0
 40
15.0
 40
15.0
 40
15.0
 40
16.0
 40
17.0
 40
18.0
 40
19.0
 40
20.0
 40
20.0
 40
20.0
 40
21.0
 40
21.0
 40
21.0
 40
21.0
 10
11.666454
 20
58.62158095722445
 30
0.0
 10
11.68332905284333
 20
59.01200074102277
 30
0.0
 10
11.70020410568667
 20
59.40242052482111
 30
0.0
 10
11.71707915853
 20
59.79284030861945
 30
0.0
 10
11.61822664940111
 20
60.31426702236777
 30
0.0
 10
10.97410219935447
 20
61.16825444826735
 30
0.0
 10
10.14956601861478
 20
62.5061397413727
 30
0.0
 10
9.259808608970044
 20
63.79784170106537
 30
0.0
 10
8.490304251389611
 20
65.21803526044644
 30
0.0
 10
7.489380285281531
 20
65.69101561243104
 30
0.0
 10
6.989990813810003
 20
65.83229305425445
 30
0.0
 10
6.535968643173967
 20
65.96131927925046
 30
0.0
 10
5.62060170143616
 20
66.19349791369154
 30
0.0
 10
4.230697632541708
 20
66.46688072671225
 30
0.0
 10
2.827669611968006
 20
66.66216147880044
 30
0.0
 10
1.415973885526499
 20
66.77913538903093
 30
0.0
 10
0.4720039786750116
 20
66.80590463153047
 30
0.0
 10
0.0
 20
66.80591031642444
 30
0.0
 10
-0.4720039786750116
 20
66.80590463153047
 30
0.0
 10
-1.415973885526499
 20
66.77913538903093
 30
0.0
 10
-2.827669611968006
 20
66.66216147880044
 30
0.0
 10
-4.230697632541708
 20
66.46688072671225
 30
0.0
 10
-5.62060170143616
 20
66.19349791369154
 30
0.0
 10
-6.535968643173967
 20
65.96131927925046
 30
0.0
 10
-6.989990813810003
 20
65.83229305425445
 30
0.0
 10
-7.489380285281531
 20
65.69101561243104
 30
0.0
 10
-8.490304251389611
 20
65.21803526044644
 30
0.0
 10
-9.259808608970044
 20
63.79784170106537
 30
0.0
 10
-10.14956601861478
 20
62.5061397413727
 30
0.0
 10
-10.97410219935447
 20
61.16825444826735
 30
0.0
 10
-11.61822664940111
 20
60.31426702236777
 30
0.0
 10
-11.71707915853
 20
59.79284030861945
 30
0.0
 10
-11.70020410568667
 20
59.40242052482111
 30
0.0
 10
-11.68332905284333
 20
59.01200074102277
 30
0.0
 10
-11.666454
 20
58.62158095722445
 30
0.0
  0
SPLINE
  5
4E
330
1F
100
AcDbEntity
  8
DEFAULT
100
AcDbSpline
210
0.0
220
0.0
230
1.0
 70
    24
 71
     2
 72
     6
 73
     3
 74
     0
 42
0.0000000001
 43
0.0000000001
 40
0.0
 40
0.0
 40
0.0
 40
1.0
 40
1.0
 40
1.0
 10
-1.375
 20
59.75954395722444
 30
0.0
 10
-1.375
 20
59.60930695722444
 30
0.0
 10
-1.375
 20
59.45906995722444
 30
0.0
  0
SPLINE
  5
4F
330
1F
100
AcDbEntity
  8
DEFAULT
100
AcDbSpline
210
0.0
220
0.0
230
1.0
 70
    11
 71
     3
 72
    81
 73
    77
 74
     0
 42
0.0000000001
 43
0.0000000001
 40
5.0
 40
5.0
 40
5.0
 40
5.0
 40
6.0
 40
7.0
 40
8.0
 40
9.0
 40
10.0
 40
10.0
 40
10.0
 40
11.0
 40
12.0
 40
13.0
 40
14.0
 40
15.0
 40
16.0
 40
17.0
 40
18.0
 40
19.0
 40
20.0
 40
21.0
 40
22.0
 40
23.0
 40
24.0
 40
25.0
 40
26.0
 40
27.0
 40
28.0
 40
29.0
 40
30.0
 40
31.0
 40
32.0
 40
32.0
 40
32.0
 40
33.0
 40
34.0
 40
35.0
 40
36.0
 40
37.0
 40
38.0
 40
39.0
 40
40.0
 40
41.0
 40
42.0
 40
43.0
 40
44.0
 40
45.0
 40
46.0
 40
47.0
 40
48.0
 40
49.0
 40
50.0
 40
51.0
 40
52.0
 40
53.0
 40
54.0
 40
54.0
 40
54.0
 40
55.0
 40
56.0
 40
57.0
 40
58.0
 40
59.0
 40
59.0
 40
59.0
 40
60.0
 40
61.0
 40
62.0
 40
63.0
 40
64.0
 40
64.0
 40
64.0
 40
65.0
 40
66.0
 40
67.0
 40
68.0
 40
69.0
 40
69.0
 40
69.0
 40
69.0
 10
-6.859988770625002
 20
64.72465448806943
 30
0.0
 10
-7.363467708279608
 20
64.57517686355794
 30
0.0
 10
-8.387078648948886
 20
64.11571483904973
 30
0.0
 10
-9.171695376484662
 20
62.6751375693423
 30
0.0
 10
-10.07538131906652
 20
61.36887153620442
 30
0.0
 10
-10.9125457561393
 20
60.01415324576313
 30
0.0
 10
-11.56886899276171
 20
59.15080499199387
 30
0.0
 10
-11.66646134375
 20
58.62157477300445
 30
0.0
 10
-11.6323537979099
 20
58.38658918631292
 30
0.0
 10
-11.20114677918045
 20
58.52199222567074
 30
0.0
 10
-10.71095588632373
 20
58.63658097854345
 30
0.0
 10
-10.17903129607985
 20
58.775849599885
 30
0.0
 10
-9.657791630166129
 20
58.90640059350596
 30
0.0
 10
-9.135640210180764
 20
59.04750991450413
 30
0.0
 10
-8.607568146758744
 20
59.1593805439201
 30
0.0
 10
-8.076185467919032
 20
59.25623580992538
 30
0.0
 10
-7.542371648427746
 20
59.33795174630207
 30
0.0
 10
-7.006538106959454
 20
59.40524839148568
 30
0.0
 10
-6.46996633415679
 20
59.46590469302064
 30
0.0
 10
-5.933067474393283
 20
59.52408707497372
 30
0.0
 10
-5.394798554454689
 20
59.5675269861043
 30
0.0
 10
-4.856271361443642
 20
59.60742457468128
 30
0.0
 10
-4.317407358316658
 20
59.64255588566349
 30
0.0
 10
-3.778265202964135
 20
59.67308017635811
 30
0.0
 10
-3.238917807337431
 20
59.69973927798311
 30
0.0
 10
-2.699379843461253
 20
59.72221344503809
 30
0.0
 10
-2.159690663711031
 20
59.74069283835018
 30
0.0
 10
-1.619882468538931
 20
59.75528737008767
 30
0.0
 10
-1.079974037308187
 20
59.76558069045475
 30
0.0
 10
-0.5400021620078672
 20
59.77163576685749
 30
0.0
 10
-0.1800004576163884
 20
59.77291984610595
 30
0.0
 10
0.0
 20
59.77286587349122
 30
0.0
 10
0.1800004576163884
 20
59.77291984610595
 30
0.0
 10
0.5400021620078672
 20
59.77163576685749
 30
0.0
 10
1.079974037308187
 20
59.76558069045475
 30
0.0
 10
1.619882468538931
 20
59.75528737008767
 30
0.0
 10
2.159690663711031
 20
59.74069283835018
 30
0.0
 10
2.699379843461253
 20
59.72221344503809
 30
0.0
 10
3.238917807337431
 20
59.69973927798311
 30
0.0
 10
3.778265202964135
 20
59.67308017635811
 30
0.0
 10
4.317407358316658
 20
59.64255588566349
 30
0.0
 10
4.856271361443642
 20
59.60742457468128
 30
0.0
 10
5.394798554454689
 20
59.5675269861043
 30
0.0
 10
5.933067474393283
 20
59.52408707497372
 30
0.0
 10
6.46996633415679
 20
59.46590469302064
 30
0.0
 10
7.006538106959454
 20
59.40524839148568
 30
0.0
 10
7.542371648427746
 20
59.33795174630207
 30
0.0
 10
8.076185467919032
 20
59.25623580992538
 30
0.0
 10
8.607568146758744
 20
59.1593805439201
 30
0.0
 10
9.135640210180764
 20
59.04750991450413
 30
0.0
 10
9.657791630166129
 20
58.90640059350596
 30
0.0
 10
10.17903129607985
 20
58.775849599885
 30
0.0
 10
10.71095588632373
 20
58.63658097854345
 30
0.0
 10
11.20114677918045
 20
58.52199222567074
 30
0.0
 10
11.6323537979099
 20
58.38658918631292
 30
0.0
 10
11.66646134375
 20
58.62157477300445
 30
0.0
 10
11.56886899276171
 20
59.15080499199387
 30
0.0
 10
10.9125457561393
 20
60.01415324576313
 30
0.0
 10
10.07538131906652
 20
61.36887153620442
 30
0.0
 10
9.171695376484662
 20
62.6751375693423
 30
0.0
 10
8.387078648948886
 20
64.11571483904973
 30
0.0
 10
7.363467708279608
 20
64.57517686355794
 30
0.0
 10
6.859988770625002
 20
64.72465448806943
 30
0.0
 10
6.416030484591566
 20
64.8597285676646
 30
0.0
 10
5.520189581282782
 20
65.10390914806823
 30
0.0
 10
4.157086520233647
 20
65.3899108417765
 30
0.0
 10
2.779485194018136
 20
65.59496391500582
 30
0.0
 10
1.392171134454726
 20
65.71824329533615
 30
0.0
 10
0.4640580622168599
 20
65.74570105770559
 30
0.0
 10
0.0
 20
65.74570201124445
 30
0.0
 10
-0.4640580622168599
 20
65.74570105770559
 30
0.0
 10
-1.392171134454726
 20
65.71824329533615
 30
0.0
 10
-2.779485194018136
 20
65.59496391500582
 30
0.0
 10
-4.157086520233647
 20
65.3899108417765
 30
0.0
 10
-5.520189581282782
 20
65.10390914806823
 30
0.0
 10
-6.416030484591566
 20
64.8597285676646
 30
0.0
 10
-6.859988770625002
 20
64.72465448806943
 30
0.0
  0
SPLINE
  5
50
330
1F
100
AcDbEntity
  8
DEFAULT
100
AcDbSpline
210
0.0
220
0.0
230
1.0
 70
    24
 71
     2
 72
     6
 73
     3
 74
     0
 42
0.0000000001
 43
0.0000000001
 40
0.0
 40
0.0
 40
0.0
 40
1.0
 40
1.0
 40
1.0
 10
-7.358753
 20
59.36005795722445
 30
0.0
 10
-7.282098000000001
 20
59.18135745722444
 30
0.0
 10
-7.205443000000002
 20
59.00265695722444
 30
0.0
  0
SPLINE
  5
51
330
1F
100
AcDbEntity
  8
DEFAULT
100
AcDbSpline
210
0.0
220
0.0
230
1.0
 70
    24
 71
     2
 72
     6
 73
     3
 74
     0
 42
0.0000000001
 43
0.0000000001
 40
0.0
 40
0.0
 40
0.0
 40
1.0
 40
1.0
 40
1.0
 10
1.375
 20
59.75954395722444
 30
0.0
 10
1.375
 20
59.60930695722444
 30
0.0
 10
1.375
 20
59.45906995722444
 30
0.0
  0
SPLINE
  5
52
330
1F
100
AcDbEntity
  8
DEFAULT
100
AcDbSpline
210
0.0
220
0.0
230
1.0
 70
    12
 71
     2
 72
    10
 73
     7
 74
     0
 42
0.0000000001
 43
0.0000000001
 40
0.0
 40
0.0
 40
0.0
 40
1.0
 40
1.0
 40
1.063869921414017
 40
1.063869921414017
 40
2.031607753884072
 40
2.031607753884072
 40
2.031607753884072
 10
6.488018422280005
 20
59.10620183077445
 30
0.0
 41
1.0
 10
6.556617090240779
 20
59.16341395659254
 30
0.0
 41
0.9965669793447701
 10
6.614834661130002
 20
59.23116142168444
 30
0.0
 41
1.0
 10
6.618352785535285
 20
59.23563640120578
 30
0.0
 41
1.0
 10
6.62187090994057
 20
59.24011138072712
 30
0.0
 41
1.0
 10
6.664508954970287
 20
59.33950966897578
 30
0.0
 41
1.0
 10
6.707147000000003
 20
59.43890795722444
 30
0.0
 41
1.0
  0
SPLINE
  5
53
330
1F
100
AcDbEntity
  8
DEFAULT
100
AcDbSpline
210
0.0
220
0.0
230
1.0
 70
    24
 71
     2
 72
     6
 73
     3
 74
     0
 42
0.0000000001
 43
0.0000000001
 40
0.0
 40
0.0
 40
0.0
 40
1.0
 40
1.0
 40
1.0
 10
7.358753
 20
59.36005795722445
 30
0.0
 10
7.282098000000001
 20
59.18135745722444
 30
0.0
 10
7.205443000000002
 20
59.00265695722444
 30
0.0
  0
SPLINE
  5
54
330
1F
100
AcDbEntity
  8
DEFAULT
100
AcDbSpline
210
0.0
220
0.0
230
1.0
 70
     8
 71
     3
 72
    59
 73
    55
 74
     0
 42
0.0000000001
 43
0.0000000001
 40
0.0
 40
0.0
 40
0.0
 40
0.0
 40
1.0
 40
2.0
 40
3.0
 40
4.0
 40
5.0
 40
6.0
 40
7.0
 40
7.0
 40
7.0
 40
8.0
 40
9.0
 40
10.0
 40
11.0
 40
12.0
 40
13.0
 40
14.0
 40
14.0
 40
14.0
 40
15.00000003741942
 40
16.00000007483884
 40
17.00000011225826
 40
18.00000014967768
 40
19.0
 40
19.0
 40
19.0
 40
20.0
 40
20.0
 40
20.0
 40
21.00001629970873
 40
22.00003259941746
 40
23.00004889912619
 40
24.00006519883492
 40
25.0
 40
25.0
 40
25.0
 40
26.0
 40
26.0
 40
26.0
 40
26.99999957585663
 40
27.99999968189669
 40
28.99999978793675
 40
29.99999989397681
 40
31.0
 40
31.0
 40
31.0
 40
31.99999999999047
 40
32.99999999999206
 40
33.99999999999365
 40
34.99999999999523
 40
35.99999999999682
 40
36.99999999999841
 40
38.0
 40
38.0
 40
38.0
 40
38.0
 10
1.375000479850002
 20
12.86315492168498
 30
0.0
 10
1.375006278703724
 20
12.83860038084715
 30
0.0
 10
1.380366797588344
 20
12.78945533864965
 30
0.0
 10
1.404708808457731
 20
12.71944634981019
 30
0.0
 10
1.443505858224639
 20
12.65630570743242
 30
0.0
 10
1.494583860365011
 20
12.60266975504894
 30
0.0
 10
1.555468910171627
 20
12.56056544220616
 30
0.0
 10
1.622457509926692
 20
12.5294101849272
 30
0.0
 10
1.669577491656738
 20
12.51518740535788
 30
0.0
 10
1.693288339870001
 20
12.50883252156497
 30
0.0
 10
1.89378455603685
 20
12.46125301699936
 30
0.0
 10
2.305504392717978
 20
12.44717496221148
 30
0.0
 10
2.920834649225343
 20
12.43250004797701
 30
0.0
 10
3.53676762165338
 20
12.41609895330984
 30
0.0
 10
4.152539013899468
 20
12.40016041802532
 30
0.0
 10
4.768353860311599
 20
12.38409782956577
 30
0.0
 10
5.384156739128349
 20
12.36806888742155
 30
0.0
 10
5.794694638509391
 20
12.35737591234345
 30
0.0
 10
5.999963000677953
 20
12.35203084346376
 30
0.0
 10
6.062595196101372
 20
12.35040086704265
 30
0.0
 10
6.187643026114636
 20
12.32684347442771
 30
0.0
 10
6.352181762000929
 20
12.2303960972523
 30
0.0
 10
6.477789204107165
 20
12.08762843108375
 30
0.0
 10
6.560375693941888
 20
11.91707443795417
 30
0.0
 10
6.588191388534256
 20
11.79407176470848
 30
0.0
 10
6.595898165845002
 20
11.73187080162498
 30
0.0
 10
7.074472490093335
 20
7.858505523241841
 30
0.0
 10
7.55304681434167
 20
3.985140244858707
 30
0.0
 10
8.031621138590003
 20
0.1117749664755743
 30
0.0
 10
8.054442989651795
 20
0.0700066138928427
 30
0.0
 10
8.152833450069357
 20
0.056918535960832
 30
0.0
 10
8.28613177400074
 20
0.055013886422395
 30
0.0
 10
8.423783433327706
 20
0.0720387969215898
 30
0.0
 10
8.552599987797684
 20
0.1063204717732642
 30
0.0
 10
8.644857153880698
 20
0.1429584817096705
 30
0.0
 10
8.656783644895
 20
0.189043448737324
 30
0.0
 10
8.178211064436667
 20
4.062400168644874
 30
0.0
 10
7.699638483978334
 20
7.935756888552423
 30
0.0
 10
7.221065903520001
 20
11.80911360845997
 30
0.0
 10
7.206037103723
 20
11.93056075651399
 30
0.0
 10
7.147535196849033
 20
12.17018942480571
 30
0.0
 10
6.971279277895442
 20
12.49609997615263
 30
0.0
 10
6.710747386994123
 20
12.76052453638558
 30
0.0
 10
6.382586290886014
 20
12.93494860948874
 30
0.0
 10
6.138700825747403
 20
12.97859432771371
 30
0.0
 10
6.016361616432412
 20
12.98173865673874
 30
0.0
 10
5.825310726096773
 20
12.9867144604672
 30
0.0
 10
5.443208447670343
 20
12.9966617734943
 30
0.0
 10
4.870056112198188
 20
13.01159867324331
 30
0.0
 10
4.296900879286402
 20
13.02648421133819
 30
0.0
 10
3.723756296668494
 20
13.04155873318086
 30
0.0
 10
3.150571980376719
 20
13.05592820153598
 30
0.0
 10
2.57753541243937
 20
13.07292883470611
 30
0.0
 10
2.195144097515928
 20
13.07771617096738
 30
0.0
 10
2.004718135210002
 20
13.09508239570497
 30
0.0
  0
SPLINE
  5
55
330
1F
100
AcDbEntity
  8
DEFAULT
100
AcDbSpline
210
0.0
220
0.0
230
1.0
 70
     8
 71
     3
 72
    15
 73
    11
 74
     0
 42
0.0000000001
 43
0.0000000001
 40
-1.0
 40
-1.0
 40
-1.0
 40
-1.0
 40
0.0
 40
0.0
 40
0.0
 40
0.9999997621266041
 40
1.999999821594953
 40
2.999999881063302
 40
3.999999940531651
 40
5.0
 40
5.0
 40
5.0
 40
5.0
 10
2.004922000000001
 20
13.43110581652498
 30
0.0
 10
2.004921422691667
 20
13.24178883425831
 30
0.0
 10
2.004920845383334
 20
13.05247185199164
 30
0.0
 10
2.004920268075001
 20
12.86315486972498
 30
0.0
 10
2.005125785984332
 20
12.79739674215323
 30
0.0
 10
1.961548643585459
 20
12.6662909589201
 30
0.0
 10
1.793425536497693
 20
12.54566299981249
 30
0.0
 10
1.586483698478821
 20
12.54561024619288
 30
0.0
 10
1.418381084003699
 20
12.66631512480642
 30
0.0
 10
1.374798768597235
 20
12.79739524584796
 30
0.0
 10
1.375003683390002
 20
12.86315492044498
 30
0.0
  0
SPLINE
  5
56
330
1F
100
AcDbEntity
  8
DEFAULT
100
AcDbSpline
210
0.0
220
0.0
230
1.0
 70
     8
 71
     3
 72
    12
 73
     8
 74
     0
 42
0.0000000001
 43
0.0000000001
 40
0.0
 40
0.0
 40
0.0
 40
0.0
 40
1.0
 40
2.0
 40
3.0
 40
4.0
 40
5.0
 40
5.0
 40
5.0
 40
5.0
 10
9.21518059317
 20
0.0928983843603741
 30
0.0
 10
9.23822762167929
 20
0.129944099744146
 30
0.0
 10
9.328728743258933
 20
0.1530059778982557
 30
0.0
 10
9.454612628323101
 20
0.1811608561400001
 30
0.0
 10
9.586540808581768
 20
0.1974368656237615
 30
0.0
 10
9.715520694721748
 20
0.2007582338375997
 30
0.0
 10
9.808836637172051
 20
0.2003728136645737
 30
0.0
 10
9.840357563780003
 20
0.1701434372968733
 30
0.0
  0
SPLINE
  5
57
330
1F
100
AcDbEntity
  8
DEFAULT
100
AcDbSpline
210
0.0
220
0.0
230
1.0
 70
     8
 71
     3
 72
    12
 73
     8
 74
     0
 42
0.0000000001
 43
0.0000000001
 40
0.0
 40
0.0
 40
0.0
 40
0.0
 40
1.0
 40
2.0
 40
3.0
 40
4.0
 40
5.0
 40
5.0
 40
5.0
 40
5.0
 10
7.584785682740002
 20
13.30797607414497
 30
0.0
 10
7.509918184860796
 20
13.2677577261959
 30
0.0
 10
7.357301868873899
 20
13.19270735685289
 30
0.0
 10
7.121109839249045
 20
13.09628032668586
 30
0.0
 10
6.878562818544355
 20
13.01718116264487
 30
0.0
 10
6.631027099433044
 20
12.95545925564758
 30
0.0
 10
6.463484985896824
 20
12.92617737630938
 30
0.0
 10
6.379270805320001
 20
12.91474520474497
 30
0.0
  0
SPLINE
  5
58
330
1F
100
AcDbEntity
  8
DEFAULT
100
AcDbSpline
210
0.0
220
0.0
230
1.0
 70
    24
 71
     2
 72
     6
 73
     3
 74
     0
 42
0.0000000001
 43
0.0000000001
 40
0.0
 40
0.0
 40
0.0
 40
1.0
 40
1.0
 40
1.0
 10
1.381073000000001
 20
12.80333881652497
 30
0.0
 10
1.378039000000001
 20
12.80333081652497
 30
0.0
 10
1.375005000000002
 20
12.80332281652498
 30
0.0
  0
SPLINE
  5
59
330
1F
100
AcDbEntity
  8
DEFAULT
100
AcDbSpline
210
0.0
220
0.0
230
1.0
 70
    24
 71
     2
 72
     6
 73
     3
 74
     0
 42
0.0000000001
 43
0.0000000001
 40
0.0
 40
0.0
 40
0.0
 40
1.0
 40
1.0
 40
1.0
 10
1.375
 20
13.31267381652497
 30
0.0
 10
1.375
 20
12.86370631652497
 30
0.0
 10
1.375
 20
12.41473881652497
 30
0.0
  0
SPLINE
  5
5A
330
1F
100
AcDbEntity
  8
DEFAULT
100
AcDbSpline
210
0.0
220
0.0
230
1.0
 70
     8
 71
     3
 72
    15
 73
    11
 74
     0
 42
0.0000000001
 43
0.0000000001
 40
-1.0
 40
-1.0
 40
-1.0
 40
-1.0
 40
0.0
 40
0.0
 40
0.0
 40
0.9999997621266041
 40
1.999999821594953
 40
2.999999881063302
 40
3.999999940531651
 40
5.0
 40
5.0
 40
5.0
 40
5.0
 10
-2.004922000000001
 20
13.43110581652498
 30
0.0
 10
-2.004921422691667
 20
13.24178883425831
 30
0.0
 10
-2.004920845383334
 20
13.05247185199164
 30
0.0
 10
-2.004920268075001
 20
12.86315486972498
 30
0.0
 10
-2.005125785984332
 20
12.79739674215323
 30
0.0
 10
-1.961548643585459
 20
12.6662909589201
 30
0.0
 10
-1.793425536497693
 20
12.54566299981249
 30
0.0
 10
-1.586483698478821
 20
12.54561024619288
 30
0.0
 10
-1.418381084003699
 20
12.66631512480642
 30
0.0
 10
-1.374798768597235
 20
12.79739524584796
 30
0.0
 10
-1.375003683390002
 20
12.86315492044498
 30
0.0
  0
SPLINE
  5
5B
330
1F
100
AcDbEntity
  8
DEFAULT
100
AcDbSpline
210
0.0
220
0.0
230
1.0
 70
     8
 71
     3
 72
    59
 73
    55
 74
     0
 42
0.0000000001
 43
0.0000000001
 40
0.0
 40
0.0
 40
0.0
 40
0.0
 40
1.0
 40
2.0
 40
3.0
 40
4.0
 40
5.0
 40
6.0
 40
7.0
 40
7.0
 40
7.0
 40
8.0
 40
9.0
 40
10.0
 40
11.0
 40
12.0
 40
13.0
 40
14.0
 40
14.0
 40
14.0
 40
15.00000003741942
 40
16.00000007483884
 40
17.00000011225826
 40
18.00000014967768
 40
19.0
 40
19.0
 40
19.0
 40
20.0
 40
20.0
 40
20.0
 40
21.00001629970873
 40
22.00003259941746
 40
23.00004889912619
 40
24.00006519883492
 40
25.0
 40
25.0
 40
25.0
 40
26.0
 40
26.0
 40
26.0
 40
26.99999957585663
 40
27.99999968189669
 40
28.99999978793675
 40
29.99999989397681
 40
31.0
 40
31.0
 40
31.0
 40
31.99999999999047
 40
32.99999999999206
 40
33.99999999999365
 40
34.99999999999523
 40
35.99999999999682
 40
36.99999999999841
 40
38.0
 40
38.0
 40
38.0
 40
38.0
 10
-1.375000479850002
 20
12.86315492168498
 30
0.0
 10
-1.375006278703724
 20
12.83860038084715
 30
0.0
 10
-1.380366797588344
 20
12.78945533864965
 30
0.0
 10
-1.404708808457731
 20
12.71944634981019
 30
0.0
 10
-1.443505858224639
 20
12.65630570743242
 30
0.0
 10
-1.494583860365011
 20
12.60266975504894
 30
0.0
 10
-1.555468910171627
 20
12.56056544220616
 30
0.0
 10
-1.622457509926692
 20
12.5294101849272
 30
0.0
 10
-1.669577491656738
 20
12.51518740535788
 30
0.0
 10
-1.693288339870001
 20
12.50883252156497
 30
0.0
 10
-1.89378455603685
 20
12.46125301699936
 30
0.0
 10
-2.305504392717978
 20
12.44717496221148
 30
0.0
 10
-2.920834649225343
 20
12.43250004797701
 30
0.0
 10
-3.53676762165338
 20
12.41609895330984
 30
0.0
 10
-4.152539013899468
 20
12.40016041802532
 30
0.0
 10
-4.768353860311599
 20
12.38409782956577
 30
0.0
 10
-5.384156739128349
 20
12.36806888742155
 30
0.0
 10
-5.794694638509391
 20
12.35737591234345
 30
0.0
 10
-5.999963000677953
 20
12.35203084346376
 30
0.0
 10
-6.062595196101372
 20
12.35040086704265
 30
0.0
 10
-6.187643026114636
 20
12.32684347442771
 30
0.0
 10
-6.352181762000929
 20
12.2303960972523
 30
0.0
 10
-6.477789204107165
 20
12.08762843108375
 30
0.0
 10
-6.560375693941888
 20
11.91707443795417
 30
0.0
 10
-6.588191388534256
 20
11.79407176470848
 30
0.0
 10
-6.595898165845002
 20
11.73187080162498
 30
0.0
 10
-7.074472490093335
 20
7.858505523241841
 30
0.0
 10
-7.55304681434167
 20
3.985140244858707
 30
0.0
 10
-8.031621138590003
 20
0.1117749664755743
 30
0.0
 10
-8.054442989651795
 20
0.0700066138928427
 30
0.0
 10
-8.152833450069357
 20
0.056918535960832
 30
0.0
 10
-8.28613177400074
 20
0.055013886422395
 30
0.0
 10
-8.423783433327706
 20
0.0720387969215898
 30
0.0
 10
-8.552599987797684
 20
0.1063204717732642
 30
0.0
 10
-8.644857153880698
 20
0.1429584817096705
 30
0.0
 10
-8.656783644895
 20
0.189043448737324
 30
0.0
 10
-8.178211064436667
 20
4.062400168644874
 30
0.0
 10
-7.699638483978334
 20
7.935756888552423
 30
0.0
 10
-7.221065903520001
 20
11.80911360845997
 30
0.0
 10
-7.206037103723
 20
11.93056075651399
 30
0.0
 10
-7.147535196849033
 20
12.17018942480571
 30
0.0
 10
-6.971279277895442
 20
12.49609997615263
 30
0.0
 10
-6.710747386994123
 20
12.76052453638558
 30
0.0
 10
-6.382586290886014
 20
12.93494860948874
 30
0.0
 10
-6.138700825747403
 20
12.97859432771371
 30
0.0
 10
-6.016361616432412
 20
12.98173865673874
 30
0.0
 10
-5.825310726096773
 20
12.9867144604672
 30
0.0
 10
-5.443208447670343
 20
12.9966617734943
 30
0.0
 10
-4.870056112198188
 20
13.01159867324331
 30
0.0
 10
-4.296900879286402
 20
13.02648421133819
 30
0.0
 10
-3.723756296668494
 20
13.04155873318086
 30
0.0
 10
-3.150571980376719
 20
13.05592820153598
 30
0.0
 10
-2.57753541243937
 20
13.07292883470611
 30
0.0
 10
-2.195144097515928
 20
13.07771617096738
 30
0.0
 10
-2.004718135210002
 20
13.09508239570497
 30
0.0
  0
SPLINE
  5
5C
330
1F
100
AcDbEntity
  8
DEFAULT
100
AcDbSpline
210
0.0
220
0.0
230
1.0
 70
    12
 71
     3
 72
    62
 73
    58
 74
     0
 42
0.0000000001
 43
0.0000000001
 40
0.0
 40
0.0
 40
0.0
 40
0.0
 40
1.0
 40
2.0
 40
3.0
 40
4.0
 40
5.0
 40
6.0
 40
7.0
 40
7.0
 40
7.0
 40
8.0
 40
9.0
 40
10.0
 40
11.0
 40
12.0
 40
12.0
 40
12.0
 40
13.0
 40
13.0
 40
13.0
 40
14.00003485043385
 40
15.00006970086769
 40
16.00010455130153
 40
17.00013940173538
 40
18.0
 40
18.0
 40
18.0
 40
19.0
 40
19.0
 40
19.0
 40
20.0
 40
21.0
 40
22.0
 40
23.0
 40
24.0
 40
24.0
 40
24.0
 40
24.07366434545036
 40
24.07366434545036
 40
24.07366434545036
 40
24.2158841814043
 40
24.2158841814043
 40
24.2158841814043
 40
26.26228818908316
 40
26.26228818908316
 40
26.26228818908316
 40
27.26228818908316
 40
27.26228818908316
 40
27.26228818908316
 40
28.26228818908316
 40
29.26228818908316
 40
30.26228818908316
 40
31.26228818908316
 40
32.26228818908316
 40
33.26228818908316
 40
34.26228818908316
 40
34.26228818908316
 40
34.26228818908316
 40
34.26228818908316
 10
-1.879140658620003
 20
13.39266143080497
 30
0.0
 41
1.0
 10
-2.107212799355892
 20
13.46788498244009
 30
0.0
 41
1.0
 10
-2.584217925981665
 20
13.52762060924134
 30
0.0
 41
1.0
 10
-3.294278800961817
 20
13.63565244528357
 30
0.0
 41
1.0
 10
-4.00579586705688
 20
13.73877003489924
 30
0.0
 41
1.0
 10
-4.71693472839388
 20
13.84311617700394
 30
0.0
 41
1.0
 10
-5.428130144757875
 20
13.94746238277112
 30
0.0
 41
1.0
 10
-6.139477923930746
 20
14.05058121349384
 30
0.0
 41
1.0
 10
-6.613265228678443
 20
14.1226000490954
 30
0.0
 41
1.0
 10
-6.850990997911829
 20
14.15252385859818
 30
0.0
 41
1.0
 10
-6.923768432735566
 20
14.15614068428099
 30
0.0
 41
1.0
 10
-7.070794736426727
 20
14.13789045268511
 30
0.0
 41
1.0
 10
-7.267650468677489
 20
14.03529519282227
 30
0.0
 41
1.0
 10
-7.420538973150008
 20
13.87538282618135
 30
0.0
 41
1.0
 10
-7.522416130609262
 20
13.67975970734044
 30
0.0
 41
1.0
 10
-7.556397435031496
 20
13.53695115344294
 30
0.0
 41
1.0
 10
-7.565348199115
 20
13.46462404259498
 30
0.0
 41
1.0
 10
-8.115292064938334
 20
9.00739122854421
 30
0.0
 41
1.0
 10
-8.665235930761668
 20
4.550158414493442
 30
0.0
 41
1.0
 10
-9.215179796585002
 20
0.092925600442674
 30
0.0
 41
1.0
 10
-9.246701485370425
 20
0.0626697268294358
 30
0.0
 41
1.0
 10
-9.340017685173235
 20
0.0622806575824813
 30
0.0
 41
1.0
 10
-9.468997566024276
 20
0.0656048399566115
 30
0.0
 41
1.0
 10
-9.600925648508435
 20
0.0818811994725392
 30
0.0
 41
1.0
 10
-9.726802203065256
 20
0.11003379944549
 30
0.0
 41
1.0
 10
-9.8172953290032
 20
0.1330930258702157
 30
0.0
 41
1.0
 10
-9.840358281890003
 20
0.1701161269109233
 30
0.0
 41
1.0
 10
-9.290415160715712
 20
4.627331020091603
 30
0.0
 41
1.0
 10
-8.740472039541421
 20
9.084545913272281
 30
0.0
 41
1.0
 10
-8.190528918367132
 20
13.54176080645296
 30
0.0
 41
1.0
 10
-8.173369283157008
 20
13.68067874610949
 30
0.0
 41
1.0
 10
-8.102718032735986
 20
13.9542916272558
 30
0.0
 41
1.0
 10
-7.88715107254081
 20
14.31996114827648
 30
0.0
 41
1.0
 10
-7.571029550670325
 20
14.60457430726603
 30
0.0
 41
1.0
 10
-7.179387226961095
 20
14.77202589323511
 30
0.0
 41
1.0
 10
-6.895999236862309
 20
14.79095723801304
 30
0.0
 41
1.0
 10
-6.7567134443692
 20
14.77700937295024
 30
0.0
 41
1.0
 10
-6.746453047634676
 20
14.77598191259996
 30
0.0
 41
1.0
 10
-6.736192650900153
 20
14.77495445224968
 30
0.0
 41
1.0
 10
-6.725932254165629
 20
14.7739269918994
 30
0.0
 41
1.0
 10
-6.679025836142003
 20
14.76705859994392
 30
0.0
 41
1.0
 10
-6.632119418118376
 20
14.76019020798845
 30
0.0
 41
1.0
 10
-6.58521300009475
 20
14.75332181603297
 30
0.0
 41
1.0
 10
-5.910275631534123
 20
14.65449239026962
 30
0.0
 41
0.9999999999999578
 10
-5.235338298142612
 20
14.55566272361749
 30
0.0
 41
0.9999999999999578
 10
-4.560400999896789
 20
14.45683281672273
 30
0.0
 41
1.0
 10
-3.804192310905002
 20
14.34610245927997
 30
0.0
 41
1.0
 10
-3.047983621810002
 20
14.23537210203497
 30
0.0
 41
1.0
 10
-2.291774932715002
 20
14.12464174478997
 30
0.0
 41
1.0
 10
-2.216425446553358
 20
14.11356388008294
 30
0.0
 41
1.0
 10
-2.066192511725423
 20
14.08947724649871
 30
0.0
 41
1.0
 10
-1.842050846362816
 20
14.04239406268942
 30
0.0
 41
1.0
 10
-1.623933942049472
 20
13.9807689584749
 30
0.0
 41
1.0
 10
-1.418458833975465
 20
13.85202785320703
 30
0.0
 41
1.0
 10
-1.385859112160559
 20
13.60736118990916
 30
0.0
 41
1.0
 10
-1.48289154869315
 20
13.39268350690731
 30
0.0
 41
1.0
 10
-1.627308637353749
 20
13.31353827038307
 30
0.0
 41
1.0
 10
-1.704260015822777
 20
13.31702246500618
 30
0.0
 41
1.0
  0
SPLINE
  5
5D
330
1F
100
AcDbEntity
  8
DEFAULT
100
AcDbSpline
210
0.0
220
0.0
230
1.0
 70
     8
 71
     3
 72
    12
 73
     8
 74
     0
 42
0.0000000001
 43
0.0000000001
 40
0.0
 40
0.0
 40
0.0
 40
0.0
 40
1.0
 40
2.0
 40
3.0
 40
4.0
 40
5.0
 40
5.0
 40
5.0
 40
5.0
 10
-9.21518059317
 20
0.0928983843603741
 30
0.0
 10
-9.23822762167929
 20
0.129944099744146
 30
0.0
 10
-9.328728743258933
 20
0.1530059778982557
 30
0.0
 10
-9.454612628323101
 20
0.1811608561400001
 30
0.0
 10
-9.586540808581768
 20
0.1974368656237615
 30
0.0
 10
-9.715520694721748
 20
0.2007582338375997
 30
0.0
 10
-9.808836637172051
 20
0.2003728136645737
 30
0.0
 10
-9.840357563780003
 20
0.1701434372968733
 30
0.0
  0
SPLINE
  5
5E
330
1F
100
AcDbEntity
  8
DEFAULT
100
AcDbSpline
210
0.0
220
0.0
230
1.0
 70
    12
 71
     3
 72
    18
 73
    14
 74
     0
 42
0.0000000001
 43
0.0000000001
 40
4.638942854351295
 40
4.638942854351295
 40
4.638942854351295
 40
4.638942854351295
 40
4.648689216821159
 40
4.648689216821159
 40
4.648689216821159
 40
5.648685930215887
 40
6.648687098062926
 40
7.648688265909967
 40
8.648689433757006
 40
9.64868921682116
 40
9.64868921682116
 40
9.64868921682116
 40
10.64868921682116
 40
10.64868921682116
 40
10.64868921682116
 40
10.64868921682116
 10
-12.63882198303294
 20
23.36960504712391
 30
0.0
 41
1.0
 10
-12.18537627280021
 20
23.33624120285519
 30
0.0
 41
0.9999920840505494
 10
-11.73177335933111
 20
23.30508746912635
 30
0.0
 41
0.9999920840505494
 10
-11.27802401471886
 20
23.27614458577153
 30
0.0
 41
1.0
 10
-11.21294826522887
 20
23.24458461037604
 30
0.0
 41
1.0
 10
-11.13355080553388
 20
23.11943171758573
 30
0.0
 41
1.0
 10
-11.02612729715782
 20
22.93490940225252
 30
0.0
 41
1.0
 10
-10.93095613734868
 20
22.74106411748392
 30
0.0
 41
1.0
 10
-10.84188755706705
 20
22.54517442384641
 30
0.0
 41
1.0
 10
-10.78610392598886
 20
22.41283591507004
 30
0.0
 41
1.0
 10
-10.758936786565
 20
22.34640758168997
 30
0.0
 41
1.0
 10
-10.00398752437667
 20
20.49961899330164
 30
0.0
 41
1.0
 10
-9.249038262188336
 20
18.65283040491331
 30
0.0
 41
1.0
 10
-8.494089000000002
 20
16.80604181652497
 30
0.0
 41
1.0
  0
SPLINE
  5
5F
330
1F
100
AcDbEntity
  8
DEFAULT
100
AcDbSpline
210
0.0
220
0.0
230
1.0
 70
     8
 71
     3
 72
    12
 73
     8
 74
     0
 42
0.0000000001
 43
0.0000000001
 40
0.0
 40
0.0
 40
0.0
 40
0.0
 40
1.0
 40
2.0
 40
3.0
 40
4.0
 40
5.0
 40
5.0
 40
5.0
 40
5.0
 10
-10.361373
 20
17.42158781652498
 30
0.0
 10
-10.2016721225629
 20
17.17891117933843
 30
0.0
 10
-9.925021987234997
 20
16.66795626700746
 30
0.0
 10
-9.539422821510312
 20
15.88674531959507
 30
0.0
 10
-9.177139713077185
 20
15.0956791193151
 30
0.0
 10
-8.788697160515484
 20
14.31223283424858
 30
0.0
 10
-8.385109319999302
 20
13.88407578660642
 30
0.0
 10
-8.162972334320003
 20
13.69805749360497
 30
0.0
  0
SPLINE
  5
60
330
1F
100
AcDbEntity
  8
DEFAULT
100
AcDbSpline
210
0.0
220
0.0
230
1.0
 70
    15
 71
     3
 72
    99
 73
    95
 74
     0
 42
0.0000000001
 43
0.0000000001
 40
0.0
 40
0.0
 40
0.0
 40
0.0
 40
1.0
 40
1.0
 40
1.0
 40
2.000008578216003
 40
3.000017206668428
 40
4.000025835120853
 40
5.000034463573277
 40
6.0
 40
6.0
 40
6.0
 40
6.999996622365204
 40
7.999997466773903
 40
8.999998311182601
 40
9.9999991555913
 40
11.0
 40
11.0
 40
11.0
 40
12.00000006907184
 40
13.00000013814367
 40
14.00000020721551
 40
15.00000027628735
 40
16.0
 40
16.0
 40
16.0
 40
16.09944883759374
 40
16.09944883759374
 40
16.09944883759374
 40
16.19889767518748
 40
16.19889767518748
 40
16.19889767518748
 40
17.19889739890013
 40
18.19889746797197
 40
19.19889753704381
 40
20.19889760611564
 40
21.19889767518748
 40
21.19889767518748
 40
21.19889767518748
 40
22.19889851959618
 40
23.19889936400488
 40
24.19890020841358
 40
25.19890105282228
 40
26.19889767518748
 40
26.19889767518748
 40
26.19889767518748
 40
27.1988632116142
 40
28.19887184006663
 40
29.19888046851905
 40
30.19888909697148
 40
31.19889767518748
 40
31.19889767518748
 40
31.19889767518748
 40
32.19889767518748
 40
32.19889767518748
 40
32.19889767518748
 40
33.19896117977401
 40
34.19902468436053
 40
35.19908818894706
 40
36.19915169353358
 40
37.19889767518748
 40
37.19889767518748
 40
37.19889767518748
 40
37.27051634637212
 40
37.27051634637212
 40
37.27051634637212
 40
38.27051634637212
 40
39.27051634637212
 40
40.27051634637212
 40
41.27051634637212
 40
42.27051634637212
 40
42.27051634637212
 40
42.27051634637212
 40
42.36879312816438
 40
42.36879312816438
 40
42.36879312816438
 40
42.46706990995665
 40
42.46706990995665
 40
42.46706990995665
 40
43.46706990995665
 40
44.46706990995665
 40
45.46706990995665
 40
46.46706990995665
 40
47.46706990995665
 40
47.46706990995665
 40
47.46706990995665
 40
47.53868858114129
 40
47.53868858114129
 40
47.53868858114129
 40
48.53843456279519
 40
49.53849806738171
 40
50.53856157196824
 40
51.53862507655476
 40
52.53868858114129
 40
52.53868858114129
 40
52.53868858114129
 40
52.53868858114129
 10
12.64176342027
 20
23.36954479720498
 30
0.0
 41
1.0
 10
13.00842976055834
 20
23.32339535496665
 30
0.0
 41
1.0
 10
13.37509610084667
 20
23.27724591272831
 30
0.0
 41
1.0
 10
13.741762441135
 20
23.23109647048997
 30
0.0
 41
1.0
 10
13.76252531579105
 20
23.1982205558536
 30
0.0
 41
1.0
 10
13.72879252868794
 20
23.1164027137427
 30
0.0
 41
1.0
 10
13.68703719244288
 20
23.00700147245062
 30
0.0
 41
1.0
 10
13.63491045292581
 20
22.89740307124142
 30
0.0
 41
1.0
 10
13.58132800241501
 20
22.78988735762442
 30
0.0
 41
1.0
 10
13.54390667908938
 20
22.71879116263623
 30
0.0
 41
1.0
 10
13.52498563019
 20
22.68341720847998
 30
0.0
 41
1.0
 10
13.33174749229065
 20
22.32240043415718
 30
0.0
 41
1.0
 10
12.93783796320927
 20
21.60435203274685
 30
0.0
 41
1.0
 10
12.32662823194635
 20
20.53869033823675
 30
0.0
 41
1.0
 10
11.69403929925755
 20
19.48556603617695
 30
0.0
 41
1.0
 10
11.03914548133167
 20
18.44616858054346
 30
0.0
 41
1.0
 10
10.58951131029383
 20
17.76163590964756
 30
0.0
 41
1.0
 10
10.36137594469142
 20
17.421592009506
 30
0.0
 41
1.0
 10
10.24047508199301
 20
17.24312128100238
 30
0.0
 41
1.0
 10
10.00331760408496
 20
16.88329794928316
 30
0.0
 41
1.0
 10
9.617019037669785
 20
16.36328424783669
 30
0.0
 41
1.0
 10
9.134977663443827
 20
15.92513679566718
 30
0.0
 41
1.0
 10
8.553628506687659
 20
15.62848782892519
 30
0.0
 41
1.0
 10
8.128044514813107
 20
15.54036302492785
 30
0.0
 41
1.0
 10
7.913724529823758
 20
15.5189105493662
 30
0.0
 41
1.0
 10
5.283355246548666
 20
15.25805638829219
 30
0.0
 41
0.9991759971634292
 10
2.643271633554857
 20
15.12826433865781
 30
0.0
 41
0.9991759971634292
 10
0.0000000000000018
 20
15.12985524751425
 30
0.0
 41
1.0
 10
-2.643271633554857
 20
15.12826433865781
 30
0.0
 41
0.9991759971634292
 10
-5.283355246548667
 20
15.25805638829219
 30
0.0
 41
0.9991759971634292
 10
-7.913724529823758
 20
15.5189105493662
 30
0.0
 41
1.0
 10
-8.128044514813107
 20
15.54036302492785
 30
0.0
 41
1.0
 10
-8.553628506687659
 20
15.62848782892519
 30
0.0
 41
1.0
 10
-9.134977663443827
 20
15.92513679566718
 30
0.0
 41
1.0
 10
-9.617019037669785
 20
16.36328424783669
 30
0.0
 41
1.0
 10
-10.00331760408496
 20
16.88329794928316
 30
0.0
 41
1.0
 10
-10.24047508199301
 20
17.24312128100238
 30
0.0
 41
1.0
 10
-10.36137594469142
 20
17.421592009506
 30
0.0
 41
1.0
 10
-10.58951131029383
 20
17.76163590964756
 30
0.0
 41
1.0
 10
-11.03914548133167
 20
18.44616858054346
 30
0.0
 41
1.0
 10
-11.69403929925755
 20
19.48556603617695
 30
0.0
 41
1.0
 10
-12.32662823194635
 20
20.53869033823675
 30
0.0
 41
1.0
 10
-12.93783796320927
 20
21.60435203274685
 30
0.0
 41
1.0
 10
-13.33174749229065
 20
22.32240043415718
 30
0.0
 41
1.0
 10
-13.52498563019
 20
22.68341720847998
 30
0.0
 41
1.0
 10
-13.54390667908938
 20
22.71879116263623
 30
0.0
 41
1.0
 10
-13.58132800241501
 20
22.78988735762442
 30
0.0
 41
1.0
 10
-13.63491045292581
 20
22.89740307124142
 30
0.0
 41
1.0
 10
-13.68703719244288
 20
23.00700147245062
 30
0.0
 41
1.0
 10
-13.72879252868794
 20
23.1164027137427
 30
0.0
 41
1.0
 10
-13.76252531579105
 20
23.1982205558536
 30
0.0
 41
1.0
 10
-13.741762441135
 20
23.23109647048997
 30
0.0
 41
1.0
 10
-13.37509610084667
 20
23.27724591272831
 30
0.0
 41
1.0
 10
-13.00842976055834
 20
23.32339535496665
 30
0.0
 41
1.0
 10
-12.64176342027
 20
23.36954479720498
 30
0.0
 41
1.0
 10
-12.66286316293582
 20
23.33740512713169
 30
0.0
 41
1.0
 10
-12.62843361173755
 20
23.25676908030714
 30
0.0
 41
1.0
 10
-12.58596891376173
 20
23.14958438667286
 30
0.0
 41
1.0
 10
-12.53310839210043
 20
23.04217718715704
 30
0.0
 41
1.0
 10
-12.47891526578378
 20
22.93688368236043
 30
0.0
 41
1.0
 10
-12.44114840645984
 20
22.86725617655247
 30
0.0
 41
1.0
 10
-12.42208132524036
 20
22.83261363728055
 30
0.0
 41
1.0
 10
-11.44701231367415
 20
21.06334363436653
 30
0.0
 41
0.9995726095016136
 10
-10.40922556120323
 20
19.33011699687104
 30
0.0
 41
0.9995726095016136
 10
-9.310051688419684
 20
17.63515601858332
 30
0.0
 41
1.0
 10
-9.21727559649336
 20
17.49201111811018
 30
0.0
 41
1.0
 10
-9.009829286582193
 20
17.22048794739262
 30
0.0
 41
1.0
 10
-8.634506778456418
 20
16.86882264636499
 30
0.0
 41
1.0
 10
-8.174965832198433
 20
16.63024887498038
 30
0.0
 41
1.0
 10
-7.668544284742485
 20
16.539323467117
 30
0.0
 41
1.0
 10
-7.328629563708187
 20
16.51728373320079
 30
0.0
 41
1.0
 10
-7.159010579119273
 20
16.49974074428137
 30
0.0
 41
1.0
 10
-4.779321486404932
 20
16.26679457917361
 30
0.0
 41
0.9991953014336707
 10
-2.391062798356212
 20
16.15101663316567
 30
0.0
 41
0.9991953014336707
 10
-0.0000000000000018
 20
16.15268640529904
 30
0.0
 41
1.0
 10
2.391062798356212
 20
16.15101663316567
 30
0.0
 41
0.9991953014336707
 10
4.779321486404932
 20
16.26679457917361
 30
0.0
 41
0.9991953014336707
 10
7.159010579119272
 20
16.49974074428137
 30
0.0
 41
1.0
 10
7.328629563708187
 20
16.51728373320079
 30
0.0
 41
1.0
 10
7.668544284742485
 20
16.539323467117
 30
0.0
 41
1.0
 10
8.174965832198433
 20
16.63024887498038
 30
0.0
 41
1.0
 10
8.634506778456418
 20
16.86882264636499
 30
0.0
 41
1.0
 10
9.009829286582193
 20
17.22048794739262
 30
0.0
 41
1.0
 10
9.21727559649336
 20
17.49201111811018
 30
0.0
 41
1.0
 10
9.310051688419684
 20
17.63515601858332
 30
0.0
 41
1.0
 10
10.40922556120323
 20
19.33011699687104
 30
0.0
 41
0.9995726095016136
 10
11.44701231367415
 20
21.06334363436653
 30
0.0
 41
0.9995726095016136
 10
12.42208132524036
 20
22.83261363728055
 30
0.0
 41
1.0
 10
12.44114840645984
 20
22.86725617655247
 30
0.0
 41
1.0
 10
12.47891526578378
 20
22.93688368236043
 30
0.0
 41
1.0
 10
12.53310839210043
 20
23.04217718715704
 30
0.0
 41
1.0
 10
12.58596891376173
 20
23.14958438667286
 30
0.0
 41
1.0
 10
12.62843361173755
 20
23.25676908030714
 30
0.0
 41
1.0
 10
12.66286316293582
 20
23.33740512713169
 30
0.0
 41
1.0
 10
12.64176342027
 20
23.36954479720498
 30
0.0
 41
1.0
  0
SPLINE
  5
61
330
1F
100
AcDbEntity
  8
DEFAULT
100
AcDbSpline
210
0.0
220
0.0
230
1.0
 70
     8
 71
     3
 72
    12
 73
     8
 74
     0
 42
0.0000000001
 43
0.0000000001
 40
0.0
 40
0.0
 40
0.0
 40
0.0
 40
1.0
 40
2.0
 40
3.0
 40
4.0
 40
5.0
 40
5.0
 40
5.0
 40
5.0
 10
10.361373
 20
17.42158781652498
 30
0.0
 10
10.2016721225629
 20
17.17891117933843
 30
0.0
 10
9.925021987234997
 20
16.66795626700746
 30
0.0
 10
9.539422821510312
 20
15.88674531959507
 30
0.0
 10
9.177139713077185
 20
15.0956791193151
 30
0.0
 10
8.788697160515484
 20
14.31223283424858
 30
0.0
 10
8.385109319999302
 20
13.88407578660642
 30
0.0
 10
8.162972334320003
 20
13.69805749360497
 30
0.0
  0
SPLINE
  5
62
330
1F
100
AcDbEntity
  8
DEFAULT
100
AcDbSpline
210
0.0
220
0.0
230
1.0
 70
    12
 71
     3
 72
    18
 73
    14
 74
     0
 42
0.0000000001
 43
0.0000000001
 40
4.638942854351295
 40
4.638942854351295
 40
4.638942854351295
 40
4.638942854351295
 40
4.648689216821159
 40
4.648689216821159
 40
4.648689216821159
 40
5.648685930215887
 40
6.648687098062926
 40
7.648688265909967
 40
8.648689433757006
 40
9.64868921682116
 40
9.64868921682116
 40
9.64868921682116
 40
10.64868921682116
 40
10.64868921682116
 40
10.64868921682116
 40
10.64868921682116
 10
12.63882198303294
 20
23.36960504712391
 30
0.0
 41
1.0
 10
12.18537627280021
 20
23.33624120285519
 30
0.0
 41
0.9999920840505494
 10
11.73177335933111
 20
23.30508746912635
 30
0.0
 41
0.9999920840505494
 10
11.27802401471886
 20
23.27614458577153
 30
0.0
 41
1.0
 10
11.21294826522887
 20
23.24458461037604
 30
0.0
 41
1.0
 10
11.13355080553388
 20
23.11943171758573
 30
0.0
 41
1.0
 10
11.02612729715782
 20
22.93490940225252
 30
0.0
 41
1.0
 10
10.93095613734868
 20
22.74106411748392
 30
0.0
 41
1.0
 10
10.84188755706705
 20
22.54517442384641
 30
0.0
 41
1.0
 10
10.78610392598886
 20
22.41283591507004
 30
0.0
 41
1.0
 10
10.758936786565
 20
22.34640758168997
 30
0.0
 41
1.0
 10
10.00398752437667
 20
20.49961899330164
 30
0.0
 41
1.0
 10
9.249038262188336
 20
18.65283040491331
 30
0.0
 41
1.0
 10
8.494089000000002
 20
16.80604181652497
 30
0.0
 41
1.0
  0
SPLINE
  5
63
330
1F
100
AcDbEntity
  8
DEFAULT
100
AcDbSpline
210
0.0
220
0.0
230
1.0
 70
     8
 71
     3
 72
    12
 73
     8
 74
     0
 42
0.0000000001
 43
0.0000000001
 40
0.0
 40
0.0
 40
0.0
 40
0.0
 40
1.0
 40
2.0
 40
3.0
 40
4.0
 40
5.0
 40
5.0
 40
5.0
 40
5.0
 10
-7.584785682740002
 20
13.30797607414497
 30
0.0
 10
-7.509918184860796
 20
13.2677577261959
 30
0.0
 10
-7.357301868873899
 20
13.19270735685289
 30
0.0
 10
-7.121109839249045
 20
13.09628032668586
 30
0.0
 10
-6.878562818544355
 20
13.01718116264487
 30
0.0
 10
-6.631027099433044
 20
12.95545925564758
 30
0.0
 10
-6.463484985896824
 20
12.92617737630938
 30
0.0
 10
-6.379270805320001
 20
12.91474520474497
 30
0.0
  0
SPLINE
  5
64
330
1F
100
AcDbEntity
  8
DEFAULT
100
AcDbSpline
210
0.0
220
0.0
230
1.0
 70
     8
 71
     3
 72
    11
 73
     7
 74
     0
 42
0.0000000001
 43
0.0000000001
 40
0.0
 40
0.0
 40
0.0
 40
0.0
 40
0.2577582626286
 40
0.5107626144227
 40
0.7583587548847
 40
1.0
 40
1.0
 40
1.0
 40
1.0
 10
-11.71708317943
 20
23.30492045274497
 30
0.0
 10
-11.71810139159
 20
23.39880652775498
 30
0.0
 10
-11.71450328407
 20
23.58496061490497
 30
0.0
 10
-11.69202253913
 20
23.86046385576498
 30
0.0
 10
-11.65274074456
 20
24.12815453694498
 30
0.0
 10
-11.61497561478
 20
24.30249054837498
 30
0.0
 10
-11.59327677841
 20
24.38779481233497
 30
0.0
  0
SPLINE
  5
65
330
1F
100
AcDbEntity
  8
DEFAULT
100
AcDbSpline
210
0.0
220
0.0
230
1.0
 70
     8
 71
     3
 72
    71
 73
    67
 74
     0
 42
0.0000000001
 43
0.0000000001
 40
0.0
 40
0.0
 40
0.0
 40
0.0
 40
1.0
 40
2.0
 40
3.0
 40
4.0
 40
5.0
 40
5.0
 40
5.0
 40
6.0
 40
7.0
 40
8.0
 40
9.0
 40
10.0
 40
11.0
 40
12.0
 40
13.0
 40
14.0
 40
15.0
 40
16.0
 40
17.0
 40
18.0
 40
19.0
 40
20.0
 40
21.0
 40
22.0
 40
22.0
 40
22.0
 40
23.0
 40
24.0
 40
25.0
 40
26.0
 40
27.0
 40
27.0
 40
27.0
 40
28.0
 40
29.0
 40
30.0
 40
31.0
 40
32.0
 40
32.0
 40
32.0
 40
33.0
 40
34.0
 40
35.0
 40
36.0
 40
37.0
 40
38.0
 40
39.0
 40
40.0
 40
41.0
 40
42.0
 40
43.0
 40
44.0
 40
45.0
 40
46.0
 40
47.0
 40
48.0
 40
49.0
 40
49.0
 40
49.0
 40
50.0
 40
51.0
 40
52.0
 40
53.0
 40
54.0
 40
54.0
 40
54.0
 40
54.0
 10
11.65839135755
 20
23.30098936554497
 30
0.0
 10
11.66351432831774
 20
23.38563062432231
 30
0.0
 10
11.6691085253759
 20
23.55519785276788
 30
0.0
 10
11.66306204125481
 20
23.80962078122535
 30
0.0
 10
11.64208643158983
 20
24.06325998328613
 30
0.0
 10
11.60530214847633
 20
24.31511144626488
 30
0.0
 10
11.56956234279558
 20
24.48099900903538
 30
0.0
 10
11.54872817147
 20
24.56319738626497
 30
0.0
 10
11.5079633205706
 20
24.72278518899999
 30
0.0
 10
11.40621061365538
 20
25.03794031758862
 30
0.0
 10
11.17486669134496
 20
25.47580130354448
 30
0.0
 10
10.9392579399811
 20
25.910383595398
 30
0.0
 10
10.70448775683444
 20
26.34568730829961
 30
0.0
 10
10.46991393597954
 20
26.78102490198752
 30
0.0
 10
10.23523473495624
 20
27.21632496423312
 30
0.0
 10
10.00069238246696
 20
27.65169396986769
 30
0.0
 10
9.766008636383669
 20
28.0869863581185
 30
0.0
 10
9.531344916383164
 20
28.52229634648406
 30
0.0
 10
9.296836556381022
 20
28.95766269972235
 30
0.0
 10
9.06230680602429
 20
29.39312074165708
 30
0.0
 10
8.82594150654686
 20
29.82720344251247
 30
0.0
 10
8.60285127547678
 20
30.26987629676815
 30
0.0
 10
8.281740043708567
 20
30.65325722095347
 30
0.0
 10
7.842277014989961
 20
30.89730681510913
 30
0.0
 10
7.355692281950011
 20
31.00405277528355
 30
0.0
 10
7.024422775927688
 20
31.00082696082156
 30
0.0
 10
6.859988770625002
 20
30.99188167473997
 30
0.0
 10
6.403378790821145
 20
30.96071267842575
 30
0.0
 10
5.489654623347349
 20
30.90607542032854
 30
0.0
 10
4.118081991033899
 20
30.8429507598058
 30
0.0
 10
2.745767248715444
 20
30.79871943488327
 30
0.0
 10
1.372995720088749
 20
30.77243488955157
 30
0.0
 10
0.457665433011864
 20
30.76661627489577
 30
0.0
 10
0.0
 20
30.76661645092497
 30
0.0
 10
-0.457665433011864
 20
30.76661627489577
 30
0.0
 10
-1.372995720088749
 20
30.77243488955157
 30
0.0
 10
-2.745767248715444
 20
30.79871943488327
 30
0.0
 10
-4.118081991033899
 20
30.8429507598058
 30
0.0
 10
-5.489654623347349
 20
30.90607542032854
 30
0.0
 10
-6.403378790821145
 20
30.96071267842575
 30
0.0
 10
-6.859988770625002
 20
30.99188167473997
 30
0.0
 10
-7.024422775927688
 20
31.00082696082156
 30
0.0
 10
-7.355692281950011
 20
31.00405277528355
 30
0.0
 10
-7.842277014989961
 20
30.89730681510913
 30
0.0
 10
-8.281740043708567
 20
30.65325722095347
 30
0.0
 10
-8.60285127547678
 20
30.26987629676815
 30
0.0
 10
-8.82594150654686
 20
29.82720344251247
 30
0.0
 10
-9.06230680602429
 20
29.39312074165708
 30
0.0
 10
-9.296836556381022
 20
28.95766269972235
 30
0.0
 10
-9.531344916383164
 20
28.52229634648406
 30
0.0
 10
-9.766008636383669
 20
28.0869863581185
 30
0.0
 10
-10.00069238246696
 20
27.65169396986769
 30
0.0
 10
-10.23523473495624
 20
27.21632496423312
 30
0.0
 10
-10.46991393597954
 20
26.78102490198752
 30
0.0
 10
-10.70448775683444
 20
26.34568730829961
 30
0.0
 10
-10.9392579399811
 20
25.910383595398
 30
0.0
 10
-11.17486669134496
 20
25.47580130354448
 30
0.0
 10
-11.40621061365538
 20
25.03794031758862
 30
0.0
 10
-11.5079633205706
 20
24.72278518899999
 30
0.0
 10
-11.54872817147
 20
24.56319738626497
 30
0.0
 10
-11.56956234279558
 20
24.48099900903538
 30
0.0
 10
-11.60530214847633
 20
24.31511144626488
 30
0.0
 10
-11.64208643158983
 20
24.06325998328613
 30
0.0
 10
-11.66306204125481
 20
23.80962078122535
 30
0.0
 10
-11.6691085253759
 20
23.55519785276788
 30
0.0
 10
-11.66351432831774
 20
23.38563062432231
 30
0.0
 10
-11.65839135755
 20
23.30098936554497
 30
0.0
  0
SPLINE
  5
66
330
1F
100
AcDbEntity
  8
DEFAULT
100
AcDbSpline
210
0.0
220
0.0
230
1.0
 70
     8
 71
     3
 72
    11
 73
     7
 74
     0
 42
0.0000000001
 43
0.0000000001
 40
0.0
 40
0.0
 40
0.0
 40
0.0
 40
0.2577582626286
 40
0.5107626144227
 40
0.7583587548847
 40
1.0
 40
1.0
 40
1.0
 40
1.0
 10
11.71708317943
 20
23.30492045274497
 30
0.0
 10
11.71810139159
 20
23.39880652775498
 30
0.0
 10
11.71450328407
 20
23.58496061490497
 30
0.0
 10
11.69202253913
 20
23.86046385576498
 30
0.0
 10
11.65274074456
 20
24.12815453694498
 30
0.0
 10
11.61497561478
 20
24.30249054837498
 30
0.0
 10
11.59327677841
 20
24.38779481233497
 30
0.0
  0
SPLINE
  5
67
330
1F
100
AcDbEntity
  8
DEFAULT
100
AcDbSpline
210
0.0
220
0.0
230
1.0
 70
    24
 71
     2
 72
     6
 73
     3
 74
     0
 42
0.0000000001
 43
0.0000000001
 40
0.0
 40
0.0
 40
0.0
 40
1.0
 40
1.0
 40
1.0
 10
-1.375
 20
12.41652381652498
 30
0.0
 10
0.0
 20
12.41652381652498
 30
0.0
 10
1.375
 20
12.41652381652498
 30
0.0
  0
SPLINE
  5
68
330
1F
100
AcDbEntity
  8
DEFAULT
100
AcDbSpline
210
0.0
220
0.0
230
1.0
 70
    24
 71
     2
 72
     6
 73
     3
 74
     0
 42
0.0000000001
 43
0.0000000001
 40
0.0
 40
0.0
 40
0.0
 40
1.0
 40
1.0
 40
1.0
 10
-1.375
 20
13.31267381652497
 30
0.0
 10
-1.375
 20
12.86370631652497
 30
0.0
 10
-1.375
 20
12.41473881652497
 30
0.0
  0
SPLINE
  5
69
330
1F
100
AcDbEntity
  8
DEFAULT
100
AcDbSpline
210
0.0
220
0.0
230
1.0
 70
    24
 71
     2
 72
     6
 73
     3
 74
     0
 42
0.0000000001
 43
0.0000000001
 40
0.0
 40
0.0
 40
0.0
 40
1.0
 40
1.0
 40
1.0
 10
-1.644746000000001
 20
13.31267381652497
 30
0.0
 10
-0.0000005000000023
 20
13.31267381652497
 30
0.0
 10
1.644744999999997
 20
13.31267381652497
 30
0.0
  0
SPLINE
  5
6A
330
1F
100
AcDbEntity
  8
DEFAULT
100
AcDbSpline
210
0.0
220
0.0
230
1.0
 70
    24
 71
     2
 72
     6
 73
     3
 74
     0
 42
0.0000000001
 43
0.0000000001
 40
0.0
 40
0.0
 40
0.0
 40
1.0
 40
1.0
 40
1.0
 10
-1.381073000000001
 20
12.80333881652497
 30
0.0
 10
-1.378039000000001
 20
12.80333081652497
 30
0.0
 10
-1.375005000000002
 20
12.80332281652498
 30
0.0
  0
SPLINE
  5
6B
330
1F
100
AcDbEntity
  8
DEFAULT
100
AcDbSpline
210
0.0
220
0.0
230
1.0
 70
    24
 71
     2
 72
     6
 73
     3
 74
     0
 42
0.0000000001
 43
0.0000000001
 40
0.0
 40
0.0
 40
0.0
 40
1.0
 40
1.0
 40
1.0
 10
-5.295502000000003
 20
13.00051081652497
 30
0.0
 10
-4.757717500000002
 20
13.01451531652497
 30
0.0
 10
-4.219933000000001
 20
13.02851981652497
 30
0.0
  0
SPLINE
  5
6C
330
1F
100
AcDbEntity
  8
DEFAULT
100
AcDbSpline
210
0.0
220
0.0
230
1.0
 70
    24
 71
     2
 72
     6
 73
     3
 74
     0
 42
0.0000000001
 43
0.0000000001
 40
0.0
 40
0.0
 40
0.0
 40
1.0
 40
1.0
 40
1.0
 10
-1.570735000000003
 20
13.94167381652498
 30
0.0
 10
-0.0000005000000023
 20
13.94167381652498
 30
0.0
 10
1.570733999999998
 20
13.94167381652498
 30
0.0
  0
SPLINE
  5
6D
330
1F
100
AcDbEntity
  8
DEFAULT
100
AcDbSpline
210
0.0
220
0.0
230
1.0
 70
    24
 71
     2
 72
     6
 73
     3
 74
     0
 42
0.0000000001
 43
0.0000000001
 40
0.0
 40
0.0
 40
0.0
 40
1.0
 40
1.0
 40
1.0
 10
-1.375
 20
12.86801681652497
 30
0.0
 10
0.0
 20
12.86801681652497
 30
0.0
 10
1.375
 20
12.86801681652497
 30
0.0
  0
ENDSEC
  0
SECTION
  2
OBJECTS
  0
DICTIONARY
  5
C
330
0
100
AcDbDictionary
281
     1
  3
ACAD_GROUP
350
D
  3
ACAD_LAYOUT
350
1A
  3
ACAD_MLEADERSTYLE
350
70
  3
ACAD_MLINESTYLE
350
17
  3
ACAD_PLOTSETTINGS
350
19
  3
ACAD_PLOTSTYLENAME
350
E
  3
ACAD_VISUALSTYLE
350
2A
  3
AcDbVariableDictionary
350
6E
  0
DICTIONARY
  5
D
102
{ACAD_REACTORS
330
C
102
}
330
C
100
AcDbDictionary
281
     1
  0
DICTIONARY
  5
1A
102
{ACAD_REACTORS
330
C
102
}
330
C
100
AcDbDictionary
281
     1
  3
Layout1
350
1E
  3
Layout2
350
26
  3
Model
350
22
  0
DICTIONARY
  5
70
102
{ACAD_REACTORS
330
C
102
}
330
C
100
AcDbDictionary
281
     1
  0
DICTIONARY
  5
17
102
{ACAD_REACTORS
330
C
102
}
330
C
100
AcDbDictionary
281
     1
  3
Standard
350
18
  0
DICTIONARY
  5
19
102
{ACAD_REACTORS
330
C
102
}
330
C
100
AcDbDictionary
281
     1
  0
ACDBDICTIONARYWDFLT
  5
E
102
{ACAD_REACTORS
330
C
102
}
330
C
100
AcDbDictionary
281
     1
  3
Normal
350
F
100
AcDbDictionaryWithDefault
340
F
  0
DICTIONARY
  5
2A
102
{ACAD_REACTORS
330
C
102
}
330
C
100
AcDbDictionary
281
     1
  3
2dWireframe
350
2F
  3
3D Hidden
350
31
  3
3dWireframe
350
30
  3
Basic
350
32
  3
Brighten
350
36
  3
ColorChange
350
3A
  3
Conceptual
350
34
  3
Dim
350
35
  3
Facepattern
350
39
  3
Flat
350
2B
  3
FlatWithEdges
350
2C
  3
Gouraud
350
2D
  3
GouraudWithEdges
350
2E
  3
Linepattern
350
38
  3
Realistic
350
33
  3
Thicken
350
37
  0
DICTIONARY
  5
6E
102
{ACAD_REACTORS
330
C
102
}
330
C
100
AcDbDictionary
281
     1
  0
LAYOUT
  5
1E
102
{ACAD_REACTORS
330
1A
102
}
330
1A
100
AcDbPlotSettings
  1

  2
none_device
  4

  6

 40
0.0
 41
0.0
 42
0.0
 43
0.0
 44
0.0
 45
0.0
 46
0.0
 47
0.0
 48
0.0
 49
0.0
140
0.0
141
0.0
142
1.0
143
1.0
 70
   688
 72
     0
 73
     0
 74
     5
  7

 75
    16
147
1.0
148
0.0
149
0.0
100
AcDbLayout
  1
Layout1
 70
     1
 71
     1
 10
0.0
 20
0.0
 11
12.0
 21
9.0
 12
0.0
 22
0.0
 32
0.0
 14
1.000000000000000E+20
 24
1.000000000000000E+20
 34
1.000000000000000E+20
 15
-1.000000000000000E+20
 25
-1.000000000000000E+20
 35
-1.000000000000000E+20
146
0.0
 13
0.0
 23
0.0
 33
0.0
 16
1.0
 26
0.0
 36
0.0
 17
0.0
 27
1.0
 37
0.0
 76
     0
330
1B
  0
LAYOUT
  5
26
102
{ACAD_REACTORS
330
1A
102
}
330
1A
100
AcDbPlotSettings
  1

  2
none_device
  4

  6

 40
0.0
 41
0.0
 42
0.0
 43
0.0
 44
0.0
 45
0.0
 46
0.0
 47
0.0
 48
0.0
 49
0.0
140
0.0
141
0.0
142
1.0
143
1.0
 70
   688
 72
     0
 73
     0
 74
     5
  7

 75
    16
147
1.0
148
0.0
149
0.0
100
AcDbLayout
  1
Layout2
 70
     1
 71
     2
 10
0.0
 20
0.0
 11
0.0
 21
0.0
 12
0.0
 22
0.0
 32
0.0
 14
0.0
 24
0.0
 34
0.0
 15
0.0
 25
0.0
 35
0.0
146
0.0
 13
0.0
 23
0.0
 33
0.0
 16
1.0
 26
0.0
 36
0.0
 17
0.0
 27
1.0
 37
0.0
 76
     0
330
23
  0
LAYOUT
  5
22
102
{ACAD_REACTORS
330
1A
102
}
330
1A
100
AcDbPlotSettings
  1

  2
none_device
  4

  6

 40
0.0
 41
0.0
 42
0.0
 43
0.0
 44
0.0
 45
0.0
 46
0.0
 47
0.0
 48
0.0
 49
0.0
140
0.0
141
0.0
142
1.0
143
1.0
 70
  1712
 72
     0
 73
     0
 74
     0
  7

 75
     0
147
1.0
148
0.0
149
0.0
100
AcDbLayout
  1
Model
 70
     1
 71
     0
 10
0.0
 20
0.0
 11
12.0
 21
9.0
 12
0.0
 22
0.0
 32
0.0
 14
-13.75252504048759
 24
0.0581688130953336
 34
0.0
 15
47.49758853294303
 25
66.80591031642444
 35
0.0
146
0.0
 13
0.0
 23
0.0
 33
0.0
 16
1.0
 26
0.0
 36
0.0
 17
0.0
 27
1.0
 37
0.0
 76
     0
330
1F
331
29
  0
MLINESTYLE
  5
18
102
{ACAD_REACTORS
330
17
102
}
330
17
100
AcDbMlineStyle
  2
Standard
 70
     0
  3

 62
   256
 51
90.0
 52
90.0
 71
     2
 49
0.5
 62
   256
  6
BYLAYER
 49
-0.5
 62
   256
  6
BYLAYER
  0
ACDBPLACEHOLDER
  5
F
102
{ACAD_REACTORS
330
E
102
}
330
E
  0
VISUALSTYLE
  5
2F
102
{ACAD_REACTORS
330
2A
102
}
330
2A
100
AcDbVisualStyle
  2
2dWireframe
 70
     4
 71
     0
 72
     2
 73
     0
 90
        0
 40
-0.6
 41
-30.0
 62
     5
 63
     7
 74
     1
 91
        4
 64
     7
 65
   257
 75
     1
175
     1
 42
1.0
 92
        0
 66
   257
 43
1.0
 76
     1
 77
     6
 78
     2
 67
     7
 79
     5
170
     0
171
     0
290
     0
174
     0
 93
        1
 44
0.0
173
     0
291
     0
 45
0.0
1001
ACAD
1000
AcDbSavedByObjectVersion
1070
     0
  0
VISUALSTYLE
  5
31
102
{ACAD_REACTORS
330
2A
102
}
330
2A
100
AcDbVisualStyle
  2
3D Hidden
 70
     6
 71
     1
 72
     2
 73
     2
 90
        0
 40
-0.6
 41
-30.0
 62
     5
 63
     7
 74
     2
 91
        2
 64
     7
 65
   257
 75
     2
175
     1
 42
40.0
 92
        0
 66
   257
 43
1.0
 76
     1
 77
     6
 78
     2
 67
     7
 79
     3
170
     0
171
     0
290
     0
174
     0
 93
        1
 44
0.0
173
     0
291
     0
 45
0.0
1001
ACAD
1000
AcDbSavedByObjectVersion
1070
     0
  0
VISUALSTYLE
  5
30
102
{ACAD_REACTORS
330
2A
102
}
330
2A
100
AcDbVisualStyle
  2
3dWireframe
 70
     5
 71
     0
 72
     2
 73
     0
 90
        0
 40
-0.6
 41
-30.0
 62
     5
 63
     7
 74
     1
 91
        4
 64
     7
 65
   257
 75
     1
175
     1
 42
1.0
 92
        0
 66
   257
 43
1.0
 76
     1
 77
     6
 78
     2
 67
     7
 79
     5
170
     0
171
     0
290
     0
174
     0
 93
        1
 44
0.0
173
     0
291
     0
 45
0.0
1001
ACAD
1000
AcDbSavedByObjectVersion
1070
     0
  0
VISUALSTYLE
  5
32
102
{ACAD_REACTORS
330
2A
102
}
330
2A
100
AcDbVisualStyle
  2
Basic
 70
     7
 71
     1
 72
     0
 73
     1
 90
        0
 40
-0.6
 41
-30.0
 62
     5
 63
     7
 74
     0
 91
        4
 64
     7
 65
   257
 75
     1
175
     1
 42
1.0
 92
        8
 66
     7
 43
1.0
 76
     1
 77
     6
 78
     2
 67
     7
 79
     5
170
     0
171
     0
290
     0
174
     0
 93
        1
 44
0.0
173
     0
291
     1
 45
0.0
1001
ACAD
1000
AcDbSavedByObjectVersion
1070
     0
  0
VISUALSTYLE
  5
36
102
{ACAD_REACTORS
330
2A
102
}
330
2A
100
AcDbVisualStyle
  2
Brighten
 70
    12
 71
     2
 72
     2
 73
     0
 90
        0
 40
-0.6
 41
-30.0
 62
     5
 63
     7
 74
     1
 91
        4
 64
     7
 65
   257
 75
     1
175
     1
 42
1.0
 92
        8
 66
     7
 43
1.0
 76
     1
 77
     6
 78
     2
 67
     7
 79
     5
170
     0
171
     0
290
     0
174
     0
 93
        1
 44
50.0
173
     0
291
     1
 45
0.0
1001
ACAD
1000
AcDbSavedByObjectVersion
1070
     0
  0
VISUALSTYLE
  5
3A
102
{ACAD_REACTORS
330
2A
102
}
330
2A
100
AcDbVisualStyle
  2
ColorChange
 70
    16
 71
     2
 72
     2
 73
     3
 90
        0
 40
-0.6
 41
-30.0
 62
     5
 63
     8
 74
     1
 91
        4
 64
     7
 65
   257
 75
     1
175
     1
 42
1.0
 92
        8
 66
     8
 43
1.0
 76
     1
 77
     6
 78
     2
 67
     7
 79
     5
170
     0
171
     0
290
     0
174
     0
 93
        1
 44
0.0
173
     0
291
     1
 45
0.0
1001
ACAD
1000
AcDbSavedByObjectVersion
1070
     0
  0
VISUALSTYLE
  5
34
102
{ACAD_REACTORS
330
2A
102
}
330
2A
100
AcDbVisualStyle
  2
Conceptual
 70
     9
 71
     3
 72
     2
 73
     0
 90
        0
 40
-0.6
 41
-30.0
 62
     5
 63
     7
 74
     2
 91
        2
 64
     7
 65
   257
 75
     1
175
     1
 42
40.0
 92
        8
 66
     7
 43
1.0
 76
     1
 77
     6
 78
     2
 67
     7
 79
     3
170
     0
171
     0
290
     0
174
     0
 93
        1
 44
0.0
173
     0
291
     0
 45
0.0
1001
ACAD
1000
AcDbSavedByObjectVersion
1070
     0
  0
VISUALSTYLE
  5
35
102
{ACAD_REACTORS
330
2A
102
}
330
2A
100
AcDbVisualStyle
  2
Dim
 70
    11
 71
     2
 72
     2
 73
     0
 90
        0
 40
-0.6
 41
-30.0
 62
     5
 63
     7
 74
     1
 91
        4
 64
     7
 65
   257
 75
     1
175
     1
 42
1.0
 92
        8
 66
     7
 43
1.0
 76
     1
 77
     6
 78
     2
 67
     7
 79
     5
170
     0
171
     0
290
     0
174
     0
 93
        1
 44
-50.0
173
     0
291
     1
 45
0.0
1001
ACAD
1000
AcDbSavedByObjectVersion
1070
     0
  0
VISUALSTYLE
  5
39
102
{ACAD_REACTORS
330
2A
102
}
330
2A
100
AcDbVisualStyle
  2
Facepattern
 70
    15
 71
     2
 72
     2
 73
     0
 90
        0
 40
-0.6
 41
-30.0
 62
     5
 63
     7
 74
     1
 91
        4
 64
     7
 65
   257
 75
     1
175
     1
 42
1.0
 92
        8
 66
     7
 43
1.0
 76
     1
 77
     6
 78
     2
 67
     7
 79
     5
170
     0
171
     0
290
     0
174
     0
 93
        1
 44
0.0
173
     0
291
     1
 45
0.0
1001
ACAD
1000
AcDbSavedByObjectVersion
1070
     0
  0
VISUALSTYLE
  5
2B
102
{ACAD_REACTORS
330
2A
102
}
330
2A
100
AcDbVisualStyle
  2
Flat
 70
     0
 71
     2
 72
     1
 73
     1
 90
        2
 40
-0.6
 41
30.0
 62
     5
 63
     7
 74
     0
 91
        4
 64
     7
 65
   257
 75
     1
175
     1
 42
1.0
 92
        8
 66
     7
 43
1.0
 76
     1
 77
     6
 78
     2
 67
     7
 79
     5
170
     0
171
     0
290
     0
174
     0
 93
       13
 44
0.0
173
     0
291
     1
 45
0.0
1001
ACAD
1000
AcDbSavedByObjectVersion
1070
     0
  0
VISUALSTYLE
  5
2C
102
{ACAD_REACTORS
330
2A
102
}
330
2A
100
AcDbVisualStyle
  2
FlatWithEdges
 70
     1
 71
     2
 72
     1
 73
     1
 90
        2
 40
-0.6
 41
30.0
 62
     5
 63
     7
 74
     1
 91
        4
 64
     7
 65
   257
 75
     1
175
     1
 42
1.0
 92
        0
 66
   257
 43
1.0
 76
     1
 77
     6
 78
     2
 67
     7
 79
     5
170
     0
171
     0
290
     0
174
     0
 93
       13
 44
0.0
173
     0
291
     1
 45
0.0
1001
ACAD
1000
AcDbSavedByObjectVersion
1070
     0
  0
VISUALSTYLE
  5
2D
102
{ACAD_REACTORS
330
2A
102
}
330
2A
100
AcDbVisualStyle
  2
Gouraud
 70
     2
 71
     2
 72
     2
 73
     1
 90
        2
 40
-0.6
 41
30.0
 62
     5
 63
     7
 74
     0
 91
        4
 64
     7
 65
   257
 75
     1
175
     1
 42
1.0
 92
        0
 66
     7
 43
1.0
 76
     1
 77
     6
 78
     2
 67
     7
 79
     5
170
     0
171
     0
290
     0
174
     0
 93
       13
 44
0.0
173
     0
291
     1
 45
0.0
1001
ACAD
1000
AcDbSavedByObjectVersion
1070
     0
  0
VISUALSTYLE
  5
2E
102
{ACAD_REACTORS
330
2A
102
}
330
2A
100
AcDbVisualStyle
  2
GouraudWithEdges
 70
     3
 71
     2
 72
     2
 73
     1
 90
        2
 40
-0.6
 41
30.0
 62
     5
 63
     7
 74
     1
 91
        4
 64
     7
 65
   257
 75
     1
175
     1
 42
1.0
 92
        0
 66
   257
 43
1.0
 76
     1
 77
     6
 78
     2
 67
     7
 79
     5
170
     0
171
     0
290
     0
174
     0
 93
       13
 44
0.0
173
     0
291
     1
 45
0.0
1001
ACAD
1000
AcDbSavedByObjectVersion
1070
     0
  0
VISUALSTYLE
  5
38
102
{ACAD_REACTORS
330
2A
102
}
330
2A
100
AcDbVisualStyle
  2
Linepattern
 70
    14
 71
     2
 72
     2
 73
     0
 90
        0
 40
-0.6
 41
-30.0
 62
     5
 63
     7
 74
     1
 91
        4
 64
     7
 65
   257
 75
     7
175
     7
 42
1.0
 92
        8
 66
     7
 43
1.0
 76
     1
 77
     6
 78
     2
 67
     7
 79
     5
170
     0
171
     0
290
     0
174
     0
 93
        1
 44
0.0
173
     0
291
     1
 45
0.0
1001
ACAD
1000
AcDbSavedByObjectVersion
1070
     0
  0
VISUALSTYLE
  5
33
102
{ACAD_REACTORS
330
2A
102
}
330
2A
100
AcDbVisualStyle
  2
Realistic
 70
     8
 71
     2
 72
     2
 73
     0
 90
        0
 40
-0.6
 41
-30.0
 62
     5
 63
     7
 74
     1
 91
        0
 64
     7
 65
   257
 75
     1
175
     1
 42
1.0
 92
        8
 66
     8
 43
1.0
 76
     1
 77
     6
 78
     2
 67
     7
 79
     5
170
     0
171
     0
290
     0
174
     0
 93
       13
 44
0.0
173
     0
291
     0
 45
0.0
1001
ACAD
1000
AcDbSavedByObjectVersion
1070
     0
  0
VISUALSTYLE
  5
37
102
{ACAD_REACTORS
330
2A
102
}
330
2A
100
AcDbVisualStyle
  2
Thicken
 70
    13
 71
     2
 72
     2
 73
     0
 90
        0
 40
-0.6
 41
-30.0
 62
     5
 63
     7
 74
     1
 91
        4
 64
     7
 65
   257
 75
     1
175
     1
 42
1.0
 92
       12
 66
     7
 43
1.0
 76
     1
 77
     6
 78
     2
 67
     7
 79
     5
170
     0
171
     0
290
     0
174
     0
 93
        1
 44
0.0
173
     0
291
     1
 45
0.0
1001
ACAD
1000
AcDbSavedByObjectVersion
1070
     0
  0
ENDSEC
  0
EOF
