  0
SECTION
  2
HEADER
  9
$ACADVER
  1
AC1021
  9
$ACADMAINTVER
 70
    25
  9
$DWGCODEPAGE
  3
ANSI_1252
  9
$INSBASE
 10
0.0
 20
0.0
 30
0.0
  9
$EXTMIN
 10
1.000000000000000E+20
 20
1.000000000000000E+20
 30
1.000000000000000E+20
  9
$EXTMAX
 10
-1.000000000000000E+20
 20
-1.000000000000000E+20
 30
-1.000000000000000E+20
  9
$LIMMIN
 10
0.0
 20
0.0
  9
$LIMMAX
 10
12.0
 20
9.0
  9
$ORTHOMODE
 70
     0
  9
$REGENMODE
 70
     1
  9
$FILLMODE
 70
     1
  9
$QTEXTMODE
 70
     0
  9
$MIRRTEXT
 70
     1
  9
$LTSCALE
 40
1.0
  9
$ATTMODE
 70
     1
  9
$TEXTSIZE
 40
0.2
  9
$TRACEWID
 40
0.05
  9
$TEXTSTYLE
  7
Standard
  9
$CLAYER
  8
DEFAULT
  9
$CELTYPE
  6
ByLayer
  9
$CECOLOR
 62
   256
  9
$CELTSCALE
 40
1.0
  9
$DISPSILH
 70
     0
  9
$DIMSCALE
 40
1.0
  9
$DIMASZ
 40
0.18
  9
$DIMEXO
 40
0.0625
  9
$DIMDLI
 40
0.38
  9
$DIMRND
 40
0.0
  9
$DIMDLE
 40
0.0
  9
$DIMEXE
 40
0.18
  9
$DIMTP
 40
0.0
  9
$DIMTM
 40
0.0
  9
$DIMTXT
 40
0.18
  9
$DIMCEN
 40
0.09
  9
$DIMTSZ
 40
0.0
  9
$DIMTOL
 70
     0
  9
$DIMLIM
 70
     0
  9
$DIMTIH
 70
     1
  9
$DIMTOH
 70
     1
  9
$DIMSE1
 70
     0
  9
$DIMSE2
 70
     0
  9
$DIMTAD
 70
     0
  9
$DIMZIN
 70
     0
  9
$DIMBLK
  1

  9
$DIMASO
 70
     1
  9
$DIMSHO
 70
     1
  9
$DIMPOST
  1

  9
$DIMAPOST
  1

  9
$DIMALT
 70
     0
  9
$DIMALTD
 70
     2
  9
$DIMALTF
 40
25.4
  9
$DIMLFAC
 40
1.0
  9
$DIMTOFL
 70
     0
  9
$DIMTVP
 40
0.0
  9
$DIMTIX
 70
     0
  9
$DIMSOXD
 70
     0
  9
$DIMSAH
 70
     0
  9
$DIMBLK1
  1

  9
$DIMBLK2
  1

  9
$DIMSTYLE
  2
STANDARD_ACAD
  9
$DIMCLRD
 70
     0
  9
$DIMCLRE
 70
     0
  9
$DIMCLRT
 70
     0
  9
$DIMTFAC
 40
1.0
  9
$DIMGAP
 40
0.09
  9
$DIMJUST
 70
     0
  9
$DIMSD1
 70
     0
  9
$DIMSD2
 70
     0
  9
$DIMTOLJ
 70
     1
  9
$DIMTZIN
 70
     0
  9
$DIMALTZ
 70
     0
  9
$DIMALTTZ
 70
     0
  9
$DIMUPT
 70
     0
  9
$DIMDEC
 70
     4
  9
$DIMTDEC
 70
     4
  9
$DIMALTU
 70
     2
  9
$DIMALTTD
 70
     2
  9
$DIMTXSTY
  7
Standard
  9
$DIMAUNIT
 70
     0
  9
$DIMADEC
 70
     0
  9
$DIMALTRND
 40
0.0
  9
$DIMAZIN
 70
     0
  9
$DIMDSEP
 70
    46
  9
$DIMATFIT
 70
     3
  9
$DIMFRAC
 70
     0
  9
$DIMLDRBLK
  1

  9
$DIMLUNIT
 70
     2
  9
$DIMLWD
 70
    -2
  9
$DIMLWE
 70
    -2
  9
$DIMTMOVE
 70
     2
  9
$DIMFXL
 40
1.0
  9
$DIMFXLON
 70
     0
  9
$DIMJOGANG
 40
0.7853981633974483
  9
$DIMTFILL
 70
     0
  9
$DIMTFILLCLR
 70
     0
  9
$DIMARCSYM
 70
     0
  9
$DIMLTYPE
  6

  9
$DIMLTEX1
  6

  9
$DIMLTEX2
  6

  9
$LUNITS
 70
     2
  9
$LUPREC
 70
     3
  9
$SKETCHINC
 40
0.1
  9
$FILLETRAD
 40
0.5
  9
$AUNITS
 70
     0
  9
$AUPREC
 70
     0
  9
$MENU
  1
.
  9
$ELEVATION
 40
0.0
  9
$PELEVATION
 40
0.0
  9
$THICKNESS
 40
0.0
  9
$LIMCHECK
 70
     0
  9
$CHAMFERA
 40
0.0
  9
$CHAMFERB
 40
0.0
  9
$CHAMFERC
 40
0.0
  9
$CHAMFERD
 40
0.0
  9
$SKPOLY
 70
     0
  9
$TDCREATE
 40
2459843.503199965
  9
$TDUCREATE
 40
2459843.669866632
  9
$TDUPDATE
 40
2459843.503215926
  9
$TDUUPDATE
 40
2459843.669882593
  9
$TDINDWG
 40
0.0000000116
  9
$TDUSRTIMER
 40
0.0000000116
  9
$USRTIMER
 70
     1
  9
$ANGBASE
 50
0.0
  9
$ANGDIR
 70
     0
  9
$PDMODE
 70
     0
  9
$PDSIZE
 40
0.0
  9
$PLINEWID
 40
0.0
  9
$SPLFRAME
 70
     0
  9
$SPLINETYPE
 70
     6
  9
$SPLINESEGS
 70
     8
  9
$HANDSEED
  5
EF
  9
$SURFTAB1
 70
     6
  9
$SURFTAB2
 70
     6
  9
$SURFTYPE
 70
     6
  9
$SURFU
 70
     6
  9
$SURFV
 70
     6
  9
$UCSBASE
  2

  9
$UCSNAME
  2

  9
$UCSORG
 10
0.0
 20
0.0
 30
0.0
  9
$UCSXDIR
 10
1.0
 20
0.0
 30
0.0
  9
$UCSYDIR
 10
0.0
 20
1.0
 30
0.0
  9
$UCSORTHOREF
  2

  9
$UCSORTHOVIEW
 70
     0
  9
$UCSORGTOP
 10
0.0
 20
0.0
 30
0.0
  9
$UCSORGBOTTOM
 10
0.0
 20
0.0
 30
0.0
  9
$UCSORGLEFT
 10
0.0
 20
0.0
 30
0.0
  9
$UCSORGRIGHT
 10
0.0
 20
0.0
 30
0.0
  9
$UCSORGFRONT
 10
0.0
 20
0.0
 30
0.0
  9
$UCSORGBACK
 10
0.0
 20
0.0
 30
0.0
  9
$PUCSBASE
  2

  9
$PUCSNAME
  2

  9
$PUCSORG
 10
0.0
 20
0.0
 30
0.0
  9
$PUCSXDIR
 10
1.0
 20
0.0
 30
0.0
  9
$PUCSYDIR
 10
0.0
 20
1.0
 30
0.0
  9
$PUCSORTHOREF
  2

  9
$PUCSORTHOVIEW
 70
     0
  9
$PUCSORGTOP
 10
0.0
 20
0.0
 30
0.0
  9
$PUCSORGBOTTOM
 10
0.0
 20
0.0
 30
0.0
  9
$PUCSORGLEFT
 10
0.0
 20
0.0
 30
0.0
  9
$PUCSORGRIGHT
 10
0.0
 20
0.0
 30
0.0
  9
$PUCSORGFRONT
 10
0.0
 20
0.0
 30
0.0
  9
$PUCSORGBACK
 10
0.0
 20
0.0
 30
0.0
  9
$USERI1
 70
     0
  9
$USERI2
 70
     0
  9
$USERI3
 70
     0
  9
$USERI4
 70
     0
  9
$USERI5
 70
     0
  9
$USERR1
 40
0.0
  9
$USERR2
 40
0.0
  9
$USERR3
 40
0.0
  9
$USERR4
 40
0.0
  9
$USERR5
 40
0.0
  9
$WORLDVIEW
 70
     1
  9
$SHADEDGE
 70
     3
  9
$SHADEDIF
 70
    70
  9
$TILEMODE
 70
     1
  9
$MAXACTVP
 70
    64
  9
$PINSBASE
 10
0.0
 20
0.0
 30
0.0
  9
$PLIMCHECK
 70
     0
  9
$PEXTMIN
 10
1.000000000000000E+20
 20
1.000000000000000E+20
 30
1.000000000000000E+20
  9
$PEXTMAX
 10
-1.000000000000000E+20
 20
-1.000000000000000E+20
 30
-1.000000000000000E+20
  9
$PLIMMIN
 10
0.0
 20
0.0
  9
$PLIMMAX
 10
12.0
 20
9.0
  9
$UNITMODE
 70
     0
  9
$VISRETAIN
 70
     1
  9
$PLINEGEN
 70
     0
  9
$PSLTSCALE
 70
     1
  9
$TREEDEPTH
 70
  3020
  9
$CMLSTYLE
  2
Standard
  9
$CMLJUST
 70
     0
  9
$CMLSCALE
 40
1.0
  9
$PROXYGRAPHICS
 70
     1
  9
$MEASUREMENT
 70
     0
  9
$CELWEIGHT
370
    -1
  9
$ENDCAPS
280
     0
  9
$JOINSTYLE
280
     0
  9
$LWDISPLAY
290
     0
  9
$INSUNITS
 70
     1
  9
$HYPERLINKBASE
  1

  9
$STYLESHEET
  1

  9
$XEDIT
290
     1
  9
$CEPSNTYPE
380
     0
  9
$PSTYLEMODE
290
     1
  9
$FINGERPRINTGUID
  2
{e3ff01ed-7e7b-4236-8d24-11125ad89883}
  9
$VERSIONGUID
  2
{FAEB1C32-E019-11D5-929B-00C0DF256EC4}
  9
$EXTNAMES
290
     1
  9
$PSVPSCALE
 40
0.0
  9
$OLESTARTUP
290
     0
  9
$SORTENTS
280
   127
  9
$INDEXCTL
280
     0
  9
$HIDETEXT
280
     1
  9
$XCLIPFRAME
290
     0
  9
$HALOGAP
280
     0
  9
$OBSCOLOR
 70
   257
  9
$OBSLTYPE
280
     0
  9
$INTERSECTIONDISPLAY
280
     0
  9
$INTERSECTIONCOLOR
 70
   257
  9
$DIMASSOC
280
     2
  9
$PROJECTNAME
  1

  9
$CAMERADISPLAY
290
     0
  9
$LENSLENGTH
 40
50.0
  9
$CAMERAHEIGHT
 40
0.0
  9
$STEPSPERSEC
 40
2.0
  9
$STEPSIZE
 40
6.0
  9
$3DDWFPREC
 40
2.0
  9
$PSOLWIDTH
 40
0.25
  9
$PSOLHEIGHT
 40
4.0
  9
$LOFTANG1
 40
1.570796326794897
  9
$LOFTANG2
 40
1.570796326794897
  9
$LOFTMAG1
 40
0.0
  9
$LOFTMAG2
 40
0.0
  9
$LOFTPARAM
 70
     7
  9
$LOFTNORMALS
280
     1
  9
$LATITUDE
 40
37.795
  9
$LONGITUDE
 40
-122.394
  9
$NORTHDIRECTION
 40
0.0
  9
$TIMEZONE
 70
 -8000
  9
$LIGHTGLYPHDISPLAY
280
     1
  9
$TILEMODELIGHTSYNCH
280
     1
  9
$CMATERIAL
347
44
  9
$SOLIDHIST
280
     0
  9
$SHOWHIST
280
     1
  9
$DWFFRAME
280
     2
  9
$DGNFRAME
280
     2
  9
$REALWORLDSCALE
290
     1
  9
$INTERFERECOLOR
 62
   256
  9
$CSHADOW
280
     0
  9
$SHADOWPLANELOCATION
 40
0.0
  0
ENDSEC
  0
SECTION
  2
CLASSES
  0
CLASS
  1
ACDBDICTIONARYWDFLT
  2
AcDbDictionaryWithDefault
  3
ObjectDBX Classes
 90
        0
 91
        3
280
     0
281
     0
  0
CLASS
  1
VISUALSTYLE
  2
AcDbVisualStyle
  3
ObjectDBX Classes
 90
     4095
 91
        3
280
     0
281
     0
  0
CLASS
  1
MATERIAL
  2
AcDbMaterial
  3
ObjectDBX Classes
 90
     1153
 91
        3
280
     0
281
     0
  0
CLASS
  1
SCALE
  2
AcDbScale
  3
ObjectDBX Classes
 90
     1153
 91
        3
280
     0
281
     0
  0
CLASS
  1
TABLESTYLE
  2
AcDbTableStyle
  3
ObjectDBX Classes
 90
     4095
 91
        3
280
     0
281
     0
  0
CLASS
  1
MLEADERSTYLE
  2
AcDbMLeaderStyle
  3
ACDB_MLEADERSTYLE_CLASS
 90
     4095
 91
        3
280
     0
281
     0
  0
CLASS
  1
SUN
  2
AcDbSun
  3
SCENEOE
 90
     1153
 91
        3
280
     0
281
     0
  0
CLASS
  1
DICTIONARYVAR
  2
AcDbDictionaryVar
  3
ObjectDBX Classes
 90
        0
 91
        3
280
     0
281
     0
  0
CLASS
  1
CELLSTYLEMAP
  2
AcDbCellStyleMap
  3
ObjectDBX Classes
 90
     1152
 91
        3
280
     0
281
     0
  0
ENDSEC
  0
SECTION
  2
TABLES
  0
TABLE
  2
VPORT
  5
8
330
0
100
AcDbSymbolTable
 70
     1
  0
VPORT
  5
29
330
8
100
AcDbSymbolTableRecord
100
AcDbViewportTableRecord
  2
*Active
 70
     0
 10
0.0
 20
0.0
 11
1.0
 21
1.0
 12
10.42990654205607
 22
4.5
 13
0.0
 23
0.0
 14
0.5
 24
0.5
 15
0.5
 25
0.5
 16
0.0
 26
0.0
 36
1.0
 17
0.0
 27
0.0
 37
0.0
 40
9.0
 41
1.972972972850329
 42
50.0
 43
0.0
 44
0.0
 50
0.0
 51
0.0
 71
     0
 72
   100
 73
     1
 74
     3
 75
     0
 76
     0
 77
     0
 78
     0
281
     0
 65
     1
110
0.0
120
0.0
130
0.0
111
1.0
121
0.0
131
0.0
112
0.0
122
1.0
132
0.0
 79
     0
146
0.0
348
2F
 60
     3
 61
     5
292
     1
282
     1
141
0.0
142
0.0
 63
   250
361
6D
  0
ENDTAB
  0
TABLE
  2
LTYPE
  5
5
330
0
100
AcDbSymbolTable
 70
     1
  0
LTYPE
  5
14
330
5
100
AcDbSymbolTableRecord
100
AcDbLinetypeTableRecord
  2
ByBlock
 70
     0
  3

 72
    65
 73
     0
 40
0.0
  0
LTYPE
  5
15
330
5
100
AcDbSymbolTableRecord
100
AcDbLinetypeTableRecord
  2
ByLayer
 70
     0
  3

 72
    65
 73
     0
 40
0.0
  0
LTYPE
  5
16
330
5
100
AcDbSymbolTableRecord
100
AcDbLinetypeTableRecord
  2
Continuous
 70
     0
  3
Solid line
 72
    65
 73
     0
 40
0.0
  0
ENDTAB
  0
TABLE
  2
LAYER
  5
2
330
0
100
AcDbSymbolTable
 70
     2
  0
LAYER
  5
10
330
2
100
AcDbSymbolTableRecord
100
AcDbLayerTableRecord
  2
0
 70
     0
 62
     7
  6
Continuous
370
    -3
390
F
347
46
  0
LAYER
  5
6E
330
2
100
AcDbSymbolTableRecord
100
AcDbLayerTableRecord
  2
DEFAULT
 70
     0
 62
    18
420
        0
  6
Continuous
370
    -3
390
F
347
46
  0
ENDTAB
  0
TABLE
  2
STYLE
  5
3
330
0
100
AcDbSymbolTable
 70
     1
  0
STYLE
  5
11
330
3
100
AcDbSymbolTableRecord
100
AcDbTextStyleTableRecord
  2
Standard
 70
     0
 40
0.0
 41
1.0
 50
0.0
 71
     0
 42
0.2
  3
txt
  4

  0
ENDTAB
  0
TABLE
  2
VIEW
  5
6
330
0
100
AcDbSymbolTable
 70
     0
  0
ENDTAB
  0
TABLE
  2
UCS
  5
7
330
0
100
AcDbSymbolTable
 70
     0
  0
ENDTAB
  0
TABLE
  2
APPID
  5
9
330
0
100
AcDbSymbolTable
 70
     2
  0
APPID
  5
12
330
9
100
AcDbSymbolTableRecord
100
AcDbRegAppTableRecord
  2
ACAD
 70
     0
  0
APPID
  5
E7
330
9
100
AcDbSymbolTableRecord
100
AcDbRegAppTableRecord
  2
ACAD_MLEADERVER
 70
     0
  0
ENDTAB
  0
TABLE
  2
DIMSTYLE
  5
A
330
0
100
AcDbSymbolTable
 70
     1
100
AcDbDimStyleTable
  0
DIMSTYLE
105
27
330
A
100
AcDbSymbolTableRecord
100
AcDbDimStyleTableRecord
  2
STANDARD_ACAD
 70
     0
178
     0
340
11
  0
ENDTAB
  0
TABLE
  2
BLOCK_RECORD
  5
1
330
0
100
AcDbSymbolTable
 70
     1
  0
BLOCK_RECORD
  5
1F
330
1
100
AcDbSymbolTableRecord
100
AcDbBlockTableRecord
  2
*Model_Space
340
22
 70
     0
280
     1
281
     0
  0
BLOCK_RECORD
  5
1B
330
1
100
AcDbSymbolTableRecord
100
AcDbBlockTableRecord
  2
*Paper_Space
340
1E
 70
     0
280
     1
281
     0
  0
BLOCK_RECORD
  5
23
330
1
100
AcDbSymbolTableRecord
100
AcDbBlockTableRecord
  2
*Paper_Space0
340
26
 70
     0
280
     1
281
     0
  0
ENDTAB
  0
ENDSEC
  0
SECTION
  2
BLOCKS
  0
BLOCK
  5
20
330
1F
100
AcDbEntity
  8
0
100
AcDbBlockBegin
  2
*Model_Space
 70
     0
 10
0.0
 20
0.0
 30
0.0
  3
*Model_Space
  1

  0
ENDBLK
  5
21
330
1F
100
AcDbEntity
  8
0
100
AcDbBlockEnd
  0
BLOCK
  5
1C
330
1B
100
AcDbEntity
 67
     1
  8
0
100
AcDbBlockBegin
  2
*Paper_Space
 70
     0
 10
0.0
 20
0.0
 30
0.0
  3
*Paper_Space
  1

  0
ENDBLK
  5
1D
330
1B
100
AcDbEntity
 67
     1
  8
0
100
AcDbBlockEnd
  0
BLOCK
  5
24
330
23
100
AcDbEntity
  8
0
100
AcDbBlockBegin
  2
*Paper_Space0
 70
     0
 10
0.0
 20
0.0
 30
0.0
  3
*Paper_Space0
  1

  0
ENDBLK
  5
25
330
23
100
AcDbEntity
  8
0
100
AcDbBlockEnd
  0
ENDSEC
  0
SECTION
  2
ENTITIES
  0
SPLINE
  5
6F
330
1F
100
AcDbEntity
  8
DEFAULT
100
AcDbSpline
210
0.0
220
0.0
230
1.0
 70
     8
 71
     3
 72
    12
 73
     8
 74
     0
 42
0.000000001
 43
0.0000000001
 40
0.0
 40
0.0
 40
0.0
 40
0.0
 40
1.0
 40
2.0
 40
3.0
 40
4.0
 40
5.0
 40
5.0
 40
5.0
 40
5.0
 10
21.90761500320364
 20
0.2428168848425331
 30
0.0
 10
21.94822757773913
 20
0.252488381154739
 30
0.0
 10
22.03315126630554
 20
0.2255150361863077
 30
0.0
 10
22.15446818763461
 20
0.187266991181227
 30
0.0
 10
22.27512208256461
 20
0.1402946443537239
 30
0.0
 10
22.39039949143989
 20
0.086477828963293
 30
0.0
 10
22.47116153731433
 20
0.0489456643135026
 30
0.0
 10
22.49465869507365
 20
0.0143777522645349
 30
0.0
  0
SPLINE
  5
70
330
1F
100
AcDbEntity
  8
DEFAULT
100
AcDbSpline
210
0.0
220
0.0
230
1.0
 70
    12
 71
     3
 72
    71
 73
    67
 74
     0
 42
0.000000001
 43
0.0000000001
 40
20.72411025350996
 40
20.72411025350996
 40
20.72411025350996
 40
20.72411025350996
 40
21.25882390564193
 40
22.25882390564193
 40
23.25882390564193
 40
23.25882390564193
 40
23.25882390564193
 40
24.25882390564193
 40
24.25882390564193
 40
24.25882390564193
 40
25.25882375099053
 40
26.25882378965338
 40
27.25882382831623
 40
28.25882386697908
 40
29.25882390564193
 40
29.25882390564193
 40
29.25882390564193
 40
30.43237847240653
 40
30.43237847240653
 40
30.43237847240653
 40
31.43237847240653
 40
32.43237847240653
 40
33.43237847240653
 40
34.43237847240653
 40
35.43237847240653
 40
35.43237847240653
 40
35.43237847240653
 40
36.43237847240653
 40
36.43237847240653
 40
36.43237847240653
 40
37.43238721206821
 40
38.43239595172987
 40
39.43240469139155
 40
40.43241343105322
 40
41.43237847240653
 40
41.43237847240653
 40
41.43237847240653
 40
42.43237847240653
 40
42.43237847240653
 40
42.43237847240653
 40
43.43237847240653
 40
44.43237847240653
 40
45.43237847240653
 40
46.43237847240653
 40
47.43237847240653
 40
47.43237847240653
 40
47.43237847240653
 40
48.58029587775022
 40
48.58029587775022
 40
48.58029587775022
 40
49.58029587775022
 40
49.58029587775022
 40
49.58029587775022
 40
50.58029587775022
 40
51.58029587775022
 40
52.58029587775022
 40
53.58029587775022
 40
54.58029587775022
 40
54.58029587775022
 40
54.58029587775022
 40
55.58029587775022
 40
55.58029587775022
 40
55.58029587775022
 40
56.58029552101476
 40
57.58029561019863
 40
58.10054194178706
 40
58.10054194178706
 40
58.10054194178706
 40
58.10054194178706
 10
31.06326568306843
 20
16.27077322319275
 30
0.0
 41
1.0
 10
32.13445645352837
 20
16.26844396287659
 30
0.0
 41
1.0
 10
32.33878183943576
 20
16.26220210093227
 30
0.0
 41
1.0
 10
32.67651331117852
 20
16.26596457664144
 30
0.0
 41
1.0
 10
32.94284498634605
 20
16.27172272107202
 30
0.0
 41
1.0
 10
33.07599545494364
 20
16.27595553016853
 30
0.0
 41
1.0
 10
35.17596078465198
 20
16.3412893803702
 30
0.0
 41
1.0
 10
37.27592611436031
 20
16.40662323057186
 30
0.0
 41
1.0
 10
39.37589144406865
 20
16.47195708077353
 30
0.0
 41
1.0
 10
39.52101538116708
 20
16.47626127808244
 30
0.0
 41
1.0
 10
39.81076183435766
 20
16.4910102978723
 30
0.0
 41
1.0
 10
40.24579969333819
 20
16.52217402415577
 30
0.0
 41
1.0
 10
40.67277023260671
 20
16.60997055539725
 30
0.0
 41
1.0
 10
41.10033483082117
 20
16.69181028715462
 30
0.0
 41
1.0
 10
41.3852541166561
 20
16.74761110484176
 30
0.0
 41
1.0
 10
41.52773852134364
 20
16.77526331551853
 30
0.0
 41
1.0
 10
41.91175842207472
 20
16.84979076448656
 30
0.0
 41
0.9999997806487793
 10
42.29583865349317
 20
16.92400667006921
 30
0.0
 41
0.9999997806487793
 10
42.67997896285274
 20
16.99791098342821
 30
0.0
 41
1.0
 10
42.79891073806731
 20
17.01906757587645
 30
0.0
 41
1.0
 10
43.04714555412312
 20
16.97264372596305
 30
0.0
 41
1.0
 10
43.32167618669276
 20
16.7241376498473
 30
0.0
 41
1.0
 10
43.49549298613491
 20
16.40455161431959
 30
0.0
 41
1.0
 10
43.60296429724092
 20
16.05855378207088
 30
0.0
 41
1.0
 10
43.64032590215913
 20
15.8201578303054
 30
0.0
 41
1.0
 10
43.65166456615865
 20
15.70032440672854
 30
0.0
 41
1.0
 10
44.14065151625865
 20
10.50731963913753
 30
0.0
 41
1.0
 10
44.62963846635864
 20
5.314314871546535
 30
0.0
 41
1.0
 10
45.11862541645865
 20
0.1213101039555334
 30
0.0
 41
1.0
 10
45.08620269756118
 20
0.0920633198891577
 30
0.0
 41
1.0
 10
44.9982529624514
 20
0.0808549177173004
 30
0.0
 41
1.0
 10
44.87299359967757
 20
0.0593029426394217
 30
0.0
 41
1.0
 10
44.74432695916811
 20
0.0471796796221263
 30
0.0
 41
1.0
 10
44.61726223356008
 20
0.045018685358795
 30
0.0
 41
1.0
 10
44.52872857989419
 20
0.0395144906193352
 30
0.0
 41
1.0
 10
44.49148834628864
 20
0.0622941560510341
 30
0.0
 41
1.0
 10
44.00249807956698
 20
5.255286227153534
 30
0.0
 41
1.0
 10
43.51350781284532
 20
10.44827829825603
 30
0.0
 41
1.0
 10
43.02451754612365
 20
15.64127036935853
 30
0.0
 41
1.0
 10
43.01953402919451
 20
15.69415144853892
 30
0.0
 41
1.0
 10
43.0058192302102
 20
15.79957774055275
 30
0.0
 41
1.0
 10
42.97311193564636
 20
15.9556468622722
 30
0.0
 41
1.0
 10
42.92630078732844
 20
16.10827984300771
 30
0.0
 41
1.0
 10
42.86120721406706
 20
16.25383960166336
 30
0.0
 41
1.0
 10
42.80006049369873
 20
16.34248439430637
 30
0.0
 41
1.0
 10
42.75751748175366
 20
16.37496477257849
 30
0.0
 41
1.0
 10
42.38219764230828
 20
16.30048053660961
 30
0.0
 41
0.999998800868779
 10
42.00673720527862
 20
16.22670829579369
 30
0.0
 41
0.999998800868779
 10
41.63113752134408
 20
16.15364831551864
 30
0.0
 41
1.0
 10
41.25742918222698
 20
16.08095623122687
 30
0.0
 41
1.0
 10
40.88372084311031
 20
16.0082641469352
 30
0.0
 41
1.0
 10
40.51001250399364
 20
15.93557206264353
 30
0.0
 41
1.0
 10
40.43671365015962
 20
15.92150554665855
 30
0.0
 41
1.0
 10
40.2888340223632
 20
15.90087868053957
 30
0.0
 41
1.0
 10
40.06601993811778
 20
15.87902164585484
 30
0.0
 41
1.0
 10
39.84274079495186
 20
15.86265016373854
 30
0.0
 41
1.0
 10
39.61920176325611
 20
15.85043193013792
 30
0.0
 41
1.0
 10
39.4700655294146
 20
15.84465933112508
 30
0.0
 41
1.0
 10
39.39547969707365
 20
15.84234027241853
 30
0.0
 41
1.0
 10
37.29551436736531
 20
15.77700658888353
 30
0.0
 41
1.0
 10
35.19554903765698
 20
15.71167290534853
 30
0.0
 41
1.0
 10
33.09558370794865
 20
15.64633922181353
 30
0.0
 41
1.0
 10
32.95845210665695
 20
15.64199043505887
 30
0.0
 41
1.0
 10
32.68415484041002
 20
15.63602259677298
 30
0.0
 41
1.0
 10
32.33831445440129
 20
15.6323284934446
 30
0.0
 41
1.0
 10
32.12985434366731
 20
15.63840223613371
 30
0.0
 41
1.0
 10
31.07072707658051
 20
15.64100350536028
 30
0.0
 41
1.0
  0
SPLINE
  5
71
330
1F
100
AcDbEntity
  8
DEFAULT
100
AcDbSpline
210
0.0
220
0.0
230
1.0
 70
    24
 71
     2
 72
     6
 73
     3
 74
     0
 42
0.000000001
 43
0.0000000001
 40
0.0
 40
0.0
 40
0.0
 40
1.0
 40
1.0
 40
1.0
 10
31.07073818282594
 20
15.64131948355853
 30
0.0
 10
31.05853518282593
 20
15.64124948355853
 30
0.0
 10
31.04633218282593
 20
15.64117948355854
 30
0.0
  0
LINE
  5
72
330
1F
100
AcDbEntity
  8
DEFAULT
100
AcDbLine
 10
41.19261252134365
 20
16.71007531551853
 30
0.0
 11
29.44379786733451
 21
16.34454920815857
 31
0.0
  0
SPLINE
  5
73
330
1F
100
AcDbEntity
  8
DEFAULT
100
AcDbSpline
210
0.0
220
0.0
230
1.0
 70
     8
 71
     3
 72
    95
 73
    91
 74
     0
 42
0.000000001
 43
0.0000000001
 40
0.0
 40
0.0
 40
0.0
 40
0.0
 40
1.0
 40
2.0
 40
3.0
 40
4.0
 40
5.0
 40
5.0
 40
5.0
 40
6.0
 40
6.0
 40
6.0
 40
7.0
 40
8.0
 40
9.0
 40
10.0
 40
11.0
 40
11.0
 40
11.0
 40
12.0
 40
12.0
 40
12.0
 40
12.99999937928885
 40
13.99999953446664
 40
14.99999968964443
 40
15.99999984482221
 40
17.0
 40
17.0
 40
17.0
 40
17.12640010749604
 40
17.25229182257675
 40
17.37773284471639
 40
17.44030237984349
 40
17.50278072704131
 40
17.62748729916389
 40
17.7518970216483
 40
18.0
 40
18.0
 40
18.0
 40
18.99998047488461
 40
19.99998793288997
 40
20.99999539089533
 40
22.00000284890069
 40
23.0
 40
23.0
 40
23.0
 40
24.0
 40
24.0
 40
24.0
 40
24.99999629942381
 40
25.9999992796597
 40
27.00000225989558
 40
28.00000524013148
 40
29.0
 40
29.0
 40
29.0
 40
29.10477108977619
 40
29.21847126779617
 40
29.33956270982022
 40
29.46650809159423
 40
29.59775847245115
 40
29.73161965442308
 40
30.0
 40
30.0
 40
30.0
 40
31.00000005773262
 40
32.00000011546525
 40
33.00000017319788
 40
34.0000002309305
 40
35.0
 40
35.0
 40
35.0
 40
36.0
 40
36.0
 40
36.0
 40
36.99999932563842
 40
37.99999949422882
 40
38.99999966281921
 40
39.9999998314096
 40
41.0
 40
41.0
 40
41.0
 40
42.0
 40
42.0
 40
42.0
 40
43.0
 40
44.0
 40
45.0
 40
46.0
 40
46.96045552436856
 40
46.96045552436856
 40
46.96045552436856
 40
46.96045552436856
 10
29.25971945389364
 20
17.87461040769853
 30
0.0
 10
29.34170897540411
 20
17.98302675052089
 30
0.0
 10
29.4346194729838
 20
18.23953875895074
 30
0.0
 10
29.56194428355166
 20
18.6237433602939
 30
0.0
 10
29.67089263344361
 20
19.01490509940378
 30
0.0
 10
29.76265563807667
 20
19.41003461785987
 30
0.0
 10
29.81668071524539
 20
19.67505451169931
 30
0.0
 10
29.84482896739865
 20
19.80730720913853
 30
0.0
 10
30.25957954160365
 20
21.75996094444186
 30
0.0
 10
30.67433011580865
 20
23.7126146797452
 30
0.0
 10
31.08908069001365
 20
25.66526841504853
 30
0.0
 10
31.11094083132271
 20
25.768236232197
 30
0.0
 10
31.19027787018019
 20
25.96618471702087
 30
0.0
 10
31.39496997653389
 20
26.21120422482537
 30
0.0
 10
31.66019613176566
 20
26.38788334946569
 30
0.0
 10
31.96263456946667
 20
26.48760324208747
 30
0.0
 10
32.17463184370129
 20
26.49910503450493
 30
0.0
 10
32.27951747136864
 20
26.49055145832853
 30
0.0
 10
35.13889943024031
 20
26.2565094725252
 30
0.0
 10
37.99828138911198
 20
26.02246748672187
 30
0.0
 10
40.85766334798365
 20
25.78842550091853
 30
0.0
 10
40.93814047944033
 20
25.78181572445951
 30
0.0
 10
41.09749534611673
 20
25.75088842711845
 30
0.0
 10
41.32245128294024
 20
25.65813645777171
 30
0.0
 10
41.52614178829707
 20
25.52520481350136
 30
0.0
 10
41.70199377200888
 20
25.35711833357113
 30
0.0
 10
41.79582829413675
 20
25.22475795950145
 30
0.0
 10
41.83550027922364
 20
25.15442345067853
 30
0.0
 10
41.96890897163365
 20
24.91764153905853
 30
0.0
 10
42.23538910234365
 20
24.44515631688853
 30
0.0
 10
42.63518980185364
 20
23.73821458392853
 30
0.0
 10
42.96812026353364
 20
23.15112465706853
 30
0.0
 10
43.23420567577364
 20
22.68287063716853
 30
0.0
 10
43.49979104634365
 20
22.21614887057853
 30
0.0
 10
43.83153726208364
 20
21.63409319514853
 30
0.0
 10
44.36114303157078
 20
20.70542411615154
 30
0.0
 10
44.75748602383685
 20
20.00942449457286
 30
0.0
 10
45.02057968805865
 20
19.54537111369853
 30
0.0
 10
45.08706678621022
 20
19.42824175166457
 30
0.0
 10
45.22103860671088
 20
19.19392974952269
 30
0.0
 10
45.42340154833529
 20
18.84558287830884
 30
0.0
 10
45.61103801177191
 20
18.48139989652891
 30
0.0
 10
45.91296180912577
 20
18.21131331394393
 30
0.0
 10
46.10324431088378
 20
18.02062218592525
 30
0.0
 10
46.19943416397864
 20
17.92622411582353
 30
0.0
 10
46.18323636982865
 20
17.57226117966353
 30
0.0
 10
46.16703857567865
 20
17.21829824350353
 30
0.0
 10
46.15084078152864
 20
16.86433530734353
 30
0.0
 10
46.03857274835159
 20
16.97065135060316
 30
0.0
 10
45.79755913944688
 20
17.17577010478296
 30
0.0
 10
45.56455549480488
 20
17.58056353998937
 30
0.0
 10
45.34226192099668
 20
17.990543016122
 30
0.0
 10
45.11829381914788
 20
18.39978751483114
 30
0.0
 10
44.96994321930294
 20
18.67310486299277
 30
0.0
 10
44.89476468327364
 20
18.80922112022353
 30
0.0
 10
44.77411140775732
 20
19.02773390944716
 30
0.0
 10
44.52218429205058
 20
19.48319556178506
 30
0.0
 10
44.13000126256365
 20
20.19076066070853
 30
0.0
 10
43.71170746470364
 20
20.94425401923854
 30
0.0
 10
43.27272411695365
 20
21.73408455153853
 30
0.0
 10
42.81863203146364
 20
22.55032384075853
 30
0.0
 10
42.20053841427364
 20
23.66091802986853
 30
0.0
 10
41.73465184197364
 20
24.49836205546853
 30
0.0
 10
41.42418618294864
 20
25.05732640944853
 30
0.0
 10
41.38500993211056
 20
25.12782360245437
 30
0.0
 10
41.29201235115777
 20
25.26054738509976
 30
0.0
 10
41.11718233634797
 20
25.42929336586458
 30
0.0
 10
40.9143254060444
 20
25.5629795590442
 30
0.0
 10
40.69004397642445
 20
25.65660656881212
 30
0.0
 10
40.53102974892644
 20
25.68825199142264
 30
0.0
 10
40.45068343398864
 20
25.69527511823353
 30
0.0
 10
37.82218854762365
 20
25.92431179755687
 30
0.0
 10
35.19369366125864
 20
26.1533484768802
 30
0.0
 10
32.56519877489364
 20
26.38238515620353
 30
0.0
 10
32.4602567318754
 20
26.39149803929384
 30
0.0
 10
32.24798269128437
 20
26.38098712443737
 30
0.0
 10
31.94487425828568
 20
26.28221698073088
 30
0.0
 10
31.67898572371073
 20
26.10591497728957
 30
0.0
 10
31.47384894739401
 20
25.86082798926286
 30
0.0
 10
31.39437589775383
 20
25.66270172745539
 30
0.0
 10
31.37245036626864
 20
25.55964348055353
 30
0.0
 10
30.90219855485364
 20
23.3502751461102
 30
0.0
 10
30.43194674343865
 20
21.14090681166686
 30
0.0
 10
29.96169493202365
 20
18.93153847722353
 30
0.0
 10
29.92374166624506
 20
18.75346014350341
 30
0.0
 10
29.84857238255522
 20
18.39701516587011
 30
0.0
 10
29.72585947507959
 20
17.86497715287863
 30
0.0
 10
29.58061686706713
 20
17.33695845914298
 30
0.0
 10
29.41588859238479
 20
16.82808985444303
 30
0.0
 10
29.30156196548169
 20
16.47925877479154
 30
0.0
 10
29.1813041820402
 20
16.3558362928705
 30
0.0
  0
SPLINE
  5
74
330
1F
100
AcDbEntity
  8
DEFAULT
100
AcDbSpline
210
0.0
220
0.0
230
1.0
 70
     8
 71
     3
 72
    24
 73
    20
 74
     0
 42
0.000000001
 43
0.0000000001
 40
0.0413073465814862
 40
0.0413073465814862
 40
0.0413073465814862
 40
0.0413073465814862
 40
1.0
 40
2.0
 40
3.0
 40
4.0
 40
5.0
 40
6.0
 40
7.0
 40
8.0
 40
9.0
 40
10.0
 40
11.0
 40
12.0
 40
13.0
 40
14.0
 40
15.0
 40
16.0
 40
17.0
 40
17.0
 40
17.0
 40
17.0
 10
28.75946071160665
 20
16.36442222025925
 30
0.0
 10
28.98152542234417
 20
16.67156022814792
 30
0.0
 10
29.16695447534303
 20
17.46097134930009
 30
0.0
 10
29.41016718771464
 20
18.62185231326646
 30
0.0
 10
29.6229576197782
 20
19.81686726775114
 30
0.0
 10
29.84622118487828
 20
21.00684934408502
 30
0.0
 10
30.06616251776097
 20
22.19816081301018
 30
0.0
 10
30.28872222988699
 20
23.38922559879305
 30
0.0
 10
30.5042134792954
 20
24.57992977803799
 30
0.0
 10
30.74370815096351
 20
25.77262910307407
 30
0.0
 10
30.65967512137532
 20
26.99097804509024
 30
0.0
 10
30.29760066435802
 20
28.16047722461235
 30
0.0
 10
29.60768701084772
 20
29.16373742971139
 30
0.0
 10
28.92666991665824
 20
30.16344956961229
 30
0.0
 10
28.24225730499589
 20
31.16381961230056
 30
0.0
 10
27.56085158661804
 20
32.16396497150605
 30
0.0
 10
26.87077184654605
 20
33.16432355679991
 30
0.0
 10
26.2118377505455
 20
34.16368297493978
 30
0.0
 10
25.65980777082281
 20
34.80718659155956
 30
0.0
 10
25.25266238524365
 20
34.88128153990853
 30
0.0
  0
POLYLINE
  5
75
330
1F
100
AcDbEntity
  8
DEFAULT
100
AcDb2dPolyline
 66
     1
 10
0.0
 20
0.0
 30
0.0
  0
VERTEX
  5
76
330
75
100
AcDbEntity
  8
DEFAULT
100
AcDbVertex
100
AcDb2dVertex
 10
28.59955666362121
 20
16.32088064418615
 30
0.0
  0
VERTEX
  5
77
330
75
100
AcDbEntity
  8
DEFAULT
100
AcDbVertex
100
AcDb2dVertex
 10
27.12444252134365
 20
16.27238931551853
 30
0.0
  0
SEQEND
  5
78
330
75
100
AcDbEntity
  8
DEFAULT
  0
SPLINE
  5
79
330
1F
100
AcDbEntity
  8
DEFAULT
100
AcDbSpline
210
0.0
220
0.0
230
1.0
 70
    24
 71
     2
 72
     6
 73
     3
 74
     0
 42
0.000000001
 43
0.0000000001
 40
1.55448208495564
 40
1.55448208495564
 40
1.55448208495564
 40
2.424942046440377
 40
2.424942046440377
 40
2.424942046440377
 10
28.91116159279367
 20
16.36713350987784
 30
0.0
 10
28.91446455706865
 20
16.49879291269819
 30
0.0
 10
28.91776752134364
 20
16.63045231551853
 30
0.0
  0
SPLINE
  5
7A
330
1F
100
AcDbEntity
  8
DEFAULT
100
AcDbSpline
210
0.0
220
0.0
230
1.0
 70
    24
 71
     2
 72
     6
 73
     3
 74
     0
 42
0.000000001
 43
0.0000000001
 40
0.0
 40
0.0
 40
0.0
 40
0.3813985372912855
 40
0.3813985372912855
 40
0.3813985372912855
 10
27.92295852134364
 20
16.29519631551853
 30
0.0
 10
28.22801442041802
 20
16.29330076478819
 30
0.0
 10
28.53307031949239
 20
16.29140521405785
 30
0.0
  0
SPLINE
  5
7B
330
1F
100
AcDbEntity
  8
DEFAULT
100
AcDbSpline
210
0.0
220
0.0
230
1.0
 70
    24
 71
     2
 72
     6
 73
     3
 74
     0
 42
0.000000001
 43
0.0000000001
 40
0.8103594317899131
 40
0.8103594317899131
 40
0.8103594317899131
 40
1.0
 40
1.0
 40
1.0
 10
28.15396834036495
 20
15.98125478906138
 30
0.0
 10
28.0374924308543
 20
15.98197855228996
 30
0.0
 10
27.92101652134364
 20
15.98270231551853
 30
0.0
  0
SPLINE
  5
7C
330
1F
100
AcDbEntity
  8
DEFAULT
100
AcDbSpline
210
0.0
220
0.0
230
1.0
 70
    15
 71
     3
 72
    55
 73
    51
 74
     0
 42
0.000000001
 43
0.0000000001
 40
0.0
 40
0.0
 40
0.0
 40
0.0
 40
1.0
 40
2.0
 40
3.0
 40
4.0
 40
5.0
 40
5.0
 40
5.0
 40
5.479753757595432
 40
6.479753846779303
 40
7.47975393596316
 40
7.47975393596316
 40
7.47975393596316
 40
8.671919770431103
 40
8.671919770431103
 40
8.671919770431103
 40
9.671919770431103
 40
10.6719197704311
 40
11.6719197704311
 40
12.6719197704311
 40
13.6719197704311
 40
13.6719197704311
 40
13.6719197704311
 40
14.6719197704311
 40
14.6719197704311
 40
14.6719197704311
 40
15.67186165359615
 40
16.67187618280489
 40
17.67189071201362
 40
18.67190524122236
 40
19.6719197704311
 40
19.6719197704311
 40
19.6719197704311
 40
20.6719197704311
 40
20.6719197704311
 40
20.6719197704311
 40
21.6719195504398
 40
22.67191960543762
 40
23.67191966043545
 40
24.67191971543328
 40
25.6719197704311
 40
25.6719197704311
 40
25.6719197704311
 40
26.93074367607304
 40
26.93074367607304
 40
26.93074367607304
 40
27.93074367607304
 40
28.93074367607304
 40
29.39603002394107
 40
29.39603002394107
 40
29.39603002394107
 40
29.39603002394107
 10
31.06326568306843
 20
16.27077322319275
 30
0.0
 41
1.0
 10
31.12349512561848
 20
16.26806661140916
 30
0.0
 41
1.0
 10
31.23808378888175
 20
16.21302263028096
 30
0.0
 41
1.0
 10
31.32564797748045
 20
16.04773378996394
 30
0.0
 41
1.0
 10
31.32307029007966
 20
15.86306159485799
 30
0.0
 41
1.0
 10
31.23259931425876
 20
15.69989548387049
 30
0.0
 41
1.0
 10
31.11874232406156
 20
15.64451037472904
 30
0.0
 41
1.0
 10
31.05853518282593
 20
15.6411614944594
 30
0.0
 41
1.0
 10
30.9927559527717
 20
15.64340198579192
 30
0.0
 41
1.0
 10
30.78991712354511
 20
15.6521711225228
 30
0.0
 41
1.0
 10
30.45010268852983
 20
15.66832973165456
 30
0.0
 41
1.0
 10
30.17599734109437
 20
15.68086365327088
 30
0.0
 41
1.0
 10
30.03895152134364
 20
15.68723031551855
 30
0.0
 41
1.0
 10
29.64199085523712
 20
15.70567169878229
 30
0.0
 41
0.999999072243596
 10
29.24499997556295
 20
15.72345080186031
 30
0.0
 41
0.999999072243596
 10
28.84797998725152
 20
15.74056757526876
 30
0.0
 41
1.0
 10
28.79634943623623
 20
15.72431494452665
 30
0.0
 41
1.0
 10
28.70859029871428
 20
15.65945539006385
 30
0.0
 41
1.0
 10
28.60149681602574
 20
15.53878919945772
 30
0.0
 41
1.0
 10
28.51109117568461
 20
15.40502064329931
 30
0.0
 41
1.0
 10
28.43459804926231
 20
15.26304240742285
 30
0.0
 41
1.0
 10
28.39174638902155
 20
15.16443942897308
 30
0.0
 41
1.0
 10
28.37225875875865
 20
15.11439127575354
 30
0.0
 41
1.0
 10
26.41305670857531
 20
10.08104886179954
 30
0.0
 41
1.0
 10
24.45385465839198
 20
5.047706447845534
 30
0.0
 41
1.0
 10
22.49465260820865
 20
0.0143640338915337
 30
0.0
 41
1.0
 10
22.45403995129395
 20
0.0047082154245321
 30
0.0
 41
1.0
 10
22.36911949426997
 20
0.0316805270992792
 30
0.0
 41
1.0
 10
22.24780551064201
 20
0.0699276459278263
 30
0.0
 41
1.0
 10
22.12715161572223
 20
0.1168999927446751
 30
0.0
 41
1.0
 10
22.0118742067875
 20
0.1707168081776738
 30
0.0
 41
1.0
 10
21.93111216107302
 20
0.2082489727209456
 30
0.0
 41
1.0
 10
21.90762126227364
 20
0.2428306001805335
 30
0.0
 41
1.0
 10
23.86682760279697
 20
5.276182172604868
 30
0.0
 41
1.0
 10
25.82603394332031
 20
10.3095337450292
 30
0.0
 41
1.0
 10
27.78524028384364
 20
15.34288531745353
 30
0.0
 41
1.0
 10
27.82238274952952
 20
15.43822586329285
 30
0.0
 41
1.0
 10
27.90732936990576
 20
15.62480597208865
 30
0.0
 41
1.0
 10
28.06914365198828
 20
15.88653266228043
 30
0.0
 41
1.0
 10
28.27031466111649
 20
16.12001688578448
 30
0.0
 41
1.0
 10
28.5195576453689
 20
16.30429388137585
 30
0.0
 41
1.0
 10
28.71902122112897
 20
16.36524418203467
 30
0.0
 41
1.0
 10
28.82145956263364
 20
16.37081329869856
 30
0.0
 41
1.0
 10
29.24071885469009
 20
16.35369759568375
 30
0.0
 41
0.9999974215158479
 10
29.65992892185328
 20
16.33541588748465
 30
0.0
 41
0.9999974215158479
 10
30.07908652134333
 20
16.31596831551855
 30
0.0
 41
1.0
 10
30.21215369593099
 20
16.30979442422501
 30
0.0
 41
1.0
 10
30.47829911274492
 20
16.2975770159547
 30
0.0
 41
1.0
 10
30.80632706895614
 20
16.28211556096457
 30
0.0
 41
1.0
 10
31.0013442983003
 20
16.27348559328873
 30
0.0
 41
1.0
 10
31.06326568306843
 20
16.27077322319275
 30
0.0
 41
1.0
  0
SPLINE
  5
7D
330
1F
100
AcDbEntity
  8
DEFAULT
100
AcDbSpline
210
0.0
220
0.0
230
1.0
 70
    12
 71
     2
 72
    12
 73
     9
 74
     0
 42
0.000000001
 43
0.0000000001
 40
-1.571702273440492
 40
-1.571702273440492
 40
-1.571702273440492
 40
0.0
 40
0.0
 40
0.4946097871914949
 40
0.4946097871914949
 40
0.9892195743829898
 40
0.9892195743829898
 40
2.43718222636267
 40
2.43718222636267
 40
2.43718222636267
 10
7.776420399668519
 20
66.57141908315745
 30
0.0
 41
1.0
 10
8.15473893200926
 20
67.72723105715227
 30
0.0
 41
1.0
 10
8.533057464350001
 20
68.8830430311471
 30
0.0
 41
1.0
 10
8.631229812069586
 20
69.1821787894071
 30
0.0
 41
0.7072460480700768
 10
8.930404221625386
 20
69.08412429234805
 30
0.0
 41
1.0
 10
9.229578631181186
 20
68.98606979528898
 30
0.0
 41
0.7072460480700768
 10
9.131642000000001
 20
68.68685678086709
 30
0.0
 41
1.0
 10
8.727445397643852
 20
67.45196762497682
 30
0.0
 41
1.0
 10
8.3232487952877
 20
66.21707846908656
 30
0.0
 41
1.0
  0
SPLINE
  5
7E
330
1F
100
AcDbEntity
  8
DEFAULT
100
AcDbSpline
210
0.0
220
0.0
230
1.0
 70
    12
 71
     2
 72
    12
 73
     9
 74
     0
 42
0.000000001
 43
0.0000000001
 40
-1.571702273440492
 40
-1.571702273440492
 40
-1.571702273440492
 40
0.0
 40
0.0
 40
0.4946097871914949
 40
0.4946097871914949
 40
0.9892195743829898
 40
0.9892195743829898
 40
2.43718222636267
 40
2.43718222636267
 40
2.43718222636267
 10
-7.776420399668519
 20
66.57141908315745
 30
0.0
 41
1.0
 10
-8.15473893200926
 20
67.72723105715227
 30
0.0
 41
1.0
 10
-8.533057464350001
 20
68.8830430311471
 30
0.0
 41
1.0
 10
-8.631229812069586
 20
69.1821787894071
 30
0.0
 41
0.7072460480700768
 10
-8.930404221625386
 20
69.08412429234805
 30
0.0
 41
1.0
 10
-9.229578631181186
 20
68.98606979528898
 30
0.0
 41
0.7072460480700768
 10
-9.131642000000001
 20
68.68685678086709
 30
0.0
 41
1.0
 10
-8.727445397643852
 20
67.45196762497682
 30
0.0
 41
1.0
 10
-8.3232487952877
 20
66.21707846908656
 30
0.0
 41
1.0
  0
SPLINE
  5
7F
330
1F
100
AcDbEntity
  8
DEFAULT
100
AcDbSpline
210
0.0
220
0.0
230
1.0
 70
    24
 71
     2
 72
     6
 73
     3
 74
     0
 42
0.000000001
 43
0.0000000001
 40
0.0
 40
0.0
 40
0.0
 40
1.0
 40
1.0
 40
1.0
 10
-8.735135000000001
 20
17.54205031551853
 30
0.0
 10
-8.703077500000001
 20
17.51962481551853
 30
0.0
 10
-8.67102
 20
17.49719931551853
 30
0.0
  0
ARC
  5
80
330
1F
100
AcDbEntity
  8
DEFAULT
100
AcDbCircle
 10
-6.008666000000002
 20
19.77132231551853
 30
0.0
 40
3.412530056981217
100
AcDbArc
 50
228.2839721690414
 51
242.2299870462705
  0
SPLINE
  5
81
330
1F
100
AcDbEntity
  8
DEFAULT
100
AcDbSpline
210
0.0
220
0.0
230
1.0
 70
     8
 71
     3
 72
    25
 73
    21
 74
     0
 42
0.000000001
 43
0.0000000001
 40
0.0
 40
0.0
 40
0.0
 40
0.0
 40
0.06211029860064
 40
0.112564157818
 40
0.1504722713803
 40
0.1750594843251
 40
0.1822853512478
 40
0.1865238300204
 40
0.1900448928166
 40
0.1962330084342
 40
0.2061584796332
 40
0.2201590373747
 40
0.2608752394412
 40
0.3175307101292
 40
0.3882579731369
 40
0.47113899579
 40
0.564239829283
 40
0.6656199803507
 40
0.7733361631528
 40
1.0
 40
1.0
 40
1.0
 40
1.0
 10
-1.66388353432
 20
15.84244539096854
 30
0.0
 10
-1.66409117117
 20
15.84244642965853
 30
0.0
 10
-1.664467158800001
 20
15.84245137013853
 30
0.0
 10
-1.664971027690001
 20
15.84247102976854
 30
0.0
 10
-1.665344905240001
 20
15.84250082849853
 30
0.0
 10
-1.665580561480002
 20
15.84253761124853
 30
0.0
 10
-1.665690241050001
 20
15.84257533090853
 30
0.0
 10
-1.665737287500001
 20
15.84261048932854
 30
0.0
 10
-1.665717658830001
 20
15.84266163583854
 30
0.0
 10
-1.665658336730001
 20
15.84269274927853
 30
0.0
 10
-1.665566854730002
 20
15.84273357809854
 30
0.0
 10
-1.665359414900003
 20
15.84279681683853
 30
0.0
 10
-1.664996666170001
 20
15.84287996545853
 30
0.0
 10
-1.66444424593
 20
15.84298431431854
 30
0.0
 10
-1.663751106039999
 20
15.84310099481853
 30
0.0
 10
-1.662936222140001
 20
15.84322849356854
 30
0.0
 10
-1.662019196700001
 20
15.84336573998853
 30
0.0
 10
-1.661019531780003
 20
15.84351174570853
 30
0.0
 10
-1.659577782870002
 20
15.84372045787853
 30
0.0
 10
-1.658471593680002
 20
15.84388159320853
 30
0.0
 10
-1.657722182460002
 20
15.84399372976853
 30
0.0
  0
SPLINE
  5
82
330
1F
100
AcDbEntity
  8
DEFAULT
100
AcDbSpline
210
0.0
220
0.0
230
1.0
 70
     8
 71
     2
 72
     8
 73
     5
 74
     0
 42
0.000000001
 43
0.0000000001
 40
0.0
 40
0.0
 40
0.0
 40
1.0
 40
1.0
 40
2.0
 40
2.0
 40
2.0
 10
-8.67102
 20
17.49719931551853
 30
0.0
 10
-8.4936355
 20
17.37221131551853
 30
0.0
 10
-8.316251000000001
 20
17.24722331551853
 30
0.0
 10
-8.305071000000002
 20
17.23922881551853
 30
0.0
 10
-8.293891
 20
17.23123431551853
 30
0.0
  0
SPLINE
  5
83
330
1F
100
AcDbEntity
  8
DEFAULT
100
AcDbSpline
210
0.0
220
0.0
230
1.0
 70
    24
 71
     2
 72
     6
 73
     3
 74
     0
 42
0.000000001
 43
0.0000000001
 40
0.0
 40
0.0
 40
0.0
 40
1.0
 40
1.0
 40
1.0
 10
-1.663438000000003
 20
15.84244131551853
 30
0.0
 10
-0.0000005000000023
 20
15.84244131551853
 30
0.0
 10
1.663436999999998
 20
15.84244131551853
 30
0.0
  0
SPLINE
  5
84
330
1F
100
AcDbEntity
  8
DEFAULT
100
AcDbSpline
210
0.0
220
0.0
230
1.0
 70
    24
 71
     2
 72
     6
 73
     3
 74
     0
 42
0.000000001
 43
0.0000000001
 40
0.0
 40
0.0
 40
0.0
 40
1.0
 40
1.0
 40
1.0
 10
-1.634677
 20
16.47144131551853
 30
0.0
 10
0.0
 20
16.47144131551853
 30
0.0
 10
1.634677
 20
16.47144131551853
 30
0.0
  0
SPLINE
  5
85
330
1F
100
AcDbEntity
  8
DEFAULT
100
AcDbSpline
210
0.0
220
0.0
230
1.0
 70
     8
 71
     2
 72
    16
 73
    13
 74
     0
 42
0.000000001
 43
0.0000000001
 40
0.0
 40
0.0
 40
0.0
 40
1.0
 40
1.0
 40
2.0
 40
2.0
 40
3.0
 40
3.0
 40
4.0
 40
4.0
 40
5.0
 40
5.0
 40
6.0
 40
6.0
 40
6.0
 10
-8.807267000000001
 20
17.59126231551853
 30
0.0
 10
-8.809027500000001
 20
17.59236231551853
 30
0.0
 10
-8.810788
 20
17.59346231551853
 30
0.0
 10
-8.811043000000002
 20
17.59362831551853
 30
0.0
 10
-8.811298
 20
17.59379431551853
 30
0.0
 10
-8.805478
 20
17.58996331551853
 30
0.0
 10
-8.799658
 20
17.58613231551853
 30
0.0
 10
-8.791311
 20
17.58052031551853
 30
0.0
 10
-8.782964000000002
 20
17.57490831551853
 30
0.0
 10
-8.772616500000002
 20
17.56784781551853
 30
0.0
 10
-8.762269000000002
 20
17.56078731551853
 30
0.0
 10
-8.748702000000002
 20
17.55141881551853
 30
0.0
 10
-8.735135000000001
 20
17.54205031551853
 30
0.0
  0
SPLINE
  5
86
330
1F
100
AcDbEntity
  8
DEFAULT
100
AcDbSpline
210
0.0
220
0.0
230
1.0
 70
     8
 71
     3
 72
    12
 73
     8
 74
     0
 42
0.000000001
 43
0.0000000001
 40
0.0
 40
0.0
 40
0.0
 40
0.0
 40
1.0
 40
2.0
 40
3.0
 40
4.0
 40
5.0
 40
5.0
 40
5.0
 40
5.0
 10
-9.463148640060002
 20
0.053685563078533
 30
0.0
 10
-9.497267010133653
 20
0.0771963505341885
 30
0.0
 10
-9.583628234121383
 20
0.0917074942687596
 30
0.0
 10
-9.708455876770385
 20
0.1136314217568072
 30
0.0
 10
-9.835867947440246
 20
0.1291496477672076
 30
0.0
 10
-9.96232412383069
 20
0.1378567662591474
 30
0.0
 10
-10.04959841411982
 20
0.1444768782775991
 30
0.0
 10
-10.08844923971
 20
0.129918325897533
 30
0.0
  0
SPLINE
  5
87
330
1F
100
AcDbEntity
  8
DEFAULT
100
AcDbSpline
210
0.0
220
0.0
230
1.0
 70
    12
 71
     3
 72
    65
 73
    61
 74
     0
 42
0.000000001
 43
0.0000000001
 40
0.0
 40
0.0
 40
0.0
 40
0.0
 40
1.000000100883596
 40
2.000000201767192
 40
3.000000302650788
 40
4.000000403534384
 40
5.000000504417979
 40
6.000000605301576
 40
7.000000706185172
 40
8.000000807068767
 40
9.000000907952364
 40
10.00000100883596
 40
11.00000110971956
 40
12.0
 40
12.0
 40
12.0
 40
13.0
 40
13.0
 40
13.0
 40
15.2306005269798
 40
15.2306005269798
 40
15.2306005269798
 40
16.2306005269798
 40
17.2306005269798
 40
18.2306005269798
 40
19.2306005269798
 40
20.2306005269798
 40
20.2306005269798
 40
20.2306005269798
 40
21.2306005269798
 40
21.2306005269798
 40
21.2306005269798
 40
22.23054427606522
 40
23.23055833879387
 40
24.23057240152251
 40
25.23058646425115
 40
26.2306005269798
 40
26.2306005269798
 40
26.2306005269798
 40
27.2306005269798
 40
27.2306005269798
 40
27.2306005269798
 40
28.23059988134464
 40
29.23060004275343
 40
30.23060020416222
 40
31.23060036557101
 40
32.2306005269798
 40
32.2306005269798
 40
32.2306005269798
 40
36.80877567556838
 40
36.80877567556838
 40
36.80877567556838
 40
37.16773120164449
 40
37.32495517572358
 40
37.46507002788548
 40
37.58628201512099
 40
37.68648672216899
 40
37.76265006081408
 40
37.79008846697648
 40
37.80877567556838
 40
37.80877567556838
 40
37.80877567556838
 40
37.80877567556838
 10
-1.800084857100163
 20
15.86223669955403
 30
0.0
 41
1.0
 10
-1.75622752423503
 20
15.84627473537339
 30
0.0
 41
1.0
 10
-1.660556131952426
 20
15.8308056160336
 30
0.0
 41
1.0
 10
-1.524748266115432
 20
15.88435132745512
 30
0.0
 41
1.0
 10
-1.433735291734001
 20
15.99659868830483
 30
0.0
 41
1.0
 10
-1.396586561663012
 20
16.1349537463846
 30
0.0
 41
1.0
 10
-1.409610831881603
 20
16.27690525852702
 30
0.0
 41
1.0
 10
-1.479196167660099
 20
16.40535623624585
 30
0.0
 41
1.0
 10
-1.607692285973753
 20
16.47227934586723
 30
0.0
 41
1.0
 10
-1.747348446990119
 20
16.49275230970164
 30
0.0
 41
1.0
 10
-1.886512308321081
 20
16.51227984910396
 30
0.0
 41
1.0
 10
-2.026268547280944
 20
16.52856107340174
 30
0.0
 41
1.0
 10
-2.166076875772647
 20
16.54389151977154
 30
0.0
 41
1.0
 10
-2.259363744225334
 20
16.55345394655973
 30
0.0
 41
1.0
 10
-2.306015176740001
 20
16.55813025956853
 30
0.0
 41
1.0
 10
-3.057910117826668
 20
16.63344627821853
 30
0.0
 41
1.0
 10
-3.809805058913335
 20
16.70876229686853
 30
0.0
 41
1.0
 10
-4.561700000000002
 20
16.78407831551853
 30
0.0
 41
1.0
 10
-5.30153125405059
 20
16.85818591130003
 30
0.0
 41
0.999999744544235
 10
-6.041427100176523
 20
16.93164581266243
 30
0.0
 41
0.999999744544235
 10
-6.781386971345821
 20
17.00445796330855
 30
0.0
 41
1.0
 10
-6.920689490475531
 20
17.0107280112109
 30
0.0
 41
1.0
 10
-7.201322729418839
 20
16.97620715975069
 30
0.0
 41
1.0
 10
-7.582716845091909
 20
16.79152429268936
 30
0.0
 41
1.0
 10
-7.888728909376812
 20
16.4994698456407
 30
0.0
 41
1.0
 10
-8.099387899108224
 20
16.13349132371873
 30
0.0
 41
1.0
 10
-8.170685464888496
 20
15.86144445521619
 30
0.0
 41
1.0
 10
-8.190588000000002
 20
15.70888531551853
 30
0.0
 41
1.0
 10
-8.823208206618334
 20
10.51589148391503
 30
0.0
 41
1.0
 10
-9.455828413236668
 20
5.322897652311533
 30
0.0
 41
1.0
 10
-10.088448619855
 20
0.1299038207080337
 30
0.0
 41
1.0
 10
-10.05432453173356
 20
0.1064068481475861
 30
0.0
 41
1.0
 10
-9.967966757000143
 20
0.0918955253395414
 30
0.0
 41
1.0
 10
-9.843141979149987
 20
0.0699724380272129
 30
0.0
 41
1.0
 10
-9.715729957781114
 20
0.0544541393858269
 30
0.0
 41
1.0
 10
-9.589273632400461
 20
0.0457468118003575
 30
0.0
 41
1.0
 10
-9.501999562406205
 20
0.0391286250147686
 30
0.0
 41
1.0
 10
-9.463149320030002
 20
0.0536999392985332
 30
0.0
 41
1.0
 10
-8.830529274825002
 20
5.246703343298534
 30
0.0
 41
1.0
 10
-8.197909229620002
 20
10.43970674729854
 30
0.0
 41
1.0
 10
-7.565289184415001
 20
15.63271015129853
 30
0.0
 41
1.0
 10
-7.555999963411897
 20
15.70871227657826
 30
0.0
 41
1.0
 10
-7.520391282157349
 20
15.85872430322909
 30
0.0
 41
1.0
 10
-7.414849163993599
 20
16.06485170283864
 30
0.0
 41
1.0
 10
-7.258046471805754
 20
16.23590816344207
 30
0.0
 41
1.0
 10
-7.055759956616616
 20
16.35173879970431
 30
0.0
 41
1.0
 10
-6.902156723923204
 20
16.37668018590677
 30
0.0
 41
1.0
 10
-6.825630999999975
 20
16.3764413155187
 30
0.0
 41
1.0
 10
-5.306500343855292
 20
16.23114797418732
 30
0.0
 41
0.9999940238971478
 10
-3.787998502698779
 20
16.07942367198729
 30
0.0
 41
0.9999940238971478
 10
-2.270152700699988
 20
15.92127112907872
 30
0.0
 41
1.0
 10
-2.212573471990002
 20
15.91527163859853
 30
0.0
 41
1.0
 10
-2.129804580150001
 20
15.90634289431853
 30
0.0
 41
1.0
 10
-2.024668330520001
 20
15.89411326000853
 30
0.0
 41
1.0
 10
-1.95767037177
 20
15.88587310200854
 30
0.0
 41
1.0
 10
-1.89985935752
 20
15.87828106193853
 30
0.0
 41
1.0
 10
-1.852345535520001
 20
15.87151345274853
 30
0.0
 41
1.0
 10
-1.81987441515
 20
15.86639715532854
 30
0.0
 41
1.0
 10
-1.800454549360001
 20
15.86295356971853
 30
0.0
 41
1.0
 10
-1.793151589460003
 20
15.86153456543854
 30
0.0
 41
1.0
 10
-1.790201050629999
 20
15.86092030902853
 30
0.0
 41
1.0
  0
SPLINE
  5
88
330
1F
100
AcDbEntity
  8
DEFAULT
100
AcDbSpline
210
0.0
220
0.0
230
1.0
 70
    12
 71
     3
 72
    49
 73
    45
 74
     0
 42
0.000000001
 43
0.0000000001
 40
0.0
 40
0.0
 40
0.0
 40
0.0
 40
1.000000045862644
 40
2.000000091725287
 40
3.000000137587931
 40
4.000000183450575
 40
5.0
 40
5.0
 40
5.0
 40
6.0
 40
6.0
 40
6.0
 40
6.999991880246742
 40
7.999993910185056
 40
8.999995940123371
 40
9.999997970061685
 40
11.0
 40
11.0
 40
11.0
 40
12.0
 40
12.0
 40
12.0
 40
13.0
 40
14.0
 40
15.0
 40
16.0
 40
17.0
 40
17.0
 40
17.0
 40
18.97873152136726
 40
18.97873152136726
 40
18.97873152136726
 40
19.97873152136726
 40
20.97873152136726
 40
21.97873152136726
 40
22.97873152136726
 40
23.97873152136726
 40
23.97873152136726
 40
23.97873152136726
 40
24.97873152136726
 40
25.97873152136726
 40
26.97873152136726
 40
27.97873152136726
 40
28.97873152136726
 40
28.97873152136726
 40
28.97873152136726
 40
28.97873152136726
 10
-6.345538618950002
 20
16.33063615874853
 30
0.0
 41
1.0
 10
-6.43957101481088
 20
16.30514959734792
 30
0.0
 41
1.0
 10
-6.621201834727407
 20
16.2302428460209
 30
0.0
 41
1.0
 10
-6.856190523277522
 20
16.05244416444664
 30
0.0
 41
1.0
 10
-7.039825127887914
 20
15.82225826070496
 30
0.0
 41
1.0
 10
-7.16493804498569
 20
15.55606377587379
 30
0.0
 41
1.0
 10
-7.208587461974914
 20
15.3650778287988
 30
0.0
 41
1.0
 10
-7.220917034370001
 20
15.26844425234353
 30
0.0
 41
1.0
 10
-7.862192354256667
 20
10.23509779102537
 30
0.0
 41
1.0
 10
-8.503467674143334
 20
5.2017513297072
 30
0.0
 41
1.0
 10
-9.14474299403
 20
0.1684048683890335
 30
0.0
 41
1.0
 10
-9.1411068076934
 20
0.1176812727924285
 30
0.0
 41
1.0
 10
-9.051461816765645
 20
0.0651441707153163
 30
0.0
 41
1.0
 10
-8.918383409984502
 20
0.0241446602303888
 30
0.0
 41
1.0
 10
-8.775173672119383
 20
0.005879195065555
 30
0.0
 41
1.0
 10
-8.6360663713628
 20
0.012223784520939
 30
0.0
 41
1.0
 10
-8.536102175884347
 20
0.0406104184513833
 30
0.0
 41
1.0
 10
-8.51987341964
 20
0.0887897656830338
 30
0.0
 41
1.0
 10
-7.878597926631667
 20
5.122137290743201
 30
0.0
 41
1.0
 10
-7.237322433623333
 20
10.15548481580337
 30
0.0
 41
1.0
 10
-6.596046940615
 20
15.18883234086353
 30
0.0
 41
1.0
 10
-6.588572817310438
 20
15.2472931742444
 30
0.0
 41
1.0
 10
-6.561653522858655
 20
15.36286451168939
 30
0.0
 41
1.0
 10
-6.48032059013371
 20
15.52170867896033
 30
0.0
 41
1.0
 10
-6.355450293099982
 20
15.65029835710561
 30
0.0
 41
1.0
 10
-6.194252010964347
 20
15.7293384627749
 30
0.0
 41
1.0
 10
-6.075560790555603
 20
15.74322533355113
 30
0.0
 41
1.0
 10
-6.016679007209024
 20
15.74166505050097
 30
0.0
 41
1.0
 10
-5.357342691372763
 20
15.72384172736286
 30
0.0
 41
0.9999999998970276
 10
-4.698006688901944
 20
15.7060068156982
 30
0.0
 41
0.9999999998970276
 10
-4.038671000000249
 20
15.6881603155125
 30
0.0
 41
1.0
 10
-3.889693979975465
 20
15.6841278955233
 30
0.0
 41
1.0
 10
-3.591739113038396
 20
15.67608443971908
 30
0.0
 41
1.0
 10
-3.144810029703223
 20
15.66393906845855
 30
0.0
 41
1.0
 10
-2.697870270945536
 20
15.65205028707113
 30
0.0
 41
1.0
 10
-2.250970194972604
 20
15.63921533910575
 30
0.0
 41
1.0
 10
-1.952934206356514
 20
15.6331593130301
 30
0.0
 41
1.0
 10
-1.80390292473
 20
15.63539513312853
 30
0.0
 41
1.0
 10
-1.771333714890233
 20
15.63609477035648
 30
0.0
 41
1.0
 10
-1.70628659585667
 20
15.63768850210738
 30
0.0
 41
1.0
 10
-1.608789166318221
 20
15.64992477011584
 30
0.0
 41
1.0
 10
-1.518418850149572
 20
15.69026379895692
 30
0.0
 41
1.0
 10
-1.444296913760862
 20
15.7555675261042
 30
0.0
 41
1.0
 10
-1.410436141850032
 20
15.81214438740943
 30
0.0
 41
1.0
 10
-1.39818514117
 20
15.84231062786854
 30
0.0
 41
1.0
  0
SPLINE
  5
89
330
1F
100
AcDbEntity
  8
DEFAULT
100
AcDbSpline
210
0.0
220
0.0
230
1.0
 70
    12
 71
     3
 72
    31
 73
    27
 74
     0
 42
0.000000001
 43
0.0000000001
 40
2.012705496849823
 40
2.012705496849823
 40
2.012705496849823
 40
2.012705496849823
 40
2.094792848731041
 40
2.094792848731041
 40
2.094792848731041
 40
2.144191613548935
 40
2.144191613548935
 40
2.144191613548935
 40
3.144246655663034
 40
4.144301697777133
 40
5.144356739891232
 40
6.144411782005331
 40
7.144191613548935
 40
7.144191613548935
 40
7.144191613548935
 40
7.215104587185931
 40
7.215104587185931
 40
7.215104587185931
 40
8.215105605096541
 40
9.21510662300715
 40
10.21510764091776
 40
11.21510865882837
 40
12.21510458718593
 40
12.21510458718593
 40
12.21510458718593
 40
12.31403255254289
 40
12.31403255254289
 40
12.31403255254289
 40
12.31403255254289
 10
-11.26588863568
 20
26.49428466332853
 30
0.0
 41
1.0
 10
-11.29045718170787
 20
26.4822274292689
 30
0.0
 41
0.999617316403944
 10
-11.31460314936404
 20
26.46934478229558
 30
0.0
 41
0.999617316403944
 10
-11.33829881785133
 20
26.45565151234159
 30
0.0
 41
1.0
 10
-11.70754108715279
 20
26.2422735240952
 30
0.0
 41
0.9997966571741226
 10
-12.0714009636254
 20
26.01984149043028
 30
0.0
 41
0.9997966571741226
 10
-12.42965648238264
 20
25.78849110122171
 30
0.0
 41
1.0
 10
-12.45595069781788
 20
25.74982210862568
 30
0.0
 41
1.0
 10
-12.43255481253363
 20
25.65554876637822
 30
0.0
 41
1.0
 10
-12.3934715979871
 20
25.5279092085772
 30
0.0
 41
1.0
 10
-12.34218675117145
 20
25.4010610800177
 30
0.0
 41
1.0
 10
-12.28713394311035
 20
25.27691066620496
 30
0.0
 41
1.0
 10
-12.24788910896306
 20
25.1950947713348
 30
0.0
 41
1.0
 10
-12.22787922494391
 20
25.15443375377851
 30
0.0
 41
1.0
 10
-11.28878102291292
 20
23.24948511717955
 30
0.0
 41
0.9995809897472526
 10
-10.28274442347392
 20
21.37902391690642
 30
0.0
 41
0.9995809897472526
 10
-9.211034045576312
 20
19.54540138021996
 30
0.0
 41
1.0
 10
-9.121634684055488
 20
19.39228441135833
 30
0.0
 41
1.0
 10
-8.919671477025105
 20
19.10000927117242
 30
0.0
 41
1.0
 10
-8.545620986280484
 20
18.7176881690115
 30
0.0
 41
1.0
 10
-8.079804154046272
 20
18.44883552423821
 30
0.0
 41
1.0
 10
-7.559258380849
 20
18.32516363316724
 30
0.0
 41
1.0
 10
-7.206268980321092
 20
18.29269050611171
 30
0.0
 41
1.0
 10
-7.029995422489967
 20
18.27458854663388
 30
0.0
 41
1.0
 10
-4.693367035886075
 20
18.04253452570725
 30
0.0
 41
0.9991846044109206
 10
-2.348122927996088
 20
17.92629614943452
 30
0.0
 41
0.9991846044109206
 10
-0.0000000039226695
 20
17.92615775859355
 30
0.0
 41
1.0
  0
SPLINE
  5
8A
330
1F
100
AcDbEntity
  8
DEFAULT
100
AcDbSpline
210
0.0
220
0.0
230
1.0
 70
     8
 71
     3
 72
    22
 73
    18
 74
     0
 42
0.000000001
 43
0.0000000001
 40
0.0
 40
0.0
 40
0.0
 40
0.0
 40
1.0
 40
2.0
 40
3.0
 40
4.0
 40
5.0
 40
5.0
 40
5.0
 40
6.0
 40
6.0
 40
6.0
 40
7.0
 40
8.0
 40
9.0
 40
10.0
 40
11.0
 40
11.0
 40
11.0
 40
11.0
 10
-7.10486521662
 20
18.28148371851853
 30
0.0
 10
-7.218127056367689
 20
18.35097030881759
 30
0.0
 10
-7.435019372226384
 20
18.50548282690104
 30
0.0
 10
-7.726308025512394
 20
18.77913797212197
 30
0.0
 10
-7.972941915819908
 20
19.09376673953486
 30
0.0
 10
-8.170518783486267
 20
19.44093642784499
 30
0.0
 10
-8.277041686977919
 20
19.6846225241219
 30
0.0
 10
-8.32800018822
 20
19.80730720913853
 30
0.0
 10
-9.138307384443335
 20
21.75996094444186
 30
0.0
 10
-9.948614580666668
 20
23.7126146797452
 30
0.0
 10
-10.75892177689
 20
25.66526841504853
 30
0.0
 10
-10.78421272200375
 20
25.72618867291448
 30
0.0
 10
-10.83645419968383
 20
25.84743977757342
 30
0.0
 10
-10.92088181086988
 20
26.02623627885337
 30
0.0
 10
-11.0127065248683
 20
26.20250827579074
 30
0.0
 10
-11.1177392111115
 20
26.36735254602431
 30
0.0
 10
-11.20029456906533
 20
26.47844354340969
 30
0.0
 10
-11.26588863568
 20
26.49428466332853
 30
0.0
  0
SPLINE
  5
8B
330
1F
100
AcDbEntity
  8
DEFAULT
100
AcDbSpline
210
0.0
220
0.0
230
1.0
 70
    12
 71
     3
 72
    34
 73
    30
 74
     0
 42
0.000000001
 43
0.0000000001
 40
0.0
 40
0.0
 40
0.0
 40
0.0
 40
1.00564010314658
 40
1.00564010314658
 40
1.00564010314658
 40
1.011187619113542
 40
1.011187619113542
 40
1.011187619113542
 40
2.011187619113541
 40
2.011187619113541
 40
2.011187619113541
 40
3.011194674703531
 40
4.01120173029352
 40
5.011208785883509
 40
6.011215841473499
 40
7.011187619113541
 40
7.011187619113541
 40
7.011187619113541
 40
7.096245867337702
 40
7.096245867337702
 40
7.096245867337702
 40
8.09624657987549
 40
9.09624729241328
 40
10.09624800495107
 40
11.09624871748886
 40
12.0962458673377
 40
12.0962458673377
 40
12.0962458673377
 40
12.19759609350996
 40
12.19759609350996
 40
12.19759609350996
 40
12.19759609350996
 10
-11.27825
 20
26.49323231551853
 30
0.0
 41
1.0
 10
-11.69254623500023
 20
26.45749924094679
 30
0.0
 41
1.0
 10
-12.10684247000045
 20
26.42176616637505
 30
0.0
 41
1.0
 10
-12.52113870500068
 20
26.38603309180331
 30
0.0
 41
1.0
 10
-12.52305028973679
 20
26.38481677154172
 30
0.0
 41
1.0
 10
-12.52496187447289
 20
26.38360045128013
 30
0.0
 41
1.0
 10
-12.526873459209
 20
26.38238413101853
 30
0.0
 41
1.0
 10
-12.8715018244176
 20
26.16310090731355
 30
0.0
 41
0.9997244872127474
 10
-13.20968411609422
 20
25.934001409494
 30
0.0
 41
0.9997244872127474
 10
-13.5411408136015
 20
25.69527499708353
 30
0.0
 41
1.0
 10
-13.56584029677801
 20
25.65552781476487
 30
0.0
 41
1.0
 10
-13.54242112908766
 20
25.56141531622348
 30
0.0
 41
1.0
 10
-13.503060458932
 20
25.43294365890265
 30
0.0
 41
1.0
 10
-13.45180055462878
 20
25.30546298962427
 30
0.0
 41
1.0
 10
-13.39677328546665
 20
25.18056480743318
 30
0.0
 41
1.0
 10
-13.35757565457135
 20
25.09824424061015
 30
0.0
 41
1.0
 10
-13.33753143370784
 20
25.05734764932803
 30
0.0
 41
1.0
 10
-12.29664763267688
 20
22.92719773727435
 30
0.0
 41
0.9993971820700294
 10
-11.1661389240986
 20
20.84322849688245
 30
0.0
 41
0.9993971820700294
 10
-9.948049780731552
 20
18.80920869022317
 30
0.0
 41
1.0
 10
-9.851661883884004
 20
18.64833044394019
 30
0.0
 41
1.0
 10
-9.645618420346274
 20
18.33407998192774
 30
0.0
 41
1.0
 10
-9.271210050863557
 20
17.91121586911444
 30
0.0
 41
1.0
 10
-8.818471020856059
 20
17.57123007664228
 30
0.0
 41
1.0
 10
-8.298593305720573
 20
17.34611534312241
 30
0.0
 41
1.0
 10
-7.928288335246274
 20
17.27491472713419
 30
0.0
 41
1.0
 10
-7.741756808546568
 20
17.25591011728952
 30
0.0
 41
1.0
 10
-5.168892621181347
 20
16.994632771394
 30
0.0
 41
0.9991441941348612
 10
-2.586096649189319
 20
16.8640152183371
 30
0.0
 41
0.9991441941348612
 10
-0.0000000083943461
 20
16.8643928079228
 30
0.0
 41
1.0
  0
SPLINE
  5
8C
330
1F
100
AcDbEntity
  8
DEFAULT
100
AcDbSpline
210
0.0
220
0.0
230
1.0
 70
     8
 71
     3
 72
    30
 73
    26
 74
     0
 42
0.000000001
 43
0.0000000001
 40
0.0
 40
0.0
 40
0.0
 40
0.0
 40
1.0
 40
2.0
 40
3.0
 40
4.0
 40
5.0
 40
6.0
 40
7.0
 40
8.0
 40
9.0
 40
9.0
 40
9.0
 40
10.0
 40
11.0
 40
12.0
 40
13.0
 40
14.0
 40
14.0
 40
14.0
 40
15.0
 40
16.0
 40
17.0
 40
18.0
 40
19.0
 40
19.0
 40
19.0
 40
19.0
 10
-11.64221120372
 20
26.46192207048853
 30
0.0
 10
-11.6753022196118
 20
26.78910035420827
 30
0.0
 10
-11.67630532772293
 20
27.45008190991878
 30
0.0
 10
-11.45379429721657
 20
28.42047629728834
 30
0.0
 10
-10.98317478399019
 20
29.29252058905191
 30
0.0
 10
-10.54672286255136
 20
30.176031410278
 30
0.0
 10
-10.10123837555941
 20
31.05662669354777
 30
0.0
 10
-9.658254246610579
 20
31.93769204072913
 30
0.0
 10
-9.214036397485893
 20
32.81965766484035
 30
0.0
 10
-8.772690483573045
 20
33.69777207281801
 30
0.0
 10
-8.474122508023255
 20
34.29410652061932
 30
0.0
 10
-8.207684263009416
 20
34.49906436620172
 30
0.0
 10
-8.133464324438695
 20
34.5591761206708
 30
0.0
 10
-7.974245366325387
 20
34.66614861995969
 30
0.0
 10
-7.710847986960578
 20
34.78162594651739
 30
0.0
 10
-7.432190353492165
 20
34.85215726673557
 30
0.0
 10
-7.146660663907427
 20
34.8819585792521
 30
0.0
 10
-6.955467645419356
 20
34.88244663246767
 30
0.0
 10
-6.859988676235001
 20
34.87985249754853
 30
0.0
 10
-6.402909348235932
 20
34.86138299212135
 30
0.0
 10
-5.488563081730941
 20
34.82943225128122
 30
0.0
 10
-4.116713779280229
 20
34.79242853984282
 30
0.0
 10
-2.74460395335695
 20
34.766688128419
 30
0.0
 10
-1.372340034239146
 20
34.75142725057983
 30
0.0
 10
-0.4574467819131831
 20
34.74805427140318
 30
0.0
 10
-0.0000003854600017
 20
34.74805454712853
 30
0.0
  0
SPLINE
  5
8D
330
1F
100
AcDbEntity
  8
DEFAULT
100
AcDbSpline
210
0.0
220
0.0
230
1.0
 70
     8
 71
     3
 72
    16
 73
    12
 74
     0
 42
0.000000001
 43
0.0000000001
 40
0.0
 40
0.0
 40
0.0
 40
0.0
 40
1.0
 40
2.0
 40
3.0
 40
4.0
 40
5.0
 40
6.0
 40
7.0
 40
8.0
 40
9.0
 40
9.0
 40
9.0
 40
9.0
 10
-11.70308388928
 20
26.45671283619853
 30
0.0
 10
-11.72786391495525
 20
26.78553128555027
 30
0.0
 10
-11.71455123282029
 20
27.44867210333325
 30
0.0
 10
-11.47065355739071
 20
28.41581317788057
 30
0.0
 10
-10.99903912263881
 20
29.29003407844856
 30
0.0
 10
-10.56503451112614
 20
30.1782759051159
 30
0.0
 10
-10.12119775482685
 20
31.06299311509759
 30
0.0
 10
-9.680776855410521
 20
31.94863604742172
 30
0.0
 10
-9.237138927257755
 20
32.83440600196057
 30
0.0
 10
-8.801801118037877
 20
33.71816772721212
 30
0.0
 10
-8.49082280352854
 20
34.31223107711098
 30
0.0
 10
-8.20900656192
 20
34.50074901900854
 30
0.0
  0
SPLINE
  5
8E
330
1F
100
AcDbEntity
  8
DEFAULT
100
AcDbSpline
210
0.0
220
0.0
230
1.0
 70
     8
 71
     3
 72
    12
 73
     8
 74
     0
 42
0.000000001
 43
0.0000000001
 40
0.0
 40
0.0
 40
0.0
 40
0.0
 40
1.0
 40
2.0
 40
3.0
 40
4.0
 40
5.0
 40
5.0
 40
5.0
 40
5.0
 10
9.463148640060002
 20
0.053685563078533
 30
0.0
 10
9.497267010133653
 20
0.0771963505341885
 30
0.0
 10
9.583628234121383
 20
0.0917074942687596
 30
0.0
 10
9.708455876770385
 20
0.1136314217568072
 30
0.0
 10
9.835867947440246
 20
0.1291496477672076
 30
0.0
 10
9.96232412383069
 20
0.1378567662591474
 30
0.0
 10
10.04959841411982
 20
0.1444768782775991
 30
0.0
 10
10.08844923971
 20
0.129918325897533
 30
0.0
  0
SPLINE
  5
8F
330
1F
100
AcDbEntity
  8
DEFAULT
100
AcDbSpline
210
0.0
220
0.0
230
1.0
 70
    24
 71
     2
 72
     6
 73
     3
 74
     0
 42
0.000000001
 43
0.0000000001
 40
0.0
 40
0.0
 40
0.0
 40
1.0
 40
1.0
 40
1.0
 10
8.735135000000001
 20
17.54205031551853
 30
0.0
 10
8.703077500000001
 20
17.51962481551853
 30
0.0
 10
8.67102
 20
17.49719931551853
 30
0.0
  0
SPLINE
  5
90
330
1F
100
AcDbEntity
  8
DEFAULT
100
AcDbSpline
210
0.0
220
0.0
230
1.0
 70
     8
 71
     3
 72
    25
 73
    21
 74
     0
 42
0.000000001
 43
0.0000000001
 40
0.0
 40
0.0
 40
0.0
 40
0.0
 40
0.06211029860064
 40
0.112564157818
 40
0.1504722713803
 40
0.1750594843251
 40
0.1822853512478
 40
0.1865238300204
 40
0.1900448928166
 40
0.1962330084342
 40
0.2061584796332
 40
0.2201590373747
 40
0.2608752394412
 40
0.3175307101292
 40
0.3882579731369
 40
0.47113899579
 40
0.564239829283
 40
0.6656199803507
 40
0.7733361631528
 40
1.0
 40
1.0
 40
1.0
 40
1.0
 10
1.66388353432
 20
15.84244539096854
 30
0.0
 10
1.66409117117
 20
15.84244642965853
 30
0.0
 10
1.664467158800001
 20
15.84245137013853
 30
0.0
 10
1.664971027690001
 20
15.84247102976854
 30
0.0
 10
1.665344905240001
 20
15.84250082849853
 30
0.0
 10
1.665580561480002
 20
15.84253761124853
 30
0.0
 10
1.665690241050001
 20
15.84257533090853
 30
0.0
 10
1.665737287500001
 20
15.84261048932854
 30
0.0
 10
1.665717658830001
 20
15.84266163583854
 30
0.0
 10
1.665658336730001
 20
15.84269274927853
 30
0.0
 10
1.665566854730002
 20
15.84273357809854
 30
0.0
 10
1.665359414900003
 20
15.84279681683853
 30
0.0
 10
1.664996666170001
 20
15.84287996545853
 30
0.0
 10
1.66444424593
 20
15.84298431431854
 30
0.0
 10
1.663751106039999
 20
15.84310099481853
 30
0.0
 10
1.662936222140001
 20
15.84322849356854
 30
0.0
 10
1.662019196700001
 20
15.84336573998853
 30
0.0
 10
1.661019531780003
 20
15.84351174570853
 30
0.0
 10
1.659577782870002
 20
15.84372045787853
 30
0.0
 10
1.658471593680002
 20
15.84388159320853
 30
0.0
 10
1.657722182460002
 20
15.84399372976853
 30
0.0
  0
SPLINE
  5
91
330
1F
100
AcDbEntity
  8
DEFAULT
100
AcDbSpline
210
0.0
220
0.0
230
1.0
 70
     8
 71
     2
 72
     8
 73
     5
 74
     0
 42
0.000000001
 43
0.0000000001
 40
0.0
 40
0.0
 40
0.0
 40
1.0
 40
1.0
 40
2.0
 40
2.0
 40
2.0
 10
8.67102
 20
17.49719931551853
 30
0.0
 10
8.4936355
 20
17.37221131551853
 30
0.0
 10
8.316251000000001
 20
17.24722331551853
 30
0.0
 10
8.305071000000002
 20
17.23922881551853
 30
0.0
 10
8.293891
 20
17.23123431551853
 30
0.0
  0
SPLINE
  5
92
330
1F
100
AcDbEntity
  8
DEFAULT
100
AcDbSpline
210
0.0
220
0.0
230
1.0
 70
     8
 71
     2
 72
    16
 73
    13
 74
     0
 42
0.000000001
 43
0.0000000001
 40
0.0
 40
0.0
 40
0.0
 40
1.0
 40
1.0
 40
2.0
 40
2.0
 40
3.0
 40
3.0
 40
4.0
 40
4.0
 40
5.0
 40
5.0
 40
6.0
 40
6.0
 40
6.0
 10
8.807267000000001
 20
17.59126231551853
 30
0.0
 10
8.809027500000001
 20
17.59236231551853
 30
0.0
 10
8.810788
 20
17.59346231551853
 30
0.0
 10
8.811043000000002
 20
17.59362831551853
 30
0.0
 10
8.811298
 20
17.59379431551853
 30
0.0
 10
8.805478
 20
17.58996331551853
 30
0.0
 10
8.799658
 20
17.58613231551853
 30
0.0
 10
8.791311
 20
17.58052031551853
 30
0.0
 10
8.782964000000002
 20
17.57490831551853
 30
0.0
 10
8.772616500000002
 20
17.56784781551853
 30
0.0
 10
8.762269000000002
 20
17.56078731551853
 30
0.0
 10
8.748702000000002
 20
17.55141881551853
 30
0.0
 10
8.735135000000001
 20
17.54205031551853
 30
0.0
  0
ARC
  5
93
330
1F
100
AcDbEntity
  8
DEFAULT
100
AcDbCircle
 10
6.008666000000002
 20
19.77132231551853
 30
0.0
 40
3.412530056981217
100
AcDbArc
 50
297.7700129537295
 51
311.7160278309585
  0
SPLINE
  5
94
330
1F
100
AcDbEntity
  8
DEFAULT
100
AcDbSpline
210
0.0
220
0.0
230
1.0
 70
    12
 71
     3
 72
    65
 73
    61
 74
     0
 42
0.000000001
 43
0.0000000001
 40
0.0
 40
0.0
 40
0.0
 40
0.0
 40
1.000000100883596
 40
2.000000201767192
 40
3.000000302650788
 40
4.000000403534384
 40
5.000000504417979
 40
6.000000605301576
 40
7.000000706185172
 40
8.000000807068767
 40
9.000000907952364
 40
10.00000100883596
 40
11.00000110971956
 40
12.0
 40
12.0
 40
12.0
 40
13.0
 40
13.0
 40
13.0
 40
15.2306005269798
 40
15.2306005269798
 40
15.2306005269798
 40
16.2306005269798
 40
17.2306005269798
 40
18.2306005269798
 40
19.2306005269798
 40
20.2306005269798
 40
20.2306005269798
 40
20.2306005269798
 40
21.2306005269798
 40
21.2306005269798
 40
21.2306005269798
 40
22.23054427606522
 40
23.23055833879387
 40
24.23057240152251
 40
25.23058646425115
 40
26.2306005269798
 40
26.2306005269798
 40
26.2306005269798
 40
27.2306005269798
 40
27.2306005269798
 40
27.2306005269798
 40
28.23059988134464
 40
29.23060004275343
 40
30.23060020416222
 40
31.23060036557101
 40
32.2306005269798
 40
32.2306005269798
 40
32.2306005269798
 40
36.80877567556838
 40
36.80877567556838
 40
36.80877567556838
 40
37.16773120164449
 40
37.32495517572358
 40
37.46507002788548
 40
37.58628201512099
 40
37.68648672216899
 40
37.76265006081408
 40
37.79008846697648
 40
37.80877567556838
 40
37.80877567556838
 40
37.80877567556838
 40
37.80877567556838
 10
1.800084857100163
 20
15.86223669955403
 30
0.0
 41
1.0
 10
1.75622752423503
 20
15.84627473537339
 30
0.0
 41
1.0
 10
1.660556131952426
 20
15.8308056160336
 30
0.0
 41
1.0
 10
1.524748266115432
 20
15.88435132745512
 30
0.0
 41
1.0
 10
1.433735291734001
 20
15.99659868830483
 30
0.0
 41
1.0
 10
1.396586561663012
 20
16.1349537463846
 30
0.0
 41
1.0
 10
1.409610831881603
 20
16.27690525852702
 30
0.0
 41
1.0
 10
1.479196167660099
 20
16.40535623624585
 30
0.0
 41
1.0
 10
1.607692285973753
 20
16.47227934586723
 30
0.0
 41
1.0
 10
1.747348446990119
 20
16.49275230970164
 30
0.0
 41
1.0
 10
1.886512308321081
 20
16.51227984910396
 30
0.0
 41
1.0
 10
2.026268547280944
 20
16.52856107340174
 30
0.0
 41
1.0
 10
2.166076875772647
 20
16.54389151977154
 30
0.0
 41
1.0
 10
2.259363744225334
 20
16.55345394655973
 30
0.0
 41
1.0
 10
2.306015176740001
 20
16.55813025956853
 30
0.0
 41
1.0
 10
3.057910117826668
 20
16.63344627821853
 30
0.0
 41
1.0
 10
3.809805058913335
 20
16.70876229686853
 30
0.0
 41
1.0
 10
4.561700000000002
 20
16.78407831551853
 30
0.0
 41
1.0
 10
5.301531254025677
 20
16.85818591129755
 30
0.0
 41
0.999999744544235
 10
6.041427100151608
 20
16.93164581265988
 30
0.0
 41
0.999999744544235
 10
6.781386971320906
 20
17.00445796330586
 30
0.0
 41
1.0
 10
6.920689490475531
 20
17.0107280112109
 30
0.0
 41
1.0
 10
7.201322729418839
 20
16.97620715975069
 30
0.0
 41
1.0
 10
7.582716845091909
 20
16.79152429268936
 30
0.0
 41
1.0
 10
7.888728909376812
 20
16.4994698456407
 30
0.0
 41
1.0
 10
8.099387899108224
 20
16.13349132371873
 30
0.0
 41
1.0
 10
8.170685464888496
 20
15.86144445521619
 30
0.0
 41
1.0
 10
8.190588000000002
 20
15.70888531551853
 30
0.0
 41
1.0
 10
8.823208206618334
 20
10.51589148391503
 30
0.0
 41
1.0
 10
9.455828413236668
 20
5.322897652311533
 30
0.0
 41
1.0
 10
10.088448619855
 20
0.1299038207080337
 30
0.0
 41
1.0
 10
10.05432453173356
 20
0.1064068481475861
 30
0.0
 41
1.0
 10
9.967966757000143
 20
0.0918955253395414
 30
0.0
 41
1.0
 10
9.843141979149987
 20
0.0699724380272129
 30
0.0
 41
1.0
 10
9.715729957781114
 20
0.0544541393858269
 30
0.0
 41
1.0
 10
9.589273632400461
 20
0.0457468118003575
 30
0.0
 41
1.0
 10
9.501999562406205
 20
0.0391286250147686
 30
0.0
 41
1.0
 10
9.463149320030002
 20
0.0536999392985332
 30
0.0
 41
1.0
 10
8.830529274825002
 20
5.246703343298534
 30
0.0
 41
1.0
 10
8.197909229620002
 20
10.43970674729854
 30
0.0
 41
1.0
 10
7.565289184415001
 20
15.63271015129853
 30
0.0
 41
1.0
 10
7.555999963411897
 20
15.70871227657826
 30
0.0
 41
1.0
 10
7.520391282157349
 20
15.85872430322909
 30
0.0
 41
1.0
 10
7.414849163993599
 20
16.06485170283864
 30
0.0
 41
1.0
 10
7.258046471805754
 20
16.23590816344207
 30
0.0
 41
1.0
 10
7.055759956616616
 20
16.35173879970431
 30
0.0
 41
1.0
 10
6.902156723923204
 20
16.37668018590677
 30
0.0
 41
1.0
 10
6.825630999999975
 20
16.3764413155187
 30
0.0
 41
1.0
 10
5.306500343853722
 20
16.2311479741871
 30
0.0
 41
0.9999940238971478
 10
3.787998502697209
 20
16.07942367198707
 30
0.0
 41
0.9999940238971478
 10
2.270152700698418
 20
15.92127112907849
 30
0.0
 41
1.0
 10
2.212573471990002
 20
15.91527163859853
 30
0.0
 41
1.0
 10
2.129804580150001
 20
15.90634289431853
 30
0.0
 41
1.0
 10
2.024668330520001
 20
15.89411326000853
 30
0.0
 41
1.0
 10
1.95767037177
 20
15.88587310200854
 30
0.0
 41
1.0
 10
1.89985935752
 20
15.87828106193853
 30
0.0
 41
1.0
 10
1.852345535520001
 20
15.87151345274853
 30
0.0
 41
1.0
 10
1.81987441515
 20
15.86639715532854
 30
0.0
 41
1.0
 10
1.800454549360001
 20
15.86295356971853
 30
0.0
 41
1.0
 10
1.793151589460003
 20
15.86153456543854
 30
0.0
 41
1.0
 10
1.790201050629999
 20
15.86092030902853
 30
0.0
 41
1.0
  0
SPLINE
  5
95
330
1F
100
AcDbEntity
  8
DEFAULT
100
AcDbSpline
210
0.0
220
0.0
230
1.0
 70
    12
 71
     3
 72
    49
 73
    45
 74
     0
 42
0.000000001
 43
0.0000000001
 40
0.0
 40
0.0
 40
0.0
 40
0.0
 40
1.000000045862644
 40
2.000000091725287
 40
3.000000137587931
 40
4.000000183450575
 40
5.0
 40
5.0
 40
5.0
 40
6.0
 40
6.0
 40
6.0
 40
6.999991880246742
 40
7.999993910185056
 40
8.999995940123371
 40
9.999997970061685
 40
11.0
 40
11.0
 40
11.0
 40
12.0
 40
12.0
 40
12.0
 40
13.0
 40
14.0
 40
15.0
 40
16.0
 40
17.0
 40
17.0
 40
17.0
 40
18.97873152136726
 40
18.97873152136726
 40
18.97873152136726
 40
19.97873152136726
 40
20.97873152136726
 40
21.97873152136726
 40
22.97873152136726
 40
23.97873152136726
 40
23.97873152136726
 40
23.97873152136726
 40
24.97873152136726
 40
25.97873152136726
 40
26.97873152136726
 40
27.97873152136726
 40
28.97873152136726
 40
28.97873152136726
 40
28.97873152136726
 40
28.97873152136726
 10
6.345538618950002
 20
16.33063615874853
 30
0.0
 41
1.0
 10
6.43957101481088
 20
16.30514959734792
 30
0.0
 41
1.0
 10
6.621201834727407
 20
16.2302428460209
 30
0.0
 41
1.0
 10
6.856190523277522
 20
16.05244416444664
 30
0.0
 41
1.0
 10
7.039825127887914
 20
15.82225826070496
 30
0.0
 41
1.0
 10
7.16493804498569
 20
15.55606377587379
 30
0.0
 41
1.0
 10
7.208587461974914
 20
15.3650778287988
 30
0.0
 41
1.0
 10
7.220917034370001
 20
15.26844425234353
 30
0.0
 41
1.0
 10
7.862192354256667
 20
10.23509779102537
 30
0.0
 41
1.0
 10
8.503467674143334
 20
5.2017513297072
 30
0.0
 41
1.0
 10
9.14474299403
 20
0.1684048683890335
 30
0.0
 41
1.0
 10
9.1411068076934
 20
0.1176812727924285
 30
0.0
 41
1.0
 10
9.051461816765645
 20
0.0651441707153163
 30
0.0
 41
1.0
 10
8.918383409984502
 20
0.0241446602303888
 30
0.0
 41
1.0
 10
8.775173672119383
 20
0.005879195065555
 30
0.0
 41
1.0
 10
8.6360663713628
 20
0.012223784520939
 30
0.0
 41
1.0
 10
8.536102175884347
 20
0.0406104184513833
 30
0.0
 41
1.0
 10
8.51987341964
 20
0.0887897656830338
 30
0.0
 41
1.0
 10
7.878597926631667
 20
5.122137290743201
 30
0.0
 41
1.0
 10
7.237322433623333
 20
10.15548481580337
 30
0.0
 41
1.0
 10
6.596046940615
 20
15.18883234086353
 30
0.0
 41
1.0
 10
6.588572817310438
 20
15.2472931742444
 30
0.0
 41
1.0
 10
6.561653522858655
 20
15.36286451168939
 30
0.0
 41
1.0
 10
6.48032059013371
 20
15.52170867896033
 30
0.0
 41
1.0
 10
6.355450293099982
 20
15.65029835710561
 30
0.0
 41
1.0
 10
6.194252010964347
 20
15.7293384627749
 30
0.0
 41
1.0
 10
6.075560790555603
 20
15.74322533355113
 30
0.0
 41
1.0
 10
6.016679007209024
 20
15.74166505050097
 30
0.0
 41
1.0
 10
5.357342697071585
 20
15.7238417275228
 30
0.0
 41
0.9999999998970276
 10
4.698006694600839
 20
15.70600681585821
 30
0.0
 41
0.9999999998970276
 10
4.038671005699143
 20
15.68816031567258
 30
0.0
 41
1.0
 10
3.889693979975465
 20
15.6841278955233
 30
0.0
 41
1.0
 10
3.591739113038396
 20
15.67608443971908
 30
0.0
 41
1.0
 10
3.144810029703223
 20
15.66393906845855
 30
0.0
 41
1.0
 10
2.697870270945536
 20
15.65205028707113
 30
0.0
 41
1.0
 10
2.250970194972604
 20
15.63921533910575
 30
0.0
 41
1.0
 10
1.952934206356514
 20
15.6331593130301
 30
0.0
 41
1.0
 10
1.80390292473
 20
15.63539513312853
 30
0.0
 41
1.0
 10
1.771333714890233
 20
15.63609477035648
 30
0.0
 41
1.0
 10
1.70628659585667
 20
15.63768850210738
 30
0.0
 41
1.0
 10
1.608789166318221
 20
15.64992477011584
 30
0.0
 41
1.0
 10
1.518418850149572
 20
15.69026379895692
 30
0.0
 41
1.0
 10
1.444296913760862
 20
15.7555675261042
 30
0.0
 41
1.0
 10
1.410436141850032
 20
15.81214438740943
 30
0.0
 41
1.0
 10
1.39818514117
 20
15.84231062786854
 30
0.0
 41
1.0
  0
SPLINE
  5
96
330
1F
100
AcDbEntity
  8
DEFAULT
100
AcDbSpline
210
0.0
220
0.0
230
1.0
 70
     8
 71
     3
 72
    16
 73
    12
 74
     0
 42
0.000000001
 43
0.0000000001
 40
0.0
 40
0.0
 40
0.0
 40
0.0
 40
1.0
 40
2.0
 40
3.0
 40
4.0
 40
5.0
 40
6.0
 40
7.0
 40
8.0
 40
9.0
 40
9.0
 40
9.0
 40
9.0
 10
11.70308388928
 20
26.45671283619853
 30
0.0
 10
11.72786391495525
 20
26.78553128555027
 30
0.0
 10
11.71455123282029
 20
27.44867210333325
 30
0.0
 10
11.47065355739071
 20
28.41581317788057
 30
0.0
 10
10.99903912263881
 20
29.29003407844856
 30
0.0
 10
10.56503451112614
 20
30.1782759051159
 30
0.0
 10
10.12119775482685
 20
31.06299311509759
 30
0.0
 10
9.680776855410521
 20
31.94863604742172
 30
0.0
 10
9.237138927257755
 20
32.83440600196057
 30
0.0
 10
8.801801118037877
 20
33.71816772721212
 30
0.0
 10
8.49082280352854
 20
34.31223107711098
 30
0.0
 10
8.20900656192
 20
34.50074901900854
 30
0.0
  0
SPLINE
  5
97
330
1F
100
AcDbEntity
  8
DEFAULT
100
AcDbSpline
210
0.0
220
0.0
230
1.0
 70
    12
 71
     3
 72
    31
 73
    27
 74
     0
 42
0.000000001
 43
0.0000000001
 40
2.012705496849823
 40
2.012705496849823
 40
2.012705496849823
 40
2.012705496849823
 40
2.094792848731041
 40
2.094792848731041
 40
2.094792848731041
 40
2.144191613548935
 40
2.144191613548935
 40
2.144191613548935
 40
3.144246655663034
 40
4.144301697777133
 40
5.144356739891232
 40
6.144411782005331
 40
7.144191613548935
 40
7.144191613548935
 40
7.144191613548935
 40
7.215104587185931
 40
7.215104587185931
 40
7.215104587185931
 40
8.215105605096541
 40
9.21510662300715
 40
10.21510764091776
 40
11.21510865882837
 40
12.21510458718593
 40
12.21510458718593
 40
12.21510458718593
 40
12.31403255254289
 40
12.31403255254289
 40
12.31403255254289
 40
12.31403255254289
 10
11.26588863568
 20
26.49428466332853
 30
0.0
 41
1.0
 10
11.29045718170787
 20
26.4822274292689
 30
0.0
 41
0.999617316403944
 10
11.31460314936405
 20
26.46934478229558
 30
0.0
 41
0.999617316403944
 10
11.33829881785133
 20
26.45565151234159
 30
0.0
 41
1.0
 10
11.70754108715279
 20
26.2422735240952
 30
0.0
 41
0.9997966571741226
 10
12.0714009636254
 20
26.01984149043028
 30
0.0
 41
0.9997966571741226
 10
12.42965648238264
 20
25.78849110122171
 30
0.0
 41
1.0
 10
12.45595069781788
 20
25.74982210862568
 30
0.0
 41
1.0
 10
12.43255481253363
 20
25.65554876637822
 30
0.0
 41
1.0
 10
12.3934715979871
 20
25.5279092085772
 30
0.0
 41
1.0
 10
12.34218675117145
 20
25.4010610800177
 30
0.0
 41
1.0
 10
12.28713394311035
 20
25.27691066620496
 30
0.0
 41
1.0
 10
12.24788910896306
 20
25.1950947713348
 30
0.0
 41
1.0
 10
12.22787922494391
 20
25.15443375377851
 30
0.0
 41
1.0
 10
11.28878102291292
 20
23.24948511717955
 30
0.0
 41
0.9995809897472526
 10
10.28274442347392
 20
21.37902391690642
 30
0.0
 41
0.9995809897472526
 10
9.211034045576312
 20
19.54540138021996
 30
0.0
 41
1.0
 10
9.121634684055488
 20
19.39228441135833
 30
0.0
 41
1.0
 10
8.919671477025105
 20
19.10000927117242
 30
0.0
 41
1.0
 10
8.545620986280484
 20
18.7176881690115
 30
0.0
 41
1.0
 10
8.079804154046272
 20
18.44883552423821
 30
0.0
 41
1.0
 10
7.559258380849
 20
18.32516363316724
 30
0.0
 41
1.0
 10
7.206268980321092
 20
18.29269050611171
 30
0.0
 41
1.0
 10
7.029995422489967
 20
18.27458854663388
 30
0.0
 41
1.0
 10
4.693367035886075
 20
18.04253452570725
 30
0.0
 41
0.9991846044109206
 10
2.348122927996088
 20
17.92629614943452
 30
0.0
 41
0.9991846044109206
 10
0.0000000039226695
 20
17.92615775859355
 30
0.0
 41
1.0
  0
SPLINE
  5
98
330
1F
100
AcDbEntity
  8
DEFAULT
100
AcDbSpline
210
0.0
220
0.0
230
1.0
 70
     8
 71
     3
 72
    30
 73
    26
 74
     0
 42
0.000000001
 43
0.0000000001
 40
0.0
 40
0.0
 40
0.0
 40
0.0
 40
1.0
 40
2.0
 40
3.0
 40
4.0
 40
5.0
 40
6.0
 40
7.0
 40
8.0
 40
9.0
 40
9.0
 40
9.0
 40
10.0
 40
11.0
 40
12.0
 40
13.0
 40
14.0
 40
14.0
 40
14.0
 40
15.0
 40
16.0
 40
17.0
 40
18.0
 40
19.0
 40
19.0
 40
19.0
 40
19.0
 10
11.64221120372
 20
26.46192207048853
 30
0.0
 10
11.6753022196118
 20
26.78910035420827
 30
0.0
 10
11.67630532772293
 20
27.45008190991878
 30
0.0
 10
11.45379429721657
 20
28.42047629728834
 30
0.0
 10
10.98317478399019
 20
29.29252058905191
 30
0.0
 10
10.54672286255136
 20
30.176031410278
 30
0.0
 10
10.10123837555941
 20
31.05662669354777
 30
0.0
 10
9.658254246610579
 20
31.93769204072913
 30
0.0
 10
9.214036397485893
 20
32.81965766484035
 30
0.0
 10
8.772690483573045
 20
33.69777207281801
 30
0.0
 10
8.474122508023255
 20
34.29410652061932
 30
0.0
 10
8.207684263009416
 20
34.49906436620172
 30
0.0
 10
8.133464324438695
 20
34.5591761206708
 30
0.0
 10
7.974245366325387
 20
34.66614861995969
 30
0.0
 10
7.710847986960578
 20
34.78162594651739
 30
0.0
 10
7.432190353492165
 20
34.85215726673557
 30
0.0
 10
7.146660663907427
 20
34.8819585792521
 30
0.0
 10
6.955467645419356
 20
34.88244663246767
 30
0.0
 10
6.859988676235001
 20
34.87985249754853
 30
0.0
 10
6.402909348235932
 20
34.86138299212135
 30
0.0
 10
5.488563081730941
 20
34.82943225128122
 30
0.0
 10
4.116713779280229
 20
34.79242853984282
 30
0.0
 10
2.74460395335695
 20
34.766688128419
 30
0.0
 10
1.372340034239146
 20
34.75142725057983
 30
0.0
 10
0.4574467819131831
 20
34.74805427140318
 30
0.0
 10
0.0000003854600017
 20
34.74805454712853
 30
0.0
  0
SPLINE
  5
99
330
1F
100
AcDbEntity
  8
DEFAULT
100
AcDbSpline
210
0.0
220
0.0
230
1.0
 70
    12
 71
     3
 72
    34
 73
    30
 74
     0
 42
0.000000001
 43
0.0000000001
 40
0.0
 40
0.0
 40
0.0
 40
0.0
 40
1.00564010314658
 40
1.00564010314658
 40
1.00564010314658
 40
1.011187619113542
 40
1.011187619113542
 40
1.011187619113542
 40
2.011187619113541
 40
2.011187619113541
 40
2.011187619113541
 40
3.011194674703531
 40
4.01120173029352
 40
5.011208785883509
 40
6.011215841473499
 40
7.011187619113541
 40
7.011187619113541
 40
7.011187619113541
 40
7.096245867337702
 40
7.096245867337702
 40
7.096245867337702
 40
8.09624657987549
 40
9.09624729241328
 40
10.09624800495107
 40
11.09624871748886
 40
12.0962458673377
 40
12.0962458673377
 40
12.0962458673377
 40
12.19759609350996
 40
12.19759609350996
 40
12.19759609350996
 40
12.19759609350996
 10
11.27825
 20
26.49323231551853
 30
0.0
 41
1.0
 10
11.69254623500023
 20
26.45749924094679
 30
0.0
 41
1.0
 10
12.10684247000045
 20
26.42176616637505
 30
0.0
 41
1.0
 10
12.52113870500068
 20
26.38603309180331
 30
0.0
 41
1.0
 10
12.52305028973679
 20
26.38481677154172
 30
0.0
 41
1.0
 10
12.52496187447289
 20
26.38360045128013
 30
0.0
 41
1.0
 10
12.526873459209
 20
26.38238413101853
 30
0.0
 41
1.0
 10
12.8715018244176
 20
26.16310090731355
 30
0.0
 41
0.9997244872127474
 10
13.20968411609421
 20
25.93400140949401
 30
0.0
 41
0.9997244872127474
 10
13.5411408136015
 20
25.69527499708354
 30
0.0
 41
1.0
 10
13.56584029677801
 20
25.65552781476487
 30
0.0
 41
1.0
 10
13.54242112908766
 20
25.56141531622348
 30
0.0
 41
1.0
 10
13.503060458932
 20
25.43294365890265
 30
0.0
 41
1.0
 10
13.45180055462878
 20
25.30546298962427
 30
0.0
 41
1.0
 10
13.39677328546665
 20
25.18056480743318
 30
0.0
 41
1.0
 10
13.35757565457135
 20
25.09824424061015
 30
0.0
 41
1.0
 10
13.33753143370784
 20
25.05734764932803
 30
0.0
 41
1.0
 10
12.29664763267688
 20
22.92719773727435
 30
0.0
 41
0.9993971820700294
 10
11.1661389240986
 20
20.84322849688245
 30
0.0
 41
0.9993971820700294
 10
9.948049780731552
 20
18.80920869022317
 30
0.0
 41
1.0
 10
9.851661883884004
 20
18.64833044394019
 30
0.0
 41
1.0
 10
9.645618420346274
 20
18.33407998192774
 30
0.0
 41
1.0
 10
9.271210050863557
 20
17.91121586911444
 30
0.0
 41
1.0
 10
8.818471020856059
 20
17.57123007664228
 30
0.0
 41
1.0
 10
8.298593305720573
 20
17.34611534312241
 30
0.0
 41
1.0
 10
7.928288335246274
 20
17.27491472713419
 30
0.0
 41
1.0
 10
7.741756808546568
 20
17.25591011728952
 30
0.0
 41
1.0
 10
5.168892621181347
 20
16.994632771394
 30
0.0
 41
0.9991441941348612
 10
2.586096649189319
 20
16.8640152183371
 30
0.0
 41
0.9991441941348612
 10
0.0000000083943461
 20
16.8643928079228
 30
0.0
 41
1.0
  0
SPLINE
  5
9A
330
1F
100
AcDbEntity
  8
DEFAULT
100
AcDbSpline
210
0.0
220
0.0
230
1.0
 70
     8
 71
     3
 72
    22
 73
    18
 74
     0
 42
0.000000001
 43
0.0000000001
 40
0.0
 40
0.0
 40
0.0
 40
0.0
 40
1.0
 40
2.0
 40
3.0
 40
4.0
 40
5.0
 40
5.0
 40
5.0
 40
6.0
 40
6.0
 40
6.0
 40
7.0
 40
8.0
 40
9.0
 40
10.0
 40
11.0
 40
11.0
 40
11.0
 40
11.0
 10
7.10486521662
 20
18.28148371851853
 30
0.0
 10
7.218127056367689
 20
18.35097030881759
 30
0.0
 10
7.435019372226384
 20
18.50548282690104
 30
0.0
 10
7.726308025512394
 20
18.77913797212197
 30
0.0
 10
7.972941915819908
 20
19.09376673953486
 30
0.0
 10
8.170518783486267
 20
19.44093642784499
 30
0.0
 10
8.277041686977919
 20
19.6846225241219
 30
0.0
 10
8.32800018822
 20
19.80730720913853
 30
0.0
 10
9.138307384443335
 20
21.75996094444186
 30
0.0
 10
9.948614580666668
 20
23.7126146797452
 30
0.0
 10
10.75892177689
 20
25.66526841504853
 30
0.0
 10
10.78421272200375
 20
25.72618867291448
 30
0.0
 10
10.83645419968383
 20
25.84743977757342
 30
0.0
 10
10.92088181086988
 20
26.02623627885337
 30
0.0
 10
11.0127065248683
 20
26.20250827579074
 30
0.0
 10
11.1177392111115
 20
26.36735254602431
 30
0.0
 10
11.20029456906533
 20
26.47844354340969
 30
0.0
 10
11.26588863568
 20
26.49428466332853
 30
0.0
  0
SPLINE
  5
9B
330
1F
100
AcDbEntity
  8
DEFAULT
100
AcDbSpline
210
0.0
220
0.0
230
1.0
 70
    12
 71
     3
 72
    91
 73
    87
 74
     0
 42
0.000000001
 43
0.0000000001
 40
-5.0
 40
-5.0
 40
-5.0
 40
-5.0
 40
-3.999989424793471
 40
-2.999978849586943
 40
-1.999968274380414
 40
-0.9999576991738852
 40
0.0
 40
0.0
 40
0.0
 40
0.1042175983470042
 40
0.1042175983470042
 40
0.1042175983470042
 40
1.104218100385784
 40
2.104218602424564
 40
3.104219104463343
 40
4.104219606502123
 40
5.104217598347004
 40
5.104217598347004
 40
5.104217598347004
 40
5.120597557503681
 40
5.120597557503681
 40
5.120597557503681
 40
6.120596649014718
 40
7.120596876136959
 40
8.1205971032592
 40
9.12059733038144
 40
10.12059755750368
 40
10.12059755750368
 40
10.12059755750368
 40
11.12059755750368
 40
11.12059755750368
 40
11.12059755750368
 40
12.12059763542501
 40
13.12059771334634
 40
14.12059779126767
 40
15.120597869189
 40
16.12059755750368
 40
16.12059755750368
 40
16.12059755750368
 40
16.18623599899838
 40
16.18623599899838
 40
16.18623599899838
 40
16.20582546148898
 40
16.20582546148898
 40
16.20582546148898
 40
16.22541492397958
 40
16.22541492397958
 40
16.22541492397958
 40
16.29105336547428
 40
16.29105336547428
 40
16.29105336547428
 40
17.29105305378896
 40
18.29105313171029
 40
19.29105320963162
 40
20.29105328755295
 40
21.29105336547428
 40
21.29105336547428
 40
21.29105336547428
 40
22.29105336547428
 40
22.29105336547428
 40
22.29105336547428
 40
23.29105359259652
 40
24.29105381971877
 40
25.291054046841
 40
26.29105427396324
 40
27.29105336547428
 40
27.29105336547428
 40
27.29105336547428
 40
27.30743332463096
 40
27.30743332463096
 40
27.30743332463096
 40
28.30743131647584
 40
29.30743181851462
 40
30.3074323205534
 40
31.30743282259218
 40
32.30743332463096
 40
32.30743332463096
 40
32.30743332463096
 40
32.41165092297797
 40
32.41165092297797
 40
32.41165092297797
 40
33.41160862215185
 40
34.41161919735838
 40
35.41162977256491
 40
36.41164034777144
 40
37.41165092297797
 40
37.41165092297797
 40
37.41165092297797
 40
37.41165092297797
 10
-7.840435420250001
 20
45.23740290757708
 30
0.0
 41
1.0
 10
-7.994148244273659
 20
45.2536672395665
 30
0.0
 41
1.0
 10
-8.30092041161623
 20
45.29386599873428
 30
0.0
 41
1.0
 10
-8.753795264253228
 20
45.39719176774108
 30
0.0
 41
1.0
 10
-9.18925218599208
 20
45.56047904850407
 30
0.0
 41
1.0
 10
-9.592939855497987
 20
45.79191793643794
 30
0.0
 41
1.0
 10
-9.83439558666326
 20
45.98639883494094
 30
0.0
 41
1.0
 10
-9.948037525488012
 20
46.09115111150059
 30
0.0
 41
1.0
 10
-11.13767207900757
 20
47.18861037219571
 30
0.0
 41
0.9990950958032637
 10
-12.26853046720927
 20
48.3465423674558
 30
0.0
 41
0.9990950958032637
 10
-13.33754273458892
 20
49.5618036447147
 30
0.0
 41
1.0
 10
-13.38253109524717
 20
49.6130342940741
 30
0.0
 41
1.0
 10
-13.45296804790414
 20
49.73088436730634
 30
0.0
 41
1.0
 10
-13.51704579925334
 20
49.92558140367814
 30
0.0
 41
1.0
 10
-13.55034661338084
 20
50.12745278513965
 30
0.0
 41
1.0
 10
-13.55854947328518
 20
50.33176142430871
 30
0.0
 41
1.0
 10
-13.54925349801022
 20
50.46772508250642
 30
0.0
 41
1.0
 10
-13.54114452735462
 20
50.53528620523839
 30
0.0
 41
1.0
 10
-13.22458418317681
 20
53.16652051280637
 30
0.0
 41
0.9999776415364785
 10
-12.88648494136881
 20
55.79507398106946
 30
0.0
 41
0.9999776415364785
 10
-12.52686948006931
 20
58.42077029877717
 30
0.0
 41
1.0
 10
-12.51487310669808
 20
58.50821939085309
 30
0.0
 41
1.0
 10
-12.48328942839667
 20
58.68207204143816
 30
0.0
 41
1.0
 10
-12.41545263531465
 20
58.93819215799307
 30
0.0
 41
1.0
 10
-12.32624753825183
 20
59.18804729088899
 30
0.0
 41
1.0
 10
-12.2096395514227
 20
59.42562653910606
 30
0.0
 41
1.0
 10
-12.10046480049454
 20
59.56869290188594
 30
0.0
 41
1.0
 10
-12.023111158335
 20
59.61351959326709
 30
0.0
 41
1.0
 10
-11.134580729305
 20
60.08377140468209
 30
0.0
 41
1.0
 10
-10.246050300275
 20
60.55402321609709
 30
0.0
 41
1.0
 10
-9.357519871245001
 20
61.02427502751209
 30
0.0
 41
1.0
 10
-9.153050160148606
 20
61.13269668688517
 30
0.0
 41
1.0
 10
-8.728567532031333
 20
61.32089850483551
 30
0.0
 41
1.0
 10
-8.058664067748005
 20
61.50808084496488
 30
0.0
 41
1.0
 10
-7.377360277565893
 20
61.6433700916037
 30
0.0
 41
1.0
 10
-6.690841669001729
 20
61.74879684896774
 30
0.0
 41
1.0
 10
-6.230628521314618
 20
61.80003117330953
 30
0.0
 41
1.0
 10
-6.000004502229068
 20
61.8198918579681
 30
0.0
 41
1.0
 10
-4.461266126629086
 20
61.95132391154898
 30
0.0
 41
0.9996413723352203
 10
-2.919045024570442
 20
62.03222042332528
 30
0.0
 41
0.9996413723352203
 10
-1.37500044551035
 20
62.06249435811566
 30
0.0
 41
1.0
 10
-0.9167176432437523
 20
62.07140123109718
 30
0.0
 41
0.9999676440842528
 10
-0.4583693311275976
 20
62.07579258850814
 30
0.0
 41
0.9999676440842528
 10
-0.0000000000000002
 20
62.0756680040894
 30
0.0
 41
1.0
 10
0.4583693311275976
 20
62.07579258850814
 30
0.0
 41
0.9999676440842528
 10
0.916717643243752
 20
62.07140123109718
 30
0.0
 41
0.9999676440842528
 10
1.375000445510354
 20
62.06249435811565
 30
0.0
 41
1.0
 10
2.919045024570442
 20
62.03222042332528
 30
0.0
 41
0.9996413723352203
 10
4.461266126629086
 20
61.95132391154898
 30
0.0
 41
0.9996413723352203
 10
6.000004502229065
 20
61.81989185796811
 30
0.0
 41
1.0
 10
6.230628521314618
 20
61.80003117330953
 30
0.0
 41
1.0
 10
6.690841669001729
 20
61.74879684896774
 30
0.0
 41
1.0
 10
7.377360277565893
 20
61.6433700916037
 30
0.0
 41
1.0
 10
8.058664067748005
 20
61.50808084496488
 30
0.0
 41
1.0
 10
8.728567532031333
 20
61.32089850483551
 30
0.0
 41
1.0
 10
9.153050160148606
 20
61.13269668688517
 30
0.0
 41
1.0
 10
9.357519871245001
 20
61.02427502751209
 30
0.0
 41
1.0
 10
10.246050300275
 20
60.55402321609709
 30
0.0
 41
1.0
 10
11.134580729305
 20
60.08377140468209
 30
0.0
 41
1.0
 10
12.023111158335
 20
59.61351959326709
 30
0.0
 41
1.0
 10
12.10046480049454
 20
59.56869290188594
 30
0.0
 41
1.0
 10
12.2096395514227
 20
59.42562653910606
 30
0.0
 41
1.0
 10
12.32624753825183
 20
59.18804729088899
 30
0.0
 41
1.0
 10
12.41545263531465
 20
58.93819215799307
 30
0.0
 41
1.0
 10
12.48328942839667
 20
58.68207204143816
 30
0.0
 41
1.0
 10
12.51487310669808
 20
58.50821939085309
 30
0.0
 41
1.0
 10
12.52686948006931
 20
58.42077029877717
 30
0.0
 41
1.0
 10
12.88648494136881
 20
55.79507398106948
 30
0.0
 41
0.9999776415364785
 10
13.22458418317681
 20
53.16652051280637
 30
0.0
 41
0.9999776415364785
 10
13.54114452735462
 20
50.53528620523839
 30
0.0
 41
1.0
 10
13.54925349801022
 20
50.46772508250642
 30
0.0
 41
1.0
 10
13.55854947328518
 20
50.33176142430871
 30
0.0
 41
1.0
 10
13.55034661338084
 20
50.12745278513965
 30
0.0
 41
1.0
 10
13.51704579925334
 20
49.92558140367814
 30
0.0
 41
1.0
 10
13.45296804790414
 20
49.73088436730634
 30
0.0
 41
1.0
 10
13.38253109524717
 20
49.6130342940741
 30
0.0
 41
1.0
 10
13.33754273458892
 20
49.5618036447147
 30
0.0
 41
1.0
 10
12.26853046720927
 20
48.3465423674558
 30
0.0
 41
0.9990950958032637
 10
11.13767207900757
 20
47.18861037219571
 30
0.0
 41
0.9990950958032637
 10
9.948037525488012
 20
46.09115111150059
 30
0.0
 41
1.0
 10
9.83439558666326
 20
45.98639883494094
 30
0.0
 41
1.0
 10
9.592939855497987
 20
45.79191793643794
 30
0.0
 41
1.0
 10
9.18925218599208
 20
45.56047904850407
 30
0.0
 41
1.0
 10
8.753795264253228
 20
45.39719176774108
 30
0.0
 41
1.0
 10
8.30092041161623
 20
45.29386599873428
 30
0.0
 41
1.0
 10
7.994148244273659
 20
45.2536672395665
 30
0.0
 41
1.0
 10
7.840435420250001
 20
45.23740290757708
 30
0.0
 41
1.0
  0
ARC
  5
9C
330
1F
100
AcDbEntity
  8
DEFAULT
100
AcDbCircle
 10
-9.773844210856874
 20
46.18195923665017
 30
0.0
 40
0.3149038803511576
100
AcDbArc
 50
173.2472542235591
 51
285.0932174123157
  0
SPLINE
  5
9D
330
1F
100
AcDbEntity
  8
DEFAULT
100
AcDbSpline
210
0.0
220
0.0
230
1.0
 70
    24
 71
     2
 72
     6
 73
     3
 74
     0
 42
0.000000001
 43
0.0000000001
 40
0.0
 40
0.0
 40
0.0
 40
1.0
 40
1.0
 40
1.0
 10
1.375
 20
62.46115578086709
 30
0.0
 10
1.375
 20
62.26183378086709
 30
0.0
 10
1.375
 20
62.0625117808671
 30
0.0
  0
SPLINE
  5
9E
330
1F
100
AcDbEntity
  8
DEFAULT
100
AcDbSpline
210
0.0
220
0.0
230
1.0
 70
    11
 71
     3
 72
    85
 73
    81
 74
     0
 42
0.000000001
 43
0.0000000001
 40
0.0
 40
0.0
 40
0.0
 40
0.0
 40
1.0
 40
2.0
 40
3.0
 40
4.0
 40
5.0
 40
5.0
 40
5.0
 40
5.999999987260341
 40
6.999999990445255
 40
7.999999993630171
 40
8.999999996815085
 40
10.0
 40
10.0
 40
10.0
 40
11.0
 40
12.0
 40
13.0
 40
14.0
 40
15.0
 40
16.0
 40
17.0
 40
18.0
 40
19.0
 40
20.0
 40
21.0
 40
22.0
 40
23.0
 40
24.0
 40
25.0
 40
26.0
 40
27.0
 40
27.0
 40
27.0
 40
28.0
 40
29.0
 40
30.0
 40
31.0
 40
32.0
 40
32.0
 40
32.0
 40
33.0
 40
34.0
 40
35.0
 40
36.0
 40
37.0
 40
37.0
 40
37.0
 40
38.0
 40
39.0
 40
40.0
 40
41.0
 40
42.0
 40
43.0
 40
44.0
 40
45.0
 40
46.0
 40
47.0
 40
48.0
 40
49.0
 40
50.0
 40
51.0
 40
52.0
 40
53.0
 40
54.0
 40
54.0
 40
54.0
 40
55.00000000318492
 40
56.00000000636983
 40
57.00000000955475
 40
58.00000001273966
 40
59.0
 40
59.0
 40
59.0
 40
60.0
 40
61.0
 40
62.0
 40
63.0
 40
64.0
 40
64.0
 40
64.0
 40
64.0
 10
0.0
 20
66.79462123210709
 30
0.0
 10
0.4642709303406531
 20
66.79462057144544
 30
0.0
 10
1.392809763928935
 20
66.76670582912203
 30
0.0
 10
2.780602722266762
 20
66.64139196386508
 30
0.0
 10
4.158369090099507
 20
66.43300321647988
 30
0.0
 10
5.521174479461695
 20
66.14242279638577
 30
0.0
 10
6.416439363665141
 20
65.89449775391013
 30
0.0
 10
6.859988676235001
 20
65.75735956506709
 30
0.0
 10
7.323840089197381
 20
65.6112915273983
 30
0.0
 10
8.290618248634424
 20
65.23893671599845
 30
0.0
 10
9.119847017184805
 20
63.970378742498
 30
0.0
 10
10.01714892271389
 20
62.80231740872836
 30
0.0
 10
10.86701755770716
 20
61.59333884100549
 30
0.0
 10
11.51471204503414
 20
60.82947417317332
 30
0.0
 10
11.66662426612
 20
60.3591674726971
 30
0.0
 10
11.60149004931545
 20
60.225199262057
 30
0.0
 10
11.32270158940775
 20
60.38364546506327
 30
0.0
 10
10.998372161987
 20
60.53978539409461
 30
0.0
 10
10.64894062246361
 20
60.71786846101095
 30
0.0
 10
10.30622183532524
 20
60.89005073611396
 30
0.0
 10
9.961542866205924
 20
61.06347283429682
 30
0.0
 10
9.617931442500804
 20
61.23771738643661
 30
0.0
 10
9.27243841565115
 20
61.40828082335834
 30
0.0
 10
8.932086092432543
 20
61.5901120058914
 30
0.0
 10
8.569228022290497
 20
61.72201267612607
 30
0.0
 10
8.200280611984901
 20
61.83324928317997
 30
0.0
 10
7.826034995667044
 20
61.9257519472238
 30
0.0
 10
7.448534350478574
 20
62.00343678774301
 30
0.0
 10
7.068797035003742
 20
62.06928226708271
 30
0.0
 10
6.687731044361691
 20
62.12680201641109
 30
0.0
 10
6.30569750347763
 20
62.17746500546588
 30
0.0
 10
5.92291996459323
 20
62.22220003903445
 30
0.0
 10
5.667096904733508
 20
62.24606427698259
 30
0.0
 10
5.539021737560002
 20
62.25595466294709
 30
0.0
 10
5.170493945811966
 20
62.28474693584695
 30
0.0
 10
4.433124504841688
 20
62.33856865957554
 30
0.0
 10
3.325764470826183
 20
62.39890030314093
 30
0.0
 10
2.217636589332623
 20
62.4425148609369
 30
0.0
 10
1.108962251905078
 20
62.46913548496401
 30
0.0
 10
0.3696521553374922
 20
62.47467960439666
 30
0.0
 10
0.0
 20
62.47459201495113
 30
0.0
 10
-0.3696521553374922
 20
62.47467960439666
 30
0.0
 10
-1.108962251905078
 20
62.46913548496401
 30
0.0
 10
-2.217636589332623
 20
62.4425148609369
 30
0.0
 10
-3.325764470826183
 20
62.39890030314093
 30
0.0
 10
-4.433124504841688
 20
62.33856865957554
 30
0.0
 10
-5.170493945811966
 20
62.28474693584695
 30
0.0
 10
-5.539021737560002
 20
62.25595466294709
 30
0.0
 10
-5.667096904733508
 20
62.24606427698259
 30
0.0
 10
-5.92291996459323
 20
62.22220003903445
 30
0.0
 10
-6.30569750347763
 20
62.17746500546588
 30
0.0
 10
-6.687731044361691
 20
62.12680201641109
 30
0.0
 10
-7.068797035003742
 20
62.06928226708271
 30
0.0
 10
-7.448534350478574
 20
62.00343678774301
 30
0.0
 10
-7.826034995667044
 20
61.9257519472238
 30
0.0
 10
-8.200280611984901
 20
61.83324928317997
 30
0.0
 10
-8.569228022290497
 20
61.72201267612607
 30
0.0
 10
-8.932086092432543
 20
61.5901120058914
 30
0.0
 10
-9.27243841565115
 20
61.40828082335834
 30
0.0
 10
-9.617931442500804
 20
61.23771738643661
 30
0.0
 10
-9.961542866205924
 20
61.06347283429682
 30
0.0
 10
-10.30622183532524
 20
60.89005073611396
 30
0.0
 10
-10.64894062246361
 20
60.71786846101095
 30
0.0
 10
-10.998372161987
 20
60.53978539409461
 30
0.0
 10
-11.32270158940775
 20
60.38364546506327
 30
0.0
 10
-11.60149004931545
 20
60.225199262057
 30
0.0
 10
-11.66662426612
 20
60.3591674726971
 30
0.0
 10
-11.51471204503414
 20
60.82947417317332
 30
0.0
 10
-10.86701755770716
 20
61.59333884100549
 30
0.0
 10
-10.01714892271389
 20
62.80231740872836
 30
0.0
 10
-9.119847017184805
 20
63.970378742498
 30
0.0
 10
-8.290618248634424
 20
65.23893671599845
 30
0.0
 10
-7.323840089197381
 20
65.6112915273983
 30
0.0
 10
-6.859988676235001
 20
65.75735956506709
 30
0.0
 10
-6.416439363665141
 20
65.89449775391013
 30
0.0
 10
-5.521174479461695
 20
66.14242279638577
 30
0.0
 10
-4.158369090099507
 20
66.43300321647988
 30
0.0
 10
-2.780602722266762
 20
66.64139196386508
 30
0.0
 10
-1.392809763928935
 20
66.76670582912203
 30
0.0
 10
-0.4642709303406531
 20
66.79462057144544
 30
0.0
 10
0.0
 20
66.79462123210709
 30
0.0
  0
ARC
  5
9F
330
1F
100
AcDbEntity
  8
DEFAULT
100
AcDbCircle
 10
-5.997882816224765
 20
62.32442821014313
 30
0.0
 40
0.6804986804760107
100
AcDbArc
 50
196.5513213417399
 51
233.2591881033375
  0
ARC
  5
A0
330
1F
100
AcDbEntity
  8
DEFAULT
100
AcDbCircle
 10
5.997882816224765
 20
62.32442821014313
 30
0.0
 40
0.6804986804760107
100
AcDbArc
 50
306.7408118966625
 51
343.4486786582601
  0
ARC
  5
A1
330
1F
100
AcDbEntity
  8
DEFAULT
100
AcDbCircle
 10
5.666359517259701
 20
62.43696449110395
 30
0.0
 40
1.664368161868751
100
AcDbArc
 50
332.8229980697396
 51
345.909383053515
  0
SPLINE
  5
A2
330
1F
100
AcDbEntity
  8
DEFAULT
100
AcDbSpline
210
0.0
220
0.0
230
1.0
 70
    15
 71
     3
 72
   110
 73
   106
 74
     0
 42
0.000000001
 43
0.0000000001
 40
5.0
 40
5.0
 40
5.0
 40
5.0
 40
6.0
 40
6.0
 40
6.0
 40
6.999999437318932
 40
7.999999577989199
 40
8.999999718659467
 40
9.999999859329733
 40
11.0
 40
11.0
 40
11.0
 40
11.01547323270867
 40
11.01547323270867
 40
11.01547323270867
 40
12.01547323270867
 40
13.01547323270867
 40
14.01547323270867
 40
15.01547323270867
 40
16.01547323270867
 40
16.01547323270867
 40
16.01547323270867
 40
16.13728400393025
 40
16.25990144381758
 40
16.38339162535588
 40
16.44548474010671
 40
16.50782007691532
 40
16.63322819416815
 40
16.7596308135234
 40
17.01547323270867
 40
17.01547323270867
 40
17.01547323270867
 40
18.01538475266808
 40
19.01540687267823
 40
20.01542899268837
 40
21.01545111269852
 40
22.01547323270867
 40
22.01547323270867
 40
22.01547323270867
 40
23.01547323270867
 40
24.01547323270867
 40
25.01547323270867
 40
26.01547323270867
 40
27.01547323270867
 40
27.01547323270867
 40
27.01547323270867
 40
28.01547323270867
 40
29.01547323270867
 40
30.01547323270867
 40
31.01547323270867
 40
32.01547323270867
 40
32.01547323270867
 40
32.01547323270867
 40
33.01549535271882
 40
34.01551747272897
 40
35.01553959273912
 40
36.01556171274927
 40
37.01547323270867
 40
37.01547323270867
 40
37.01547323270867
 40
37.27131565189394
 40
37.39771827124919
 40
37.52312638850202
 40
37.58546172531063
 40
37.64755484006147
 40
37.77104502159977
 40
37.8936624614871
 40
38.01547323270867
 40
38.01547323270867
 40
38.01547323270867
 40
39.01547323270867
 40
40.01547323270867
 40
41.01547323270867
 40
42.01547323270867
 40
43.01547323270867
 40
43.01547323270867
 40
43.01547323270867
 40
43.03094646541734
 40
43.03094646541734
 40
43.03094646541734
 40
44.03094660608761
 40
45.03094674675788
 40
46.03094688742814
 40
47.03094702809841
 40
48.03094646541734
 40
48.03094646541734
 40
48.03094646541734
 40
49.03094646541734
 40
49.03094646541734
 40
49.03094646541734
 40
50.03094605039983
 40
51.03094615415421
 40
52.03094625790859
 40
53.03094636166296
 40
54.03094646541734
 40
54.03094646541734
 40
54.03094646541734
 40
54.22324298839634
 40
54.22324298839634
 40
54.22324298839634
 40
55.2232423704833
 40
56.22324265465456
 40
57.22324293882581
 40
58.22324322299706
 40
59.22324298839634
 40
59.22324298839634
 40
59.22324298839634
 40
59.22324298839634
 10
-8.32800018822
 20
61.14114049213711
 30
0.0
 41
1.0
 10
-9.138307384443335
 20
60.7263899179321
 30
0.0
 41
1.0
 10
-9.948614580666668
 20
60.3116393437271
 30
0.0
 41
1.0
 10
-10.75892177689
 20
59.89688876952209
 30
0.0
 41
1.0
 10
-10.8372922744002
 20
59.85318824110072
 30
0.0
 41
1.0
 10
-10.94977724242575
 20
59.71181026674542
 30
0.0
 41
1.0
 10
-11.07022018223767
 20
59.47490920147156
 30
0.0
 41
1.0
 10
-11.16252293157129
 20
59.22507635830524
 30
0.0
 41
1.0
 10
-11.23275301508857
 20
58.96851667409369
 30
0.0
 41
1.0
 10
-11.26552495946659
 20
58.79417856488469
 30
0.0
 41
1.0
 10
-11.27801429604676
 20
58.70645111227975
 30
0.0
 41
1.0
 10
-11.68400076219296
 20
55.85006826244995
 30
0.0
 41
0.9999800483553131
 10
-12.06787656037589
 20
52.99062996672384
 30
0.0
 41
0.9999800483553131
 10
-12.42961871373495
 20
50.12830737659204
 30
0.0
 41
1.0
 10
-12.43816393504206
 20
50.06051693003559
 30
0.0
 41
1.0
 10
-12.44817295106504
 20
49.92403414860004
 30
0.0
 41
1.0
 10
-12.44060884370839
 20
49.71884887477042
 30
0.0
 41
1.0
 10
-12.40756658223331
 20
49.51607285306184
 30
0.0
 41
1.0
 10
-12.34342430924858
 20
49.32050075991781
 30
0.0
 41
1.0
 10
-12.27283447245168
 20
49.20209585486
 30
0.0
 41
1.0
 10
-12.227857937255
 20
49.15046933763209
 30
0.0
 41
1.0
 10
-12.11053090478
 20
49.01635300437708
 30
0.0
 41
1.0
 10
-11.87375769827
 20
48.74845314420709
 30
0.0
 41
1.0
 10
-11.51350820579
 20
48.34864691467709
 30
0.0
 41
1.0
 10
-11.20857463953
 20
48.01660466588709
 30
0.0
 41
1.0
 10
-10.96142880881
 20
47.75123003174708
 30
0.0
 41
1.0
 10
-10.711141973
 20
47.48495258898708
 30
0.0
 41
1.0
 10
-10.39403910037
 20
47.15238600885708
 30
0.0
 41
1.0
 10
-9.876145560233454
 20
46.62023751883815
 30
0.0
 41
1.0
 10
-9.479616235293195
 20
46.22596715503003
 30
0.0
 41
1.0
 10
-9.211020173385002
 20
45.96538992879709
 30
0.0
 41
1.0
 10
-9.140717438655702
 20
45.89723722857799
 30
0.0
 41
1.0
 10
-8.991951797478208
 20
45.76925204842778
 30
0.0
 41
1.0
 10
-8.746201152053171
 20
45.60720389618161
 30
0.0
 41
1.0
 10
-8.482370990631699
 20
45.47678197820454
 30
0.0
 41
1.0
 10
-8.20618718417959
 20
45.37564409679086
 30
0.0
 41
1.0
 10
-8.017182180574354
 20
45.32376276956963
 30
0.0
 41
1.0
 10
-7.921969294099145
 20
45.3008683615154
 30
0.0
 41
1.0
 10
-7.404973614037533
 20
45.18150691237845
 30
0.0
 41
1.0
 10
-6.349504243620525
 20
45.07183850159821
 30
0.0
 41
1.0
 10
-4.76569196364921
 20
44.94182004673327
 30
0.0
 41
1.0
 10
-3.178308119600408
 20
44.8530220559888
 30
0.0
 41
1.0
 10
-1.589598274474625
 20
44.79888321070054
 30
0.0
 41
1.0
 10
-0.5298611303166738
 20
44.78652015330855
 30
0.0
 41
1.0
 10
0.0
 20
44.78652981024709
 30
0.0
 41
1.0
 10
0.5298611303166738
 20
44.78652015330855
 30
0.0
 41
1.0
 10
1.589598274474625
 20
44.79888321070054
 30
0.0
 41
1.0
 10
3.178308119600408
 20
44.8530220559888
 30
0.0
 41
1.0
 10
4.76569196364921
 20
44.94182004673327
 30
0.0
 41
1.0
 10
6.349504243620525
 20
45.07183850159821
 30
0.0
 41
1.0
 10
7.404973614037533
 20
45.18150691237845
 30
0.0
 41
1.0
 10
7.921969294099145
 20
45.3008683615154
 30
0.0
 41
1.0
 10
8.017182180574354
 20
45.32376276956963
 30
0.0
 41
1.0
 10
8.20618718417959
 20
45.37564409679086
 30
0.0
 41
1.0
 10
8.482370990631699
 20
45.47678197820454
 30
0.0
 41
1.0
 10
8.746201152053171
 20
45.60720389618161
 30
0.0
 41
1.0
 10
8.991951797478208
 20
45.76925204842778
 30
0.0
 41
1.0
 10
9.140717438655702
 20
45.89723722857799
 30
0.0
 41
1.0
 10
9.211020173385002
 20
45.96538992879709
 30
0.0
 41
1.0
 10
9.479616235293195
 20
46.22596715503003
 30
0.0
 41
1.0
 10
9.876145560233454
 20
46.62023751883815
 30
0.0
 41
1.0
 10
10.39403910037
 20
47.15238600885708
 30
0.0
 41
1.0
 10
10.711141973
 20
47.48495258898708
 30
0.0
 41
1.0
 10
10.96142880881
 20
47.75123003174708
 30
0.0
 41
1.0
 10
11.20857463953
 20
48.01660466588709
 30
0.0
 41
1.0
 10
11.51350820579
 20
48.34864691467709
 30
0.0
 41
1.0
 10
11.87375769827
 20
48.74845314420709
 30
0.0
 41
1.0
 10
12.11053090478
 20
49.01635300437708
 30
0.0
 41
1.0
 10
12.227857937255
 20
49.15046933763209
 30
0.0
 41
1.0
 10
12.27283447245168
 20
49.20209585486
 30
0.0
 41
1.0
 10
12.34342430924858
 20
49.32050075991781
 30
0.0
 41
1.0
 10
12.40756658223331
 20
49.51607285306184
 30
0.0
 41
1.0
 10
12.44060884370839
 20
49.71884887477042
 30
0.0
 41
1.0
 10
12.44817295106504
 20
49.92403414860004
 30
0.0
 41
1.0
 10
12.43816393504206
 20
50.06051693003559
 30
0.0
 41
1.0
 10
12.42961871373495
 20
50.12830737659204
 30
0.0
 41
1.0
 10
12.06787656037589
 20
52.99062996672384
 30
0.0
 41
0.9999800483553131
 10
11.68400076219296
 20
55.85006826244995
 30
0.0
 41
0.9999800483553131
 10
11.27801429604676
 20
58.70645111227974
 30
0.0
 41
1.0
 10
11.26552495946659
 20
58.79417856488469
 30
0.0
 41
1.0
 10
11.23275301508857
 20
58.96851667409369
 30
0.0
 41
1.0
 10
11.16252293157129
 20
59.22507635830524
 30
0.0
 41
1.0
 10
11.07022018223767
 20
59.47490920147156
 30
0.0
 41
1.0
 10
10.94977724242575
 20
59.71181026674542
 30
0.0
 41
1.0
 10
10.8372922744002
 20
59.85318824110072
 30
0.0
 41
1.0
 10
10.75892177689
 20
59.89688876952209
 30
0.0
 41
1.0
 10
9.948614580666668
 20
60.3116393437271
 30
0.0
 41
1.0
 10
9.138307384443333
 20
60.7263899179321
 30
0.0
 41
1.0
 10
8.32800018822
 20
61.14114049213711
 30
0.0
 41
1.0
 10
8.156974268187216
 20
61.22769807420104
 30
0.0
 41
1.0
 10
7.798350443547796
 20
61.36497989914139
 30
0.0
 41
1.0
 10
7.242955060666127
 20
61.51415534098329
 30
0.0
 41
1.0
 10
6.678910998655406
 20
61.62533800817897
 30
0.0
 41
1.0
 10
6.110418162379506
 20
61.71003416987888
 30
0.0
 41
1.0
 10
5.729666678457835
 20
61.7529474459871
 30
0.0
 41
1.0
 10
5.538998709577822
 20
61.77134829921339
 30
0.0
 41
1.0
 10
1.852035215422591
 20
62.1269697433268
 30
0.0
 41
0.9969208771106146
 10
-1.852039084299523
 20
62.12699948937731
 30
0.0
 41
0.9969208771106146
 10
-5.539008289707744
 20
61.77143726258966
 30
0.0
 41
1.0
 10
-5.72966702192767
 20
61.75294740727571
 30
0.0
 41
1.0
 10
-6.110418333322277
 20
61.7100341444112
 30
0.0
 41
1.0
 10
-6.678910998655406
 20
61.62533800817897
 30
0.0
 41
1.0
 10
-7.242955060666127
 20
61.51415534098329
 30
0.0
 41
1.0
 10
-7.798350443547796
 20
61.36497989914139
 30
0.0
 41
1.0
 10
-8.156974268187216
 20
61.22769807420104
 30
0.0
 41
1.0
 10
-8.32800018822
 20
61.14114049213711
 30
0.0
 41
1.0
  0
SPLINE
  5
A3
330
1F
100
AcDbEntity
  8
DEFAULT
100
AcDbSpline
210
0.0
220
0.0
230
1.0
 70
    24
 71
     2
 72
     6
 73
     3
 74
     0
 42
0.000000001
 43
0.0000000001
 40
0.0
 40
0.0
 40
0.0
 40
1.0
 40
1.0
 40
1.0
 10
-1.375
 20
62.46115578086709
 30
0.0
 10
-1.375
 20
62.26183378086709
 30
0.0
 10
-1.375
 20
62.0625117808671
 30
0.0
  0
ARC
  5
A4
330
1F
100
AcDbEntity
  8
DEFAULT
100
AcDbCircle
 10
-5.666359517259701
 20
62.43696449110395
 30
0.0
 40
1.664368161868751
100
AcDbArc
 50
194.090616946485
 51
207.1770019302604
  0
ARC
  5
A5
330
1F
100
AcDbEntity
  8
DEFAULT
100
AcDbCircle
 10
9.773844210856874
 20
46.18195923665017
 30
0.0
 40
0.3149038803511576
100
AcDbArc
 50
254.9067825876843
 51
6.752745776440928
  0
SPLINE
  5
A6
330
1F
100
AcDbEntity
  8
DEFAULT
100
AcDbSpline
210
0.0
220
0.0
230
1.0
 70
     8
 71
     3
 72
    39
 73
    35
 74
     0
 42
0.000000001
 43
0.0000000001
 40
-1.0
 40
-1.0
 40
-1.0
 40
-1.0
 40
0.0
 40
0.0
 40
0.0
 40
1.0
 40
2.0
 40
3.0
 40
4.0
 40
5.0
 40
5.0
 40
5.0
 40
6.0
 40
7.0
 40
8.0
 40
9.0
 40
10.0
 40
10.0
 40
10.0
 40
11.0
 40
12.0
 40
13.0
 40
14.0
 40
15.0
 40
15.0
 40
15.0
 40
16.0
 40
17.0
 40
18.0
 40
19.0
 40
20.0
 40
20.0
 40
20.0
 40
21.0
 40
21.0
 40
21.0
 40
21.0
 10
-11.666617
 20
60.3591737808671
 30
0.0
 10
-11.68349237900834
 20
60.75462502919043
 30
0.0
 10
-11.70036775801667
 20
61.15007627751375
 30
0.0
 10
-11.717243137025
 20
61.54552752583709
 30
0.0
 10
-11.56262228860186
 20
62.00682724262076
 30
0.0
 10
-10.92823357974864
 20
62.76140045399521
 30
0.0
 10
-10.09165750264111
 20
63.95306336330084
 30
0.0
 10
-9.209833470159335
 20
65.10666152959863
 30
0.0
 10
-8.394196775149537
 20
66.35286390036076
 30
0.0
 10
-7.449836611425249
 20
66.73752711567936
 30
0.0
 10
-6.989990719430001
 20
66.87402650787709
 30
0.0
 10
-6.536341864604588
 20
67.00507365091785
 30
0.0
 10
-5.621519203873037
 20
67.2410007022948
 30
0.0
 10
-4.231883432728407
 20
67.51885845205449
 30
0.0
 10
-2.828701827783991
 20
67.71741077646676
 30
0.0
 10
-1.416562284360244
 20
67.83637007147347
 30
0.0
 10
-0.4722004798096742
 20
67.86358974503133
 30
0.0
 10
0.0
 20
67.86359543987709
 30
0.0
 10
0.4722004798096742
 20
67.86358974503133
 30
0.0
 10
1.416562284360244
 20
67.83637007147347
 30
0.0
 10
2.828701827783991
 20
67.71741077646676
 30
0.0
 10
4.231883432728407
 20
67.51885845205449
 30
0.0
 10
5.621519203873037
 20
67.2410007022948
 30
0.0
 10
6.536341864604588
 20
67.00507365091785
 30
0.0
 10
6.989990719430001
 20
66.87402650787709
 30
0.0
 10
7.449836611425249
 20
66.73752711567936
 30
0.0
 10
8.394196775149537
 20
66.35286390036076
 30
0.0
 10
9.209833470159335
 20
65.10666152959863
 30
0.0
 10
10.09165750264111
 20
63.95306336330084
 30
0.0
 10
10.92823357974864
 20
62.76140045399521
 30
0.0
 10
11.56262228860186
 20
62.00682724262076
 30
0.0
 10
11.717243137025
 20
61.54552752583709
 30
0.0
 10
11.70036775801667
 20
61.15007627751375
 30
0.0
 10
11.68349237900833
 20
60.75462502919043
 30
0.0
 10
11.666617
 20
60.3591737808671
 30
0.0
  0
POLYLINE
  5
A7
330
1F
100
AcDbEntity
  8
DEFAULT
100
AcDb2dPolyline
 66
     1
 10
0.0
 20
0.0
 30
0.0
  0
VERTEX
  5
A8
330
A7
100
AcDbEntity
  8
DEFAULT
100
AcDbVertex
100
AcDb2dVertex
 10
25.25266238524365
 20
34.88128153990853
 30
0.0
  0
VERTEX
  5
A9
330
A7
100
AcDbEntity
  8
DEFAULT
100
AcDbVertex
100
AcDb2dVertex
 10
24.13385495230364
 20
34.83226100771853
 30
0.0
  0
VERTEX
  5
AA
330
A7
100
AcDbEntity
  8
DEFAULT
100
AcDbVertex
100
AcDb2dVertex
 10
23.12237452134365
 20
34.69987731551853
 30
0.0
  0
SEQEND
  5
AB
330
A7
100
AcDbEntity
  8
DEFAULT
  0
SPLINE
  5
AC
330
1F
100
AcDbEntity
  8
DEFAULT
100
AcDbSpline
210
0.0
220
0.0
230
1.0
 70
     8
 71
     3
 72
    24
 73
    20
 74
     0
 42
0.000000001
 43
0.0000000001
 40
0.0
 40
0.0
 40
0.0
 40
0.0
 40
1.0
 40
2.0
 40
3.0
 40
4.0
 40
5.0
 40
6.0
 40
7.0
 40
8.0
 40
9.0
 40
10.0
 40
11.0
 40
12.0
 40
13.0
 40
14.0
 40
15.0
 40
16.0
 40
17.0
 40
17.0
 40
17.0
 40
17.0
 10
27.30570335758365
 20
16.27983578262853
 30
0.0
 10
27.55699373787549
 20
16.5882185169763
 30
0.0
 10
27.74019541192219
 20
17.39599808149474
 30
0.0
 10
28.02781888416509
 20
18.56302253027634
 30
0.0
 10
28.27649533966594
 20
19.75014505457777
 30
0.0
 10
28.53165636003488
 20
20.93277180307575
 30
0.0
 10
28.78363155296595
 20
22.11679488795792
 30
0.0
 10
29.03698297577585
 20
23.3007704353872
 30
0.0
 10
29.28755811201133
 20
24.4836389568054
 30
0.0
 10
29.5440303675863
 20
25.67180024340301
 30
0.0
 10
29.47192224628308
 20
26.89033257041648
 30
0.0
 10
29.12244610236427
 20
28.06273845853553
 30
0.0
 10
28.44414079398374
 20
29.07256381008046
 30
0.0
 10
27.76359366937722
 20
30.07158101590683
 30
0.0
 10
27.08318113226887
 20
31.07351423784716
 30
0.0
 10
26.40496928767425
 20
32.07492804149697
 30
0.0
 10
25.71813213821754
 20
33.07571751027567
 30
0.0
 10
25.06313047091003
 20
34.07920984280331
 30
0.0
 10
24.53481186297996
 20
34.73274639011782
 30
0.0
 10
24.13385495230364
 20
34.83226100771853
 30
0.0
  0
SPLINE
  5
AD
330
1F
100
AcDbEntity
  8
DEFAULT
100
AcDbSpline
210
0.0
220
0.0
230
1.0
 70
     8
 71
     3
 72
    12
 73
     8
 74
     0
 42
0.000000001
 43
0.0000000001
 40
0.0
 40
0.0
 40
0.0
 40
0.0
 40
1.0
 40
2.0
 40
3.0
 40
4.0
 40
5.0
 40
5.0
 40
5.0
 40
5.0
 10
45.11862031157364
 20
0.1212908923925334
 30
0.0
 10
45.08242347730549
 20
0.1422071104583091
 30
0.0
 10
44.99319159821395
 20
0.1396551742686268
 30
0.0
 10
44.86598669543659
 20
0.1362485736699694
 30
0.0
 10
44.73696363159736
 20
0.1241019755482423
 30
0.0
 10
44.61133728009013
 20
0.1037265506985317
 30
0.0
 10
44.52325088059344
 20
0.0895320758299791
 30
0.0
 10
44.49149317123364
 20
0.0623129965835344
 30
0.0
  0
SPLINE
  5
AE
330
1F
100
AcDbEntity
  8
DEFAULT
100
AcDbSpline
210
0.0
220
0.0
230
1.0
 70
    24
 71
     2
 72
     6
 73
     3
 74
     0
 42
0.000000001
 43
0.0000000001
 40
0.0
 40
0.0
 40
0.0
 40
1.0
 40
1.0
 40
1.0
 10
27.12444252134365
 20
16.27238931551853
 30
0.0
 10
25.12340852134365
 20
25.48613331551853
 30
0.0
 10
23.12237452134365
 20
34.69987731551853
 30
0.0
  0
SPLINE
  5
AF
330
1F
100
AcDbEntity
  8
DEFAULT
100
AcDbSpline
210
0.0
220
0.0
230
1.0
 70
    24
 71
     2
 72
     6
 73
     3
 74
     0
 42
0.000000001
 43
0.0000000001
 40
0.0
 40
0.0
 40
0.0
 40
1.0
 40
1.0
 40
1.0
 10
46.15083652134364
 20
16.86433531551853
 30
0.0
 10
44.70089102134364
 20
16.81922481551853
 30
0.0
 10
43.25094552134365
 20
16.77411431551853
 30
0.0
  0
ARC
  5
B0
330
1F
100
AcDbEntity
  8
DEFAULT
100
AcDbCircle
 10
27.92451152134364
 20
16.54519131551853
 30
0.0
 40
0.5625001382807988
100
AcDbArc
 50
207.8209960406038
 51
269.6439998427429
  0
SPLINE
  5
B1
330
1F
100
AcDbEntity
  8
DEFAULT
100
AcDbSpline
210
0.0
220
0.0
230
1.0
 70
    24
 71
     2
 72
     6
 73
     3
 74
     0
 42
0.000000001
 43
0.0000000001
 40
0.0
 40
0.0
 40
0.0
 40
1.0
 40
1.0
 40
1.0
 10
39.39546952134364
 20
15.84266531551853
 30
0.0
 10
39.39547452134364
 20
15.84250281551853
 30
0.0
 10
39.39547952134365
 20
15.84234031551853
 30
0.0
  0
ENDSEC
  0
SECTION
  2
OBJECTS
  0
DICTIONARY
  5
C
330
0
100
AcDbDictionary
281
     1
  3
ACAD_DETAILVIEWSTYLE
350
ED
  3
ACAD_GROUP
350
D
  3
ACAD_LAYOUT
350
1A
  3
ACAD_MATERIAL
350
43
  3
ACAD_MLEADERSTYLE
350
6B
  3
ACAD_MLINESTYLE
350
17
  3
ACAD_PLOTSETTINGS
350
19
  3
ACAD_PLOTSTYLENAME
350
E
  3
ACAD_SCALELIST
350
47
  3
ACAD_SECTIONVIEWSTYLE
350
EE
  3
ACAD_TABLESTYLE
350
69
  3
ACAD_VISUALSTYLE
350
2A
  3
ACDB_RECOMPOSE_DATA
350
EA
  3
AcDbVariableDictionary
350
B2
  0
SUN
  5
6D
330
29
100
AcDbSun
 90
        1
290
     0
 63
     7
421
 16777215
 40
1.0
291
     1
 91
  2455826
 92
 54000000
292
     0
 70
     2
 71
   256
280
     1
  0
DICTIONARY
  5
ED
102
{ACAD_REACTORS
330
C
102
}
330
C
100
AcDbDictionary
281
     1
  0
DICTIONARY
  5
D
102
{ACAD_REACTORS
330
C
102
}
330
C
100
AcDbDictionary
281
     1
  0
DICTIONARY
  5
1A
102
{ACAD_REACTORS
330
C
102
}
330
C
100
AcDbDictionary
281
     1
  3
Layout1
350
1E
  3
Layout2
350
26
  3
Model
350
22
  0
DICTIONARY
  5
43
102
{ACAD_REACTORS
330
C
102
}
330
C
100
AcDbDictionary
281
     1
  3
ByBlock
350
45
  3
ByLayer
350
44
  3
Global
350
46
  0
DICTIONARY
  5
6B
102
{ACAD_REACTORS
330
C
102
}
330
C
100
AcDbDictionary
281
     1
  3
Standard
350
6C
  0
DICTIONARY
  5
17
102
{ACAD_REACTORS
330
C
102
}
330
C
100
AcDbDictionary
281
     1
  3
Standard
350
18
  0
DICTIONARY
  5
19
102
{ACAD_REACTORS
330
C
102
}
330
C
100
AcDbDictionary
281
     1
  0
ACDBDICTIONARYWDFLT
  5
E
102
{ACAD_REACTORS
330
C
102
}
330
C
100
AcDbDictionary
281
     1
  3
Normal
350
F
100
AcDbDictionaryWithDefault
340
F
  0
DICTIONARY
  5
47
102
{ACAD_REACTORS
330
C
102
}
330
C
100
AcDbDictionary
281
     1
  3
A0
350
48
  3
A1
350
49
  3
A2
350
4A
  3
A3
350
4B
  3
A4
350
4C
  3
A5
350
4D
  3
A6
350
4E
  3
A7
350
4F
  3
A8
350
50
  3
A9
350
51
  3
B0
350
52
  3
B1
350
53
  3
B2
350
54
  3
B3
350
55
  3
B4
350
56
  3
B5
350
57
  3
B6
350
58
  3
B7
350
59
  3
B8
350
5A
  3
B9
350
5B
  3
C0
350
5C
  3
C1
350
5D
  3
C2
350
5E
  3
C3
350
5F
  3
C4
350
60
  3
C5
350
61
  3
C6
350
62
  3
C7
350
63
  3
C8
350
64
  3
C9
350
65
  3
D0
350
66
  3
D1
350
67
  3
D2
350
68
  0
DICTIONARY
  5
EE
102
{ACAD_REACTORS
330
C
102
}
330
C
100
AcDbDictionary
281
     1
  0
DICTIONARY
  5
69
102
{ACAD_REACTORS
330
C
102
}
330
C
100
AcDbDictionary
281
     1
  3
Standard
350
6A
  0
DICTIONARY
  5
2A
102
{ACAD_REACTORS
330
C
102
}
330
C
100
AcDbDictionary
281
     1
  3
2dWireframe
350
2F
  3
Basic
350
32
  3
Brighten
350
36
  3
ColorChange
350
3A
  3
Conceptual
350
34
  3
Dim
350
35
  3
EdgeColorOff
350
3D
  3
Facepattern
350
39
  3
Flat
350
2B
  3
FlatWithEdges
350
2C
  3
Gouraud
350
2D
  3
GouraudWithEdges
350
2E
  3
Hidden
350
31
  3
JitterOff
350
3B
  3
Linepattern
350
38
  3
OverhangOff
350
3C
  3
Realistic
350
33
  3
Shaded
350
42
  3
Shaded with edges
350
41
  3
Shades of Gray
350
3E
  3
Sketchy
350
3F
  3
Thicken
350
37
  3
Wireframe
350
30
  3
X-Ray
350
40
  0
XRECORD
  5
EA
102
{ACAD_REACTORS
330
C
102
}
330
C
100
AcDbXrecord
280
     1
 90
        1
330
6A
  0
DICTIONARY
  5
B2
102
{ACAD_REACTORS
330
C
102
}
330
C
100
AcDbDictionary
281
     1
  3
CANNOSCALE
350
B3
  3
CMLEADERSTYLE
350
EC
  3
CTABLESTYLE
350
EB
  3
XCLIPFRAME
350
B4
  0
LAYOUT
  5
1E
102
{ACAD_REACTORS
330
1A
102
}
330
1A
100
AcDbPlotSettings
  1

  2
none_device
  4

  6

 40
0.0
 41
0.0
 42
0.0
 43
0.0
 44
0.0
 45
0.0
 46
0.0
 47
0.0
 48
0.0
 49
0.0
140
0.0
141
0.0
142
1.0
143
1.0
 70
   688
 72
     0
 73
     0
 74
     5
  7

 75
    16
 76
     0
 77
     2
 78
   300
147
1.0
148
0.0
149
0.0
100
AcDbLayout
  1
Layout1
 70
     1
 71
     1
 10
0.0
 20
0.0
 11
12.0
 21
9.0
 12
0.0
 22
0.0
 32
0.0
 14
1.000000000000000E+20
 24
1.000000000000000E+20
 34
1.000000000000000E+20
 15
-1.000000000000000E+20
 25
-1.000000000000000E+20
 35
-1.000000000000000E+20
146
0.0
 13
0.0
 23
0.0
 33
0.0
 16
1.0
 26
0.0
 36
0.0
 17
0.0
 27
1.0
 37
0.0
 76
     0
330
1B
  0
LAYOUT
  5
26
102
{ACAD_REACTORS
330
1A
102
}
330
1A
100
AcDbPlotSettings
  1

  2
none_device
  4

  6

 40
0.0
 41
0.0
 42
0.0
 43
0.0
 44
0.0
 45
0.0
 46
0.0
 47
0.0
 48
0.0
 49
0.0
140
0.0
141
0.0
142
1.0
143
1.0
 70
   688
 72
     0
 73
     0
 74
     5
  7

 75
    16
 76
     0
 77
     2
 78
   300
147
1.0
148
0.0
149
0.0
100
AcDbLayout
  1
Layout2
 70
     1
 71
     2
 10
0.0
 20
0.0
 11
0.0
 21
0.0
 12
0.0
 22
0.0
 32
0.0
 14
0.0
 24
0.0
 34
0.0
 15
0.0
 25
0.0
 35
0.0
146
0.0
 13
0.0
 23
0.0
 33
0.0
 16
1.0
 26
0.0
 36
0.0
 17
0.0
 27
1.0
 37
0.0
 76
     0
330
23
  0
LAYOUT
  5
22
102
{ACAD_REACTORS
330
1A
102
}
330
1A
100
AcDbPlotSettings
  1

  2
none_device
  4
Letter_(8.50_x_11.00_Inches)
  6

 40
6.35
 41
6.35
 42
6.35000508
 43
6.35000508
 44
215.9
 45
279.4
 46
0.0
 47
0.0
 48
0.0
 49
0.0
140
0.0
141
0.0
142
1.0
143
1.0
 70
  1712
 72
     0
 73
     0
 74
     0
  7

 75
     0
 76
     0
 77
     2
 78
   300
147
1.0
148
0.0
149
0.0
100
AcDbLayout
  1
Model
 70
     1
 71
     0
 10
0.0
 20
0.0
 11
12.0
 21
9.0
 12
0.0
 22
0.0
 32
0.0
 14
1.000000000000000E+20
 24
1.000000000000000E+20
 34
1.000000000000000E+20
 15
-1.000000000000000E+20
 25
-1.000000000000000E+20
 35
-1.000000000000000E+20
146
0.0
 13
0.0
 23
0.0
 33
0.0
 16
1.0
 26
0.0
 36
0.0
 17
0.0
 27
1.0
 37
0.0
 76
     0
330
1F
331
29
  0
MATERIAL
  5
45
102
{ACAD_REACTORS
330
43
102
}
330
43
100
AcDbMaterial
  1
ByBlock
 72
     1
 94
      127
  0
MATERIAL
  5
44
102
{ACAD_REACTORS
330
43
102
}
330
43
100
AcDbMaterial
  1
ByLayer
 72
     1
 94
      127
  0
MATERIAL
  5
46
102
{ACAD_REACTORS
330
43
102
}
330
43
100
AcDbMaterial
  1
Global
 72
     1
 94
      127
  0
MLEADERSTYLE
  5
6C
102
{ACAD_REACTORS
330
6B
102
}
102
{ACAD_XDICTIONARY
360
E8
102
}
330
6B
100
AcDbMLeaderStyle
170
     2
171
     1
172
     0
 90
        2
 40
0.0
 41
0.0
173
     1
 91
-1056964608
340
14
 92
       -2
290
     1
 42
0.09
291
     1
 43
0.36
  3
Standard
341
0
 44
0.18
300

342
11
174
     1
178
     6
175
     1
176
     0
 93
-1056964608
 45
0.18
292
     0
297
     0
 46
0.18
343
0
 94
-1056964608
 47
1.0
 49
1.0
140
1.0
293
     1
141
0.0
294
     1
177
     0
142
1.0
295
     0
296
     0
143
0.125
1001
ACAD_MLEADERVER
1070
     2
  0
MLINESTYLE
  5
18
102
{ACAD_REACTORS
330
17
102
}
330
17
100
AcDbMlineStyle
  2
Standard
 70
     0
  3

 62
   256
 51
90.0
 52
90.0
 71
     2
 49
0.5
 62
   256
  6
BYLAYER
 49
-0.5
 62
   256
  6
BYLAYER
  0
ACDBPLACEHOLDER
  5
F
102
{ACAD_REACTORS
330
E
102
}
330
E
  0
SCALE
  5
48
102
{ACAD_REACTORS
330
47
102
}
330
47
100
AcDbScale
 70
     0
300
1:1
140
1.0
141
1.0
290
     1
  0
SCALE
  5
49
102
{ACAD_REACTORS
330
47
102
}
330
47
100
AcDbScale
 70
     0
300
1:2
140
1.0
141
2.0
290
     0
  0
SCALE
  5
4A
102
{ACAD_REACTORS
330
47
102
}
330
47
100
AcDbScale
 70
     0
300
1:4
140
1.0
141
4.0
290
     0
  0
SCALE
  5
4B
102
{ACAD_REACTORS
330
47
102
}
330
47
100
AcDbScale
 70
     0
300
1:5
140
1.0
141
5.0
290
     0
  0
SCALE
  5
4C
102
{ACAD_REACTORS
330
47
102
}
330
47
100
AcDbScale
 70
     0
300
1:8
140
1.0
141
8.0
290
     0
  0
SCALE
  5
4D
102
{ACAD_REACTORS
330
47
102
}
330
47
100
AcDbScale
 70
     0
300
1:10
140
1.0
141
10.0
290
     0
  0
SCALE
  5
4E
102
{ACAD_REACTORS
330
47
102
}
330
47
100
AcDbScale
 70
     0
300
1:16
140
1.0
141
16.0
290
     0
  0
SCALE
  5
4F
102
{ACAD_REACTORS
330
47
102
}
330
47
100
AcDbScale
 70
     0
300
1:20
140
1.0
141
20.0
290
     0
  0
SCALE
  5
50
102
{ACAD_REACTORS
330
47
102
}
330
47
100
AcDbScale
 70
     0
300
1:30
140
1.0
141
30.0
290
     0
  0
SCALE
  5
51
102
{ACAD_REACTORS
330
47
102
}
330
47
100
AcDbScale
 70
     0
300
1:40
140
1.0
141
40.0
290
     0
  0
SCALE
  5
52
102
{ACAD_REACTORS
330
47
102
}
330
47
100
AcDbScale
 70
     0
300
1:50
140
1.0
141
50.0
290
     0
  0
SCALE
  5
53
102
{ACAD_REACTORS
330
47
102
}
330
47
100
AcDbScale
 70
     0
300
1:100
140
1.0
141
100.0
290
     0
  0
SCALE
  5
54
102
{ACAD_REACTORS
330
47
102
}
330
47
100
AcDbScale
 70
     0
300
2:1
140
2.0
141
1.0
290
     0
  0
SCALE
  5
55
102
{ACAD_REACTORS
330
47
102
}
330
47
100
AcDbScale
 70
     0
300
4:1
140
4.0
141
1.0
290
     0
  0
SCALE
  5
56
102
{ACAD_REACTORS
330
47
102
}
330
47
100
AcDbScale
 70
     0
300
8:1
140
8.0
141
1.0
290
     0
  0
SCALE
  5
57
102
{ACAD_REACTORS
330
47
102
}
330
47
100
AcDbScale
 70
     0
300
10:1
140
10.0
141
1.0
290
     0
  0
SCALE
  5
58
102
{ACAD_REACTORS
330
47
102
}
330
47
100
AcDbScale
 70
     0
300
100:1
140
100.0
141
1.0
290
     0
  0
SCALE
  5
59
102
{ACAD_REACTORS
330
47
102
}
330
47
100
AcDbScale
 70
     0
300
1/128" = 1'-0"
140
0.0078125
141
12.0
290
     0
  0
SCALE
  5
5A
102
{ACAD_REACTORS
330
47
102
}
330
47
100
AcDbScale
 70
     0
300
1/64" = 1'-0"
140
0.015625
141
12.0
290
     0
  0
SCALE
  5
5B
102
{ACAD_REACTORS
330
47
102
}
330
47
100
AcDbScale
 70
     0
300
1/32" = 1'-0"
140
0.03125
141
12.0
290
     0
  0
SCALE
  5
5C
102
{ACAD_REACTORS
330
47
102
}
330
47
100
AcDbScale
 70
     0
300
1/16" = 1'-0"
140
0.0625
141
12.0
290
     0
  0
SCALE
  5
5D
102
{ACAD_REACTORS
330
47
102
}
330
47
100
AcDbScale
 70
     0
300
3/32" = 1'-0"
140
0.09375
141
12.0
290
     0
  0
SCALE
  5
5E
102
{ACAD_REACTORS
330
47
102
}
330
47
100
AcDbScale
 70
     0
300
1/8" = 1'-0"
140
0.125
141
12.0
290
     0
  0
SCALE
  5
5F
102
{ACAD_REACTORS
330
47
102
}
330
47
100
AcDbScale
 70
     0
300
3/16" = 1'-0"
140
0.1875
141
12.0
290
     0
  0
SCALE
  5
60
102
{ACAD_REACTORS
330
47
102
}
330
47
100
AcDbScale
 70
     0
300
1/4" = 1'-0"
140
0.25
141
12.0
290
     0
  0
SCALE
  5
61
102
{ACAD_REACTORS
330
47
102
}
330
47
100
AcDbScale
 70
     0
300
3/8" = 1'-0"
140
0.375
141
12.0
290
     0
  0
SCALE
  5
62
102
{ACAD_REACTORS
330
47
102
}
330
47
100
AcDbScale
 70
     0
300
1/2" = 1'-0"
140
0.5
141
12.0
290
     0
  0
SCALE
  5
63
102
{ACAD_REACTORS
330
47
102
}
330
47
100
AcDbScale
 70
     0
300
3/4" = 1'-0"
140
0.75
141
12.0
290
     0
  0
SCALE
  5
64
102
{ACAD_REACTORS
330
47
102
}
330
47
100
AcDbScale
 70
     0
300
1" = 1'-0"
140
1.0
141
12.0
290
     0
  0
SCALE
  5
65
102
{ACAD_REACTORS
330
47
102
}
330
47
100
AcDbScale
 70
     0
300
1-1/2" = 1'-0"
140
1.5
141
12.0
290
     0
  0
SCALE
  5
66
102
{ACAD_REACTORS
330
47
102
}
330
47
100
AcDbScale
 70
     0
300
3" = 1'-0"
140
3.0
141
12.0
290
     0
  0
SCALE
  5
67
102
{ACAD_REACTORS
330
47
102
}
330
47
100
AcDbScale
 70
     0
300
6" = 1'-0"
140
6.0
141
12.0
290
     0
  0
SCALE
  5
68
102
{ACAD_REACTORS
330
47
102
}
330
47
100
AcDbScale
 70
     0
300
1'-0" = 1'-0"
140
12.0
141
12.0
290
     0
  0
TABLESTYLE
  5
6A
102
{ACAD_REACTORS
330
69
102
}
102
{ACAD_XDICTIONARY
360
E5
102
}
330
69
100
AcDbTableStyle
  3
Standard
 70
     0
 71
     0
 40
0.06
 41
0.06
280
     0
281
     0
  7
Standard
140
0.18
170
     2
 62
     0
 63
   257
283
     0
 90
        4
 91
        0
  1

274
    -2
284
     1
 64
     0
275
    -2
285
     1
 65
     0
276
    -2
286
     1
 66
     0
277
    -2
287
     1
 67
     0
278
    -2
288
     1
 68
     0
279
    -2
289
     1
 69
     0
  7
Standard
140
0.25
170
     5
 62
     0
 63
   257
283
     0
 90
        4
 91
        0
  1

274
    -2
284
     1
 64
     0
275
    -2
285
     1
 65
     0
276
    -2
286
     1
 66
     0
277
    -2
287
     1
 67
     0
278
    -2
288
     1
 68
     0
279
    -2
289
     1
 69
     0
  7
Standard
140
0.18
170
     5
 62
     0
 63
   257
283
     0
 90
        4
 91
        0
  1

274
    -2
284
     1
 64
     0
275
    -2
285
     1
 65
     0
276
    -2
286
     1
 66
     0
277
    -2
287
     1
 67
     0
278
    -2
288
     1
 68
     0
279
    -2
289
     1
 69
     0
  0
VISUALSTYLE
  5
2F
102
{ACAD_REACTORS
330
2A
102
}
102
{ACAD_XDICTIONARY
360
BD
102
}
330
2A
100
AcDbVisualStyle
  2
2dWireframe
 70
     4
 71
     0
 72
     2
 73
     0
 90
        0
 40
0.6
 41
30.0
 62
     5
 63
     7
421
 16777215
 74
     1
 91
        4
 64
     7
 65
   257
 75
     1
175
     1
 42
1.0
 92
        0
 66
   257
 43
1.0
 76
     1
 77
     6
 78
     2
 67
     7
 79
     5
170
     0
171
     0
290
     0
174
     0
 93
        1
 44
0.0
173
     0
291
     0
 45
0.0
  0
VISUALSTYLE
  5
32
102
{ACAD_REACTORS
330
2A
102
}
102
{ACAD_XDICTIONARY
360
C3
102
}
330
2A
100
AcDbVisualStyle
  2
Basic
 70
     7
 71
     1
 72
     0
 73
     1
 90
        0
 40
0.6
 41
30.0
 62
     5
 63
     7
421
 16777215
 74
     0
 91
        4
 64
     7
 65
   257
 75
     1
175
     1
 42
1.0
 92
        8
 66
     7
 43
1.0
 76
     1
 77
     6
 78
     2
 67
     7
 79
     5
170
     0
171
     0
290
     0
174
     0
 93
        1
 44
0.0
173
     0
291
     1
 45
0.0
  0
VISUALSTYLE
  5
36
102
{ACAD_REACTORS
330
2A
102
}
102
{ACAD_XDICTIONARY
360
CB
102
}
330
2A
100
AcDbVisualStyle
  2
Brighten
 70
    12
 71
     2
 72
     2
 73
     0
 90
        0
 40
0.6
 41
30.0
 62
     5
 63
     7
421
 16777215
 74
     1
 91
        4
 64
     7
 65
   257
 75
     1
175
     1
 42
1.0
 92
        8
 66
     7
 43
1.0
 76
     1
 77
     6
 78
     2
 67
     7
 79
     5
170
     0
171
     0
290
     0
174
     0
 93
        1
 44
50.0
173
     0
291
     1
 45
0.0
  0
VISUALSTYLE
  5
3A
102
{ACAD_REACTORS
330
2A
102
}
102
{ACAD_XDICTIONARY
360
D3
102
}
330
2A
100
AcDbVisualStyle
  2
ColorChange
 70
    16
 71
     2
 72
     2
 73
     3
 90
        0
 40
0.6
 41
30.0
 62
     5
 63
     8
421
  8421504
 74
     1
 91
        4
 64
     7
 65
   257
 75
     1
175
     1
 42
1.0
 92
        8
 66
     8
424
  8421504
 43
1.0
 76
     1
 77
     6
 78
     2
 67
     7
 79
     5
170
     0
171
     0
290
     0
174
     0
 93
        1
 44
0.0
173
     0
291
     1
 45
0.0
  0
VISUALSTYLE
  5
34
102
{ACAD_REACTORS
330
2A
102
}
102
{ACAD_XDICTIONARY
360
C7
102
}
330
2A
100
AcDbVisualStyle
  2
Conceptual
 70
     9
 71
     3
 72
     2
 73
     0
 90
        0
 40
0.6
 41
30.0
 62
     5
 63
     7
421
 16777215
 74
     2
 91
        2
 64
     7
 65
   257
 75
     1
175
     1
 42
179.0
 92
        8
 66
     7
 43
1.0
 76
     1
 77
     6
 78
     2
 67
     7
 79
     3
170
     0
171
     0
290
     0
174
     0
 93
        1
 44
0.0
173
     0
291
     0
 45
0.0
  0
VISUALSTYLE
  5
35
102
{ACAD_REACTORS
330
2A
102
}
102
{ACAD_XDICTIONARY
360
C9
102
}
330
2A
100
AcDbVisualStyle
  2
Dim
 70
    11
 71
     2
 72
     2
 73
     0
 90
        0
 40
0.6
 41
30.0
 62
     5
 63
     7
421
 16777215
 74
     1
 91
        4
 64
     7
 65
   257
 75
     1
175
     1
 42
1.0
 92
        8
 66
     7
 43
1.0
 76
     1
 77
     6
 78
     2
 67
     7
 79
     5
170
     0
171
     0
290
     0
174
     0
 93
        1
 44
-50.0
173
     0
291
     1
 45
0.0
  0
VISUALSTYLE
  5
3D
102
{ACAD_REACTORS
330
2A
102
}
102
{ACAD_XDICTIONARY
360
D9
102
}
330
2A
100
AcDbVisualStyle
  2
EdgeColorOff
 70
    22
 71
     2
 72
     2
 73
     0
 90
        0
 40
0.6
 41
30.0
 62
     5
 63
     7
421
 16777215
 74
     1
 91
        4
 64
     7
 65
   257
 75
     1
175
     1
 42
1.0
 92
        8
 66
     7
 43
1.0
 76
     1
 77
     6
 78
     2
 67
     7
 79
     5
170
     0
171
     0
290
     0
174
     0
 93
        1
 44
0.0
173
     0
291
     1
 45
0.0
  0
VISUALSTYLE
  5
39
102
{ACAD_REACTORS
330
2A
102
}
102
{ACAD_XDICTIONARY
360
D1
102
}
330
2A
100
AcDbVisualStyle
  2
Facepattern
 70
    15
 71
     2
 72
     2
 73
     0
 90
        0
 40
0.6
 41
30.0
 62
     5
 63
     7
421
 16777215
 74
     1
 91
        4
 64
     7
 65
   257
 75
     1
175
     1
 42
1.0
 92
        8
 66
     7
 43
1.0
 76
     1
 77
     6
 78
     2
 67
     7
 79
     5
170
     0
171
     0
290
     0
174
     0
 93
        1
 44
0.0
173
     0
291
     1
 45
0.0
  0
VISUALSTYLE
  5
2B
102
{ACAD_REACTORS
330
2A
102
}
102
{ACAD_XDICTIONARY
360
B5
102
}
330
2A
100
AcDbVisualStyle
  2
Flat
 70
     0
 71
     2
 72
     1
 73
     1
 90
        2
 40
0.6
 41
30.0
 62
     5
 63
     7
421
 16777215
 74
     0
 91
        0
 64
     7
 65
   257
 75
     1
175
     1
 42
1.0
 92
        8
 66
     7
 43
1.0
 76
     1
 77
     6
 78
     2
 67
     7
 79
     5
170
     0
171
     0
290
     0
174
     0
 93
       13
 44
0.0
173
     0
291
     1
 45
0.0
  0
VISUALSTYLE
  5
2C
102
{ACAD_REACTORS
330
2A
102
}
102
{ACAD_XDICTIONARY
360
B7
102
}
330
2A
100
AcDbVisualStyle
  2
FlatWithEdges
 70
     1
 71
     2
 72
     1
 73
     1
 90
        2
 40
0.6
 41
30.0
 62
     5
 63
     7
421
 16777215
 74
     1
 91
        0
 64
     7
 65
   257
 75
     1
175
     1
 42
1.0
 92
        0
 66
   257
 43
1.0
 76
     1
 77
     6
 78
     2
 67
     7
 79
     5
170
     0
171
     0
290
     0
174
     0
 93
       13
 44
0.0
173
     0
291
     1
 45
0.0
  0
VISUALSTYLE
  5
2D
102
{ACAD_REACTORS
330
2A
102
}
102
{ACAD_XDICTIONARY
360
B9
102
}
330
2A
100
AcDbVisualStyle
  2
Gouraud
 70
     2
 71
     2
 72
     2
 73
     1
 90
        2
 40
0.6
 41
30.0
 62
     5
 63
     7
421
 16777215
 74
     0
 91
        0
 64
     7
 65
   257
 75
     1
175
     1
 42
1.0
 92
        0
 66
     7
 43
1.0
 76
     1
 77
     6
 78
     2
 67
     7
 79
     5
170
     0
171
     0
290
     0
174
     0
 93
       13
 44
0.0
173
     0
291
     1
 45
0.0
  0
VISUALSTYLE
  5
2E
102
{ACAD_REACTORS
330
2A
102
}
102
{ACAD_XDICTIONARY
360
BB
102
}
330
2A
100
AcDbVisualStyle
  2
GouraudWithEdges
 70
     3
 71
     2
 72
     2
 73
     1
 90
        2
 40
0.6
 41
30.0
 62
     5
 63
     7
421
 16777215
 74
     1
 91
        0
 64
     7
 65
   257
 75
     1
175
     1
 42
1.0
 92
        0
 66
   257
 43
1.0
 76
     1
 77
     6
 78
     2
 67
     7
 79
     5
170
     0
171
     0
290
     0
174
     0
 93
       13
 44
0.0
173
     0
291
     1
 45
0.0
  0
VISUALSTYLE
  5
31
102
{ACAD_REACTORS
330
2A
102
}
102
{ACAD_XDICTIONARY
360
C1
102
}
330
2A
100
AcDbVisualStyle
  2
Hidden
 70
     6
 71
     1
 72
     2
 73
     2
 90
        0
 40
0.6
 41
30.0
 62
     5
 63
     7
421
 16777215
 74
     2
 91
        2
 64
     7
 65
   257
 75
     2
175
     1
 42
40.0
 92
        0
 66
   257
 43
1.0
 76
     1
 77
     6
 78
     2
 67
     7
 79
     3
170
     0
171
     0
290
     0
174
     0
 93
        1
 44
0.0
173
     0
291
     0
 45
0.0
  0
VISUALSTYLE
  5
3B
102
{ACAD_REACTORS
330
2A
102
}
102
{ACAD_XDICTIONARY
360
D5
102
}
330
2A
100
AcDbVisualStyle
  2
JitterOff
 70
    20
 71
     2
 72
     2
 73
     0
 90
        0
 40
0.6
 41
30.0
 62
     5
 63
     7
421
 16777215
 74
     1
 91
        4
 64
     7
 65
   257
 75
     1
175
     1
 42
1.0
 92
       10
 66
     7
 43
1.0
 76
     1
 77
     6
 78
     2
 67
     7
 79
     5
170
     0
171
     0
290
     0
174
     0
 93
        1
 44
0.0
173
     0
291
     1
 45
0.0
  0
VISUALSTYLE
  5
38
102
{ACAD_REACTORS
330
2A
102
}
102
{ACAD_XDICTIONARY
360
CF
102
}
330
2A
100
AcDbVisualStyle
  2
Linepattern
 70
    14
 71
     2
 72
     2
 73
     0
 90
        0
 40
0.6
 41
30.0
 62
     5
 63
     7
421
 16777215
 74
     1
 91
        4
 64
     7
 65
   257
 75
     7
175
     7
 42
1.0
 92
        8
 66
     7
 43
1.0
 76
     1
 77
     6
 78
     2
 67
     7
 79
     5
170
     0
171
     0
290
     0
174
     0
 93
        1
 44
0.0
173
     0
291
     1
 45
0.0
  0
VISUALSTYLE
  5
3C
102
{ACAD_REACTORS
330
2A
102
}
102
{ACAD_XDICTIONARY
360
D7
102
}
330
2A
100
AcDbVisualStyle
  2
OverhangOff
 70
    21
 71
     2
 72
     2
 73
     0
 90
        0
 40
0.6
 41
30.0
 62
     5
 63
     7
421
 16777215
 74
     1
 91
        4
 64
     7
 65
   257
 75
     1
175
     1
 42
1.0
 92
        9
 66
     7
 43
1.0
 76
     1
 77
     6
 78
     2
 67
     7
 79
     5
170
     0
171
     0
290
     0
174
     0
 93
        1
 44
0.0
173
     0
291
     1
 45
0.0
  0
VISUALSTYLE
  5
33
102
{ACAD_REACTORS
330
2A
102
}
102
{ACAD_XDICTIONARY
360
C5
102
}
330
2A
100
AcDbVisualStyle
  2
Realistic
 70
     8
 71
     2
 72
     3
 73
     0
 90
        2
 40
0.6
 41
30.0
 62
     5
 63
     7
421
 16777215
 74
     0
 91
        0
 64
     7
 65
   257
 75
     1
175
     1
 42
1.0
 92
        8
 66
   257
 43
1.0
 76
     1
 77
     6
 78
     2
 67
     7
 79
     3
170
     0
171
     0
290
     0
174
     0
 93
       13
 44
0.0
173
     0
291
     0
 45
0.0
  0
VISUALSTYLE
  5
42
102
{ACAD_REACTORS
330
2A
102
}
102
{ACAD_XDICTIONARY
360
E3
102
}
330
2A
100
AcDbVisualStyle
  2
Shaded
 70
    27
 71
     2
 72
     2
 73
     1
 90
        2
 40
0.6
 41
30.0
 62
     5
 63
     7
421
 16777215
 74
     0
 91
        4
 64
     7
 65
   257
 75
     1
175
     1
 42
1.0
 92
        8
 66
   257
 43
1.0
 76
     1
 77
     6
 78
     2
 67
     8
425
  7895160
 79
     3
170
     0
171
     0
290
     0
174
     0
 93
        5
 44
0.0
173
     0
291
     0
 45
0.0
  0
VISUALSTYLE
  5
41
102
{ACAD_REACTORS
330
2A
102
}
102
{ACAD_XDICTIONARY
360
E1
102
}
330
2A
100
AcDbVisualStyle
  2
Shaded with edges
 70
    26
 71
     2
 72
     2
 73
     1
 90
        2
 40
0.6
 41
30.0
 62
     5
 63
     7
421
 16777215
 74
     1
 91
       10
 64
     7
 65
   257
 75
     2
175
     1
 42
1.0
 92
        8
 66
   257
 43
1.0
 76
     1
 77
     6
 78
     2
 67
     7
 79
     3
170
     0
171
     0
290
     0
174
     0
 93
        5
 44
0.0
173
     0
291
     0
 45
0.0
  0
VISUALSTYLE
  5
3E
102
{ACAD_REACTORS
330
2A
102
}
102
{ACAD_XDICTIONARY
360
DB
102
}
330
2A
100
AcDbVisualStyle
  2
Shades of Gray
 70
    23
 71
     2
 72
     2
 73
     3
 90
        0
 40
0.6
 41
30.0
 62
     5
 63
     7
421
 16777215
 74
     2
 91
        2
 64
     7
 65
     7
 75
     1
175
     1
 42
40.0
 92
        8
 66
     7
 43
1.0
 76
     1
 77
     6
 78
     2
 67
     7
 79
     3
170
     0
171
     0
290
     0
174
     0
 93
        1
 44
0.0
173
     0
291
     0
 45
0.0
  0
VISUALSTYLE
  5
3F
102
{ACAD_REACTORS
330
2A
102
}
102
{ACAD_XDICTIONARY
360
DD
102
}
330
2A
100
AcDbVisualStyle
  2
Sketchy
 70
    24
 71
     1
 72
     2
 73
     2
 90
        0
 40
0.6
 41
30.0
 62
     5
 63
     7
421
 16777215
 74
     2
 91
        2
 64
     7
 65
     7
 75
     1
175
     1
 42
40.0
 92
       11
 66
     7
 43
1.0
 76
     1
 77
     6
 78
     2
 67
     7
 79
     6
170
     0
171
     0
290
     0
174
     0
 93
        1
 44
0.0
173
     0
291
     0
 45
0.0
  0
VISUALSTYLE
  5
37
102
{ACAD_REACTORS
330
2A
102
}
102
{ACAD_XDICTIONARY
360
CD
102
}
330
2A
100
AcDbVisualStyle
  2
Thicken
 70
    13
 71
     2
 72
     2
 73
     0
 90
        0
 40
0.6
 41
30.0
 62
     5
 63
     7
421
 16777215
 74
     1
 91
        4
 64
     7
 65
   257
 75
     1
175
     1
 42
1.0
 92
       12
 66
     7
 43
1.0
 76
     1
 77
     6
 78
     2
 67
     7
 79
     5
170
     0
171
     0
290
     0
174
     0
 93
        1
 44
0.0
173
     0
291
     1
 45
0.0
  0
VISUALSTYLE
  5
30
102
{ACAD_REACTORS
330
2A
102
}
102
{ACAD_XDICTIONARY
360
BF
102
}
330
2A
100
AcDbVisualStyle
  2
Wireframe
 70
     5
 71
     0
 72
     2
 73
     0
 90
        0
 40
0.6
 41
30.0
 62
     5
 63
     7
421
 16777215
 74
     1
 91
        4
 64
     7
 65
   257
 75
     1
175
     1
 42
1.0
 92
        0
 66
   257
 43
1.0
 76
     1
 77
     6
 78
     2
 67
     7
 79
     3
170
     0
171
     0
290
     0
174
     0
 93
        1
 44
0.0
173
     0
291
     0
 45
0.0
  0
VISUALSTYLE
  5
40
102
{ACAD_REACTORS
330
2A
102
}
102
{ACAD_XDICTIONARY
360
DF
102
}
330
2A
100
AcDbVisualStyle
  2
X-Ray
 70
    25
 71
     2
 72
     2
 73
     1
 90
        1
 40
0.5
 41
30.0
 62
     5
 63
     7
421
 16777215
 74
     1
 91
        0
 64
     7
 65
   257
 75
     1
175
     1
 42
1.0
 92
        8
 66
     7
 43
1.0
 76
     1
 77
     6
 78
     2
 67
     7
 79
     3
170
     0
171
     0
290
     0
174
     0
 93
       13
 44
0.0
173
     0
291
     0
 45
0.0
  0
DICTIONARYVAR
  5
B3
102
{ACAD_REACTORS
330
B2
102
}
330
B2
100
DictionaryVariables
280
     0
  1
1:1
  0
DICTIONARYVAR
  5
EC
102
{ACAD_REACTORS
330
B2
102
}
330
B2
100
DictionaryVariables
280
     0
  1
Standard
  0
DICTIONARYVAR
  5
EB
102
{ACAD_REACTORS
330
B2
102
}
330
B2
100
DictionaryVariables
280
     0
  1
Standard
  0
DICTIONARYVAR
  5
B4
102
{ACAD_REACTORS
330
B2
102
}
330
B2
100
DictionaryVariables
280
     0
  1
2
  0
DICTIONARY
  5
E8
330
6C
100
AcDbDictionary
280
     1
281
     1
  3
ACAD_XREC_ROUNDTRIP
360
E9
  0
DICTIONARY
  5
E5
330
6A
100
AcDbDictionary
280
     1
281
     1
  3
ACAD_ROUNDTRIP_2008_TABLESTYLE_CELLSTYLEMAP
360
E6
  0
DICTIONARY
  5
BD
330
2F
100
AcDbDictionary
280
     1
281
     1
  3
ACAD_XREC_ROUNDTRIP
360
BE
  0
DICTIONARY
  5
C3
330
32
100
AcDbDictionary
280
     1
281
     1
  3
ACAD_XREC_ROUNDTRIP
360
C4
  0
DICTIONARY
  5
CB
330
36
100
AcDbDictionary
280
     1
281
     1
  3
ACAD_XREC_ROUNDTRIP
360
CC
  0
DICTIONARY
  5
D3
330
3A
100
AcDbDictionary
280
     1
281
     1
  3
ACAD_XREC_ROUNDTRIP
360
D4
  0
DICTIONARY
  5
C7
330
34
100
AcDbDictionary
280
     1
281
     1
  3
ACAD_XREC_ROUNDTRIP
360
C8
  0
DICTIONARY
  5
C9
330
35
100
AcDbDictionary
280
     1
281
     1
  3
ACAD_XREC_ROUNDTRIP
360
CA
  0
DICTIONARY
  5
D9
330
3D
100
AcDbDictionary
280
     1
281
     1
  3
ACAD_XREC_ROUNDTRIP
360
DA
  0
DICTIONARY
  5
D1
330
39
100
AcDbDictionary
280
     1
281
     1
  3
ACAD_XREC_ROUNDTRIP
360
D2
  0
DICTIONARY
  5
B5
330
2B
100
AcDbDictionary
280
     1
281
     1
  3
ACAD_XREC_ROUNDTRIP
360
B6
  0
DICTIONARY
  5
B7
330
2C
100
AcDbDictionary
280
     1
281
     1
  3
ACAD_XREC_ROUNDTRIP
360
B8
  0
DICTIONARY
  5
B9
330
2D
100
AcDbDictionary
280
     1
281
     1
  3
ACAD_XREC_ROUNDTRIP
360
BA
  0
DICTIONARY
  5
BB
330
2E
100
AcDbDictionary
280
     1
281
     1
  3
ACAD_XREC_ROUNDTRIP
360
BC
  0
DICTIONARY
  5
C1
330
31
100
AcDbDictionary
280
     1
281
     1
  3
ACAD_XREC_ROUNDTRIP
360
C2
  0
DICTIONARY
  5
D5
330
3B
100
AcDbDictionary
280
     1
281
     1
  3
ACAD_XREC_ROUNDTRIP
360
D6
  0
DICTIONARY
  5
CF
330
38
100
AcDbDictionary
280
     1
281
     1
  3
ACAD_XREC_ROUNDTRIP
360
D0
  0
DICTIONARY
  5
D7
330
3C
100
AcDbDictionary
280
     1
281
     1
  3
ACAD_XREC_ROUNDTRIP
360
D8
  0
DICTIONARY
  5
C5
330
33
100
AcDbDictionary
280
     1
281
     1
  3
ACAD_XREC_ROUNDTRIP
360
C6
  0
DICTIONARY
  5
E3
330
42
100
AcDbDictionary
280
     1
281
     1
  3
ACAD_XREC_ROUNDTRIP
360
E4
  0
DICTIONARY
  5
E1
330
41
100
AcDbDictionary
280
     1
281
     1
  3
ACAD_XREC_ROUNDTRIP
360
E2
  0
DICTIONARY
  5
DB
330
3E
100
AcDbDictionary
280
     1
281
     1
  3
ACAD_XREC_ROUNDTRIP
360
DC
  0
DICTIONARY
  5
DD
330
3F
100
AcDbDictionary
280
     1
281
     1
  3
ACAD_XREC_ROUNDTRIP
360
DE
  0
DICTIONARY
  5
CD
330
37
100
AcDbDictionary
280
     1
281
     1
  3
ACAD_XREC_ROUNDTRIP
360
CE
  0
DICTIONARY
  5
BF
330
30
100
AcDbDictionary
280
     1
281
     1
  3
ACAD_XREC_ROUNDTRIP
360
C0
  0
DICTIONARY
  5
DF
330
40
100
AcDbDictionary
280
     1
281
     1
  3
ACAD_XREC_ROUNDTRIP
360
E0
  0
XRECORD
  5
E9
102
{ACAD_REACTORS
330
E8
102
}
330
E8
100
AcDbXrecord
280
     1
102
ACAD_ROUNDTRIP_2010_MLEADER_STYLE
  0
CELLSTYLEMAP
  5
E6
102
{ACAD_REACTORS
330
E5
102
}
330
E5
100
AcDbCellStyleMap
 90
        3
300
CELLSTYLE
  1
TABLEFORMAT_BEGIN
 90
        5
170
     1
 91
        0
 92
    32768
 62
   257
 93
        1
300
CONTENTFORMAT
  1
CONTENTFORMAT_BEGIN
 90
        0
 91
        0
 92
        4
 93
        0
300

 40
0.0
140
1.0
 94
        5
 62
     0
340
11
144
0.25
309
CONTENTFORMAT_END
171
     1
301
MARGIN
  1
CELLMARGIN_BEGIN
 40
0.06
 40
0.06
 40
0.06
 40
0.06
 40
0.06
 40
0.06
309
CELLMARGIN_END
 94
        6
 95
        1
302
GRIDFORMAT
  1
GRIDFORMAT_BEGIN
 90
        0
 91
        1
 62
     0
 92
       -2
340
14
 93
        0
 40
0.045
309
GRIDFORMAT_END
 95
        2
302
GRIDFORMAT
  1
GRIDFORMAT_BEGIN
 90
        0
 91
        1
 62
     0
 92
       -2
340
14
 93
        0
 40
0.045
309
GRIDFORMAT_END
 95
        4
302
GRIDFORMAT
  1
GRIDFORMAT_BEGIN
 90
        0
 91
        1
 62
     0
 92
       -2
340
14
 93
        0
 40
0.045
309
GRIDFORMAT_END
 95
        8
302
GRIDFORMAT
  1
GRIDFORMAT_BEGIN
 90
        0
 91
        1
 62
     0
 92
       -2
340
14
 93
        0
 40
0.045
309
GRIDFORMAT_END
 95
       16
302
GRIDFORMAT
  1
GRIDFORMAT_BEGIN
 90
        0
 91
        1
 62
     0
 92
       -2
340
14
 93
        0
 40
0.045
309
GRIDFORMAT_END
 95
       32
302
GRIDFORMAT
  1
GRIDFORMAT_BEGIN
 90
        0
 91
        1
 62
     0
 92
       -2
340
14
 93
        0
 40
0.045
309
GRIDFORMAT_END
309
TABLEFORMAT_END
  1
CELLSTYLE_BEGIN
 90
        1
 91
        1
300
_TITLE
309
CELLSTYLE_END
300
CELLSTYLE
  1
TABLEFORMAT_BEGIN
 90
        5
170
     1
 91
        0
 92
        0
 62
   257
 93
        1
300
CONTENTFORMAT
  1
CONTENTFORMAT_BEGIN
 90
        0
 91
        0
 92
        4
 93
        0
300

 40
0.0
140
1.0
 94
        5
 62
     0
340
11
144
0.18
309
CONTENTFORMAT_END
171
     1
301
MARGIN
  1
CELLMARGIN_BEGIN
 40
0.06
 40
0.06
 40
0.06
 40
0.06
 40
0.06
 40
0.06
309
CELLMARGIN_END
 94
        6
 95
        1
302
GRIDFORMAT
  1
GRIDFORMAT_BEGIN
 90
        0
 91
        1
 62
     0
 92
       -2
340
14
 93
        0
 40
0.045
309
GRIDFORMAT_END
 95
        2
302
GRIDFORMAT
  1
GRIDFORMAT_BEGIN
 90
        0
 91
        1
 62
     0
 92
       -2
340
14
 93
        0
 40
0.045
309
GRIDFORMAT_END
 95
        4
302
GRIDFORMAT
  1
GRIDFORMAT_BEGIN
 90
        0
 91
        1
 62
     0
 92
       -2
340
14
 93
        0
 40
0.045
309
GRIDFORMAT_END
 95
        8
302
GRIDFORMAT
  1
GRIDFORMAT_BEGIN
 90
        0
 91
        1
 62
     0
 92
       -2
340
14
 93
        0
 40
0.045
309
GRIDFORMAT_END
 95
       16
302
GRIDFORMAT
  1
GRIDFORMAT_BEGIN
 90
        0
 91
        1
 62
     0
 92
       -2
340
14
 93
        0
 40
0.045
309
GRIDFORMAT_END
 95
       32
302
GRIDFORMAT
  1
GRIDFORMAT_BEGIN
 90
        0
 91
        1
 62
     0
 92
       -2
340
14
 93
        0
 40
0.045
309
GRIDFORMAT_END
309
TABLEFORMAT_END
  1
CELLSTYLE_BEGIN
 90
        2
 91
        1
300
_HEADER
309
CELLSTYLE_END
300
CELLSTYLE
  1
TABLEFORMAT_BEGIN
 90
        5
170
     1
 91
        0
 92
        0
 62
   257
 93
        1
300
CONTENTFORMAT
  1
CONTENTFORMAT_BEGIN
 90
        0
 91
        0
 92
        4
 93
        0
300

 40
0.0
140
1.0
 94
        2
 62
     0
340
11
144
0.18
309
CONTENTFORMAT_END
171
     1
301
MARGIN
  1
CELLMARGIN_BEGIN
 40
0.06
 40
0.06
 40
0.06
 40
0.06
 40
0.06
 40
0.06
309
CELLMARGIN_END
 94
        6
 95
        1
302
GRIDFORMAT
  1
GRIDFORMAT_BEGIN
 90
        0
 91
        1
 62
     0
 92
       -2
340
14
 93
        0
 40
0.045
309
GRIDFORMAT_END
 95
        2
302
GRIDFORMAT
  1
GRIDFORMAT_BEGIN
 90
        0
 91
        1
 62
     0
 92
       -2
340
14
 93
        0
 40
0.045
309
GRIDFORMAT_END
 95
        4
302
GRIDFORMAT
  1
GRIDFORMAT_BEGIN
 90
        0
 91
        1
 62
     0
 92
       -2
340
14
 93
        0
 40
0.045
309
GRIDFORMAT_END
 95
        8
302
GRIDFORMAT
  1
GRIDFORMAT_BEGIN
 90
        0
 91
        1
 62
     0
 92
       -2
340
14
 93
        0
 40
0.045
309
GRIDFORMAT_END
 95
       16
302
GRIDFORMAT
  1
GRIDFORMAT_BEGIN
 90
        0
 91
        1
 62
     0
 92
       -2
340
14
 93
        0
 40
0.045
309
GRIDFORMAT_END
 95
       32
302
GRIDFORMAT
  1
GRIDFORMAT_BEGIN
 90
        0
 91
        1
 62
     0
 92
       -2
340
14
 93
        0
 40
0.045
309
GRIDFORMAT_END
309
TABLEFORMAT_END
  1
CELLSTYLE_BEGIN
 90
        3
 91
        2
300
_DATA
309
CELLSTYLE_END
  0
XRECORD
  5
BE
102
{ACAD_REACTORS
330
BD
102
}
330
BD
100
AcDbXrecord
280
     1
102
RTVSPropertyOp0
 70
     1
102
RTVSPropertyOp1
 70
     1
102
RTVSPropertyOp2
 70
     1
102
RTVSPropertyOp3
 70
     1
102
RTVSPropertyOp4
 70
     1
102
RTVSPropertyOp5
 70
     1
102
RTVSPropertyOp6
 70
     1
102
RTVSPropertyOp7
 70
     1
102
RTVSPropertyOp8
 70
     1
102
RTVSPropertyOp9
 70
     1
102
RTVSPropertyOp10
 70
     1
102
RTVSPropertyOp11
 70
     1
102
RTVSPropertyOp12
 70
     1
102
RTVSPropertyOp13
 70
     1
102
RTVSPropertyOp14
 70
     1
102
RTVSPropertyOp15
 70
     1
102
RTVSPropertyOp16
 70
     1
102
RTVSPropertyOp17
 70
     1
102
RTVSPropertyOp18
 70
     1
102
RTVSPropertyOp19
 70
     1
102
RTVSPropertyOp20
 70
     1
102
RTVSPropertyOp21
 70
     1
102
RTVSPropertyOp22
 70
     1
102
RTVSPropertyOp23
 70
     1
102
RTVSPropertyOp24
 70
     1
102
RTVSPropertyOp25
 70
     1
102
RTVSPropertyOp26
 70
     1
102
RTVSPropertyOp27
 70
     1
102
RTVSPropertyOp28
 70
     1
102
RTVSPropertyOp29
 70
     1
102
RTVSPropertyOp30
 70
     1
102
RTVSPropertyOp31
 70
     1
102
RTVSPropertyOp32
 70
     1
102
RTVSPropertyOp33
 70
     1
102
RTVSPropertyOp34
 70
     1
102
RTVSPropertyOp35
 70
     1
102
RTVSPropertyOp36
 70
     1
102
RTVSPropertyOp37
 70
     1
102
RTVSPropertyOp38
 70
     1
102
RTVSPropertyOp39
 70
     1
102
RTVSPropertyOp40
 70
     1
102
RTVSPropertyOp41
 70
     1
102
RTVSPropertyOp42
 70
     1
102
RTVSPropertyOp43
 70
     1
102
RTVSPropertyOp44
 70
     1
102
RTVSPropertyOp45
 70
     1
102
RTVSPropertyOp46
 70
     1
102
RTVSPropertyOp47
 70
     1
102
RTVSPropertyOp48
 70
     1
102
RTVSPropertyOp49
 70
     1
102
RTVSPropertyOp50
 70
     1
102
RTVSPropertyOp51
 70
     0
102
RTVSPropertyOp52
 70
     0
102
RTVSPropertyOp53
 70
     1
102
RTVSPropertyOp54
 70
     1
102
RTVSPropertyOp55
 70
     1
102
RTVSPropertyOp56
 70
     1
102
RTVSPropertyOp57
 70
     1
102
RTVSPost2010Prop28
280
     1
102
RTVSPost2010PropOp28
 70
     1
102
RTVSPost2010Prop29
280
     1
102
RTVSPost2010PropOp29
 70
     1
102
RTVSPost2010Prop30
280
     0
102
RTVSPost2010PropOp30
 70
     1
102
RTVSPost2010Prop31
280
     0
102
RTVSPost2010PropOp31
 70
     1
102
RTVSPost2010Prop32
280
     0
102
RTVSPost2010PropOp32
 70
     1
102
RTVSPost2010Prop33
280
     0
102
RTVSPost2010PropOp33
 70
     1
102
RTVSPost2010Prop34
280
     0
102
RTVSPost2010PropOp34
 70
     1
102
RTVSPost2010Prop35
280
     0
102
RTVSPost2010PropOp35
 70
     1
102
RTVSPost2010Prop36
280
     0
102
RTVSPost2010PropOp36
 70
     1
102
RTVSPost2010Prop37
 90
       50
102
RTVSPost2010PropOp37
 70
     1
102
RTVSPost2010Prop38
140
0.0
102
RTVSPost2010PropOp38
 70
     1
102
RTVSPost2010Prop39
140
1.0
102
RTVSPost2010PropOp39
 70
     1
102
RTVSPost2010Prop40
 90
        0
102
RTVSPost2010PropOp40
 70
     1
102
RTVSPost2010Prop41ColorIndex
 90
       18
102
RTVSPost2010Prop41ColorRGB
 90
        0
102
RTVSPost2010PropOp41
 70
     1
102
RTVSPost2010Prop42
 90
       50
102
RTVSPost2010PropOp42
 70
     1
102
RTVSPost2010Prop43
 90
        3
102
RTVSPost2010PropOp43
 70
     1
102
RTVSPost2010Prop44ColorIndex
 90
        5
102
RTVSPost2010Prop44ColorRGB
 90
      255
102
RTVSPost2010PropOp44
 70
     1
102
RTVSPost2010Prop45
280
     0
102
RTVSPost2010PropOp45
 70
     1
102
RTVSPost2010Prop46
 90
       50
102
RTVSPost2010PropOp46
 70
     1
102
RTVSPost2010Prop47
 90
       50
102
RTVSPost2010PropOp47
 70
     1
102
RTVSPost2010Prop48
 90
       50
102
RTVSPost2010PropOp48
 70
     1
102
RTVSPost2010Prop49
280
     0
102
RTVSPost2010PropOp49
 70
     1
102
RTVSPost2010Prop50
 90
       50
102
RTVSPost2010PropOp50
 70
     1
102
RTVSPost2010Prop51ColorIndex
 90
      256
102
RTVSPost2010Prop51ColorRGB
 90
-16777216
102
RTVSPost2010PropOp51
 70
     0
102
RTVSPost2010Prop52
140
1.0
102
RTVSPost2010PropOp52
 70
     0
102
RTVSPost2010Prop53
 90
        2
102
RTVSPost2010PropOp53
 70
     1
102
RTVSPost2010Prop54
  1
strokes_ogs.tif
102
RTVSPost2010PropOp54
 70
     1
102
RTVSPost2010Prop55
280
     0
102
RTVSPost2010PropOp55
 70
     1
102
RTVSPost2010Prop56
140
1.0
102
RTVSPost2010PropOp56
 70
     1
102
RTVSPost2010Prop57
140
1.0
102
RTVSPost2010PropOp57
 70
     1
  0
XRECORD
  5
C4
102
{ACAD_REACTORS
330
C3
102
}
330
C3
100
AcDbXrecord
280
     1
102
RTVSPropertyOp0
 70
     1
102
RTVSPropertyOp1
 70
     1
102
RTVSPropertyOp2
 70
     1
102
RTVSPropertyOp3
 70
     1
102
RTVSPropertyOp4
 70
     1
102
RTVSPropertyOp5
 70
     1
102
RTVSPropertyOp6
 70
     1
102
RTVSPropertyOp7
 70
     1
102
RTVSPropertyOp8
 70
     1
102
RTVSPropertyOp9
 70
     1
102
RTVSPropertyOp10
 70
     1
102
RTVSPropertyOp11
 70
     1
102
RTVSPropertyOp12
 70
     1
102
RTVSPropertyOp13
 70
     1
102
RTVSPropertyOp14
 70
     1
102
RTVSPropertyOp15
 70
     1
102
RTVSPropertyOp16
 70
     1
102
RTVSPropertyOp17
 70
     1
102
RTVSPropertyOp18
 70
     1
102
RTVSPropertyOp19
 70
     1
102
RTVSPropertyOp20
 70
     1
102
RTVSPropertyOp21
 70
     1
102
RTVSPropertyOp22
 70
     1
102
RTVSPropertyOp23
 70
     1
102
RTVSPropertyOp24
 70
     1
102
RTVSPropertyOp25
 70
     1
102
RTVSPropertyOp26
 70
     1
102
RTVSPropertyOp27
 70
     1
102
RTVSPropertyOp28
 70
     1
102
RTVSPropertyOp29
 70
     1
102
RTVSPropertyOp30
 70
     1
102
RTVSPropertyOp31
 70
     1
102
RTVSPropertyOp32
 70
     1
102
RTVSPropertyOp33
 70
     1
102
RTVSPropertyOp34
 70
     1
102
RTVSPropertyOp35
 70
     1
102
RTVSPropertyOp36
 70
     1
102
RTVSPropertyOp37
 70
     1
102
RTVSPropertyOp38
 70
     1
102
RTVSPropertyOp39
 70
     1
102
RTVSPropertyOp40
 70
     1
102
RTVSPropertyOp41
 70
     1
102
RTVSPropertyOp42
 70
     1
102
RTVSPropertyOp43
 70
     1
102
RTVSPropertyOp44
 70
     1
102
RTVSPropertyOp45
 70
     1
102
RTVSPropertyOp46
 70
     1
102
RTVSPropertyOp47
 70
     1
102
RTVSPropertyOp48
 70
     1
102
RTVSPropertyOp49
 70
     1
102
RTVSPropertyOp50
 70
     1
102
RTVSPropertyOp51
 70
     0
102
RTVSPropertyOp52
 70
     0
102
RTVSPropertyOp53
 70
     1
102
RTVSPropertyOp54
 70
     1
102
RTVSPropertyOp55
 70
     1
102
RTVSPropertyOp56
 70
     1
102
RTVSPropertyOp57
 70
     1
102
RTVSPost2010Prop28
280
     0
102
RTVSPost2010PropOp28
 70
     1
102
RTVSPost2010Prop29
280
     1
102
RTVSPost2010PropOp29
 70
     1
102
RTVSPost2010Prop30
280
     1
102
RTVSPost2010PropOp30
 70
     1
102
RTVSPost2010Prop31
280
     0
102
RTVSPost2010PropOp31
 70
     1
102
RTVSPost2010Prop32
280
     0
102
RTVSPost2010PropOp32
 70
     1
102
RTVSPost2010Prop33
280
     0
102
RTVSPost2010PropOp33
 70
     1
102
RTVSPost2010Prop34
280
     0
102
RTVSPost2010PropOp34
 70
     1
102
RTVSPost2010Prop35
280
     0
102
RTVSPost2010PropOp35
 70
     1
102
RTVSPost2010Prop36
280
     0
102
RTVSPost2010PropOp36
 70
     1
102
RTVSPost2010Prop37
 90
       50
102
RTVSPost2010PropOp37
 70
     1
102
RTVSPost2010Prop38
140
0.0
102
RTVSPost2010PropOp38
 70
     1
102
RTVSPost2010Prop39
140
1.0
102
RTVSPost2010PropOp39
 70
     1
102
RTVSPost2010Prop40
 90
        0
102
RTVSPost2010PropOp40
 70
     1
102
RTVSPost2010Prop41ColorIndex
 90
       18
102
RTVSPost2010Prop41ColorRGB
 90
        0
102
RTVSPost2010PropOp41
 70
     1
102
RTVSPost2010Prop42
 90
       50
102
RTVSPost2010PropOp42
 70
     1
102
RTVSPost2010Prop43
 90
        3
102
RTVSPost2010PropOp43
 70
     1
102
RTVSPost2010Prop44ColorIndex
 90
        5
102
RTVSPost2010Prop44ColorRGB
 90
      255
102
RTVSPost2010PropOp44
 70
     1
102
RTVSPost2010Prop45
280
     0
102
RTVSPost2010PropOp45
 70
     1
102
RTVSPost2010Prop46
 90
       50
102
RTVSPost2010PropOp46
 70
     1
102
RTVSPost2010Prop47
 90
       50
102
RTVSPost2010PropOp47
 70
     1
102
RTVSPost2010Prop48
 90
       50
102
RTVSPost2010PropOp48
 70
     1
102
RTVSPost2010Prop49
280
     0
102
RTVSPost2010PropOp49
 70
     1
102
RTVSPost2010Prop50
 90
       50
102
RTVSPost2010PropOp50
 70
     1
102
RTVSPost2010Prop51ColorIndex
 90
      256
102
RTVSPost2010Prop51ColorRGB
 90
-16777216
102
RTVSPost2010PropOp51
 70
     0
102
RTVSPost2010Prop52
140
1.0
102
RTVSPost2010PropOp52
 70
     0
102
RTVSPost2010Prop53
 90
        2
102
RTVSPost2010PropOp53
 70
     1
102
RTVSPost2010Prop54
  1
strokes_ogs.tif
102
RTVSPost2010PropOp54
 70
     1
102
RTVSPost2010Prop55
280
     0
102
RTVSPost2010PropOp55
 70
     1
102
RTVSPost2010Prop56
140
1.0
102
RTVSPost2010PropOp56
 70
     1
102
RTVSPost2010Prop57
140
1.0
102
RTVSPost2010PropOp57
 70
     1
  0
XRECORD
  5
CC
102
{ACAD_REACTORS
330
CB
102
}
330
CB
100
AcDbXrecord
280
     1
102
RTVSPropertyOp0
 70
     1
102
RTVSPropertyOp1
 70
     1
102
RTVSPropertyOp2
 70
     1
102
RTVSPropertyOp3
 70
     1
102
RTVSPropertyOp4
 70
     1
102
RTVSPropertyOp5
 70
     1
102
RTVSPropertyOp6
 70
     1
102
RTVSPropertyOp7
 70
     1
102
RTVSPropertyOp8
 70
     1
102
RTVSPropertyOp9
 70
     1
102
RTVSPropertyOp10
 70
     1
102
RTVSPropertyOp11
 70
     1
102
RTVSPropertyOp12
 70
     1
102
RTVSPropertyOp13
 70
     1
102
RTVSPropertyOp14
 70
     1
102
RTVSPropertyOp15
 70
     1
102
RTVSPropertyOp16
 70
     1
102
RTVSPropertyOp17
 70
     1
102
RTVSPropertyOp18
 70
     1
102
RTVSPropertyOp19
 70
     1
102
RTVSPropertyOp20
 70
     1
102
RTVSPropertyOp21
 70
     1
102
RTVSPropertyOp22
 70
     1
102
RTVSPropertyOp23
 70
     1
102
RTVSPropertyOp24
 70
     1
102
RTVSPropertyOp25
 70
     1
102
RTVSPropertyOp26
 70
     1
102
RTVSPropertyOp27
 70
     1
102
RTVSPropertyOp28
 70
     1
102
RTVSPropertyOp29
 70
     1
102
RTVSPropertyOp30
 70
     1
102
RTVSPropertyOp31
 70
     1
102
RTVSPropertyOp32
 70
     1
102
RTVSPropertyOp33
 70
     1
102
RTVSPropertyOp34
 70
     1
102
RTVSPropertyOp35
 70
     1
102
RTVSPropertyOp36
 70
     1
102
RTVSPropertyOp37
 70
     1
102
RTVSPropertyOp38
 70
     1
102
RTVSPropertyOp39
 70
     1
102
RTVSPropertyOp40
 70
     1
102
RTVSPropertyOp41
 70
     1
102
RTVSPropertyOp42
 70
     1
102
RTVSPropertyOp43
 70
     1
102
RTVSPropertyOp44
 70
     1
102
RTVSPropertyOp45
 70
     1
102
RTVSPropertyOp46
 70
     1
102
RTVSPropertyOp47
 70
     1
102
RTVSPropertyOp48
 70
     1
102
RTVSPropertyOp49
 70
     1
102
RTVSPropertyOp50
 70
     1
102
RTVSPropertyOp51
 70
     0
102
RTVSPropertyOp52
 70
     0
102
RTVSPropertyOp53
 70
     1
102
RTVSPropertyOp54
 70
     1
102
RTVSPropertyOp55
 70
     1
102
RTVSPropertyOp56
 70
     1
102
RTVSPropertyOp57
 70
     1
102
RTVSPost2010Prop28
280
     0
102
RTVSPost2010PropOp28
 70
     1
102
RTVSPost2010Prop29
280
     1
102
RTVSPost2010PropOp29
 70
     1
102
RTVSPost2010Prop30
280
     1
102
RTVSPost2010PropOp30
 70
     1
102
RTVSPost2010Prop31
280
     0
102
RTVSPost2010PropOp31
 70
     1
102
RTVSPost2010Prop32
280
     0
102
RTVSPost2010PropOp32
 70
     1
102
RTVSPost2010Prop33
280
     0
102
RTVSPost2010PropOp33
 70
     1
102
RTVSPost2010Prop34
280
     0
102
RTVSPost2010PropOp34
 70
     1
102
RTVSPost2010Prop35
280
     0
102
RTVSPost2010PropOp35
 70
     1
102
RTVSPost2010Prop36
280
     0
102
RTVSPost2010PropOp36
 70
     1
102
RTVSPost2010Prop37
 90
       50
102
RTVSPost2010PropOp37
 70
     1
102
RTVSPost2010Prop38
140
0.0
102
RTVSPost2010PropOp38
 70
     1
102
RTVSPost2010Prop39
140
1.0
102
RTVSPost2010PropOp39
 70
     1
102
RTVSPost2010Prop40
 90
        0
102
RTVSPost2010PropOp40
 70
     1
102
RTVSPost2010Prop41ColorIndex
 90
       18
102
RTVSPost2010Prop41ColorRGB
 90
        0
102
RTVSPost2010PropOp41
 70
     1
102
RTVSPost2010Prop42
 90
       50
102
RTVSPost2010PropOp42
 70
     1
102
RTVSPost2010Prop43
 90
        3
102
RTVSPost2010PropOp43
 70
     1
102
RTVSPost2010Prop44ColorIndex
 90
        5
102
RTVSPost2010Prop44ColorRGB
 90
      255
102
RTVSPost2010PropOp44
 70
     1
102
RTVSPost2010Prop45
280
     0
102
RTVSPost2010PropOp45
 70
     1
102
RTVSPost2010Prop46
 90
       50
102
RTVSPost2010PropOp46
 70
     1
102
RTVSPost2010Prop47
 90
       50
102
RTVSPost2010PropOp47
 70
     1
102
RTVSPost2010Prop48
 90
       50
102
RTVSPost2010PropOp48
 70
     1
102
RTVSPost2010Prop49
280
     0
102
RTVSPost2010PropOp49
 70
     1
102
RTVSPost2010Prop50
 90
       50
102
RTVSPost2010PropOp50
 70
     1
102
RTVSPost2010Prop51ColorIndex
 90
      256
102
RTVSPost2010Prop51ColorRGB
 90
-16777216
102
RTVSPost2010PropOp51
 70
     0
102
RTVSPost2010Prop52
140
1.0
102
RTVSPost2010PropOp52
 70
     0
102
RTVSPost2010Prop53
 90
        2
102
RTVSPost2010PropOp53
 70
     1
102
RTVSPost2010Prop54
  1
strokes_ogs.tif
102
RTVSPost2010PropOp54
 70
     1
102
RTVSPost2010Prop55
280
     0
102
RTVSPost2010PropOp55
 70
     1
102
RTVSPost2010Prop56
140
1.0
102
RTVSPost2010PropOp56
 70
     1
102
RTVSPost2010Prop57
140
1.0
102
RTVSPost2010PropOp57
 70
     1
  0
XRECORD
  5
D4
102
{ACAD_REACTORS
330
D3
102
}
330
D3
100
AcDbXrecord
280
     1
102
RTVSPropertyOp0
 70
     1
102
RTVSPropertyOp1
 70
     1
102
RTVSPropertyOp2
 70
     1
102
RTVSPropertyOp3
 70
     1
102
RTVSPropertyOp4
 70
     1
102
RTVSPropertyOp5
 70
     1
102
RTVSPropertyOp6
 70
     1
102
RTVSPropertyOp7
 70
     1
102
RTVSPropertyOp8
 70
     1
102
RTVSPropertyOp9
 70
     1
102
RTVSPropertyOp10
 70
     1
102
RTVSPropertyOp11
 70
     1
102
RTVSPropertyOp12
 70
     1
102
RTVSPropertyOp13
 70
     1
102
RTVSPropertyOp14
 70
     1
102
RTVSPropertyOp15
 70
     1
102
RTVSPropertyOp16
 70
     1
102
RTVSPropertyOp17
 70
     1
102
RTVSPropertyOp18
 70
     1
102
RTVSPropertyOp19
 70
     1
102
RTVSPropertyOp20
 70
     1
102
RTVSPropertyOp21
 70
     1
102
RTVSPropertyOp22
 70
     1
102
RTVSPropertyOp23
 70
     1
102
RTVSPropertyOp24
 70
     1
102
RTVSPropertyOp25
 70
     1
102
RTVSPropertyOp26
 70
     1
102
RTVSPropertyOp27
 70
     1
102
RTVSPropertyOp28
 70
     1
102
RTVSPropertyOp29
 70
     1
102
RTVSPropertyOp30
 70
     1
102
RTVSPropertyOp31
 70
     1
102
RTVSPropertyOp32
 70
     1
102
RTVSPropertyOp33
 70
     1
102
RTVSPropertyOp34
 70
     1
102
RTVSPropertyOp35
 70
     1
102
RTVSPropertyOp36
 70
     1
102
RTVSPropertyOp37
 70
     1
102
RTVSPropertyOp38
 70
     1
102
RTVSPropertyOp39
 70
     1
102
RTVSPropertyOp40
 70
     1
102
RTVSPropertyOp41
 70
     1
102
RTVSPropertyOp42
 70
     1
102
RTVSPropertyOp43
 70
     1
102
RTVSPropertyOp44
 70
     1
102
RTVSPropertyOp45
 70
     1
102
RTVSPropertyOp46
 70
     1
102
RTVSPropertyOp47
 70
     1
102
RTVSPropertyOp48
 70
     1
102
RTVSPropertyOp49
 70
     1
102
RTVSPropertyOp50
 70
     1
102
RTVSPropertyOp51
 70
     0
102
RTVSPropertyOp52
 70
     0
102
RTVSPropertyOp53
 70
     1
102
RTVSPropertyOp54
 70
     1
102
RTVSPropertyOp55
 70
     1
102
RTVSPropertyOp56
 70
     1
102
RTVSPropertyOp57
 70
     1
102
RTVSPost2010Prop28
280
     0
102
RTVSPost2010PropOp28
 70
     1
102
RTVSPost2010Prop29
280
     1
102
RTVSPost2010PropOp29
 70
     1
102
RTVSPost2010Prop30
280
     1
102
RTVSPost2010PropOp30
 70
     1
102
RTVSPost2010Prop31
280
     0
102
RTVSPost2010PropOp31
 70
     1
102
RTVSPost2010Prop32
280
     0
102
RTVSPost2010PropOp32
 70
     1
102
RTVSPost2010Prop33
280
     0
102
RTVSPost2010PropOp33
 70
     1
102
RTVSPost2010Prop34
280
     0
102
RTVSPost2010PropOp34
 70
     1
102
RTVSPost2010Prop35
280
     0
102
RTVSPost2010PropOp35
 70
     1
102
RTVSPost2010Prop36
280
     0
102
RTVSPost2010PropOp36
 70
     1
102
RTVSPost2010Prop37
 90
       50
102
RTVSPost2010PropOp37
 70
     1
102
RTVSPost2010Prop38
140
0.0
102
RTVSPost2010PropOp38
 70
     1
102
RTVSPost2010Prop39
140
1.0
102
RTVSPost2010PropOp39
 70
     1
102
RTVSPost2010Prop40
 90
        0
102
RTVSPost2010PropOp40
 70
     1
102
RTVSPost2010Prop41ColorIndex
 90
       18
102
RTVSPost2010Prop41ColorRGB
 90
        0
102
RTVSPost2010PropOp41
 70
     1
102
RTVSPost2010Prop42
 90
       50
102
RTVSPost2010PropOp42
 70
     1
102
RTVSPost2010Prop43
 90
        3
102
RTVSPost2010PropOp43
 70
     1
102
RTVSPost2010Prop44ColorIndex
 90
        5
102
RTVSPost2010Prop44ColorRGB
 90
      255
102
RTVSPost2010PropOp44
 70
     1
102
RTVSPost2010Prop45
280
     0
102
RTVSPost2010PropOp45
 70
     1
102
RTVSPost2010Prop46
 90
       50
102
RTVSPost2010PropOp46
 70
     1
102
RTVSPost2010Prop47
 90
       50
102
RTVSPost2010PropOp47
 70
     1
102
RTVSPost2010Prop48
 90
       50
102
RTVSPost2010PropOp48
 70
     1
102
RTVSPost2010Prop49
280
     0
102
RTVSPost2010PropOp49
 70
     1
102
RTVSPost2010Prop50
 90
       50
102
RTVSPost2010PropOp50
 70
     1
102
RTVSPost2010Prop51ColorIndex
 90
      256
102
RTVSPost2010Prop51ColorRGB
 90
-16777216
102
RTVSPost2010PropOp51
 70
     0
102
RTVSPost2010Prop52
140
1.0
102
RTVSPost2010PropOp52
 70
     0
102
RTVSPost2010Prop53
 90
        2
102
RTVSPost2010PropOp53
 70
     1
102
RTVSPost2010Prop54
  1
strokes_ogs.tif
102
RTVSPost2010PropOp54
 70
     1
102
RTVSPost2010Prop55
280
     0
102
RTVSPost2010PropOp55
 70
     1
102
RTVSPost2010Prop56
140
1.0
102
RTVSPost2010PropOp56
 70
     1
102
RTVSPost2010Prop57
140
1.0
102
RTVSPost2010PropOp57
 70
     1
  0
XRECORD
  5
C8
102
{ACAD_REACTORS
330
C7
102
}
330
C7
100
AcDbXrecord
280
     1
102
RTVSPropertyOp0
 70
     1
102
RTVSPropertyOp1
 70
     1
102
RTVSPropertyOp2
 70
     1
102
RTVSPropertyOp3
 70
     1
102
RTVSPropertyOp4
 70
     1
102
RTVSPropertyOp5
 70
     1
102
RTVSPropertyOp6
 70
     1
102
RTVSPropertyOp7
 70
     1
102
RTVSPropertyOp8
 70
     1
102
RTVSPropertyOp9
 70
     1
102
RTVSPropertyOp10
 70
     1
102
RTVSPropertyOp11
 70
     1
102
RTVSPropertyOp12
 70
     1
102
RTVSPropertyOp13
 70
     1
102
RTVSPropertyOp14
 70
     1
102
RTVSPropertyOp15
 70
     1
102
RTVSPropertyOp16
 70
     1
102
RTVSPropertyOp17
 70
     1
102
RTVSPropertyOp18
 70
     1
102
RTVSPropertyOp19
 70
     1
102
RTVSPropertyOp20
 70
     1
102
RTVSPropertyOp21
 70
     1
102
RTVSPropertyOp22
 70
     1
102
RTVSPropertyOp23
 70
     1
102
RTVSPropertyOp24
 70
     1
102
RTVSPropertyOp25
 70
     1
102
RTVSPropertyOp26
 70
     1
102
RTVSPropertyOp27
 70
     1
102
RTVSPropertyOp28
 70
     1
102
RTVSPropertyOp29
 70
     1
102
RTVSPropertyOp30
 70
     1
102
RTVSPropertyOp31
 70
     1
102
RTVSPropertyOp32
 70
     1
102
RTVSPropertyOp33
 70
     1
102
RTVSPropertyOp34
 70
     1
102
RTVSPropertyOp35
 70
     1
102
RTVSPropertyOp36
 70
     1
102
RTVSPropertyOp37
 70
     1
102
RTVSPropertyOp38
 70
     1
102
RTVSPropertyOp39
 70
     1
102
RTVSPropertyOp40
 70
     1
102
RTVSPropertyOp41
 70
     1
102
RTVSPropertyOp42
 70
     1
102
RTVSPropertyOp43
 70
     1
102
RTVSPropertyOp44
 70
     1
102
RTVSPropertyOp45
 70
     1
102
RTVSPropertyOp46
 70
     1
102
RTVSPropertyOp47
 70
     1
102
RTVSPropertyOp48
 70
     1
102
RTVSPropertyOp49
 70
     1
102
RTVSPropertyOp50
 70
     1
102
RTVSPropertyOp51
 70
     0
102
RTVSPropertyOp52
 70
     0
102
RTVSPropertyOp53
 70
     1
102
RTVSPropertyOp54
 70
     1
102
RTVSPropertyOp55
 70
     1
102
RTVSPropertyOp56
 70
     1
102
RTVSPropertyOp57
 70
     1
102
RTVSPost2010Prop28
280
     0
102
RTVSPost2010PropOp28
 70
     1
102
RTVSPost2010Prop29
280
     1
102
RTVSPost2010PropOp29
 70
     1
102
RTVSPost2010Prop30
280
     1
102
RTVSPost2010PropOp30
 70
     1
102
RTVSPost2010Prop31
280
     0
102
RTVSPost2010PropOp31
 70
     1
102
RTVSPost2010Prop32
280
     0
102
RTVSPost2010PropOp32
 70
     1
102
RTVSPost2010Prop33
280
     0
102
RTVSPost2010PropOp33
 70
     1
102
RTVSPost2010Prop34
280
     0
102
RTVSPost2010PropOp34
 70
     1
102
RTVSPost2010Prop35
280
     0
102
RTVSPost2010PropOp35
 70
     1
102
RTVSPost2010Prop36
280
     0
102
RTVSPost2010PropOp36
 70
     1
102
RTVSPost2010Prop37
 90
       50
102
RTVSPost2010PropOp37
 70
     1
102
RTVSPost2010Prop38
140
0.0
102
RTVSPost2010PropOp38
 70
     1
102
RTVSPost2010Prop39
140
1.0
102
RTVSPost2010PropOp39
 70
     1
102
RTVSPost2010Prop40
 90
        0
102
RTVSPost2010PropOp40
 70
     1
102
RTVSPost2010Prop41ColorIndex
 90
       18
102
RTVSPost2010Prop41ColorRGB
 90
        0
102
RTVSPost2010PropOp41
 70
     1
102
RTVSPost2010Prop42
 90
       50
102
RTVSPost2010PropOp42
 70
     1
102
RTVSPost2010Prop43
 90
        3
102
RTVSPost2010PropOp43
 70
     1
102
RTVSPost2010Prop44ColorIndex
 90
        5
102
RTVSPost2010Prop44ColorRGB
 90
      255
102
RTVSPost2010PropOp44
 70
     1
102
RTVSPost2010Prop45
280
     0
102
RTVSPost2010PropOp45
 70
     1
102
RTVSPost2010Prop46
 90
       50
102
RTVSPost2010PropOp46
 70
     1
102
RTVSPost2010Prop47
 90
       50
102
RTVSPost2010PropOp47
 70
     1
102
RTVSPost2010Prop48
 90
       50
102
RTVSPost2010PropOp48
 70
     1
102
RTVSPost2010Prop49
280
     0
102
RTVSPost2010PropOp49
 70
     1
102
RTVSPost2010Prop50
 90
       50
102
RTVSPost2010PropOp50
 70
     1
102
RTVSPost2010Prop51ColorIndex
 90
      256
102
RTVSPost2010Prop51ColorRGB
 90
-16777216
102
RTVSPost2010PropOp51
 70
     0
102
RTVSPost2010Prop52
140
1.0
102
RTVSPost2010PropOp52
 70
     0
102
RTVSPost2010Prop53
 90
        2
102
RTVSPost2010PropOp53
 70
     1
102
RTVSPost2010Prop54
  1
strokes_ogs.tif
102
RTVSPost2010PropOp54
 70
     1
102
RTVSPost2010Prop55
280
     0
102
RTVSPost2010PropOp55
 70
     1
102
RTVSPost2010Prop56
140
1.0
102
RTVSPost2010PropOp56
 70
     1
102
RTVSPost2010Prop57
140
1.0
102
RTVSPost2010PropOp57
 70
     1
  0
XRECORD
  5
CA
102
{ACAD_REACTORS
330
C9
102
}
330
C9
100
AcDbXrecord
280
     1
102
RTVSPropertyOp0
 70
     1
102
RTVSPropertyOp1
 70
     1
102
RTVSPropertyOp2
 70
     1
102
RTVSPropertyOp3
 70
     1
102
RTVSPropertyOp4
 70
     1
102
RTVSPropertyOp5
 70
     1
102
RTVSPropertyOp6
 70
     1
102
RTVSPropertyOp7
 70
     1
102
RTVSPropertyOp8
 70
     1
102
RTVSPropertyOp9
 70
     1
102
RTVSPropertyOp10
 70
     1
102
RTVSPropertyOp11
 70
     1
102
RTVSPropertyOp12
 70
     1
102
RTVSPropertyOp13
 70
     1
102
RTVSPropertyOp14
 70
     1
102
RTVSPropertyOp15
 70
     1
102
RTVSPropertyOp16
 70
     1
102
RTVSPropertyOp17
 70
     1
102
RTVSPropertyOp18
 70
     1
102
RTVSPropertyOp19
 70
     1
102
RTVSPropertyOp20
 70
     1
102
RTVSPropertyOp21
 70
     1
102
RTVSPropertyOp22
 70
     1
102
RTVSPropertyOp23
 70
     1
102
RTVSPropertyOp24
 70
     1
102
RTVSPropertyOp25
 70
     1
102
RTVSPropertyOp26
 70
     1
102
RTVSPropertyOp27
 70
     1
102
RTVSPropertyOp28
 70
     1
102
RTVSPropertyOp29
 70
     1
102
RTVSPropertyOp30
 70
     1
102
RTVSPropertyOp31
 70
     1
102
RTVSPropertyOp32
 70
     1
102
RTVSPropertyOp33
 70
     1
102
RTVSPropertyOp34
 70
     1
102
RTVSPropertyOp35
 70
     1
102
RTVSPropertyOp36
 70
     1
102
RTVSPropertyOp37
 70
     1
102
RTVSPropertyOp38
 70
     1
102
RTVSPropertyOp39
 70
     1
102
RTVSPropertyOp40
 70
     1
102
RTVSPropertyOp41
 70
     1
102
RTVSPropertyOp42
 70
     1
102
RTVSPropertyOp43
 70
     1
102
RTVSPropertyOp44
 70
     1
102
RTVSPropertyOp45
 70
     1
102
RTVSPropertyOp46
 70
     1
102
RTVSPropertyOp47
 70
     1
102
RTVSPropertyOp48
 70
     1
102
RTVSPropertyOp49
 70
     1
102
RTVSPropertyOp50
 70
     1
102
RTVSPropertyOp51
 70
     0
102
RTVSPropertyOp52
 70
     0
102
RTVSPropertyOp53
 70
     1
102
RTVSPropertyOp54
 70
     1
102
RTVSPropertyOp55
 70
     1
102
RTVSPropertyOp56
 70
     1
102
RTVSPropertyOp57
 70
     1
102
RTVSPost2010Prop28
280
     0
102
RTVSPost2010PropOp28
 70
     1
102
RTVSPost2010Prop29
280
     1
102
RTVSPost2010PropOp29
 70
     1
102
RTVSPost2010Prop30
280
     1
102
RTVSPost2010PropOp30
 70
     1
102
RTVSPost2010Prop31
280
     0
102
RTVSPost2010PropOp31
 70
     1
102
RTVSPost2010Prop32
280
     0
102
RTVSPost2010PropOp32
 70
     1
102
RTVSPost2010Prop33
280
     0
102
RTVSPost2010PropOp33
 70
     1
102
RTVSPost2010Prop34
280
     0
102
RTVSPost2010PropOp34
 70
     1
102
RTVSPost2010Prop35
280
     0
102
RTVSPost2010PropOp35
 70
     1
102
RTVSPost2010Prop36
280
     0
102
RTVSPost2010PropOp36
 70
     1
102
RTVSPost2010Prop37
 90
       50
102
RTVSPost2010PropOp37
 70
     1
102
RTVSPost2010Prop38
140
0.0
102
RTVSPost2010PropOp38
 70
     1
102
RTVSPost2010Prop39
140
1.0
102
RTVSPost2010PropOp39
 70
     1
102
RTVSPost2010Prop40
 90
        0
102
RTVSPost2010PropOp40
 70
     1
102
RTVSPost2010Prop41ColorIndex
 90
       18
102
RTVSPost2010Prop41ColorRGB
 90
        0
102
RTVSPost2010PropOp41
 70
     1
102
RTVSPost2010Prop42
 90
       50
102
RTVSPost2010PropOp42
 70
     1
102
RTVSPost2010Prop43
 90
        3
102
RTVSPost2010PropOp43
 70
     1
102
RTVSPost2010Prop44ColorIndex
 90
        5
102
RTVSPost2010Prop44ColorRGB
 90
      255
102
RTVSPost2010PropOp44
 70
     1
102
RTVSPost2010Prop45
280
     0
102
RTVSPost2010PropOp45
 70
     1
102
RTVSPost2010Prop46
 90
       50
102
RTVSPost2010PropOp46
 70
     1
102
RTVSPost2010Prop47
 90
       50
102
RTVSPost2010PropOp47
 70
     1
102
RTVSPost2010Prop48
 90
       50
102
RTVSPost2010PropOp48
 70
     1
102
RTVSPost2010Prop49
280
     0
102
RTVSPost2010PropOp49
 70
     1
102
RTVSPost2010Prop50
 90
       50
102
RTVSPost2010PropOp50
 70
     1
102
RTVSPost2010Prop51ColorIndex
 90
      256
102
RTVSPost2010Prop51ColorRGB
 90
-16777216
102
RTVSPost2010PropOp51
 70
     0
102
RTVSPost2010Prop52
140
1.0
102
RTVSPost2010PropOp52
 70
     0
102
RTVSPost2010Prop53
 90
        2
102
RTVSPost2010PropOp53
 70
     1
102
RTVSPost2010Prop54
  1
strokes_ogs.tif
102
RTVSPost2010PropOp54
 70
     1
102
RTVSPost2010Prop55
280
     0
102
RTVSPost2010PropOp55
 70
     1
102
RTVSPost2010Prop56
140
1.0
102
RTVSPost2010PropOp56
 70
     1
102
RTVSPost2010Prop57
140
1.0
102
RTVSPost2010PropOp57
 70
     1
  0
XRECORD
  5
DA
102
{ACAD_REACTORS
330
D9
102
}
330
D9
100
AcDbXrecord
280
     1
102
RTVSPropertyOp0
 70
     0
102
RTVSPropertyOp1
 70
     0
102
RTVSPropertyOp2
 70
     0
102
RTVSPropertyOp3
 70
     0
102
RTVSPropertyOp4
 70
     0
102
RTVSPropertyOp5
 70
     0
102
RTVSPropertyOp6
 70
     0
102
RTVSPropertyOp7
 70
     0
102
RTVSPropertyOp8
 70
     0
102
RTVSPropertyOp9
 70
     0
102
RTVSPropertyOp10
 70
     0
102
RTVSPropertyOp11
 70
     0
102
RTVSPropertyOp12
 70
     0
102
RTVSPropertyOp13
 70
     0
102
RTVSPropertyOp14
 70
     2
102
RTVSPropertyOp15
 70
     0
102
RTVSPropertyOp16
 70
     0
102
RTVSPropertyOp17
 70
     0
102
RTVSPropertyOp18
 70
     0
102
RTVSPropertyOp19
 70
     0
102
RTVSPropertyOp20
 70
     0
102
RTVSPropertyOp21
 70
     0
102
RTVSPropertyOp22
 70
     0
102
RTVSPropertyOp23
 70
     0
102
RTVSPropertyOp24
 70
     0
102
RTVSPropertyOp25
 70
     0
102
RTVSPropertyOp26
 70
     0
102
RTVSPropertyOp27
 70
     0
102
RTVSPropertyOp28
 70
     0
102
RTVSPropertyOp29
 70
     0
102
RTVSPropertyOp30
 70
     0
102
RTVSPropertyOp31
 70
     0
102
RTVSPropertyOp32
 70
     0
102
RTVSPropertyOp33
 70
     0
102
RTVSPropertyOp34
 70
     0
102
RTVSPropertyOp35
 70
     0
102
RTVSPropertyOp36
 70
     0
102
RTVSPropertyOp37
 70
     0
102
RTVSPropertyOp38
 70
     0
102
RTVSPropertyOp39
 70
     0
102
RTVSPropertyOp40
 70
     0
102
RTVSPropertyOp41
 70
     0
102
RTVSPropertyOp42
 70
     0
102
RTVSPropertyOp43
 70
     0
102
RTVSPropertyOp44
 70
     0
102
RTVSPropertyOp45
 70
     0
102
RTVSPropertyOp46
 70
     0
102
RTVSPropertyOp47
 70
     0
102
RTVSPropertyOp48
 70
     0
102
RTVSPropertyOp49
 70
     0
102
RTVSPropertyOp50
 70
     0
102
RTVSPropertyOp51
 70
     0
102
RTVSPropertyOp52
 70
     0
102
RTVSPropertyOp53
 70
     0
102
RTVSPropertyOp54
 70
     0
102
RTVSPropertyOp55
 70
     0
102
RTVSPropertyOp56
 70
     0
102
RTVSPropertyOp57
 70
     0
102
RTVSPost2010Prop28
280
     0
102
RTVSPost2010PropOp28
 70
     0
102
RTVSPost2010Prop29
280
     1
102
RTVSPost2010PropOp29
 70
     0
102
RTVSPost2010Prop30
280
     1
102
RTVSPost2010PropOp30
 70
     0
102
RTVSPost2010Prop31
280
     0
102
RTVSPost2010PropOp31
 70
     0
102
RTVSPost2010Prop32
280
     0
102
RTVSPost2010PropOp32
 70
     0
102
RTVSPost2010Prop33
280
     0
102
RTVSPost2010PropOp33
 70
     0
102
RTVSPost2010Prop34
280
     0
102
RTVSPost2010PropOp34
 70
     0
102
RTVSPost2010Prop35
280
     0
102
RTVSPost2010PropOp35
 70
     0
102
RTVSPost2010Prop36
280
     0
102
RTVSPost2010PropOp36
 70
     0
102
RTVSPost2010Prop37
 90
       50
102
RTVSPost2010PropOp37
 70
     0
102
RTVSPost2010Prop38
140
0.0
102
RTVSPost2010PropOp38
 70
     0
102
RTVSPost2010Prop39
140
1.0
102
RTVSPost2010PropOp39
 70
     0
102
RTVSPost2010Prop40
 90
        0
102
RTVSPost2010PropOp40
 70
     0
102
RTVSPost2010Prop41ColorIndex
 90
       18
102
RTVSPost2010Prop41ColorRGB
 90
        0
102
RTVSPost2010PropOp41
 70
     0
102
RTVSPost2010Prop42
 90
       50
102
RTVSPost2010PropOp42
 70
     0
102
RTVSPost2010Prop43
 90
        3
102
RTVSPost2010PropOp43
 70
     0
102
RTVSPost2010Prop44ColorIndex
 90
        5
102
RTVSPost2010Prop44ColorRGB
 90
      255
102
RTVSPost2010PropOp44
 70
     0
102
RTVSPost2010Prop45
280
     0
102
RTVSPost2010PropOp45
 70
     0
102
RTVSPost2010Prop46
 90
       50
102
RTVSPost2010PropOp46
 70
     0
102
RTVSPost2010Prop47
 90
       50
102
RTVSPost2010PropOp47
 70
     0
102
RTVSPost2010Prop48
 90
       50
102
RTVSPost2010PropOp48
 70
     0
102
RTVSPost2010Prop49
280
     0
102
RTVSPost2010PropOp49
 70
     0
102
RTVSPost2010Prop50
 90
       50
102
RTVSPost2010PropOp50
 70
     0
102
RTVSPost2010Prop51ColorIndex
 90
      256
102
RTVSPost2010Prop51ColorRGB
 90
-16777216
102
RTVSPost2010PropOp51
 70
     0
102
RTVSPost2010Prop52
140
1.0
102
RTVSPost2010PropOp52
 70
     0
102
RTVSPost2010Prop53
 90
        2
102
RTVSPost2010PropOp53
 70
     0
102
RTVSPost2010Prop54
  1
strokes_ogs.tif
102
RTVSPost2010PropOp54
 70
     0
102
RTVSPost2010Prop55
280
     0
102
RTVSPost2010PropOp55
 70
     0
102
RTVSPost2010Prop56
140
1.0
102
RTVSPost2010PropOp56
 70
     0
102
RTVSPost2010Prop57
140
1.0
102
RTVSPost2010PropOp57
 70
     0
  0
XRECORD
  5
D2
102
{ACAD_REACTORS
330
D1
102
}
330
D1
100
AcDbXrecord
280
     1
102
RTVSPropertyOp0
 70
     1
102
RTVSPropertyOp1
 70
     1
102
RTVSPropertyOp2
 70
     1
102
RTVSPropertyOp3
 70
     1
102
RTVSPropertyOp4
 70
     1
102
RTVSPropertyOp5
 70
     1
102
RTVSPropertyOp6
 70
     1
102
RTVSPropertyOp7
 70
     1
102
RTVSPropertyOp8
 70
     1
102
RTVSPropertyOp9
 70
     1
102
RTVSPropertyOp10
 70
     1
102
RTVSPropertyOp11
 70
     1
102
RTVSPropertyOp12
 70
     1
102
RTVSPropertyOp13
 70
     1
102
RTVSPropertyOp14
 70
     1
102
RTVSPropertyOp15
 70
     1
102
RTVSPropertyOp16
 70
     1
102
RTVSPropertyOp17
 70
     1
102
RTVSPropertyOp18
 70
     1
102
RTVSPropertyOp19
 70
     1
102
RTVSPropertyOp20
 70
     1
102
RTVSPropertyOp21
 70
     1
102
RTVSPropertyOp22
 70
     1
102
RTVSPropertyOp23
 70
     1
102
RTVSPropertyOp24
 70
     1
102
RTVSPropertyOp25
 70
     1
102
RTVSPropertyOp26
 70
     1
102
RTVSPropertyOp27
 70
     1
102
RTVSPropertyOp28
 70
     1
102
RTVSPropertyOp29
 70
     1
102
RTVSPropertyOp30
 70
     1
102
RTVSPropertyOp31
 70
     1
102
RTVSPropertyOp32
 70
     1
102
RTVSPropertyOp33
 70
     1
102
RTVSPropertyOp34
 70
     1
102
RTVSPropertyOp35
 70
     1
102
RTVSPropertyOp36
 70
     1
102
RTVSPropertyOp37
 70
     1
102
RTVSPropertyOp38
 70
     1
102
RTVSPropertyOp39
 70
     1
102
RTVSPropertyOp40
 70
     1
102
RTVSPropertyOp41
 70
     1
102
RTVSPropertyOp42
 70
     1
102
RTVSPropertyOp43
 70
     1
102
RTVSPropertyOp44
 70
     1
102
RTVSPropertyOp45
 70
     1
102
RTVSPropertyOp46
 70
     1
102
RTVSPropertyOp47
 70
     1
102
RTVSPropertyOp48
 70
     1
102
RTVSPropertyOp49
 70
     1
102
RTVSPropertyOp50
 70
     1
102
RTVSPropertyOp51
 70
     0
102
RTVSPropertyOp52
 70
     0
102
RTVSPropertyOp53
 70
     1
102
RTVSPropertyOp54
 70
     1
102
RTVSPropertyOp55
 70
     1
102
RTVSPropertyOp56
 70
     1
102
RTVSPropertyOp57
 70
     1
102
RTVSPost2010Prop28
280
     0
102
RTVSPost2010PropOp28
 70
     1
102
RTVSPost2010Prop29
280
     1
102
RTVSPost2010PropOp29
 70
     1
102
RTVSPost2010Prop30
280
     1
102
RTVSPost2010PropOp30
 70
     1
102
RTVSPost2010Prop31
280
     0
102
RTVSPost2010PropOp31
 70
     1
102
RTVSPost2010Prop32
280
     0
102
RTVSPost2010PropOp32
 70
     1
102
RTVSPost2010Prop33
280
     0
102
RTVSPost2010PropOp33
 70
     1
102
RTVSPost2010Prop34
280
     0
102
RTVSPost2010PropOp34
 70
     1
102
RTVSPost2010Prop35
280
     0
102
RTVSPost2010PropOp35
 70
     1
102
RTVSPost2010Prop36
280
     0
102
RTVSPost2010PropOp36
 70
     1
102
RTVSPost2010Prop37
 90
       50
102
RTVSPost2010PropOp37
 70
     1
102
RTVSPost2010Prop38
140
0.0
102
RTVSPost2010PropOp38
 70
     1
102
RTVSPost2010Prop39
140
1.0
102
RTVSPost2010PropOp39
 70
     1
102
RTVSPost2010Prop40
 90
        0
102
RTVSPost2010PropOp40
 70
     1
102
RTVSPost2010Prop41ColorIndex
 90
       18
102
RTVSPost2010Prop41ColorRGB
 90
        0
102
RTVSPost2010PropOp41
 70
     1
102
RTVSPost2010Prop42
 90
       50
102
RTVSPost2010PropOp42
 70
     1
102
RTVSPost2010Prop43
 90
        3
102
RTVSPost2010PropOp43
 70
     1
102
RTVSPost2010Prop44ColorIndex
 90
        5
102
RTVSPost2010Prop44ColorRGB
 90
      255
102
RTVSPost2010PropOp44
 70
     1
102
RTVSPost2010Prop45
280
     0
102
RTVSPost2010PropOp45
 70
     1
102
RTVSPost2010Prop46
 90
       50
102
RTVSPost2010PropOp46
 70
     1
102
RTVSPost2010Prop47
 90
       50
102
RTVSPost2010PropOp47
 70
     1
102
RTVSPost2010Prop48
 90
       50
102
RTVSPost2010PropOp48
 70
     1
102
RTVSPost2010Prop49
280
     0
102
RTVSPost2010PropOp49
 70
     1
102
RTVSPost2010Prop50
 90
       50
102
RTVSPost2010PropOp50
 70
     1
102
RTVSPost2010Prop51ColorIndex
 90
      256
102
RTVSPost2010Prop51ColorRGB
 90
-16777216
102
RTVSPost2010PropOp51
 70
     0
102
RTVSPost2010Prop52
140
1.0
102
RTVSPost2010PropOp52
 70
     0
102
RTVSPost2010Prop53
 90
        2
102
RTVSPost2010PropOp53
 70
     1
102
RTVSPost2010Prop54
  1
strokes_ogs.tif
102
RTVSPost2010PropOp54
 70
     1
102
RTVSPost2010Prop55
280
     0
102
RTVSPost2010PropOp55
 70
     1
102
RTVSPost2010Prop56
140
1.0
102
RTVSPost2010PropOp56
 70
     1
102
RTVSPost2010Prop57
140
1.0
102
RTVSPost2010PropOp57
 70
     1
  0
XRECORD
  5
B6
102
{ACAD_REACTORS
330
B5
102
}
330
B5
100
AcDbXrecord
280
     1
102
RTVSPropertyOp0
 70
     1
102
RTVSPropertyOp1
 70
     1
102
RTVSPropertyOp2
 70
     1
102
RTVSPropertyOp3
 70
     1
102
RTVSPropertyOp4
 70
     1
102
RTVSPropertyOp5
 70
     1
102
RTVSPropertyOp6
 70
     1
102
RTVSPropertyOp7
 70
     1
102
RTVSPropertyOp8
 70
     1
102
RTVSPropertyOp9
 70
     1
102
RTVSPropertyOp10
 70
     1
102
RTVSPropertyOp11
 70
     1
102
RTVSPropertyOp12
 70
     1
102
RTVSPropertyOp13
 70
     1
102
RTVSPropertyOp14
 70
     1
102
RTVSPropertyOp15
 70
     1
102
RTVSPropertyOp16
 70
     1
102
RTVSPropertyOp17
 70
     1
102
RTVSPropertyOp18
 70
     1
102
RTVSPropertyOp19
 70
     1
102
RTVSPropertyOp20
 70
     1
102
RTVSPropertyOp21
 70
     1
102
RTVSPropertyOp22
 70
     1
102
RTVSPropertyOp23
 70
     1
102
RTVSPropertyOp24
 70
     1
102
RTVSPropertyOp25
 70
     1
102
RTVSPropertyOp26
 70
     1
102
RTVSPropertyOp27
 70
     1
102
RTVSPropertyOp28
 70
     1
102
RTVSPropertyOp29
 70
     1
102
RTVSPropertyOp30
 70
     1
102
RTVSPropertyOp31
 70
     1
102
RTVSPropertyOp32
 70
     1
102
RTVSPropertyOp33
 70
     1
102
RTVSPropertyOp34
 70
     1
102
RTVSPropertyOp35
 70
     1
102
RTVSPropertyOp36
 70
     1
102
RTVSPropertyOp37
 70
     1
102
RTVSPropertyOp38
 70
     1
102
RTVSPropertyOp39
 70
     1
102
RTVSPropertyOp40
 70
     1
102
RTVSPropertyOp41
 70
     1
102
RTVSPropertyOp42
 70
     1
102
RTVSPropertyOp43
 70
     1
102
RTVSPropertyOp44
 70
     1
102
RTVSPropertyOp45
 70
     1
102
RTVSPropertyOp46
 70
     1
102
RTVSPropertyOp47
 70
     1
102
RTVSPropertyOp48
 70
     1
102
RTVSPropertyOp49
 70
     1
102
RTVSPropertyOp50
 70
     1
102
RTVSPropertyOp51
 70
     0
102
RTVSPropertyOp52
 70
     0
102
RTVSPropertyOp53
 70
     1
102
RTVSPropertyOp54
 70
     1
102
RTVSPropertyOp55
 70
     1
102
RTVSPropertyOp56
 70
     1
102
RTVSPropertyOp57
 70
     1
102
RTVSPost2010Prop28
280
     0
102
RTVSPost2010PropOp28
 70
     1
102
RTVSPost2010Prop29
280
     1
102
RTVSPost2010PropOp29
 70
     1
102
RTVSPost2010Prop30
280
     1
102
RTVSPost2010PropOp30
 70
     1
102
RTVSPost2010Prop31
280
     0
102
RTVSPost2010PropOp31
 70
     1
102
RTVSPost2010Prop32
280
     0
102
RTVSPost2010PropOp32
 70
     1
102
RTVSPost2010Prop33
280
     0
102
RTVSPost2010PropOp33
 70
     1
102
RTVSPost2010Prop34
280
     0
102
RTVSPost2010PropOp34
 70
     1
102
RTVSPost2010Prop35
280
     0
102
RTVSPost2010PropOp35
 70
     1
102
RTVSPost2010Prop36
280
     0
102
RTVSPost2010PropOp36
 70
     1
102
RTVSPost2010Prop37
 90
       50
102
RTVSPost2010PropOp37
 70
     1
102
RTVSPost2010Prop38
140
0.0
102
RTVSPost2010PropOp38
 70
     1
102
RTVSPost2010Prop39
140
1.0
102
RTVSPost2010PropOp39
 70
     1
102
RTVSPost2010Prop40
 90
        0
102
RTVSPost2010PropOp40
 70
     1
102
RTVSPost2010Prop41ColorIndex
 90
       18
102
RTVSPost2010Prop41ColorRGB
 90
        0
102
RTVSPost2010PropOp41
 70
     1
102
RTVSPost2010Prop42
 90
       50
102
RTVSPost2010PropOp42
 70
     1
102
RTVSPost2010Prop43
 90
        3
102
RTVSPost2010PropOp43
 70
     1
102
RTVSPost2010Prop44ColorIndex
 90
        5
102
RTVSPost2010Prop44ColorRGB
 90
      255
102
RTVSPost2010PropOp44
 70
     1
102
RTVSPost2010Prop45
280
     0
102
RTVSPost2010PropOp45
 70
     1
102
RTVSPost2010Prop46
 90
       50
102
RTVSPost2010PropOp46
 70
     1
102
RTVSPost2010Prop47
 90
       50
102
RTVSPost2010PropOp47
 70
     1
102
RTVSPost2010Prop48
 90
       50
102
RTVSPost2010PropOp48
 70
     1
102
RTVSPost2010Prop49
280
     0
102
RTVSPost2010PropOp49
 70
     1
102
RTVSPost2010Prop50
 90
       50
102
RTVSPost2010PropOp50
 70
     1
102
RTVSPost2010Prop51ColorIndex
 90
      256
102
RTVSPost2010Prop51ColorRGB
 90
-16777216
102
RTVSPost2010PropOp51
 70
     0
102
RTVSPost2010Prop52
140
1.0
102
RTVSPost2010PropOp52
 70
     0
102
RTVSPost2010Prop53
 90
        2
102
RTVSPost2010PropOp53
 70
     1
102
RTVSPost2010Prop54
  1
strokes_ogs.tif
102
RTVSPost2010PropOp54
 70
     1
102
RTVSPost2010Prop55
280
     0
102
RTVSPost2010PropOp55
 70
     1
102
RTVSPost2010Prop56
140
1.0
102
RTVSPost2010PropOp56
 70
     1
102
RTVSPost2010Prop57
140
1.0
102
RTVSPost2010PropOp57
 70
     1
  0
XRECORD
  5
B8
102
{ACAD_REACTORS
330
B7
102
}
330
B7
100
AcDbXrecord
280
     1
102
RTVSPropertyOp0
 70
     1
102
RTVSPropertyOp1
 70
     1
102
RTVSPropertyOp2
 70
     1
102
RTVSPropertyOp3
 70
     1
102
RTVSPropertyOp4
 70
     1
102
RTVSPropertyOp5
 70
     1
102
RTVSPropertyOp6
 70
     1
102
RTVSPropertyOp7
 70
     1
102
RTVSPropertyOp8
 70
     1
102
RTVSPropertyOp9
 70
     1
102
RTVSPropertyOp10
 70
     1
102
RTVSPropertyOp11
 70
     1
102
RTVSPropertyOp12
 70
     1
102
RTVSPropertyOp13
 70
     1
102
RTVSPropertyOp14
 70
     1
102
RTVSPropertyOp15
 70
     1
102
RTVSPropertyOp16
 70
     1
102
RTVSPropertyOp17
 70
     1
102
RTVSPropertyOp18
 70
     1
102
RTVSPropertyOp19
 70
     1
102
RTVSPropertyOp20
 70
     1
102
RTVSPropertyOp21
 70
     1
102
RTVSPropertyOp22
 70
     1
102
RTVSPropertyOp23
 70
     1
102
RTVSPropertyOp24
 70
     1
102
RTVSPropertyOp25
 70
     1
102
RTVSPropertyOp26
 70
     1
102
RTVSPropertyOp27
 70
     1
102
RTVSPropertyOp28
 70
     1
102
RTVSPropertyOp29
 70
     1
102
RTVSPropertyOp30
 70
     1
102
RTVSPropertyOp31
 70
     1
102
RTVSPropertyOp32
 70
     1
102
RTVSPropertyOp33
 70
     1
102
RTVSPropertyOp34
 70
     1
102
RTVSPropertyOp35
 70
     1
102
RTVSPropertyOp36
 70
     1
102
RTVSPropertyOp37
 70
     1
102
RTVSPropertyOp38
 70
     1
102
RTVSPropertyOp39
 70
     1
102
RTVSPropertyOp40
 70
     1
102
RTVSPropertyOp41
 70
     1
102
RTVSPropertyOp42
 70
     1
102
RTVSPropertyOp43
 70
     1
102
RTVSPropertyOp44
 70
     1
102
RTVSPropertyOp45
 70
     1
102
RTVSPropertyOp46
 70
     1
102
RTVSPropertyOp47
 70
     1
102
RTVSPropertyOp48
 70
     1
102
RTVSPropertyOp49
 70
     1
102
RTVSPropertyOp50
 70
     1
102
RTVSPropertyOp51
 70
     0
102
RTVSPropertyOp52
 70
     0
102
RTVSPropertyOp53
 70
     1
102
RTVSPropertyOp54
 70
     1
102
RTVSPropertyOp55
 70
     1
102
RTVSPropertyOp56
 70
     1
102
RTVSPropertyOp57
 70
     1
102
RTVSPost2010Prop28
280
     0
102
RTVSPost2010PropOp28
 70
     1
102
RTVSPost2010Prop29
280
     1
102
RTVSPost2010PropOp29
 70
     1
102
RTVSPost2010Prop30
280
     1
102
RTVSPost2010PropOp30
 70
     1
102
RTVSPost2010Prop31
280
     0
102
RTVSPost2010PropOp31
 70
     1
102
RTVSPost2010Prop32
280
     0
102
RTVSPost2010PropOp32
 70
     1
102
RTVSPost2010Prop33
280
     0
102
RTVSPost2010PropOp33
 70
     1
102
RTVSPost2010Prop34
280
     0
102
RTVSPost2010PropOp34
 70
     1
102
RTVSPost2010Prop35
280
     0
102
RTVSPost2010PropOp35
 70
     1
102
RTVSPost2010Prop36
280
     0
102
RTVSPost2010PropOp36
 70
     1
102
RTVSPost2010Prop37
 90
       50
102
RTVSPost2010PropOp37
 70
     1
102
RTVSPost2010Prop38
140
0.0
102
RTVSPost2010PropOp38
 70
     1
102
RTVSPost2010Prop39
140
1.0
102
RTVSPost2010PropOp39
 70
     1
102
RTVSPost2010Prop40
 90
        0
102
RTVSPost2010PropOp40
 70
     1
102
RTVSPost2010Prop41ColorIndex
 90
       18
102
RTVSPost2010Prop41ColorRGB
 90
        0
102
RTVSPost2010PropOp41
 70
     1
102
RTVSPost2010Prop42
 90
       50
102
RTVSPost2010PropOp42
 70
     1
102
RTVSPost2010Prop43
 90
        3
102
RTVSPost2010PropOp43
 70
     1
102
RTVSPost2010Prop44ColorIndex
 90
        5
102
RTVSPost2010Prop44ColorRGB
 90
      255
102
RTVSPost2010PropOp44
 70
     1
102
RTVSPost2010Prop45
280
     0
102
RTVSPost2010PropOp45
 70
     1
102
RTVSPost2010Prop46
 90
       50
102
RTVSPost2010PropOp46
 70
     1
102
RTVSPost2010Prop47
 90
       50
102
RTVSPost2010PropOp47
 70
     1
102
RTVSPost2010Prop48
 90
       50
102
RTVSPost2010PropOp48
 70
     1
102
RTVSPost2010Prop49
280
     0
102
RTVSPost2010PropOp49
 70
     1
102
RTVSPost2010Prop50
 90
       50
102
RTVSPost2010PropOp50
 70
     1
102
RTVSPost2010Prop51ColorIndex
 90
      256
102
RTVSPost2010Prop51ColorRGB
 90
-16777216
102
RTVSPost2010PropOp51
 70
     0
102
RTVSPost2010Prop52
140
1.0
102
RTVSPost2010PropOp52
 70
     0
102
RTVSPost2010Prop53
 90
        2
102
RTVSPost2010PropOp53
 70
     1
102
RTVSPost2010Prop54
  1
strokes_ogs.tif
102
RTVSPost2010PropOp54
 70
     1
102
RTVSPost2010Prop55
280
     0
102
RTVSPost2010PropOp55
 70
     1
102
RTVSPost2010Prop56
140
1.0
102
RTVSPost2010PropOp56
 70
     1
102
RTVSPost2010Prop57
140
1.0
102
RTVSPost2010PropOp57
 70
     1
  0
XRECORD
  5
BA
102
{ACAD_REACTORS
330
B9
102
}
330
B9
100
AcDbXrecord
280
     1
102
RTVSPropertyOp0
 70
     1
102
RTVSPropertyOp1
 70
     1
102
RTVSPropertyOp2
 70
     1
102
RTVSPropertyOp3
 70
     1
102
RTVSPropertyOp4
 70
     1
102
RTVSPropertyOp5
 70
     1
102
RTVSPropertyOp6
 70
     1
102
RTVSPropertyOp7
 70
     1
102
RTVSPropertyOp8
 70
     1
102
RTVSPropertyOp9
 70
     1
102
RTVSPropertyOp10
 70
     1
102
RTVSPropertyOp11
 70
     1
102
RTVSPropertyOp12
 70
     1
102
RTVSPropertyOp13
 70
     1
102
RTVSPropertyOp14
 70
     1
102
RTVSPropertyOp15
 70
     1
102
RTVSPropertyOp16
 70
     1
102
RTVSPropertyOp17
 70
     1
102
RTVSPropertyOp18
 70
     1
102
RTVSPropertyOp19
 70
     1
102
RTVSPropertyOp20
 70
     1
102
RTVSPropertyOp21
 70
     1
102
RTVSPropertyOp22
 70
     1
102
RTVSPropertyOp23
 70
     1
102
RTVSPropertyOp24
 70
     1
102
RTVSPropertyOp25
 70
     1
102
RTVSPropertyOp26
 70
     1
102
RTVSPropertyOp27
 70
     1
102
RTVSPropertyOp28
 70
     1
102
RTVSPropertyOp29
 70
     1
102
RTVSPropertyOp30
 70
     1
102
RTVSPropertyOp31
 70
     1
102
RTVSPropertyOp32
 70
     1
102
RTVSPropertyOp33
 70
     1
102
RTVSPropertyOp34
 70
     1
102
RTVSPropertyOp35
 70
     1
102
RTVSPropertyOp36
 70
     1
102
RTVSPropertyOp37
 70
     1
102
RTVSPropertyOp38
 70
     1
102
RTVSPropertyOp39
 70
     1
102
RTVSPropertyOp40
 70
     1
102
RTVSPropertyOp41
 70
     1
102
RTVSPropertyOp42
 70
     1
102
RTVSPropertyOp43
 70
     1
102
RTVSPropertyOp44
 70
     1
102
RTVSPropertyOp45
 70
     1
102
RTVSPropertyOp46
 70
     1
102
RTVSPropertyOp47
 70
     1
102
RTVSPropertyOp48
 70
     1
102
RTVSPropertyOp49
 70
     1
102
RTVSPropertyOp50
 70
     1
102
RTVSPropertyOp51
 70
     0
102
RTVSPropertyOp52
 70
     0
102
RTVSPropertyOp53
 70
     1
102
RTVSPropertyOp54
 70
     1
102
RTVSPropertyOp55
 70
     1
102
RTVSPropertyOp56
 70
     1
102
RTVSPropertyOp57
 70
     1
102
RTVSPost2010Prop28
280
     0
102
RTVSPost2010PropOp28
 70
     1
102
RTVSPost2010Prop29
280
     1
102
RTVSPost2010PropOp29
 70
     1
102
RTVSPost2010Prop30
280
     1
102
RTVSPost2010PropOp30
 70
     1
102
RTVSPost2010Prop31
280
     0
102
RTVSPost2010PropOp31
 70
     1
102
RTVSPost2010Prop32
280
     0
102
RTVSPost2010PropOp32
 70
     1
102
RTVSPost2010Prop33
280
     0
102
RTVSPost2010PropOp33
 70
     1
102
RTVSPost2010Prop34
280
     0
102
RTVSPost2010PropOp34
 70
     1
102
RTVSPost2010Prop35
280
     0
102
RTVSPost2010PropOp35
 70
     1
102
RTVSPost2010Prop36
280
     0
102
RTVSPost2010PropOp36
 70
     1
102
RTVSPost2010Prop37
 90
       50
102
RTVSPost2010PropOp37
 70
     1
102
RTVSPost2010Prop38
140
0.0
102
RTVSPost2010PropOp38
 70
     1
102
RTVSPost2010Prop39
140
1.0
102
RTVSPost2010PropOp39
 70
     1
102
RTVSPost2010Prop40
 90
        0
102
RTVSPost2010PropOp40
 70
     1
102
RTVSPost2010Prop41ColorIndex
 90
       18
102
RTVSPost2010Prop41ColorRGB
 90
        0
102
RTVSPost2010PropOp41
 70
     1
102
RTVSPost2010Prop42
 90
       50
102
RTVSPost2010PropOp42
 70
     1
102
RTVSPost2010Prop43
 90
        3
102
RTVSPost2010PropOp43
 70
     1
102
RTVSPost2010Prop44ColorIndex
 90
        5
102
RTVSPost2010Prop44ColorRGB
 90
      255
102
RTVSPost2010PropOp44
 70
     1
102
RTVSPost2010Prop45
280
     0
102
RTVSPost2010PropOp45
 70
     1
102
RTVSPost2010Prop46
 90
       50
102
RTVSPost2010PropOp46
 70
     1
102
RTVSPost2010Prop47
 90
       50
102
RTVSPost2010PropOp47
 70
     1
102
RTVSPost2010Prop48
 90
       50
102
RTVSPost2010PropOp48
 70
     1
102
RTVSPost2010Prop49
280
     0
102
RTVSPost2010PropOp49
 70
     1
102
RTVSPost2010Prop50
 90
       50
102
RTVSPost2010PropOp50
 70
     1
102
RTVSPost2010Prop51ColorIndex
 90
      256
102
RTVSPost2010Prop51ColorRGB
 90
-16777216
102
RTVSPost2010PropOp51
 70
     0
102
RTVSPost2010Prop52
140
1.0
102
RTVSPost2010PropOp52
 70
     0
102
RTVSPost2010Prop53
 90
        2
102
RTVSPost2010PropOp53
 70
     1
102
RTVSPost2010Prop54
  1
strokes_ogs.tif
102
RTVSPost2010PropOp54
 70
     1
102
RTVSPost2010Prop55
280
     0
102
RTVSPost2010PropOp55
 70
     1
102
RTVSPost2010Prop56
140
1.0
102
RTVSPost2010PropOp56
 70
     1
102
RTVSPost2010Prop57
140
1.0
102
RTVSPost2010PropOp57
 70
     1
  0
XRECORD
  5
BC
102
{ACAD_REACTORS
330
BB
102
}
330
BB
100
AcDbXrecord
280
     1
102
RTVSPropertyOp0
 70
     1
102
RTVSPropertyOp1
 70
     1
102
RTVSPropertyOp2
 70
     1
102
RTVSPropertyOp3
 70
     1
102
RTVSPropertyOp4
 70
     1
102
RTVSPropertyOp5
 70
     1
102
RTVSPropertyOp6
 70
     1
102
RTVSPropertyOp7
 70
     1
102
RTVSPropertyOp8
 70
     1
102
RTVSPropertyOp9
 70
     1
102
RTVSPropertyOp10
 70
     1
102
RTVSPropertyOp11
 70
     1
102
RTVSPropertyOp12
 70
     1
102
RTVSPropertyOp13
 70
     1
102
RTVSPropertyOp14
 70
     1
102
RTVSPropertyOp15
 70
     1
102
RTVSPropertyOp16
 70
     1
102
RTVSPropertyOp17
 70
     1
102
RTVSPropertyOp18
 70
     1
102
RTVSPropertyOp19
 70
     1
102
RTVSPropertyOp20
 70
     1
102
RTVSPropertyOp21
 70
     1
102
RTVSPropertyOp22
 70
     1
102
RTVSPropertyOp23
 70
     1
102
RTVSPropertyOp24
 70
     1
102
RTVSPropertyOp25
 70
     1
102
RTVSPropertyOp26
 70
     1
102
RTVSPropertyOp27
 70
     1
102
RTVSPropertyOp28
 70
     1
102
RTVSPropertyOp29
 70
     1
102
RTVSPropertyOp30
 70
     1
102
RTVSPropertyOp31
 70
     1
102
RTVSPropertyOp32
 70
     1
102
RTVSPropertyOp33
 70
     1
102
RTVSPropertyOp34
 70
     1
102
RTVSPropertyOp35
 70
     1
102
RTVSPropertyOp36
 70
     1
102
RTVSPropertyOp37
 70
     1
102
RTVSPropertyOp38
 70
     1
102
RTVSPropertyOp39
 70
     1
102
RTVSPropertyOp40
 70
     1
102
RTVSPropertyOp41
 70
     1
102
RTVSPropertyOp42
 70
     1
102
RTVSPropertyOp43
 70
     1
102
RTVSPropertyOp44
 70
     1
102
RTVSPropertyOp45
 70
     1
102
RTVSPropertyOp46
 70
     1
102
RTVSPropertyOp47
 70
     1
102
RTVSPropertyOp48
 70
     1
102
RTVSPropertyOp49
 70
     1
102
RTVSPropertyOp50
 70
     1
102
RTVSPropertyOp51
 70
     0
102
RTVSPropertyOp52
 70
     0
102
RTVSPropertyOp53
 70
     1
102
RTVSPropertyOp54
 70
     1
102
RTVSPropertyOp55
 70
     1
102
RTVSPropertyOp56
 70
     1
102
RTVSPropertyOp57
 70
     1
102
RTVSPost2010Prop28
280
     0
102
RTVSPost2010PropOp28
 70
     1
102
RTVSPost2010Prop29
280
     1
102
RTVSPost2010PropOp29
 70
     1
102
RTVSPost2010Prop30
280
     1
102
RTVSPost2010PropOp30
 70
     1
102
RTVSPost2010Prop31
280
     0
102
RTVSPost2010PropOp31
 70
     1
102
RTVSPost2010Prop32
280
     0
102
RTVSPost2010PropOp32
 70
     1
102
RTVSPost2010Prop33
280
     0
102
RTVSPost2010PropOp33
 70
     1
102
RTVSPost2010Prop34
280
     0
102
RTVSPost2010PropOp34
 70
     1
102
RTVSPost2010Prop35
280
     0
102
RTVSPost2010PropOp35
 70
     1
102
RTVSPost2010Prop36
280
     0
102
RTVSPost2010PropOp36
 70
     1
102
RTVSPost2010Prop37
 90
       50
102
RTVSPost2010PropOp37
 70
     1
102
RTVSPost2010Prop38
140
0.0
102
RTVSPost2010PropOp38
 70
     1
102
RTVSPost2010Prop39
140
1.0
102
RTVSPost2010PropOp39
 70
     1
102
RTVSPost2010Prop40
 90
        0
102
RTVSPost2010PropOp40
 70
     1
102
RTVSPost2010Prop41ColorIndex
 90
       18
102
RTVSPost2010Prop41ColorRGB
 90
        0
102
RTVSPost2010PropOp41
 70
     1
102
RTVSPost2010Prop42
 90
       50
102
RTVSPost2010PropOp42
 70
     1
102
RTVSPost2010Prop43
 90
        3
102
RTVSPost2010PropOp43
 70
     1
102
RTVSPost2010Prop44ColorIndex
 90
        5
102
RTVSPost2010Prop44ColorRGB
 90
      255
102
RTVSPost2010PropOp44
 70
     1
102
RTVSPost2010Prop45
280
     0
102
RTVSPost2010PropOp45
 70
     1
102
RTVSPost2010Prop46
 90
       50
102
RTVSPost2010PropOp46
 70
     1
102
RTVSPost2010Prop47
 90
       50
102
RTVSPost2010PropOp47
 70
     1
102
RTVSPost2010Prop48
 90
       50
102
RTVSPost2010PropOp48
 70
     1
102
RTVSPost2010Prop49
280
     0
102
RTVSPost2010PropOp49
 70
     1
102
RTVSPost2010Prop50
 90
       50
102
RTVSPost2010PropOp50
 70
     1
102
RTVSPost2010Prop51ColorIndex
 90
      256
102
RTVSPost2010Prop51ColorRGB
 90
-16777216
102
RTVSPost2010PropOp51
 70
     0
102
RTVSPost2010Prop52
140
1.0
102
RTVSPost2010PropOp52
 70
     0
102
RTVSPost2010Prop53
 90
        2
102
RTVSPost2010PropOp53
 70
     1
102
RTVSPost2010Prop54
  1
strokes_ogs.tif
102
RTVSPost2010PropOp54
 70
     1
102
RTVSPost2010Prop55
280
     0
102
RTVSPost2010PropOp55
 70
     1
102
RTVSPost2010Prop56
140
1.0
102
RTVSPost2010PropOp56
 70
     1
102
RTVSPost2010Prop57
140
1.0
102
RTVSPost2010PropOp57
 70
     1
  0
XRECORD
  5
C2
102
{ACAD_REACTORS
330
C1
102
}
330
C1
100
AcDbXrecord
280
     1
102
RTVSPropertyOp0
 70
     1
102
RTVSPropertyOp1
 70
     1
102
RTVSPropertyOp2
 70
     1
102
RTVSPropertyOp3
 70
     1
102
RTVSPropertyOp4
 70
     1
102
RTVSPropertyOp5
 70
     1
102
RTVSPropertyOp6
 70
     1
102
RTVSPropertyOp7
 70
     1
102
RTVSPropertyOp8
 70
     1
102
RTVSPropertyOp9
 70
     1
102
RTVSPropertyOp10
 70
     1
102
RTVSPropertyOp11
 70
     1
102
RTVSPropertyOp12
 70
     1
102
RTVSPropertyOp13
 70
     1
102
RTVSPropertyOp14
 70
     1
102
RTVSPropertyOp15
 70
     1
102
RTVSPropertyOp16
 70
     1
102
RTVSPropertyOp17
 70
     1
102
RTVSPropertyOp18
 70
     1
102
RTVSPropertyOp19
 70
     1
102
RTVSPropertyOp20
 70
     1
102
RTVSPropertyOp21
 70
     1
102
RTVSPropertyOp22
 70
     1
102
RTVSPropertyOp23
 70
     1
102
RTVSPropertyOp24
 70
     1
102
RTVSPropertyOp25
 70
     1
102
RTVSPropertyOp26
 70
     1
102
RTVSPropertyOp27
 70
     1
102
RTVSPropertyOp28
 70
     1
102
RTVSPropertyOp29
 70
     1
102
RTVSPropertyOp30
 70
     1
102
RTVSPropertyOp31
 70
     1
102
RTVSPropertyOp32
 70
     1
102
RTVSPropertyOp33
 70
     1
102
RTVSPropertyOp34
 70
     1
102
RTVSPropertyOp35
 70
     1
102
RTVSPropertyOp36
 70
     1
102
RTVSPropertyOp37
 70
     1
102
RTVSPropertyOp38
 70
     1
102
RTVSPropertyOp39
 70
     1
102
RTVSPropertyOp40
 70
     1
102
RTVSPropertyOp41
 70
     1
102
RTVSPropertyOp42
 70
     1
102
RTVSPropertyOp43
 70
     1
102
RTVSPropertyOp44
 70
     1
102
RTVSPropertyOp45
 70
     1
102
RTVSPropertyOp46
 70
     1
102
RTVSPropertyOp47
 70
     1
102
RTVSPropertyOp48
 70
     1
102
RTVSPropertyOp49
 70
     1
102
RTVSPropertyOp50
 70
     1
102
RTVSPropertyOp51
 70
     0
102
RTVSPropertyOp52
 70
     0
102
RTVSPropertyOp53
 70
     1
102
RTVSPropertyOp54
 70
     1
102
RTVSPropertyOp55
 70
     1
102
RTVSPropertyOp56
 70
     1
102
RTVSPropertyOp57
 70
     1
102
RTVSPost2010Prop28
280
     0
102
RTVSPost2010PropOp28
 70
     1
102
RTVSPost2010Prop29
280
     1
102
RTVSPost2010PropOp29
 70
     1
102
RTVSPost2010Prop30
280
     1
102
RTVSPost2010PropOp30
 70
     1
102
RTVSPost2010Prop31
280
     0
102
RTVSPost2010PropOp31
 70
     1
102
RTVSPost2010Prop32
280
     0
102
RTVSPost2010PropOp32
 70
     1
102
RTVSPost2010Prop33
280
     0
102
RTVSPost2010PropOp33
 70
     1
102
RTVSPost2010Prop34
280
     0
102
RTVSPost2010PropOp34
 70
     1
102
RTVSPost2010Prop35
280
     0
102
RTVSPost2010PropOp35
 70
     1
102
RTVSPost2010Prop36
280
     0
102
RTVSPost2010PropOp36
 70
     1
102
RTVSPost2010Prop37
 90
       50
102
RTVSPost2010PropOp37
 70
     1
102
RTVSPost2010Prop38
140
0.0
102
RTVSPost2010PropOp38
 70
     1
102
RTVSPost2010Prop39
140
1.0
102
RTVSPost2010PropOp39
 70
     1
102
RTVSPost2010Prop40
 90
        0
102
RTVSPost2010PropOp40
 70
     1
102
RTVSPost2010Prop41ColorIndex
 90
       18
102
RTVSPost2010Prop41ColorRGB
 90
        0
102
RTVSPost2010PropOp41
 70
     1
102
RTVSPost2010Prop42
 90
       50
102
RTVSPost2010PropOp42
 70
     1
102
RTVSPost2010Prop43
 90
        3
102
RTVSPost2010PropOp43
 70
     1
102
RTVSPost2010Prop44ColorIndex
 90
        5
102
RTVSPost2010Prop44ColorRGB
 90
      255
102
RTVSPost2010PropOp44
 70
     1
102
RTVSPost2010Prop45
280
     0
102
RTVSPost2010PropOp45
 70
     1
102
RTVSPost2010Prop46
 90
       50
102
RTVSPost2010PropOp46
 70
     1
102
RTVSPost2010Prop47
 90
       50
102
RTVSPost2010PropOp47
 70
     1
102
RTVSPost2010Prop48
 90
       50
102
RTVSPost2010PropOp48
 70
     1
102
RTVSPost2010Prop49
280
     0
102
RTVSPost2010PropOp49
 70
     1
102
RTVSPost2010Prop50
 90
       50
102
RTVSPost2010PropOp50
 70
     1
102
RTVSPost2010Prop51ColorIndex
 90
      256
102
RTVSPost2010Prop51ColorRGB
 90
-16777216
102
RTVSPost2010PropOp51
 70
     0
102
RTVSPost2010Prop52
140
1.0
102
RTVSPost2010PropOp52
 70
     0
102
RTVSPost2010Prop53
 90
        2
102
RTVSPost2010PropOp53
 70
     1
102
RTVSPost2010Prop54
  1
strokes_ogs.tif
102
RTVSPost2010PropOp54
 70
     1
102
RTVSPost2010Prop55
280
     0
102
RTVSPost2010PropOp55
 70
     1
102
RTVSPost2010Prop56
140
1.0
102
RTVSPost2010PropOp56
 70
     1
102
RTVSPost2010Prop57
140
1.0
102
RTVSPost2010PropOp57
 70
     1
  0
XRECORD
  5
D6
102
{ACAD_REACTORS
330
D5
102
}
330
D5
100
AcDbXrecord
280
     1
102
RTVSPropertyOp0
 70
     0
102
RTVSPropertyOp1
 70
     0
102
RTVSPropertyOp2
 70
     0
102
RTVSPropertyOp3
 70
     0
102
RTVSPropertyOp4
 70
     0
102
RTVSPropertyOp5
 70
     0
102
RTVSPropertyOp6
 70
     0
102
RTVSPropertyOp7
 70
     0
102
RTVSPropertyOp8
 70
     0
102
RTVSPropertyOp9
 70
     0
102
RTVSPropertyOp10
 70
     0
102
RTVSPropertyOp11
 70
     0
102
RTVSPropertyOp12
 70
     0
102
RTVSPropertyOp13
 70
     0
102
RTVSPropertyOp14
 70
     2
102
RTVSPropertyOp15
 70
     0
102
RTVSPropertyOp16
 70
     0
102
RTVSPropertyOp17
 70
     0
102
RTVSPropertyOp18
 70
     0
102
RTVSPropertyOp19
 70
     0
102
RTVSPropertyOp20
 70
     0
102
RTVSPropertyOp21
 70
     0
102
RTVSPropertyOp22
 70
     0
102
RTVSPropertyOp23
 70
     0
102
RTVSPropertyOp24
 70
     0
102
RTVSPropertyOp25
 70
     0
102
RTVSPropertyOp26
 70
     0
102
RTVSPropertyOp27
 70
     0
102
RTVSPropertyOp28
 70
     0
102
RTVSPropertyOp29
 70
     0
102
RTVSPropertyOp30
 70
     0
102
RTVSPropertyOp31
 70
     0
102
RTVSPropertyOp32
 70
     0
102
RTVSPropertyOp33
 70
     0
102
RTVSPropertyOp34
 70
     0
102
RTVSPropertyOp35
 70
     0
102
RTVSPropertyOp36
 70
     0
102
RTVSPropertyOp37
 70
     0
102
RTVSPropertyOp38
 70
     0
102
RTVSPropertyOp39
 70
     0
102
RTVSPropertyOp40
 70
     0
102
RTVSPropertyOp41
 70
     0
102
RTVSPropertyOp42
 70
     0
102
RTVSPropertyOp43
 70
     0
102
RTVSPropertyOp44
 70
     0
102
RTVSPropertyOp45
 70
     0
102
RTVSPropertyOp46
 70
     0
102
RTVSPropertyOp47
 70
     0
102
RTVSPropertyOp48
 70
     0
102
RTVSPropertyOp49
 70
     0
102
RTVSPropertyOp50
 70
     0
102
RTVSPropertyOp51
 70
     0
102
RTVSPropertyOp52
 70
     0
102
RTVSPropertyOp53
 70
     0
102
RTVSPropertyOp54
 70
     0
102
RTVSPropertyOp55
 70
     0
102
RTVSPropertyOp56
 70
     0
102
RTVSPropertyOp57
 70
     0
102
RTVSPost2010Prop28
280
     0
102
RTVSPost2010PropOp28
 70
     0
102
RTVSPost2010Prop29
280
     1
102
RTVSPost2010PropOp29
 70
     0
102
RTVSPost2010Prop30
280
     1
102
RTVSPost2010PropOp30
 70
     0
102
RTVSPost2010Prop31
280
     0
102
RTVSPost2010PropOp31
 70
     0
102
RTVSPost2010Prop32
280
     0
102
RTVSPost2010PropOp32
 70
     0
102
RTVSPost2010Prop33
280
     0
102
RTVSPost2010PropOp33
 70
     0
102
RTVSPost2010Prop34
280
     0
102
RTVSPost2010PropOp34
 70
     0
102
RTVSPost2010Prop35
280
     0
102
RTVSPost2010PropOp35
 70
     0
102
RTVSPost2010Prop36
280
     0
102
RTVSPost2010PropOp36
 70
     0
102
RTVSPost2010Prop37
 90
       50
102
RTVSPost2010PropOp37
 70
     0
102
RTVSPost2010Prop38
140
0.0
102
RTVSPost2010PropOp38
 70
     0
102
RTVSPost2010Prop39
140
1.0
102
RTVSPost2010PropOp39
 70
     0
102
RTVSPost2010Prop40
 90
        0
102
RTVSPost2010PropOp40
 70
     0
102
RTVSPost2010Prop41ColorIndex
 90
       18
102
RTVSPost2010Prop41ColorRGB
 90
        0
102
RTVSPost2010PropOp41
 70
     0
102
RTVSPost2010Prop42
 90
       50
102
RTVSPost2010PropOp42
 70
     0
102
RTVSPost2010Prop43
 90
        3
102
RTVSPost2010PropOp43
 70
     0
102
RTVSPost2010Prop44ColorIndex
 90
        5
102
RTVSPost2010Prop44ColorRGB
 90
      255
102
RTVSPost2010PropOp44
 70
     0
102
RTVSPost2010Prop45
280
     0
102
RTVSPost2010PropOp45
 70
     0
102
RTVSPost2010Prop46
 90
       50
102
RTVSPost2010PropOp46
 70
     0
102
RTVSPost2010Prop47
 90
       50
102
RTVSPost2010PropOp47
 70
     0
102
RTVSPost2010Prop48
 90
       50
102
RTVSPost2010PropOp48
 70
     0
102
RTVSPost2010Prop49
280
     0
102
RTVSPost2010PropOp49
 70
     0
102
RTVSPost2010Prop50
 90
       50
102
RTVSPost2010PropOp50
 70
     0
102
RTVSPost2010Prop51ColorIndex
 90
      256
102
RTVSPost2010Prop51ColorRGB
 90
-16777216
102
RTVSPost2010PropOp51
 70
     0
102
RTVSPost2010Prop52
140
1.0
102
RTVSPost2010PropOp52
 70
     0
102
RTVSPost2010Prop53
 90
        2
102
RTVSPost2010PropOp53
 70
     0
102
RTVSPost2010Prop54
  1
strokes_ogs.tif
102
RTVSPost2010PropOp54
 70
     0
102
RTVSPost2010Prop55
280
     0
102
RTVSPost2010PropOp55
 70
     0
102
RTVSPost2010Prop56
140
1.0
102
RTVSPost2010PropOp56
 70
     0
102
RTVSPost2010Prop57
140
1.0
102
RTVSPost2010PropOp57
 70
     0
  0
XRECORD
  5
D0
102
{ACAD_REACTORS
330
CF
102
}
330
CF
100
AcDbXrecord
280
     1
102
RTVSPropertyOp0
 70
     1
102
RTVSPropertyOp1
 70
     1
102
RTVSPropertyOp2
 70
     1
102
RTVSPropertyOp3
 70
     1
102
RTVSPropertyOp4
 70
     1
102
RTVSPropertyOp5
 70
     1
102
RTVSPropertyOp6
 70
     1
102
RTVSPropertyOp7
 70
     1
102
RTVSPropertyOp8
 70
     1
102
RTVSPropertyOp9
 70
     1
102
RTVSPropertyOp10
 70
     1
102
RTVSPropertyOp11
 70
     1
102
RTVSPropertyOp12
 70
     1
102
RTVSPropertyOp13
 70
     1
102
RTVSPropertyOp14
 70
     1
102
RTVSPropertyOp15
 70
     1
102
RTVSPropertyOp16
 70
     1
102
RTVSPropertyOp17
 70
     1
102
RTVSPropertyOp18
 70
     1
102
RTVSPropertyOp19
 70
     1
102
RTVSPropertyOp20
 70
     1
102
RTVSPropertyOp21
 70
     1
102
RTVSPropertyOp22
 70
     1
102
RTVSPropertyOp23
 70
     1
102
RTVSPropertyOp24
 70
     1
102
RTVSPropertyOp25
 70
     1
102
RTVSPropertyOp26
 70
     1
102
RTVSPropertyOp27
 70
     1
102
RTVSPropertyOp28
 70
     1
102
RTVSPropertyOp29
 70
     1
102
RTVSPropertyOp30
 70
     1
102
RTVSPropertyOp31
 70
     1
102
RTVSPropertyOp32
 70
     1
102
RTVSPropertyOp33
 70
     1
102
RTVSPropertyOp34
 70
     1
102
RTVSPropertyOp35
 70
     1
102
RTVSPropertyOp36
 70
     1
102
RTVSPropertyOp37
 70
     1
102
RTVSPropertyOp38
 70
     1
102
RTVSPropertyOp39
 70
     1
102
RTVSPropertyOp40
 70
     1
102
RTVSPropertyOp41
 70
     1
102
RTVSPropertyOp42
 70
     1
102
RTVSPropertyOp43
 70
     1
102
RTVSPropertyOp44
 70
     1
102
RTVSPropertyOp45
 70
     1
102
RTVSPropertyOp46
 70
     1
102
RTVSPropertyOp47
 70
     1
102
RTVSPropertyOp48
 70
     1
102
RTVSPropertyOp49
 70
     1
102
RTVSPropertyOp50
 70
     1
102
RTVSPropertyOp51
 70
     0
102
RTVSPropertyOp52
 70
     0
102
RTVSPropertyOp53
 70
     1
102
RTVSPropertyOp54
 70
     1
102
RTVSPropertyOp55
 70
     1
102
RTVSPropertyOp56
 70
     1
102
RTVSPropertyOp57
 70
     1
102
RTVSPost2010Prop28
280
     0
102
RTVSPost2010PropOp28
 70
     1
102
RTVSPost2010Prop29
280
     1
102
RTVSPost2010PropOp29
 70
     1
102
RTVSPost2010Prop30
280
     1
102
RTVSPost2010PropOp30
 70
     1
102
RTVSPost2010Prop31
280
     0
102
RTVSPost2010PropOp31
 70
     1
102
RTVSPost2010Prop32
280
     0
102
RTVSPost2010PropOp32
 70
     1
102
RTVSPost2010Prop33
280
     0
102
RTVSPost2010PropOp33
 70
     1
102
RTVSPost2010Prop34
280
     0
102
RTVSPost2010PropOp34
 70
     1
102
RTVSPost2010Prop35
280
     0
102
RTVSPost2010PropOp35
 70
     1
102
RTVSPost2010Prop36
280
     0
102
RTVSPost2010PropOp36
 70
     1
102
RTVSPost2010Prop37
 90
       50
102
RTVSPost2010PropOp37
 70
     1
102
RTVSPost2010Prop38
140
0.0
102
RTVSPost2010PropOp38
 70
     1
102
RTVSPost2010Prop39
140
1.0
102
RTVSPost2010PropOp39
 70
     1
102
RTVSPost2010Prop40
 90
        0
102
RTVSPost2010PropOp40
 70
     1
102
RTVSPost2010Prop41ColorIndex
 90
       18
102
RTVSPost2010Prop41ColorRGB
 90
        0
102
RTVSPost2010PropOp41
 70
     1
102
RTVSPost2010Prop42
 90
       50
102
RTVSPost2010PropOp42
 70
     1
102
RTVSPost2010Prop43
 90
        3
102
RTVSPost2010PropOp43
 70
     1
102
RTVSPost2010Prop44ColorIndex
 90
        5
102
RTVSPost2010Prop44ColorRGB
 90
      255
102
RTVSPost2010PropOp44
 70
     1
102
RTVSPost2010Prop45
280
     0
102
RTVSPost2010PropOp45
 70
     1
102
RTVSPost2010Prop46
 90
       50
102
RTVSPost2010PropOp46
 70
     1
102
RTVSPost2010Prop47
 90
       50
102
RTVSPost2010PropOp47
 70
     1
102
RTVSPost2010Prop48
 90
       50
102
RTVSPost2010PropOp48
 70
     1
102
RTVSPost2010Prop49
280
     0
102
RTVSPost2010PropOp49
 70
     1
102
RTVSPost2010Prop50
 90
       50
102
RTVSPost2010PropOp50
 70
     1
102
RTVSPost2010Prop51ColorIndex
 90
      256
102
RTVSPost2010Prop51ColorRGB
 90
-16777216
102
RTVSPost2010PropOp51
 70
     0
102
RTVSPost2010Prop52
140
1.0
102
RTVSPost2010PropOp52
 70
     0
102
RTVSPost2010Prop53
 90
        2
102
RTVSPost2010PropOp53
 70
     1
102
RTVSPost2010Prop54
  1
strokes_ogs.tif
102
RTVSPost2010PropOp54
 70
     1
102
RTVSPost2010Prop55
280
     0
102
RTVSPost2010PropOp55
 70
     1
102
RTVSPost2010Prop56
140
1.0
102
RTVSPost2010PropOp56
 70
     1
102
RTVSPost2010Prop57
140
1.0
102
RTVSPost2010PropOp57
 70
     1
  0
XRECORD
  5
D8
102
{ACAD_REACTORS
330
D7
102
}
330
D7
100
AcDbXrecord
280
     1
102
RTVSPropertyOp0
 70
     0
102
RTVSPropertyOp1
 70
     0
102
RTVSPropertyOp2
 70
     0
102
RTVSPropertyOp3
 70
     0
102
RTVSPropertyOp4
 70
     0
102
RTVSPropertyOp5
 70
     0
102
RTVSPropertyOp6
 70
     0
102
RTVSPropertyOp7
 70
     0
102
RTVSPropertyOp8
 70
     0
102
RTVSPropertyOp9
 70
     0
102
RTVSPropertyOp10
 70
     0
102
RTVSPropertyOp11
 70
     0
102
RTVSPropertyOp12
 70
     0
102
RTVSPropertyOp13
 70
     0
102
RTVSPropertyOp14
 70
     2
102
RTVSPropertyOp15
 70
     0
102
RTVSPropertyOp16
 70
     0
102
RTVSPropertyOp17
 70
     0
102
RTVSPropertyOp18
 70
     0
102
RTVSPropertyOp19
 70
     0
102
RTVSPropertyOp20
 70
     0
102
RTVSPropertyOp21
 70
     0
102
RTVSPropertyOp22
 70
     0
102
RTVSPropertyOp23
 70
     0
102
RTVSPropertyOp24
 70
     0
102
RTVSPropertyOp25
 70
     0
102
RTVSPropertyOp26
 70
     0
102
RTVSPropertyOp27
 70
     0
102
RTVSPropertyOp28
 70
     0
102
RTVSPropertyOp29
 70
     0
102
RTVSPropertyOp30
 70
     0
102
RTVSPropertyOp31
 70
     0
102
RTVSPropertyOp32
 70
     0
102
RTVSPropertyOp33
 70
     0
102
RTVSPropertyOp34
 70
     0
102
RTVSPropertyOp35
 70
     0
102
RTVSPropertyOp36
 70
     0
102
RTVSPropertyOp37
 70
     0
102
RTVSPropertyOp38
 70
     0
102
RTVSPropertyOp39
 70
     0
102
RTVSPropertyOp40
 70
     0
102
RTVSPropertyOp41
 70
     0
102
RTVSPropertyOp42
 70
     0
102
RTVSPropertyOp43
 70
     0
102
RTVSPropertyOp44
 70
     0
102
RTVSPropertyOp45
 70
     0
102
RTVSPropertyOp46
 70
     0
102
RTVSPropertyOp47
 70
     0
102
RTVSPropertyOp48
 70
     0
102
RTVSPropertyOp49
 70
     0
102
RTVSPropertyOp50
 70
     0
102
RTVSPropertyOp51
 70
     0
102
RTVSPropertyOp52
 70
     0
102
RTVSPropertyOp53
 70
     0
102
RTVSPropertyOp54
 70
     0
102
RTVSPropertyOp55
 70
     0
102
RTVSPropertyOp56
 70
     0
102
RTVSPropertyOp57
 70
     0
102
RTVSPost2010Prop28
280
     0
102
RTVSPost2010PropOp28
 70
     0
102
RTVSPost2010Prop29
280
     1
102
RTVSPost2010PropOp29
 70
     0
102
RTVSPost2010Prop30
280
     1
102
RTVSPost2010PropOp30
 70
     0
102
RTVSPost2010Prop31
280
     0
102
RTVSPost2010PropOp31
 70
     0
102
RTVSPost2010Prop32
280
     0
102
RTVSPost2010PropOp32
 70
     0
102
RTVSPost2010Prop33
280
     0
102
RTVSPost2010PropOp33
 70
     0
102
RTVSPost2010Prop34
280
     0
102
RTVSPost2010PropOp34
 70
     0
102
RTVSPost2010Prop35
280
     0
102
RTVSPost2010PropOp35
 70
     0
102
RTVSPost2010Prop36
280
     0
102
RTVSPost2010PropOp36
 70
     0
102
RTVSPost2010Prop37
 90
       50
102
RTVSPost2010PropOp37
 70
     0
102
RTVSPost2010Prop38
140
0.0
102
RTVSPost2010PropOp38
 70
     0
102
RTVSPost2010Prop39
140
1.0
102
RTVSPost2010PropOp39
 70
     0
102
RTVSPost2010Prop40
 90
        0
102
RTVSPost2010PropOp40
 70
     0
102
RTVSPost2010Prop41ColorIndex
 90
       18
102
RTVSPost2010Prop41ColorRGB
 90
        0
102
RTVSPost2010PropOp41
 70
     0
102
RTVSPost2010Prop42
 90
       50
102
RTVSPost2010PropOp42
 70
     0
102
RTVSPost2010Prop43
 90
        3
102
RTVSPost2010PropOp43
 70
     0
102
RTVSPost2010Prop44ColorIndex
 90
        5
102
RTVSPost2010Prop44ColorRGB
 90
      255
102
RTVSPost2010PropOp44
 70
     0
102
RTVSPost2010Prop45
280
     0
102
RTVSPost2010PropOp45
 70
     0
102
RTVSPost2010Prop46
 90
       50
102
RTVSPost2010PropOp46
 70
     0
102
RTVSPost2010Prop47
 90
       50
102
RTVSPost2010PropOp47
 70
     0
102
RTVSPost2010Prop48
 90
       50
102
RTVSPost2010PropOp48
 70
     0
102
RTVSPost2010Prop49
280
     0
102
RTVSPost2010PropOp49
 70
     0
102
RTVSPost2010Prop50
 90
       50
102
RTVSPost2010PropOp50
 70
     0
102
RTVSPost2010Prop51ColorIndex
 90
      256
102
RTVSPost2010Prop51ColorRGB
 90
-16777216
102
RTVSPost2010PropOp51
 70
     0
102
RTVSPost2010Prop52
140
1.0
102
RTVSPost2010PropOp52
 70
     0
102
RTVSPost2010Prop53
 90
        2
102
RTVSPost2010PropOp53
 70
     0
102
RTVSPost2010Prop54
  1
strokes_ogs.tif
102
RTVSPost2010PropOp54
 70
     0
102
RTVSPost2010Prop55
280
     0
102
RTVSPost2010PropOp55
 70
     0
102
RTVSPost2010Prop56
140
1.0
102
RTVSPost2010PropOp56
 70
     0
102
RTVSPost2010Prop57
140
1.0
102
RTVSPost2010PropOp57
 70
     0
  0
XRECORD
  5
C6
102
{ACAD_REACTORS
330
C5
102
}
330
C5
100
AcDbXrecord
280
     1
102
RTVSPropertyOp0
 70
     1
102
RTVSPropertyOp1
 70
     1
102
RTVSPropertyOp2
 70
     1
102
RTVSPropertyOp3
 70
     1
102
RTVSPropertyOp4
 70
     1
102
RTVSPropertyOp5
 70
     1
102
RTVSPropertyOp6
 70
     1
102
RTVSPropertyOp7
 70
     1
102
RTVSPropertyOp8
 70
     1
102
RTVSPropertyOp9
 70
     1
102
RTVSPropertyOp10
 70
     1
102
RTVSPropertyOp11
 70
     1
102
RTVSPropertyOp12
 70
     1
102
RTVSPropertyOp13
 70
     1
102
RTVSPropertyOp14
 70
     1
102
RTVSPropertyOp15
 70
     1
102
RTVSPropertyOp16
 70
     1
102
RTVSPropertyOp17
 70
     1
102
RTVSPropertyOp18
 70
     1
102
RTVSPropertyOp19
 70
     1
102
RTVSPropertyOp20
 70
     1
102
RTVSPropertyOp21
 70
     1
102
RTVSPropertyOp22
 70
     1
102
RTVSPropertyOp23
 70
     1
102
RTVSPropertyOp24
 70
     1
102
RTVSPropertyOp25
 70
     1
102
RTVSPropertyOp26
 70
     1
102
RTVSPropertyOp27
 70
     1
102
RTVSPropertyOp28
 70
     1
102
RTVSPropertyOp29
 70
     1
102
RTVSPropertyOp30
 70
     1
102
RTVSPropertyOp31
 70
     1
102
RTVSPropertyOp32
 70
     1
102
RTVSPropertyOp33
 70
     1
102
RTVSPropertyOp34
 70
     1
102
RTVSPropertyOp35
 70
     1
102
RTVSPropertyOp36
 70
     1
102
RTVSPropertyOp37
 70
     1
102
RTVSPropertyOp38
 70
     1
102
RTVSPropertyOp39
 70
     1
102
RTVSPropertyOp40
 70
     1
102
RTVSPropertyOp41
 70
     1
102
RTVSPropertyOp42
 70
     1
102
RTVSPropertyOp43
 70
     1
102
RTVSPropertyOp44
 70
     1
102
RTVSPropertyOp45
 70
     1
102
RTVSPropertyOp46
 70
     1
102
RTVSPropertyOp47
 70
     1
102
RTVSPropertyOp48
 70
     1
102
RTVSPropertyOp49
 70
     1
102
RTVSPropertyOp50
 70
     1
102
RTVSPropertyOp51
 70
     0
102
RTVSPropertyOp52
 70
     0
102
RTVSPropertyOp53
 70
     1
102
RTVSPropertyOp54
 70
     1
102
RTVSPropertyOp55
 70
     1
102
RTVSPropertyOp56
 70
     1
102
RTVSPropertyOp57
 70
     1
102
RTVSPost2010Prop28
280
     0
102
RTVSPost2010PropOp28
 70
     1
102
RTVSPost2010Prop29
280
     1
102
RTVSPost2010PropOp29
 70
     1
102
RTVSPost2010Prop30
280
     1
102
RTVSPost2010PropOp30
 70
     1
102
RTVSPost2010Prop31
280
     0
102
RTVSPost2010PropOp31
 70
     1
102
RTVSPost2010Prop32
280
     0
102
RTVSPost2010PropOp32
 70
     1
102
RTVSPost2010Prop33
280
     0
102
RTVSPost2010PropOp33
 70
     1
102
RTVSPost2010Prop34
280
     0
102
RTVSPost2010PropOp34
 70
     1
102
RTVSPost2010Prop35
280
     0
102
RTVSPost2010PropOp35
 70
     1
102
RTVSPost2010Prop36
280
     0
102
RTVSPost2010PropOp36
 70
     1
102
RTVSPost2010Prop37
 90
       50
102
RTVSPost2010PropOp37
 70
     1
102
RTVSPost2010Prop38
140
0.0
102
RTVSPost2010PropOp38
 70
     1
102
RTVSPost2010Prop39
140
1.0
102
RTVSPost2010PropOp39
 70
     1
102
RTVSPost2010Prop40
 90
        0
102
RTVSPost2010PropOp40
 70
     1
102
RTVSPost2010Prop41ColorIndex
 90
       18
102
RTVSPost2010Prop41ColorRGB
 90
        0
102
RTVSPost2010PropOp41
 70
     1
102
RTVSPost2010Prop42
 90
       50
102
RTVSPost2010PropOp42
 70
     1
102
RTVSPost2010Prop43
 90
        3
102
RTVSPost2010PropOp43
 70
     1
102
RTVSPost2010Prop44ColorIndex
 90
        5
102
RTVSPost2010Prop44ColorRGB
 90
      255
102
RTVSPost2010PropOp44
 70
     1
102
RTVSPost2010Prop45
280
     0
102
RTVSPost2010PropOp45
 70
     1
102
RTVSPost2010Prop46
 90
       50
102
RTVSPost2010PropOp46
 70
     1
102
RTVSPost2010Prop47
 90
       50
102
RTVSPost2010PropOp47
 70
     1
102
RTVSPost2010Prop48
 90
       50
102
RTVSPost2010PropOp48
 70
     1
102
RTVSPost2010Prop49
280
     0
102
RTVSPost2010PropOp49
 70
     1
102
RTVSPost2010Prop50
 90
       50
102
RTVSPost2010PropOp50
 70
     1
102
RTVSPost2010Prop51ColorIndex
 90
      256
102
RTVSPost2010Prop51ColorRGB
 90
-16777216
102
RTVSPost2010PropOp51
 70
     0
102
RTVSPost2010Prop52
140
1.0
102
RTVSPost2010PropOp52
 70
     0
102
RTVSPost2010Prop53
 90
        2
102
RTVSPost2010PropOp53
 70
     1
102
RTVSPost2010Prop54
  1
strokes_ogs.tif
102
RTVSPost2010PropOp54
 70
     1
102
RTVSPost2010Prop55
280
     0
102
RTVSPost2010PropOp55
 70
     1
102
RTVSPost2010Prop56
140
1.0
102
RTVSPost2010PropOp56
 70
     1
102
RTVSPost2010Prop57
140
1.0
102
RTVSPost2010PropOp57
 70
     1
  0
XRECORD
  5
E4
102
{ACAD_REACTORS
330
E3
102
}
330
E3
100
AcDbXrecord
280
     1
102
RTVSPropertyOp0
 70
     1
102
RTVSPropertyOp1
 70
     1
102
RTVSPropertyOp2
 70
     1
102
RTVSPropertyOp3
 70
     1
102
RTVSPropertyOp4
 70
     1
102
RTVSPropertyOp5
 70
     1
102
RTVSPropertyOp6
 70
     1
102
RTVSPropertyOp7
 70
     1
102
RTVSPropertyOp8
 70
     1
102
RTVSPropertyOp9
 70
     1
102
RTVSPropertyOp10
 70
     1
102
RTVSPropertyOp11
 70
     1
102
RTVSPropertyOp12
 70
     1
102
RTVSPropertyOp13
 70
     1
102
RTVSPropertyOp14
 70
     1
102
RTVSPropertyOp15
 70
     1
102
RTVSPropertyOp16
 70
     1
102
RTVSPropertyOp17
 70
     1
102
RTVSPropertyOp18
 70
     1
102
RTVSPropertyOp19
 70
     1
102
RTVSPropertyOp20
 70
     1
102
RTVSPropertyOp21
 70
     1
102
RTVSPropertyOp22
 70
     1
102
RTVSPropertyOp23
 70
     1
102
RTVSPropertyOp24
 70
     1
102
RTVSPropertyOp25
 70
     1
102
RTVSPropertyOp26
 70
     1
102
RTVSPropertyOp27
 70
     1
102
RTVSPropertyOp28
 70
     1
102
RTVSPropertyOp29
 70
     1
102
RTVSPropertyOp30
 70
     1
102
RTVSPropertyOp31
 70
     1
102
RTVSPropertyOp32
 70
     1
102
RTVSPropertyOp33
 70
     1
102
RTVSPropertyOp34
 70
     1
102
RTVSPropertyOp35
 70
     1
102
RTVSPropertyOp36
 70
     1
102
RTVSPropertyOp37
 70
     1
102
RTVSPropertyOp38
 70
     1
102
RTVSPropertyOp39
 70
     1
102
RTVSPropertyOp40
 70
     1
102
RTVSPropertyOp41
 70
     1
102
RTVSPropertyOp42
 70
     1
102
RTVSPropertyOp43
 70
     1
102
RTVSPropertyOp44
 70
     1
102
RTVSPropertyOp45
 70
     1
102
RTVSPropertyOp46
 70
     1
102
RTVSPropertyOp47
 70
     1
102
RTVSPropertyOp48
 70
     1
102
RTVSPropertyOp49
 70
     1
102
RTVSPropertyOp50
 70
     1
102
RTVSPropertyOp51
 70
     0
102
RTVSPropertyOp52
 70
     0
102
RTVSPropertyOp53
 70
     1
102
RTVSPropertyOp54
 70
     1
102
RTVSPropertyOp55
 70
     1
102
RTVSPropertyOp56
 70
     1
102
RTVSPropertyOp57
 70
     1
102
RTVSPost2010Prop28
280
     0
102
RTVSPost2010PropOp28
 70
     1
102
RTVSPost2010Prop29
280
     1
102
RTVSPost2010PropOp29
 70
     1
102
RTVSPost2010Prop30
280
     1
102
RTVSPost2010PropOp30
 70
     1
102
RTVSPost2010Prop31
280
     0
102
RTVSPost2010PropOp31
 70
     1
102
RTVSPost2010Prop32
280
     0
102
RTVSPost2010PropOp32
 70
     1
102
RTVSPost2010Prop33
280
     0
102
RTVSPost2010PropOp33
 70
     1
102
RTVSPost2010Prop34
280
     0
102
RTVSPost2010PropOp34
 70
     1
102
RTVSPost2010Prop35
280
     0
102
RTVSPost2010PropOp35
 70
     1
102
RTVSPost2010Prop36
280
     0
102
RTVSPost2010PropOp36
 70
     1
102
RTVSPost2010Prop37
 90
       50
102
RTVSPost2010PropOp37
 70
     1
102
RTVSPost2010Prop38
140
0.0
102
RTVSPost2010PropOp38
 70
     1
102
RTVSPost2010Prop39
140
1.0
102
RTVSPost2010PropOp39
 70
     1
102
RTVSPost2010Prop40
 90
        0
102
RTVSPost2010PropOp40
 70
     1
102
RTVSPost2010Prop41ColorIndex
 90
       18
102
RTVSPost2010Prop41ColorRGB
 90
        0
102
RTVSPost2010PropOp41
 70
     1
102
RTVSPost2010Prop42
 90
       50
102
RTVSPost2010PropOp42
 70
     1
102
RTVSPost2010Prop43
 90
        3
102
RTVSPost2010PropOp43
 70
     1
102
RTVSPost2010Prop44ColorIndex
 90
        5
102
RTVSPost2010Prop44ColorRGB
 90
      255
102
RTVSPost2010PropOp44
 70
     1
102
RTVSPost2010Prop45
280
     0
102
RTVSPost2010PropOp45
 70
     1
102
RTVSPost2010Prop46
 90
       50
102
RTVSPost2010PropOp46
 70
     1
102
RTVSPost2010Prop47
 90
       50
102
RTVSPost2010PropOp47
 70
     1
102
RTVSPost2010Prop48
 90
       50
102
RTVSPost2010PropOp48
 70
     1
102
RTVSPost2010Prop49
280
     0
102
RTVSPost2010PropOp49
 70
     1
102
RTVSPost2010Prop50
 90
       50
102
RTVSPost2010PropOp50
 70
     1
102
RTVSPost2010Prop51ColorIndex
 90
      256
102
RTVSPost2010Prop51ColorRGB
 90
-16777216
102
RTVSPost2010PropOp51
 70
     0
102
RTVSPost2010Prop52
140
1.0
102
RTVSPost2010PropOp52
 70
     0
102
RTVSPost2010Prop53
 90
        2
102
RTVSPost2010PropOp53
 70
     1
102
RTVSPost2010Prop54
  1
strokes_ogs.tif
102
RTVSPost2010PropOp54
 70
     1
102
RTVSPost2010Prop55
280
     0
102
RTVSPost2010PropOp55
 70
     1
102
RTVSPost2010Prop56
140
1.0
102
RTVSPost2010PropOp56
 70
     1
102
RTVSPost2010Prop57
140
1.0
102
RTVSPost2010PropOp57
 70
     1
  0
XRECORD
  5
E2
102
{ACAD_REACTORS
330
E1
102
}
330
E1
100
AcDbXrecord
280
     1
102
RTVSPropertyOp0
 70
     1
102
RTVSPropertyOp1
 70
     1
102
RTVSPropertyOp2
 70
     1
102
RTVSPropertyOp3
 70
     1
102
RTVSPropertyOp4
 70
     1
102
RTVSPropertyOp5
 70
     1
102
RTVSPropertyOp6
 70
     1
102
RTVSPropertyOp7
 70
     1
102
RTVSPropertyOp8
 70
     1
102
RTVSPropertyOp9
 70
     1
102
RTVSPropertyOp10
 70
     1
102
RTVSPropertyOp11
 70
     1
102
RTVSPropertyOp12
 70
     1
102
RTVSPropertyOp13
 70
     1
102
RTVSPropertyOp14
 70
     1
102
RTVSPropertyOp15
 70
     1
102
RTVSPropertyOp16
 70
     1
102
RTVSPropertyOp17
 70
     1
102
RTVSPropertyOp18
 70
     1
102
RTVSPropertyOp19
 70
     1
102
RTVSPropertyOp20
 70
     1
102
RTVSPropertyOp21
 70
     1
102
RTVSPropertyOp22
 70
     1
102
RTVSPropertyOp23
 70
     1
102
RTVSPropertyOp24
 70
     1
102
RTVSPropertyOp25
 70
     1
102
RTVSPropertyOp26
 70
     1
102
RTVSPropertyOp27
 70
     1
102
RTVSPropertyOp28
 70
     1
102
RTVSPropertyOp29
 70
     1
102
RTVSPropertyOp30
 70
     1
102
RTVSPropertyOp31
 70
     1
102
RTVSPropertyOp32
 70
     1
102
RTVSPropertyOp33
 70
     1
102
RTVSPropertyOp34
 70
     1
102
RTVSPropertyOp35
 70
     1
102
RTVSPropertyOp36
 70
     1
102
RTVSPropertyOp37
 70
     1
102
RTVSPropertyOp38
 70
     1
102
RTVSPropertyOp39
 70
     1
102
RTVSPropertyOp40
 70
     1
102
RTVSPropertyOp41
 70
     1
102
RTVSPropertyOp42
 70
     1
102
RTVSPropertyOp43
 70
     1
102
RTVSPropertyOp44
 70
     1
102
RTVSPropertyOp45
 70
     1
102
RTVSPropertyOp46
 70
     1
102
RTVSPropertyOp47
 70
     1
102
RTVSPropertyOp48
 70
     1
102
RTVSPropertyOp49
 70
     1
102
RTVSPropertyOp50
 70
     1
102
RTVSPropertyOp51
 70
     0
102
RTVSPropertyOp52
 70
     0
102
RTVSPropertyOp53
 70
     1
102
RTVSPropertyOp54
 70
     1
102
RTVSPropertyOp55
 70
     1
102
RTVSPropertyOp56
 70
     1
102
RTVSPropertyOp57
 70
     1
102
RTVSPost2010Prop28
280
     0
102
RTVSPost2010PropOp28
 70
     1
102
RTVSPost2010Prop29
280
     1
102
RTVSPost2010PropOp29
 70
     1
102
RTVSPost2010Prop30
280
     1
102
RTVSPost2010PropOp30
 70
     1
102
RTVSPost2010Prop31
280
     0
102
RTVSPost2010PropOp31
 70
     1
102
RTVSPost2010Prop32
280
     0
102
RTVSPost2010PropOp32
 70
     1
102
RTVSPost2010Prop33
280
     0
102
RTVSPost2010PropOp33
 70
     1
102
RTVSPost2010Prop34
280
     0
102
RTVSPost2010PropOp34
 70
     1
102
RTVSPost2010Prop35
280
     0
102
RTVSPost2010PropOp35
 70
     1
102
RTVSPost2010Prop36
280
     0
102
RTVSPost2010PropOp36
 70
     1
102
RTVSPost2010Prop37
 90
       50
102
RTVSPost2010PropOp37
 70
     1
102
RTVSPost2010Prop38
140
0.0
102
RTVSPost2010PropOp38
 70
     1
102
RTVSPost2010Prop39
140
1.0
102
RTVSPost2010PropOp39
 70
     1
102
RTVSPost2010Prop40
 90
        0
102
RTVSPost2010PropOp40
 70
     1
102
RTVSPost2010Prop41ColorIndex
 90
       18
102
RTVSPost2010Prop41ColorRGB
 90
        0
102
RTVSPost2010PropOp41
 70
     1
102
RTVSPost2010Prop42
 90
       50
102
RTVSPost2010PropOp42
 70
     1
102
RTVSPost2010Prop43
 90
        3
102
RTVSPost2010PropOp43
 70
     1
102
RTVSPost2010Prop44ColorIndex
 90
        5
102
RTVSPost2010Prop44ColorRGB
 90
      255
102
RTVSPost2010PropOp44
 70
     1
102
RTVSPost2010Prop45
280
     0
102
RTVSPost2010PropOp45
 70
     1
102
RTVSPost2010Prop46
 90
       50
102
RTVSPost2010PropOp46
 70
     1
102
RTVSPost2010Prop47
 90
       50
102
RTVSPost2010PropOp47
 70
     1
102
RTVSPost2010Prop48
 90
       50
102
RTVSPost2010PropOp48
 70
     1
102
RTVSPost2010Prop49
280
     0
102
RTVSPost2010PropOp49
 70
     1
102
RTVSPost2010Prop50
 90
       50
102
RTVSPost2010PropOp50
 70
     1
102
RTVSPost2010Prop51ColorIndex
 90
      256
102
RTVSPost2010Prop51ColorRGB
 90
-16777216
102
RTVSPost2010PropOp51
 70
     0
102
RTVSPost2010Prop52
140
1.0
102
RTVSPost2010PropOp52
 70
     0
102
RTVSPost2010Prop53
 90
        2
102
RTVSPost2010PropOp53
 70
     1
102
RTVSPost2010Prop54
  1
strokes_ogs.tif
102
RTVSPost2010PropOp54
 70
     1
102
RTVSPost2010Prop55
280
     0
102
RTVSPost2010PropOp55
 70
     1
102
RTVSPost2010Prop56
140
1.0
102
RTVSPost2010PropOp56
 70
     1
102
RTVSPost2010Prop57
140
1.0
102
RTVSPost2010PropOp57
 70
     1
  0
XRECORD
  5
DC
102
{ACAD_REACTORS
330
DB
102
}
330
DB
100
AcDbXrecord
280
     1
102
RTVSPropertyOp0
 70
     1
102
RTVSPropertyOp1
 70
     1
102
RTVSPropertyOp2
 70
     1
102
RTVSPropertyOp3
 70
     1
102
RTVSPropertyOp4
 70
     1
102
RTVSPropertyOp5
 70
     1
102
RTVSPropertyOp6
 70
     1
102
RTVSPropertyOp7
 70
     1
102
RTVSPropertyOp8
 70
     1
102
RTVSPropertyOp9
 70
     1
102
RTVSPropertyOp10
 70
     1
102
RTVSPropertyOp11
 70
     1
102
RTVSPropertyOp12
 70
     1
102
RTVSPropertyOp13
 70
     1
102
RTVSPropertyOp14
 70
     1
102
RTVSPropertyOp15
 70
     1
102
RTVSPropertyOp16
 70
     1
102
RTVSPropertyOp17
 70
     1
102
RTVSPropertyOp18
 70
     1
102
RTVSPropertyOp19
 70
     1
102
RTVSPropertyOp20
 70
     1
102
RTVSPropertyOp21
 70
     1
102
RTVSPropertyOp22
 70
     1
102
RTVSPropertyOp23
 70
     1
102
RTVSPropertyOp24
 70
     1
102
RTVSPropertyOp25
 70
     1
102
RTVSPropertyOp26
 70
     1
102
RTVSPropertyOp27
 70
     1
102
RTVSPropertyOp28
 70
     1
102
RTVSPropertyOp29
 70
     1
102
RTVSPropertyOp30
 70
     1
102
RTVSPropertyOp31
 70
     1
102
RTVSPropertyOp32
 70
     1
102
RTVSPropertyOp33
 70
     1
102
RTVSPropertyOp34
 70
     1
102
RTVSPropertyOp35
 70
     1
102
RTVSPropertyOp36
 70
     1
102
RTVSPropertyOp37
 70
     1
102
RTVSPropertyOp38
 70
     1
102
RTVSPropertyOp39
 70
     1
102
RTVSPropertyOp40
 70
     1
102
RTVSPropertyOp41
 70
     1
102
RTVSPropertyOp42
 70
     1
102
RTVSPropertyOp43
 70
     1
102
RTVSPropertyOp44
 70
     1
102
RTVSPropertyOp45
 70
     1
102
RTVSPropertyOp46
 70
     1
102
RTVSPropertyOp47
 70
     1
102
RTVSPropertyOp48
 70
     1
102
RTVSPropertyOp49
 70
     1
102
RTVSPropertyOp50
 70
     1
102
RTVSPropertyOp51
 70
     0
102
RTVSPropertyOp52
 70
     0
102
RTVSPropertyOp53
 70
     1
102
RTVSPropertyOp54
 70
     1
102
RTVSPropertyOp55
 70
     1
102
RTVSPropertyOp56
 70
     1
102
RTVSPropertyOp57
 70
     1
102
RTVSPost2010Prop28
280
     0
102
RTVSPost2010PropOp28
 70
     1
102
RTVSPost2010Prop29
280
     1
102
RTVSPost2010PropOp29
 70
     1
102
RTVSPost2010Prop30
280
     1
102
RTVSPost2010PropOp30
 70
     1
102
RTVSPost2010Prop31
280
     0
102
RTVSPost2010PropOp31
 70
     1
102
RTVSPost2010Prop32
280
     0
102
RTVSPost2010PropOp32
 70
     1
102
RTVSPost2010Prop33
280
     0
102
RTVSPost2010PropOp33
 70
     1
102
RTVSPost2010Prop34
280
     0
102
RTVSPost2010PropOp34
 70
     1
102
RTVSPost2010Prop35
280
     0
102
RTVSPost2010PropOp35
 70
     1
102
RTVSPost2010Prop36
280
     0
102
RTVSPost2010PropOp36
 70
     1
102
RTVSPost2010Prop37
 90
       50
102
RTVSPost2010PropOp37
 70
     1
102
RTVSPost2010Prop38
140
0.0
102
RTVSPost2010PropOp38
 70
     1
102
RTVSPost2010Prop39
140
1.0
102
RTVSPost2010PropOp39
 70
     1
102
RTVSPost2010Prop40
 90
        0
102
RTVSPost2010PropOp40
 70
     1
102
RTVSPost2010Prop41ColorIndex
 90
       18
102
RTVSPost2010Prop41ColorRGB
 90
        0
102
RTVSPost2010PropOp41
 70
     1
102
RTVSPost2010Prop42
 90
       50
102
RTVSPost2010PropOp42
 70
     1
102
RTVSPost2010Prop43
 90
        3
102
RTVSPost2010PropOp43
 70
     1
102
RTVSPost2010Prop44ColorIndex
 90
        5
102
RTVSPost2010Prop44ColorRGB
 90
      255
102
RTVSPost2010PropOp44
 70
     1
102
RTVSPost2010Prop45
280
     0
102
RTVSPost2010PropOp45
 70
     1
102
RTVSPost2010Prop46
 90
       50
102
RTVSPost2010PropOp46
 70
     1
102
RTVSPost2010Prop47
 90
       50
102
RTVSPost2010PropOp47
 70
     1
102
RTVSPost2010Prop48
 90
       50
102
RTVSPost2010PropOp48
 70
     1
102
RTVSPost2010Prop49
280
     0
102
RTVSPost2010PropOp49
 70
     1
102
RTVSPost2010Prop50
 90
       50
102
RTVSPost2010PropOp50
 70
     1
102
RTVSPost2010Prop51ColorIndex
 90
      256
102
RTVSPost2010Prop51ColorRGB
 90
-16777216
102
RTVSPost2010PropOp51
 70
     0
102
RTVSPost2010Prop52
140
1.0
102
RTVSPost2010PropOp52
 70
     0
102
RTVSPost2010Prop53
 90
        2
102
RTVSPost2010PropOp53
 70
     1
102
RTVSPost2010Prop54
  1
strokes_ogs.tif
102
RTVSPost2010PropOp54
 70
     1
102
RTVSPost2010Prop55
280
     0
102
RTVSPost2010PropOp55
 70
     1
102
RTVSPost2010Prop56
140
1.0
102
RTVSPost2010PropOp56
 70
     1
102
RTVSPost2010Prop57
140
1.0
102
RTVSPost2010PropOp57
 70
     1
  0
XRECORD
  5
DE
102
{ACAD_REACTORS
330
DD
102
}
330
DD
100
AcDbXrecord
280
     1
102
RTVSPropertyOp0
 70
     1
102
RTVSPropertyOp1
 70
     1
102
RTVSPropertyOp2
 70
     1
102
RTVSPropertyOp3
 70
     1
102
RTVSPropertyOp4
 70
     1
102
RTVSPropertyOp5
 70
     1
102
RTVSPropertyOp6
 70
     1
102
RTVSPropertyOp7
 70
     1
102
RTVSPropertyOp8
 70
     1
102
RTVSPropertyOp9
 70
     1
102
RTVSPropertyOp10
 70
     1
102
RTVSPropertyOp11
 70
     1
102
RTVSPropertyOp12
 70
     1
102
RTVSPropertyOp13
 70
     1
102
RTVSPropertyOp14
 70
     1
102
RTVSPropertyOp15
 70
     1
102
RTVSPropertyOp16
 70
     1
102
RTVSPropertyOp17
 70
     1
102
RTVSPropertyOp18
 70
     1
102
RTVSPropertyOp19
 70
     1
102
RTVSPropertyOp20
 70
     1
102
RTVSPropertyOp21
 70
     1
102
RTVSPropertyOp22
 70
     1
102
RTVSPropertyOp23
 70
     1
102
RTVSPropertyOp24
 70
     1
102
RTVSPropertyOp25
 70
     1
102
RTVSPropertyOp26
 70
     1
102
RTVSPropertyOp27
 70
     1
102
RTVSPropertyOp28
 70
     1
102
RTVSPropertyOp29
 70
     1
102
RTVSPropertyOp30
 70
     1
102
RTVSPropertyOp31
 70
     1
102
RTVSPropertyOp32
 70
     1
102
RTVSPropertyOp33
 70
     1
102
RTVSPropertyOp34
 70
     1
102
RTVSPropertyOp35
 70
     1
102
RTVSPropertyOp36
 70
     1
102
RTVSPropertyOp37
 70
     1
102
RTVSPropertyOp38
 70
     1
102
RTVSPropertyOp39
 70
     1
102
RTVSPropertyOp40
 70
     1
102
RTVSPropertyOp41
 70
     1
102
RTVSPropertyOp42
 70
     1
102
RTVSPropertyOp43
 70
     1
102
RTVSPropertyOp44
 70
     1
102
RTVSPropertyOp45
 70
     1
102
RTVSPropertyOp46
 70
     1
102
RTVSPropertyOp47
 70
     1
102
RTVSPropertyOp48
 70
     1
102
RTVSPropertyOp49
 70
     1
102
RTVSPropertyOp50
 70
     1
102
RTVSPropertyOp51
 70
     0
102
RTVSPropertyOp52
 70
     0
102
RTVSPropertyOp53
 70
     1
102
RTVSPropertyOp54
 70
     1
102
RTVSPropertyOp55
 70
     1
102
RTVSPropertyOp56
 70
     1
102
RTVSPropertyOp57
 70
     1
102
RTVSPost2010Prop28
280
     0
102
RTVSPost2010PropOp28
 70
     1
102
RTVSPost2010Prop29
280
     1
102
RTVSPost2010PropOp29
 70
     1
102
RTVSPost2010Prop30
280
     1
102
RTVSPost2010PropOp30
 70
     1
102
RTVSPost2010Prop31
280
     0
102
RTVSPost2010PropOp31
 70
     1
102
RTVSPost2010Prop32
280
     0
102
RTVSPost2010PropOp32
 70
     1
102
RTVSPost2010Prop33
280
     0
102
RTVSPost2010PropOp33
 70
     1
102
RTVSPost2010Prop34
280
     0
102
RTVSPost2010PropOp34
 70
     1
102
RTVSPost2010Prop35
280
     0
102
RTVSPost2010PropOp35
 70
     1
102
RTVSPost2010Prop36
280
     0
102
RTVSPost2010PropOp36
 70
     1
102
RTVSPost2010Prop37
 90
       50
102
RTVSPost2010PropOp37
 70
     1
102
RTVSPost2010Prop38
140
0.0
102
RTVSPost2010PropOp38
 70
     1
102
RTVSPost2010Prop39
140
1.0
102
RTVSPost2010PropOp39
 70
     1
102
RTVSPost2010Prop40
 90
        0
102
RTVSPost2010PropOp40
 70
     1
102
RTVSPost2010Prop41ColorIndex
 90
       18
102
RTVSPost2010Prop41ColorRGB
 90
        0
102
RTVSPost2010PropOp41
 70
     1
102
RTVSPost2010Prop42
 90
       50
102
RTVSPost2010PropOp42
 70
     1
102
RTVSPost2010Prop43
 90
        3
102
RTVSPost2010PropOp43
 70
     1
102
RTVSPost2010Prop44ColorIndex
 90
        5
102
RTVSPost2010Prop44ColorRGB
 90
      255
102
RTVSPost2010PropOp44
 70
     1
102
RTVSPost2010Prop45
280
     0
102
RTVSPost2010PropOp45
 70
     1
102
RTVSPost2010Prop46
 90
       50
102
RTVSPost2010PropOp46
 70
     1
102
RTVSPost2010Prop47
 90
       50
102
RTVSPost2010PropOp47
 70
     1
102
RTVSPost2010Prop48
 90
       50
102
RTVSPost2010PropOp48
 70
     1
102
RTVSPost2010Prop49
280
     0
102
RTVSPost2010PropOp49
 70
     1
102
RTVSPost2010Prop50
 90
       50
102
RTVSPost2010PropOp50
 70
     1
102
RTVSPost2010Prop51ColorIndex
 90
      256
102
RTVSPost2010Prop51ColorRGB
 90
-16777216
102
RTVSPost2010PropOp51
 70
     0
102
RTVSPost2010Prop52
140
1.0
102
RTVSPost2010PropOp52
 70
     0
102
RTVSPost2010Prop53
 90
        2
102
RTVSPost2010PropOp53
 70
     1
102
RTVSPost2010Prop54
  1
strokes_ogs.tif
102
RTVSPost2010PropOp54
 70
     1
102
RTVSPost2010Prop55
280
     0
102
RTVSPost2010PropOp55
 70
     1
102
RTVSPost2010Prop56
140
1.0
102
RTVSPost2010PropOp56
 70
     1
102
RTVSPost2010Prop57
140
1.0
102
RTVSPost2010PropOp57
 70
     1
  0
XRECORD
  5
CE
102
{ACAD_REACTORS
330
CD
102
}
330
CD
100
AcDbXrecord
280
     1
102
RTVSPropertyOp0
 70
     1
102
RTVSPropertyOp1
 70
     1
102
RTVSPropertyOp2
 70
     1
102
RTVSPropertyOp3
 70
     1
102
RTVSPropertyOp4
 70
     1
102
RTVSPropertyOp5
 70
     1
102
RTVSPropertyOp6
 70
     1
102
RTVSPropertyOp7
 70
     1
102
RTVSPropertyOp8
 70
     1
102
RTVSPropertyOp9
 70
     1
102
RTVSPropertyOp10
 70
     1
102
RTVSPropertyOp11
 70
     1
102
RTVSPropertyOp12
 70
     1
102
RTVSPropertyOp13
 70
     1
102
RTVSPropertyOp14
 70
     1
102
RTVSPropertyOp15
 70
     1
102
RTVSPropertyOp16
 70
     1
102
RTVSPropertyOp17
 70
     1
102
RTVSPropertyOp18
 70
     1
102
RTVSPropertyOp19
 70
     1
102
RTVSPropertyOp20
 70
     1
102
RTVSPropertyOp21
 70
     1
102
RTVSPropertyOp22
 70
     1
102
RTVSPropertyOp23
 70
     1
102
RTVSPropertyOp24
 70
     1
102
RTVSPropertyOp25
 70
     1
102
RTVSPropertyOp26
 70
     1
102
RTVSPropertyOp27
 70
     1
102
RTVSPropertyOp28
 70
     1
102
RTVSPropertyOp29
 70
     1
102
RTVSPropertyOp30
 70
     1
102
RTVSPropertyOp31
 70
     1
102
RTVSPropertyOp32
 70
     1
102
RTVSPropertyOp33
 70
     1
102
RTVSPropertyOp34
 70
     1
102
RTVSPropertyOp35
 70
     1
102
RTVSPropertyOp36
 70
     1
102
RTVSPropertyOp37
 70
     1
102
RTVSPropertyOp38
 70
     1
102
RTVSPropertyOp39
 70
     1
102
RTVSPropertyOp40
 70
     1
102
RTVSPropertyOp41
 70
     1
102
RTVSPropertyOp42
 70
     1
102
RTVSPropertyOp43
 70
     1
102
RTVSPropertyOp44
 70
     1
102
RTVSPropertyOp45
 70
     1
102
RTVSPropertyOp46
 70
     1
102
RTVSPropertyOp47
 70
     1
102
RTVSPropertyOp48
 70
     1
102
RTVSPropertyOp49
 70
     1
102
RTVSPropertyOp50
 70
     1
102
RTVSPropertyOp51
 70
     0
102
RTVSPropertyOp52
 70
     0
102
RTVSPropertyOp53
 70
     1
102
RTVSPropertyOp54
 70
     1
102
RTVSPropertyOp55
 70
     1
102
RTVSPropertyOp56
 70
     1
102
RTVSPropertyOp57
 70
     1
102
RTVSPost2010Prop28
280
     0
102
RTVSPost2010PropOp28
 70
     1
102
RTVSPost2010Prop29
280
     1
102
RTVSPost2010PropOp29
 70
     1
102
RTVSPost2010Prop30
280
     1
102
RTVSPost2010PropOp30
 70
     1
102
RTVSPost2010Prop31
280
     0
102
RTVSPost2010PropOp31
 70
     1
102
RTVSPost2010Prop32
280
     0
102
RTVSPost2010PropOp32
 70
     1
102
RTVSPost2010Prop33
280
     0
102
RTVSPost2010PropOp33
 70
     1
102
RTVSPost2010Prop34
280
     0
102
RTVSPost2010PropOp34
 70
     1
102
RTVSPost2010Prop35
280
     0
102
RTVSPost2010PropOp35
 70
     1
102
RTVSPost2010Prop36
280
     0
102
RTVSPost2010PropOp36
 70
     1
102
RTVSPost2010Prop37
 90
       50
102
RTVSPost2010PropOp37
 70
     1
102
RTVSPost2010Prop38
140
0.0
102
RTVSPost2010PropOp38
 70
     1
102
RTVSPost2010Prop39
140
1.0
102
RTVSPost2010PropOp39
 70
     1
102
RTVSPost2010Prop40
 90
        0
102
RTVSPost2010PropOp40
 70
     1
102
RTVSPost2010Prop41ColorIndex
 90
       18
102
RTVSPost2010Prop41ColorRGB
 90
        0
102
RTVSPost2010PropOp41
 70
     1
102
RTVSPost2010Prop42
 90
       50
102
RTVSPost2010PropOp42
 70
     1
102
RTVSPost2010Prop43
 90
        3
102
RTVSPost2010PropOp43
 70
     1
102
RTVSPost2010Prop44ColorIndex
 90
        5
102
RTVSPost2010Prop44ColorRGB
 90
      255
102
RTVSPost2010PropOp44
 70
     1
102
RTVSPost2010Prop45
280
     0
102
RTVSPost2010PropOp45
 70
     1
102
RTVSPost2010Prop46
 90
       50
102
RTVSPost2010PropOp46
 70
     1
102
RTVSPost2010Prop47
 90
       50
102
RTVSPost2010PropOp47
 70
     1
102
RTVSPost2010Prop48
 90
       50
102
RTVSPost2010PropOp48
 70
     1
102
RTVSPost2010Prop49
280
     0
102
RTVSPost2010PropOp49
 70
     1
102
RTVSPost2010Prop50
 90
       50
102
RTVSPost2010PropOp50
 70
     1
102
RTVSPost2010Prop51ColorIndex
 90
      256
102
RTVSPost2010Prop51ColorRGB
 90
-16777216
102
RTVSPost2010PropOp51
 70
     0
102
RTVSPost2010Prop52
140
1.0
102
RTVSPost2010PropOp52
 70
     0
102
RTVSPost2010Prop53
 90
        2
102
RTVSPost2010PropOp53
 70
     1
102
RTVSPost2010Prop54
  1
strokes_ogs.tif
102
RTVSPost2010PropOp54
 70
     1
102
RTVSPost2010Prop55
280
     0
102
RTVSPost2010PropOp55
 70
     1
102
RTVSPost2010Prop56
140
1.0
102
RTVSPost2010PropOp56
 70
     1
102
RTVSPost2010Prop57
140
1.0
102
RTVSPost2010PropOp57
 70
     1
  0
XRECORD
  5
C0
102
{ACAD_REACTORS
330
BF
102
}
330
BF
100
AcDbXrecord
280
     1
102
RTVSPropertyOp0
 70
     1
102
RTVSPropertyOp1
 70
     1
102
RTVSPropertyOp2
 70
     1
102
RTVSPropertyOp3
 70
     1
102
RTVSPropertyOp4
 70
     1
102
RTVSPropertyOp5
 70
     1
102
RTVSPropertyOp6
 70
     1
102
RTVSPropertyOp7
 70
     1
102
RTVSPropertyOp8
 70
     1
102
RTVSPropertyOp9
 70
     1
102
RTVSPropertyOp10
 70
     1
102
RTVSPropertyOp11
 70
     1
102
RTVSPropertyOp12
 70
     1
102
RTVSPropertyOp13
 70
     1
102
RTVSPropertyOp14
 70
     1
102
RTVSPropertyOp15
 70
     1
102
RTVSPropertyOp16
 70
     1
102
RTVSPropertyOp17
 70
     1
102
RTVSPropertyOp18
 70
     1
102
RTVSPropertyOp19
 70
     1
102
RTVSPropertyOp20
 70
     1
102
RTVSPropertyOp21
 70
     1
102
RTVSPropertyOp22
 70
     1
102
RTVSPropertyOp23
 70
     1
102
RTVSPropertyOp24
 70
     1
102
RTVSPropertyOp25
 70
     1
102
RTVSPropertyOp26
 70
     1
102
RTVSPropertyOp27
 70
     1
102
RTVSPropertyOp28
 70
     1
102
RTVSPropertyOp29
 70
     1
102
RTVSPropertyOp30
 70
     1
102
RTVSPropertyOp31
 70
     1
102
RTVSPropertyOp32
 70
     1
102
RTVSPropertyOp33
 70
     1
102
RTVSPropertyOp34
 70
     1
102
RTVSPropertyOp35
 70
     1
102
RTVSPropertyOp36
 70
     1
102
RTVSPropertyOp37
 70
     1
102
RTVSPropertyOp38
 70
     1
102
RTVSPropertyOp39
 70
     1
102
RTVSPropertyOp40
 70
     1
102
RTVSPropertyOp41
 70
     1
102
RTVSPropertyOp42
 70
     1
102
RTVSPropertyOp43
 70
     1
102
RTVSPropertyOp44
 70
     1
102
RTVSPropertyOp45
 70
     1
102
RTVSPropertyOp46
 70
     1
102
RTVSPropertyOp47
 70
     1
102
RTVSPropertyOp48
 70
     1
102
RTVSPropertyOp49
 70
     1
102
RTVSPropertyOp50
 70
     1
102
RTVSPropertyOp51
 70
     0
102
RTVSPropertyOp52
 70
     0
102
RTVSPropertyOp53
 70
     1
102
RTVSPropertyOp54
 70
     1
102
RTVSPropertyOp55
 70
     1
102
RTVSPropertyOp56
 70
     1
102
RTVSPropertyOp57
 70
     1
102
RTVSPost2010Prop28
280
     0
102
RTVSPost2010PropOp28
 70
     1
102
RTVSPost2010Prop29
280
     1
102
RTVSPost2010PropOp29
 70
     1
102
RTVSPost2010Prop30
280
     1
102
RTVSPost2010PropOp30
 70
     1
102
RTVSPost2010Prop31
280
     0
102
RTVSPost2010PropOp31
 70
     1
102
RTVSPost2010Prop32
280
     0
102
RTVSPost2010PropOp32
 70
     1
102
RTVSPost2010Prop33
280
     0
102
RTVSPost2010PropOp33
 70
     1
102
RTVSPost2010Prop34
280
     0
102
RTVSPost2010PropOp34
 70
     1
102
RTVSPost2010Prop35
280
     0
102
RTVSPost2010PropOp35
 70
     1
102
RTVSPost2010Prop36
280
     0
102
RTVSPost2010PropOp36
 70
     1
102
RTVSPost2010Prop37
 90
       50
102
RTVSPost2010PropOp37
 70
     1
102
RTVSPost2010Prop38
140
0.0
102
RTVSPost2010PropOp38
 70
     1
102
RTVSPost2010Prop39
140
1.0
102
RTVSPost2010PropOp39
 70
     1
102
RTVSPost2010Prop40
 90
        0
102
RTVSPost2010PropOp40
 70
     1
102
RTVSPost2010Prop41ColorIndex
 90
       18
102
RTVSPost2010Prop41ColorRGB
 90
        0
102
RTVSPost2010PropOp41
 70
     1
102
RTVSPost2010Prop42
 90
       50
102
RTVSPost2010PropOp42
 70
     1
102
RTVSPost2010Prop43
 90
        3
102
RTVSPost2010PropOp43
 70
     1
102
RTVSPost2010Prop44ColorIndex
 90
        5
102
RTVSPost2010Prop44ColorRGB
 90
      255
102
RTVSPost2010PropOp44
 70
     1
102
RTVSPost2010Prop45
280
     0
102
RTVSPost2010PropOp45
 70
     1
102
RTVSPost2010Prop46
 90
       50
102
RTVSPost2010PropOp46
 70
     1
102
RTVSPost2010Prop47
 90
       50
102
RTVSPost2010PropOp47
 70
     1
102
RTVSPost2010Prop48
 90
       50
102
RTVSPost2010PropOp48
 70
     1
102
RTVSPost2010Prop49
280
     0
102
RTVSPost2010PropOp49
 70
     1
102
RTVSPost2010Prop50
 90
       50
102
RTVSPost2010PropOp50
 70
     1
102
RTVSPost2010Prop51ColorIndex
 90
      256
102
RTVSPost2010Prop51ColorRGB
 90
-16777216
102
RTVSPost2010PropOp51
 70
     0
102
RTVSPost2010Prop52
140
1.0
102
RTVSPost2010PropOp52
 70
     0
102
RTVSPost2010Prop53
 90
        2
102
RTVSPost2010PropOp53
 70
     1
102
RTVSPost2010Prop54
  1
strokes_ogs.tif
102
RTVSPost2010PropOp54
 70
     1
102
RTVSPost2010Prop55
280
     0
102
RTVSPost2010PropOp55
 70
     1
102
RTVSPost2010Prop56
140
1.0
102
RTVSPost2010PropOp56
 70
     1
102
RTVSPost2010Prop57
140
1.0
102
RTVSPost2010PropOp57
 70
     1
  0
XRECORD
  5
E0
102
{ACAD_REACTORS
330
DF
102
}
330
DF
100
AcDbXrecord
280
     1
102
RTVSPropertyOp0
 70
     1
102
RTVSPropertyOp1
 70
     1
102
RTVSPropertyOp2
 70
     1
102
RTVSPropertyOp3
 70
     1
102
RTVSPropertyOp4
 70
     1
102
RTVSPropertyOp5
 70
     1
102
RTVSPropertyOp6
 70
     1
102
RTVSPropertyOp7
 70
     1
102
RTVSPropertyOp8
 70
     1
102
RTVSPropertyOp9
 70
     1
102
RTVSPropertyOp10
 70
     1
102
RTVSPropertyOp11
 70
     1
102
RTVSPropertyOp12
 70
     1
102
RTVSPropertyOp13
 70
     1
102
RTVSPropertyOp14
 70
     1
102
RTVSPropertyOp15
 70
     1
102
RTVSPropertyOp16
 70
     1
102
RTVSPropertyOp17
 70
     1
102
RTVSPropertyOp18
 70
     1
102
RTVSPropertyOp19
 70
     1
102
RTVSPropertyOp20
 70
     1
102
RTVSPropertyOp21
 70
     1
102
RTVSPropertyOp22
 70
     1
102
RTVSPropertyOp23
 70
     1
102
RTVSPropertyOp24
 70
     1
102
RTVSPropertyOp25
 70
     1
102
RTVSPropertyOp26
 70
     1
102
RTVSPropertyOp27
 70
     1
102
RTVSPropertyOp28
 70
     1
102
RTVSPropertyOp29
 70
     1
102
RTVSPropertyOp30
 70
     1
102
RTVSPropertyOp31
 70
     1
102
RTVSPropertyOp32
 70
     1
102
RTVSPropertyOp33
 70
     1
102
RTVSPropertyOp34
 70
     1
102
RTVSPropertyOp35
 70
     1
102
RTVSPropertyOp36
 70
     1
102
RTVSPropertyOp37
 70
     1
102
RTVSPropertyOp38
 70
     1
102
RTVSPropertyOp39
 70
     1
102
RTVSPropertyOp40
 70
     1
102
RTVSPropertyOp41
 70
     1
102
RTVSPropertyOp42
 70
     1
102
RTVSPropertyOp43
 70
     1
102
RTVSPropertyOp44
 70
     1
102
RTVSPropertyOp45
 70
     1
102
RTVSPropertyOp46
 70
     1
102
RTVSPropertyOp47
 70
     1
102
RTVSPropertyOp48
 70
     1
102
RTVSPropertyOp49
 70
     1
102
RTVSPropertyOp50
 70
     1
102
RTVSPropertyOp51
 70
     0
102
RTVSPropertyOp52
 70
     0
102
RTVSPropertyOp53
 70
     1
102
RTVSPropertyOp54
 70
     1
102
RTVSPropertyOp55
 70
     1
102
RTVSPropertyOp56
 70
     1
102
RTVSPropertyOp57
 70
     1
102
RTVSPost2010Prop28
280
     0
102
RTVSPost2010PropOp28
 70
     1
102
RTVSPost2010Prop29
280
     1
102
RTVSPost2010PropOp29
 70
     1
102
RTVSPost2010Prop30
280
     1
102
RTVSPost2010PropOp30
 70
     1
102
RTVSPost2010Prop31
280
     0
102
RTVSPost2010PropOp31
 70
     1
102
RTVSPost2010Prop32
280
     0
102
RTVSPost2010PropOp32
 70
     1
102
RTVSPost2010Prop33
280
     0
102
RTVSPost2010PropOp33
 70
     1
102
RTVSPost2010Prop34
280
     0
102
RTVSPost2010PropOp34
 70
     1
102
RTVSPost2010Prop35
280
     0
102
RTVSPost2010PropOp35
 70
     1
102
RTVSPost2010Prop36
280
     0
102
RTVSPost2010PropOp36
 70
     1
102
RTVSPost2010Prop37
 90
       50
102
RTVSPost2010PropOp37
 70
     1
102
RTVSPost2010Prop38
140
0.0
102
RTVSPost2010PropOp38
 70
     1
102
RTVSPost2010Prop39
140
1.0
102
RTVSPost2010PropOp39
 70
     1
102
RTVSPost2010Prop40
 90
        0
102
RTVSPost2010PropOp40
 70
     1
102
RTVSPost2010Prop41ColorIndex
 90
       18
102
RTVSPost2010Prop41ColorRGB
 90
        0
102
RTVSPost2010PropOp41
 70
     1
102
RTVSPost2010Prop42
 90
       50
102
RTVSPost2010PropOp42
 70
     1
102
RTVSPost2010Prop43
 90
        3
102
RTVSPost2010PropOp43
 70
     1
102
RTVSPost2010Prop44ColorIndex
 90
        5
102
RTVSPost2010Prop44ColorRGB
 90
      255
102
RTVSPost2010PropOp44
 70
     1
102
RTVSPost2010Prop45
280
     0
102
RTVSPost2010PropOp45
 70
     1
102
RTVSPost2010Prop46
 90
       50
102
RTVSPost2010PropOp46
 70
     1
102
RTVSPost2010Prop47
 90
       50
102
RTVSPost2010PropOp47
 70
     1
102
RTVSPost2010Prop48
 90
       50
102
RTVSPost2010PropOp48
 70
     1
102
RTVSPost2010Prop49
280
     0
102
RTVSPost2010PropOp49
 70
     1
102
RTVSPost2010Prop50
 90
       50
102
RTVSPost2010PropOp50
 70
     1
102
RTVSPost2010Prop51ColorIndex
 90
      256
102
RTVSPost2010Prop51ColorRGB
 90
-16777216
102
RTVSPost2010PropOp51
 70
     0
102
RTVSPost2010Prop52
140
1.0
102
RTVSPost2010PropOp52
 70
     0
102
RTVSPost2010Prop53
 90
        2
102
RTVSPost2010PropOp53
 70
     1
102
RTVSPost2010Prop54
  1
strokes_ogs.tif
102
RTVSPost2010PropOp54
 70
     1
102
RTVSPost2010Prop55
280
     0
102
RTVSPost2010PropOp55
 70
     1
102
RTVSPost2010Prop56
140
1.0
102
RTVSPost2010PropOp56
 70
     1
102
RTVSPost2010Prop57
140
1.0
102
RTVSPost2010PropOp57
 70
     1
  0
ENDSEC
  0
EOF
