  0
SECTION
  2
HEADER
  9
$ACADVER
  1
AC1021
  9
$ACADMAINTVER
 70
    25
  9
$DWGCODEPAGE
  3
ANSI_1252
  9
$INSBASE
 10
0.0
 20
0.0
 30
0.0
  9
$EXTMIN
 10
1.000000000000000E+20
 20
1.000000000000000E+20
 30
1.000000000000000E+20
  9
$EXTMAX
 10
-1.000000000000000E+20
 20
-1.000000000000000E+20
 30
-1.000000000000000E+20
  9
$LIMMIN
 10
0.0
 20
0.0
  9
$LIMMAX
 10
12.0
 20
9.0
  9
$ORTHOMODE
 70
     0
  9
$REGENMODE
 70
     1
  9
$FILLMODE
 70
     1
  9
$QTEXTMODE
 70
     0
  9
$MIRRTEXT
 70
     1
  9
$LTSCALE
 40
1.0
  9
$ATTMODE
 70
     1
  9
$TEXTSIZE
 40
0.2
  9
$TRACEWID
 40
0.05
  9
$TEXTSTYLE
  7
Standard
  9
$CLAYER
  8
0
  9
$CELTYPE
  6
ByLayer
  9
$CECOLOR
 62
   256
  9
$CELTSCALE
 40
1.0
  9
$DISPSILH
 70
     0
  9
$DIMSCALE
 40
1.0
  9
$DIMASZ
 40
0.18
  9
$DIMEXO
 40
0.0625
  9
$DIMDLI
 40
0.38
  9
$DIMRND
 40
0.0
  9
$DIMDLE
 40
0.0
  9
$DIMEXE
 40
0.18
  9
$DIMTP
 40
0.0
  9
$DIMTM
 40
0.0
  9
$DIMTXT
 40
0.18
  9
$DIMCEN
 40
0.09
  9
$DIMTSZ
 40
0.0
  9
$DIMTOL
 70
     0
  9
$DIMLIM
 70
     0
  9
$DIMTIH
 70
     1
  9
$DIMTOH
 70
     1
  9
$DIMSE1
 70
     0
  9
$DIMSE2
 70
     0
  9
$DIMTAD
 70
     0
  9
$DIMZIN
 70
     0
  9
$DIMBLK
  1

  9
$DIMASO
 70
     1
  9
$DIMSHO
 70
     1
  9
$DIMPOST
  1

  9
$DIMAPOST
  1

  9
$DIMALT
 70
     0
  9
$DIMALTD
 70
     2
  9
$DIMALTF
 40
25.4
  9
$DIMLFAC
 40
1.0
  9
$DIMTOFL
 70
     0
  9
$DIMTVP
 40
0.0
  9
$DIMTIX
 70
     0
  9
$DIMSOXD
 70
     0
  9
$DIMSAH
 70
     0
  9
$DIMBLK1
  1

  9
$DIMBLK2
  1

  9
$DIMSTYLE
  2
STANDARD_ACAD
  9
$DIMCLRD
 70
     0
  9
$DIMCLRE
 70
     0
  9
$DIMCLRT
 70
     0
  9
$DIMTFAC
 40
1.0
  9
$DIMGAP
 40
0.09
  9
$DIMJUST
 70
     0
  9
$DIMSD1
 70
     0
  9
$DIMSD2
 70
     0
  9
$DIMTOLJ
 70
     1
  9
$DIMTZIN
 70
     0
  9
$DIMALTZ
 70
     0
  9
$DIMALTTZ
 70
     0
  9
$DIMUPT
 70
     0
  9
$DIMDEC
 70
     4
  9
$DIMTDEC
 70
     4
  9
$DIMALTU
 70
     2
  9
$DIMALTTD
 70
     2
  9
$DIMTXSTY
  7
Standard
  9
$DIMAUNIT
 70
     0
  9
$DIMADEC
 70
     0
  9
$DIMALTRND
 40
0.0
  9
$DIMAZIN
 70
     0
  9
$DIMDSEP
 70
    46
  9
$DIMATFIT
 70
     3
  9
$DIMFRAC
 70
     0
  9
$DIMLDRBLK
  1

  9
$DIMLUNIT
 70
     2
  9
$DIMLWD
 70
    -2
  9
$DIMLWE
 70
    -2
  9
$DIMTMOVE
 70
     2
  9
$DIMFXL
 40
1.0
  9
$DIMFXLON
 70
     0
  9
$DIMJOGANG
 40
0.7853981633974483
  9
$DIMTFILL
 70
     0
  9
$DIMTFILLCLR
 70
     0
  9
$DIMARCSYM
 70
     0
  9
$DIMLTYPE
  6

  9
$DIMLTEX1
  6

  9
$DIMLTEX2
  6

  9
$LUNITS
 70
     2
  9
$LUPREC
 70
     3
  9
$SKETCHINC
 40
0.1
  9
$FILLETRAD
 40
0.5
  9
$AUNITS
 70
     0
  9
$AUPREC
 70
     0
  9
$MENU
  1
.
  9
$ELEVATION
 40
0.0
  9
$PELEVATION
 40
0.0
  9
$THICKNESS
 40
0.0
  9
$LIMCHECK
 70
     0
  9
$CHAMFERA
 40
0.0
  9
$CHAMFERB
 40
0.0
  9
$CHAMFERC
 40
0.0
  9
$CHAMFERD
 40
0.0
  9
$SKPOLY
 70
     0
  9
$TDCREATE
 40
2458516.651002813
  9
$TDUCREATE
 40
2458516.859336146
  9
$TDUPDATE
 40
2458516.651017257
  9
$TDUUPDATE
 40
2458516.859350591
  9
$TDINDWG
 40
0.0000000116
  9
$TDUSRTIMER
 40
0.0000000116
  9
$USRTIMER
 70
     1
  9
$ANGBASE
 50
0.0
  9
$ANGDIR
 70
     0
  9
$PDMODE
 70
     0
  9
$PDSIZE
 40
0.0
  9
$PLINEWID
 40
0.0
  9
$SPLFRAME
 70
     0
  9
$SPLINETYPE
 70
     6
  9
$SPLINESEGS
 70
     8
  9
$HANDSEED
  5
207
  9
$SURFTAB1
 70
     6
  9
$SURFTAB2
 70
     6
  9
$SURFTYPE
 70
     6
  9
$SURFU
 70
     6
  9
$SURFV
 70
     6
  9
$UCSBASE
  2

  9
$UCSNAME
  2

  9
$UCSORG
 10
0.0
 20
0.0
 30
0.0
  9
$UCSXDIR
 10
1.0
 20
0.0
 30
0.0
  9
$UCSYDIR
 10
0.0
 20
1.0
 30
0.0
  9
$UCSORTHOREF
  2

  9
$UCSORTHOVIEW
 70
     0
  9
$UCSORGTOP
 10
0.0
 20
0.0
 30
0.0
  9
$UCSORGBOTTOM
 10
0.0
 20
0.0
 30
0.0
  9
$UCSORGLEFT
 10
0.0
 20
0.0
 30
0.0
  9
$UCSORGRIGHT
 10
0.0
 20
0.0
 30
0.0
  9
$UCSORGFRONT
 10
0.0
 20
0.0
 30
0.0
  9
$UCSORGBACK
 10
0.0
 20
0.0
 30
0.0
  9
$PUCSBASE
  2

  9
$PUCSNAME
  2

  9
$PUCSORG
 10
0.0
 20
0.0
 30
0.0
  9
$PUCSXDIR
 10
1.0
 20
0.0
 30
0.0
  9
$PUCSYDIR
 10
0.0
 20
1.0
 30
0.0
  9
$PUCSORTHOREF
  2

  9
$PUCSORTHOVIEW
 70
     0
  9
$PUCSORGTOP
 10
0.0
 20
0.0
 30
0.0
  9
$PUCSORGBOTTOM
 10
0.0
 20
0.0
 30
0.0
  9
$PUCSORGLEFT
 10
0.0
 20
0.0
 30
0.0
  9
$PUCSORGRIGHT
 10
0.0
 20
0.0
 30
0.0
  9
$PUCSORGFRONT
 10
0.0
 20
0.0
 30
0.0
  9
$PUCSORGBACK
 10
0.0
 20
0.0
 30
0.0
  9
$USERI1
 70
     0
  9
$USERI2
 70
     0
  9
$USERI3
 70
     0
  9
$USERI4
 70
     0
  9
$USERI5
 70
     0
  9
$USERR1
 40
0.0
  9
$USERR2
 40
0.0
  9
$USERR3
 40
0.0
  9
$USERR4
 40
0.0
  9
$USERR5
 40
0.0
  9
$WORLDVIEW
 70
     1
  9
$SHADEDGE
 70
     3
  9
$SHADEDIF
 70
    70
  9
$TILEMODE
 70
     1
  9
$MAXACTVP
 70
    64
  9
$PINSBASE
 10
0.0
 20
0.0
 30
0.0
  9
$PLIMCHECK
 70
     0
  9
$PEXTMIN
 10
1.000000000000000E+20
 20
1.000000000000000E+20
 30
1.000000000000000E+20
  9
$PEXTMAX
 10
-1.000000000000000E+20
 20
-1.000000000000000E+20
 30
-1.000000000000000E+20
  9
$PLIMMIN
 10
0.0
 20
0.0
  9
$PLIMMAX
 10
12.0
 20
9.0
  9
$UNITMODE
 70
     0
  9
$VISRETAIN
 70
     1
  9
$PLINEGEN
 70
     0
  9
$PSLTSCALE
 70
     1
  9
$TREEDEPTH
 70
  3020
  9
$CMLSTYLE
  2
Standard
  9
$CMLJUST
 70
     0
  9
$CMLSCALE
 40
1.0
  9
$PROXYGRAPHICS
 70
     1
  9
$MEASUREMENT
 70
     0
  9
$CELWEIGHT
370
    -1
  9
$ENDCAPS
280
     0
  9
$JOINSTYLE
280
     0
  9
$LWDISPLAY
290
     0
  9
$INSUNITS
 70
     1
  9
$HYPERLINKBASE
  1

  9
$STYLESHEET
  1

  9
$XEDIT
290
     1
  9
$CEPSNTYPE
380
     0
  9
$PSTYLEMODE
290
     1
  9
$FINGERPRINTGUID
  2
{332b3cad-e33d-42a1-b298-0ec8969d7ef5}
  9
$VERSIONGUID
  2
{FAEB1C32-E019-11D5-929B-00C0DF256EC4}
  9
$EXTNAMES
290
     1
  9
$PSVPSCALE
 40
0.0
  9
$OLESTARTUP
290
     0
  9
$SORTENTS
280
   127
  9
$INDEXCTL
280
     0
  9
$HIDETEXT
280
     1
  9
$XCLIPFRAME
290
     0
  9
$HALOGAP
280
     0
  9
$OBSCOLOR
 70
   257
  9
$OBSLTYPE
280
     0
  9
$INTERSECTIONDISPLAY
280
     0
  9
$INTERSECTIONCOLOR
 70
   257
  9
$DIMASSOC
280
     2
  9
$PROJECTNAME
  1

  9
$CAMERADISPLAY
290
     0
  9
$LENSLENGTH
 40
50.0
  9
$CAMERAHEIGHT
 40
0.0
  9
$STEPSPERSEC
 40
2.0
  9
$STEPSIZE
 40
6.0
  9
$3DDWFPREC
 40
2.0
  9
$PSOLWIDTH
 40
0.25
  9
$PSOLHEIGHT
 40
4.0
  9
$LOFTANG1
 40
1.570796326794897
  9
$LOFTANG2
 40
1.570796326794897
  9
$LOFTMAG1
 40
0.0
  9
$LOFTMAG2
 40
0.0
  9
$LOFTPARAM
 70
     7
  9
$LOFTNORMALS
280
     1
  9
$LATITUDE
 40
37.795
  9
$LONGITUDE
 40
-122.394
  9
$NORTHDIRECTION
 40
0.0
  9
$TIMEZONE
 70
 -8000
  9
$LIGHTGLYPHDISPLAY
280
     1
  9
$TILEMODELIGHTSYNCH
280
     1
  9
$CMATERIAL
347
44
  9
$SOLIDHIST
280
     0
  9
$SHOWHIST
280
     1
  9
$DWFFRAME
280
     2
  9
$DGNFRAME
280
     2
  9
$REALWORLDSCALE
290
     1
  9
$INTERFERECOLOR
 62
   256
  9
$CSHADOW
280
     0
  9
$SHADOWPLANELOCATION
 40
0.0
  0
ENDSEC
  0
SECTION
  2
CLASSES
  0
CLASS
  1
ACDBDICTIONARYWDFLT
  2
AcDbDictionaryWithDefault
  3
ObjectDBX Classes
 90
        0
 91
        3
280
     0
281
     0
  0
CLASS
  1
VISUALSTYLE
  2
AcDbVisualStyle
  3
ObjectDBX Classes
 90
     4095
 91
        3
280
     0
281
     0
  0
CLASS
  1
MATERIAL
  2
AcDbMaterial
  3
ObjectDBX Classes
 90
     1153
 91
        3
280
     0
281
     0
  0
CLASS
  1
SCALE
  2
AcDbScale
  3
ObjectDBX Classes
 90
     1153
 91
        3
280
     0
281
     0
  0
CLASS
  1
TABLESTYLE
  2
AcDbTableStyle
  3
ObjectDBX Classes
 90
     4095
 91
        3
280
     0
281
     0
  0
CLASS
  1
MLEADERSTYLE
  2
AcDbMLeaderStyle
  3
ACDB_MLEADERSTYLE_CLASS
 90
     4095
 91
        3
280
     0
281
     0
  0
CLASS
  1
SUN
  2
AcDbSun
  3
SCENEOE
 90
     1153
 91
        3
280
     0
281
     0
  0
CLASS
  1
DICTIONARYVAR
  2
AcDbDictionaryVar
  3
ObjectDBX Classes
 90
        0
 91
        3
280
     0
281
     0
  0
CLASS
  1
CELLSTYLEMAP
  2
AcDbCellStyleMap
  3
ObjectDBX Classes
 90
     1152
 91
        3
280
     0
281
     0
  0
ENDSEC
  0
SECTION
  2
TABLES
  0
TABLE
  2
VPORT
  5
8
330
0
100
AcDbSymbolTable
 70
     1
  0
VPORT
  5
29
330
8
100
AcDbSymbolTableRecord
100
AcDbViewportTableRecord
  2
*Active
 70
     0
 10
0.0
 20
0.0
 11
1.0
 21
1.0
 12
10.42990654205607
 22
4.5
 13
0.0
 23
0.0
 14
0.5
 24
0.5
 15
0.5
 25
0.5
 16
0.0
 26
0.0
 36
1.0
 17
0.0
 27
0.0
 37
0.0
 40
9.0
 41
1.972972972850329
 42
50.0
 43
0.0
 44
0.0
 50
0.0
 51
0.0
 71
     0
 72
   100
 73
     1
 74
     3
 75
     0
 76
     0
 77
     0
 78
     0
281
     0
 65
     1
110
0.0
120
0.0
130
0.0
111
1.0
121
0.0
131
0.0
112
0.0
122
1.0
132
0.0
 79
     0
146
0.0
348
2F
 60
     3
 61
     5
292
     1
282
     1
141
0.0
142
0.0
 63
   250
361
6D
  0
ENDTAB
  0
TABLE
  2
LTYPE
  5
5
330
0
100
AcDbSymbolTable
 70
     1
  0
LTYPE
  5
14
330
5
100
AcDbSymbolTableRecord
100
AcDbLinetypeTableRecord
  2
ByBlock
 70
     0
  3

 72
    65
 73
     0
 40
0.0
  0
LTYPE
  5
15
330
5
100
AcDbSymbolTableRecord
100
AcDbLinetypeTableRecord
  2
ByLayer
 70
     0
  3

 72
    65
 73
     0
 40
0.0
  0
LTYPE
  5
16
330
5
100
AcDbSymbolTableRecord
100
AcDbLinetypeTableRecord
  2
Continuous
 70
     0
  3
Solid line
 72
    65
 73
     0
 40
0.0
  0
ENDTAB
  0
TABLE
  2
LAYER
  5
2
330
0
100
AcDbSymbolTable
 70
     1
  0
LAYER
  5
10
330
2
100
AcDbSymbolTableRecord
100
AcDbLayerTableRecord
  2
0
 70
     0
 62
    18
420
        0
  6
Continuous
370
    -3
390
F
347
46
  0
ENDTAB
  0
TABLE
  2
STYLE
  5
3
330
0
100
AcDbSymbolTable
 70
     1
  0
STYLE
  5
11
330
3
100
AcDbSymbolTableRecord
100
AcDbTextStyleTableRecord
  2
Standard
 70
     0
 40
0.0
 41
1.0
 50
0.0
 71
     0
 42
0.2
  3
txt
  4

  0
ENDTAB
  0
TABLE
  2
VIEW
  5
6
330
0
100
AcDbSymbolTable
 70
     0
  0
ENDTAB
  0
TABLE
  2
UCS
  5
7
330
0
100
AcDbSymbolTable
 70
     0
  0
ENDTAB
  0
TABLE
  2
APPID
  5
9
330
0
100
AcDbSymbolTable
 70
     2
  0
APPID
  5
12
330
9
100
AcDbSymbolTableRecord
100
AcDbRegAppTableRecord
  2
ACAD
 70
     0
  0
APPID
  5
1FF
330
9
100
AcDbSymbolTableRecord
100
AcDbRegAppTableRecord
  2
ACAD_MLEADERVER
 70
     0
  0
ENDTAB
  0
TABLE
  2
DIMSTYLE
  5
A
330
0
100
AcDbSymbolTable
 70
     1
100
AcDbDimStyleTable
  0
DIMSTYLE
105
27
330
A
100
AcDbSymbolTableRecord
100
AcDbDimStyleTableRecord
  2
STANDARD_ACAD
 70
     0
178
     0
340
11
  0
ENDTAB
  0
TABLE
  2
BLOCK_RECORD
  5
1
330
0
100
AcDbSymbolTable
 70
     1
  0
BLOCK_RECORD
  5
1F
330
1
100
AcDbSymbolTableRecord
100
AcDbBlockTableRecord
  2
*Model_Space
340
22
 70
     0
280
     1
281
     0
  0
BLOCK_RECORD
  5
1B
330
1
100
AcDbSymbolTableRecord
100
AcDbBlockTableRecord
  2
*Paper_Space
340
1E
 70
     0
280
     1
281
     0
  0
BLOCK_RECORD
  5
23
330
1
100
AcDbSymbolTableRecord
100
AcDbBlockTableRecord
  2
*Paper_Space0
340
26
 70
     0
280
     1
281
     0
  0
ENDTAB
  0
ENDSEC
  0
SECTION
  2
BLOCKS
  0
BLOCK
  5
20
330
1F
100
AcDbEntity
  8
0
100
AcDbBlockBegin
  2
*Model_Space
 70
     0
 10
0.0
 20
0.0
 30
0.0
  3
*Model_Space
  1

  0
ENDBLK
  5
21
330
1F
100
AcDbEntity
  8
0
100
AcDbBlockEnd
  0
BLOCK
  5
1C
330
1B
100
AcDbEntity
 67
     1
  8
0
100
AcDbBlockBegin
  2
*Paper_Space
 70
     0
 10
0.0
 20
0.0
 30
0.0
  3
*Paper_Space
  1

  0
ENDBLK
  5
1D
330
1B
100
AcDbEntity
 67
     1
  8
0
100
AcDbBlockEnd
  0
BLOCK
  5
24
330
23
100
AcDbEntity
  8
0
100
AcDbBlockBegin
  2
*Paper_Space0
 70
     0
 10
0.0
 20
0.0
 30
0.0
  3
*Paper_Space0
  1

  0
ENDBLK
  5
25
330
23
100
AcDbEntity
  8
0
100
AcDbBlockEnd
  0
ENDSEC
  0
SECTION
  2
ENTITIES
  0
SPLINE
  5
6E
330
1F
100
AcDbEntity
  8
0
370
    -3
100
AcDbSpline
210
0.0
220
0.0
230
1.0
 70
     8
 71
     3
 72
    32
 73
    28
 74
     0
 42
0.000000001
 43
0.0000000001
 40
0.000000000005734
 40
0.000000000005734
 40
0.000000000005734
 40
0.000000000005734
 40
1.0
 40
1.0
 40
1.0
 40
2.0
 40
2.0
 40
2.0
 40
3.0
 40
3.0
 40
3.0
 40
4.0
 40
4.0
 40
4.0
 40
5.0
 40
5.0
 40
5.0
 40
6.0
 40
6.0
 40
6.0
 40
7.0
 40
7.0
 40
7.0
 40
8.0
 40
8.0
 40
8.0
 40
8.220860332761756
 40
8.220860332761756
 40
8.220860332761756
 40
8.220860332761756
 10
-8.482354614102292
 20
16.36697099712987
 30
0.0
 10
-8.479707031013191
 20
16.36417125619543
 30
0.0
 10
-8.477059447924063
 20
16.36137151526098
 30
0.0
 10
-8.474411864834963
 20
16.35857177432653
 30
0.0
 10
-8.473304862282674
 20
16.35741694387087
 30
0.0
 10
-8.472197859730386
 20
16.35626211341521
 30
0.0
 10
-8.47109085717807
 20
16.35510728295955
 30
0.0
 10
-8.469375656601784
 20
16.35333836481284
 30
0.0
 10
-8.46766045602547
 20
16.35156944666613
 30
0.0
 10
-8.465945255449185
 20
16.34980052851942
 30
0.0
 10
-8.464207994187063
 20
16.34803626913929
 30
0.0
 10
-8.46247073292497
 20
16.34627200975916
 30
0.0
 10
-8.460733471662877
 20
16.34450775037903
 30
0.0
 10
-8.460273523639216
 20
16.34404573900184
 30
0.0
 10
-8.459813575615556
 20
16.34358372762466
 30
0.0
 10
-8.459353627591895
 20
16.34312171624747
 30
0.0
 10
-8.457781864940955
 20
16.34156156748009
 30
0.0
 10
-8.456210102290072
 20
16.34000141871271
 30
0.0
 10
-8.45463833963916
 20
16.33844126994533
 30
0.0
 10
-8.45409325257873
 20
16.33790824017376
 30
0.0
 10
-8.4535481655183
 20
16.33737521040219
 30
0.0
 10
-8.453003078457868
 20
16.33684218063062
 30
0.0
 10
-8.452599316893327
 20
16.33645093328986
 30
0.0
 10
-8.452195555328785
 20
16.33605968594911
 30
0.0
 10
-8.451791793764244
 20
16.33566843860836
 30
0.0
 10
-8.451718685781003
 20
16.33559835770679
 30
0.0
 10
-8.451645577797734
 20
16.33552827680522
 30
0.0
 10
-8.451572469814494
 20
16.33545819590364
 30
0.0
  0
SPLINE
  5
6F
330
1F
100
AcDbEntity
  8
0
370
    -3
100
AcDbSpline
210
0.0
220
0.0
230
1.0
 70
    24
 71
     3
 72
     8
 73
     4
 74
     0
 42
0.000000001
 43
0.0000000001
 40
9.0
 40
9.0
 40
9.0
 40
9.0
 40
10.0
 40
10.0
 40
10.0
 40
10.0
 10
-8.450798750119787
 20
16.33471651255589
 30
0.0
 10
-8.45106812436407
 20
16.33496925859786
 30
0.0
 10
-8.451337498608353
 20
16.33522200463984
 30
0.0
 10
-8.451606872852636
 20
16.33547475068181
 30
0.0
  0
SPLINE
  5
70
330
1F
100
AcDbEntity
  8
0
370
    -3
100
AcDbSpline
210
0.0
220
0.0
230
1.0
 70
    24
 71
     2
 72
     6
 73
     3
 74
     0
 42
0.000000001
 43
0.0000000001
 40
2.188185742713147
 40
2.188185742713147
 40
2.188185742713147
 40
3.0
 40
3.0
 40
3.0
 10
0.6881857427131592
 20
14.70358377331474
 30
0.0
 10
1.09409287135658
 20
14.70358377331474
 30
0.0
 10
1.5
 20
14.70358377331474
 30
0.0
  0
SPLINE
  5
71
330
1F
100
AcDbEntity
  8
0
370
    -3
100
AcDbSpline
210
0.0
220
0.0
230
1.0
 70
    24
 71
     2
 72
     6
 73
     3
 74
     0
 42
0.000000001
 43
0.0000000001
 40
-3.0
 40
-3.0
 40
-3.0
 40
0.0
 40
0.0
 40
0.0
 10
-1.5
 20
15.06890432079478
 30
0.0
 10
0.0
 20
15.06890432079478
 30
0.0
 10
1.5
 20
15.06890432079478
 30
0.0
  0
SPLINE
  5
72
330
1F
100
AcDbEntity
  8
0
370
    -3
100
AcDbSpline
210
0.0
220
0.0
230
1.0
 70
    24
 71
     2
 72
     6
 73
     3
 74
     0
 42
0.000000001
 43
0.0000000001
 40
0.0
 40
0.0
 40
0.0
 40
0.8119967756348023
 40
0.8119967756348023
 40
0.8119967756348023
 10
-1.5
 20
14.70358377331474
 30
0.0
 10
-1.094001612182595
 20
14.70358377331474
 30
0.0
 10
-0.6880032243651897
 20
14.70358377331474
 30
0.0
  0
SPLINE
  5
73
330
1F
100
AcDbEntity
  8
0
370
    -3
100
AcDbSpline
210
0.0
220
0.0
230
1.0
 70
    24
 71
     2
 72
     6
 73
     3
 74
     0
 42
0.000000001
 43
0.0000000001
 40
-3.0
 40
-3.0
 40
-3.0
 40
0.0
 40
0.0
 40
0.0
 10
1.5
 20
15.38112389908021
 30
0.0
 10
0.0
 20
15.38112389908021
 30
0.0
 10
-1.5
 20
15.38112389908021
 30
0.0
  0
SPLINE
  5
74
330
1F
100
AcDbEntity
  8
0
370
    -3
100
AcDbSpline
210
0.0
220
0.0
230
1.0
 70
     8
 71
     3
 72
    13
 73
     9
 74
     0
 42
0.000000001
 43
0.0000000001
 40
0.2550484343484939
 40
0.2550484343484939
 40
0.2550484343484939
 40
0.2550484343484939
 40
0.4626653474001656
 40
0.4626653474001656
 40
0.4626653474001656
 40
0.5883890606452655
 40
0.5883890606452655
 40
0.6326831411207424
 40
0.6326831411207424
 40
0.6326831411207424
 40
0.6326831411207424
 10
0.567550695688368
 20
70.3623644321359
 30
0.0
 10
0.5364049751585185
 20
70.42349135044932
 30
0.0
 10
0.495350500641905
 20
70.47961333282385
 30
0.0
 10
0.4464028818260317
 20
70.52766326090762
 30
0.0
 10
0.4268637725062092
 20
70.54684402639427
 30
0.0
 10
0.4059732849229931
 20
70.56481376794923
 30
0.0
 10
0.3764586998087793
 20
70.5870582266685
 30
0.0
 10
0.3210136478030279
 20
70.62321674938887
 30
0.0
 10
0.3148170283610057
 20
70.62671006555485
 30
0.0
  0
SPLINE
  5
75
330
1F
100
AcDbEntity
  8
0
370
    -3
100
AcDbSpline
210
0.0
220
0.0
230
1.0
 70
     8
 71
     3
 72
     8
 73
     4
 74
     0
 42
0.000000001
 43
0.0000000001
 40
0.907439188261532
 40
0.907439188261532
 40
0.907439188261532
 40
0.907439188261532
 40
1.0
 40
1.0
 40
1.0
 40
1.0
 10
0.6558999447871656
 20
69.09896527056318
 30
0.0
 10
0.436838992330479
 20
69.10475352398046
 30
0.0
 10
0.2181018294692763
 20
69.10765901594937
 30
0.0
 10
0.0
 20
69.10765936144522
 30
0.0
  0
SPLINE
  5
76
330
1F
100
AcDbEntity
  8
0
370
    -3
100
AcDbSpline
210
0.0
220
0.0
230
1.0
 70
     8
 71
     3
 72
     8
 73
     4
 74
     0
 42
0.000000001
 43
0.0000000001
 40
0.0
 40
0.0
 40
0.0
 40
0.0
 40
0.021803176739232
 40
0.021803176739232
 40
0.021803176739232
 40
0.021803176739232
 10
30.8155866626376
 20
15.27308017571245
 30
0.0
 10
30.82282900434157
 20
15.27356018546842
 30
0.0
 10
30.83007134016728
 20
15.27404012587433
 30
0.0
 10
30.83731367019004
 20
15.27451999673055
 30
0.0
  0
SPLINE
  5
77
330
1F
100
AcDbEntity
  8
0
370
    -3
100
AcDbSpline
210
0.0
220
0.0
230
1.0
 70
     8
 71
     3
 72
    17
 73
    13
 74
     0
 42
0.000000001
 43
0.0000000001
 40
0.4392549453198401
 40
0.4392549453198401
 40
0.4392549453198401
 40
0.4392549453198401
 40
0.7057284015434891
 40
0.7057284015434891
 40
0.7057284015434891
 40
1.067375330092583
 40
1.067375330092583
 40
1.067375330092583
 40
1.437613884719971
 40
1.437613884719971
 40
1.437613884719971
 40
1.610825209313218
 40
1.610825209313218
 40
1.610825209313218
 40
1.610825209313218
 10
30.54882733098094
 20
16.75742047809247
 30
0.0
 10
30.67644871362589
 20
16.76097247022598
 30
0.0
 10
30.67885278301281
 20
16.76103928729356
 30
0.0
 10
30.68162708339636
 20
16.76111587063835
 30
0.0
 10
30.68549407742412
 20
16.76122261731173
 30
0.0
 10
30.69552210046095
 20
16.76149848856121
 30
0.0
 10
30.7079527368067
 20
16.76183644660713
 30
0.0
 10
30.72084305763772
 20
16.76218690232944
 30
0.0
 10
30.74083251444102
 20
16.76272720732082
 30
0.0
 10
30.76830588861867
 20
16.76346072684011
 30
0.0
 10
30.78100776994299
 20
16.76379985802301
 30
0.0
 10
30.79515070128303
 20
16.76417519026081
 30
0.0
 10
30.81146340499535
 20
16.76460617872319
 30
0.0
  0
SPLINE
  5
78
330
1F
100
AcDbEntity
  8
0
370
    -3
100
AcDbSpline
210
0.0
220
0.0
230
1.0
 70
    24
 71
     3
 72
     8
 73
     4
 74
     0
 42
0.000000001
 43
0.0000000001
 40
5.065371994682113
 40
5.065371994682113
 40
5.065371994682113
 40
5.065371994682113
 40
7.411033335279386
 40
7.411033335279386
 40
7.411033335279386
 40
7.411033335279386
 10
32.28641381613531
 20
22.5260343268492
 30
0.0
 10
32.42300438284454
 20
23.23845407584716
 30
0.0
 10
32.55951537676358
 20
23.95045879451801
 30
0.0
 10
32.69636483049928
 20
24.66422882878107
 30
0.0
  0
SPLINE
  5
79
330
1F
100
AcDbEntity
  8
0
370
    -3
100
AcDbSpline
210
0.0
220
0.0
230
1.0
 70
    24
 71
     3
 72
     8
 73
     4
 74
     0
 42
0.000000001
 43
0.0000000001
 40
-0.1021520710456491
 40
-0.1021520710456491
 40
-0.1021520710456491
 40
-0.1021520710456491
 40
0.0000000000001369
 40
0.0000000000001369
 40
0.0000000000001369
 40
0.0000000000001369
 10
32.1917747586831
 20
15.32658584771725
 30
0.0
 10
31.65169463310266
 20
15.30365276976297
 30
0.0
 10
31.10919361849196
 20
15.28061689514163
 30
0.0
 10
30.55971518538101
 20
15.25728474284814
 30
0.0
  0
SPLINE
  5
7A
330
1F
100
AcDbEntity
  8
0
370
    -3
100
AcDbSpline
210
0.0
220
0.0
230
1.0
 70
     8
 71
     3
 72
    10
 73
     6
 74
     0
 42
0.000000001
 43
0.0000000001
 40
0.0
 40
0.0
 40
0.0
 40
0.0
 40
0.4998732800716601
 40
0.4998732800716601
 40
0.8131172198580231
 40
0.8131172198580231
 40
0.8131172198580231
 40
0.8131172198580231
 10
33.69231245729915
 20
25.38315078336784
 30
0.0
 10
33.45653554855278
 20
25.4009968208209
 30
0.0
 10
33.22728828685942
 20
25.33898913316215
 30
0.0
 10
32.92995973326734
 20
25.12449769808424
 30
0.0
 10
32.83876441337796
 20
25.01812119732436
 30
0.0
 10
32.77631032813375
 20
24.89647082770626
 30
0.0
  0
SPLINE
  5
7B
330
1F
100
AcDbEntity
  8
0
370
    -3
100
AcDbSpline
210
0.0
220
0.0
230
1.0
 70
     8
 71
     3
 72
     8
 73
     4
 74
     0
 42
0.000000001
 43
0.0000000001
 40
-0.4430370559133545
 40
-0.4430370559133545
 40
-0.4430370559133545
 40
-0.4430370559133545
 40
0.0
 40
0.0
 40
0.0
 40
0.0
 10
33.1216880806659
 20
25.25721536746267
 30
0.0
 10
33.29805067826376
 20
25.35920769750286
 30
0.0
 10
33.47692102189225
 20
25.39945383711434
 30
0.0
 10
33.69231245729915
 20
25.38315078336784
 30
0.0
  0
SPLINE
  5
7C
330
1F
100
AcDbEntity
  8
0
370
    -3
100
AcDbSpline
210
0.0
220
0.0
230
1.0
 70
     8
 71
     3
 72
     8
 73
     4
 74
     0
 42
0.000000001
 43
0.0000000001
 40
-1.0
 40
-1.0
 40
-1.0
 40
-1.0
 40
-0.8171364249941941
 40
-0.8171364249941941
 40
-0.8171364249941941
 40
-0.8171364249941941
 10
32.69636483049928
 20
24.66422882878107
 30
0.0
 10
32.71204913189567
 20
24.7460339375922
 30
0.0
 10
32.73887085191825
 20
24.82413152865785
 30
0.0
 10
32.77584998481689
 20
24.89670716336921
 30
0.0
  0
SPLINE
  5
7D
330
1F
100
AcDbEntity
  8
0
370
    -3
100
AcDbSpline
210
0.0
220
0.0
230
1.0
 70
     8
 71
     3
 72
    12
 73
     8
 74
     0
 42
0.000000001
 43
0.0000000001
 40
0.0688941431492768
 40
0.0688941431492768
 40
0.0688941431492768
 40
0.0688941431492768
 40
0.2539491916505226
 40
0.2539491916505226
 40
0.5086898688574091
 40
0.5086898688574091
 40
1.0
 40
1.0
 40
1.0
 40
1.0
 10
32.88828233616607
 20
25.22161564568887
 30
0.0
 10
32.92155326881274
 20
25.31155830506573
 30
0.0
 10
32.96880257067838
 20
25.39234314771658
 30
0.0
 10
33.09938321022778
 20
25.55792696749394
 30
0.0
 10
33.18785141866448
 20
25.63079216069289
 30
0.0
 10
33.46065964046815
 20
25.78519081300294
 30
0.0
 10
33.66256177445993
 20
25.81785239699417
 30
0.0
 10
33.82535168518146
 20
25.80901933033906
 30
0.0
  0
SPLINE
  5
7E
330
1F
100
AcDbEntity
  8
0
370
    -3
100
AcDbSpline
210
0.0
220
0.0
230
1.0
 70
    24
 71
     3
 72
     9
 73
     5
 74
     0
 42
0.000000001
 43
0.0000000001
 40
-0.9999999999997935
 40
-0.9999999999997935
 40
-0.9999999999997935
 40
-0.9999999999997935
 40
-0.7350483974041998
 40
-0.7099823577508306
 40
-0.7099823577508306
 40
-0.7099823577508306
 40
-0.7099823577508306
 10
47.79318575871505
 20
15.98905861372767
 30
0.0
 10
46.18527161395892
 20
15.92078278079297
 30
0.0
 10
44.37080938705051
 20
15.84373642836504
 30
0.0
 10
42.58600585530067
 20
15.76794945419578
 30
0.0
 10
42.43203270594304
 20
15.76141139054589
 30
0.0
  0
SPLINE
  5
7F
330
1F
100
AcDbEntity
  8
0
370
    -3
100
AcDbSpline
210
0.0
220
0.0
230
1.0
 70
    24
 71
     3
 72
     8
 73
     4
 74
     0
 42
0.000000001
 43
0.0000000001
 40
0.191398050287222
 40
0.191398050287222
 40
0.191398050287222
 40
0.191398050287222
 40
1.000000000000224
 40
1.000000000000224
 40
1.000000000000224
 40
1.000000000000224
 10
30.50804733021687
 20
16.46908668095506
 30
0.0
 10
30.52526994860773
 20
16.06515270158612
 30
0.0
 10
30.54249256699441
 20
15.66121872221727
 30
0.0
 10
30.55971518538101
 20
15.25728474284814
 30
0.0
  0
SPLINE
  5
80
330
1F
100
AcDbEntity
  8
0
370
    -3
100
AcDbSpline
210
0.0
220
0.0
230
1.0
 70
     8
 71
     3
 72
     9
 73
     5
 74
     0
 42
0.000000001
 43
0.0000000001
 40
0.7231473566160733
 40
0.7231473566160733
 40
0.7231473566160733
 40
0.7231473566160733
 40
0.8557771732976698
 40
0.8731426611614215
 40
0.8731426611614215
 40
0.8731426611614215
 40
0.8731426611614215
 10
30.74247811782894
 20
16.76641412297368
 30
0.0
 10
30.66837362888063
 20
16.76326232184765
 30
0.0
 10
30.59877096331371
 20
16.76030198015436
 30
0.0
 10
30.55393694486344
 20
16.75839509651897
 30
0.0
 10
30.54907845723736
 20
16.75818845494125
 30
0.0
  0
SPLINE
  5
81
330
1F
100
AcDbEntity
  8
0
370
    -3
100
AcDbSpline
210
0.0
220
0.0
230
1.0
 70
     8
 71
     3
 72
    17
 73
    13
 74
     0
 42
0.000000001
 43
0.0000000001
 40
-0.6203304632694676
 40
-0.6203304632694676
 40
-0.6203304632694676
 40
-0.6203304632694676
 40
-0.5946397319558965
 40
-0.568892665428193
 40
-0.5431455989005894
 40
-0.5302720656367877
 40
-0.517398532372886
 40
-0.5045249991090843
 40
-0.4916514658452826
 40
-0.4659043993175791
 40
-0.4401573327899756
 40
-0.4144102662623329
 40
-0.4144102662623329
 40
-0.4144102662623329
 40
-0.4144102662623329
 10
30.81558666264235
 20
15.27308017571266
 30
0.0
 10
30.8292987947132
 20
15.2739889918716
 30
0.0
 10
30.85859043925237
 20
15.30461334522352
 30
0.0
 10
30.91123943847094
 20
15.45365814251328
 30
0.0
 10
30.9636718037394
 20
15.66398592302032
 30
0.0
 10
31.01037067085522
 20
15.87121891888933
 30
0.0
 10
31.04750076685517
 20
16.04220384614164
 30
0.0
 10
31.08740724862835
 20
16.22911585827495
 30
0.0
 10
31.1447131419564
 20
16.5031343068684
 30
0.0
 10
31.22005945127134
 20
16.88266872199218
 30
0.0
 10
31.30573639500389
 20
17.38391214342222
 30
0.0
 10
31.3649580192903
 20
17.71996811513677
 30
0.0
 10
31.39620356225328
 20
17.88293648407696
 30
0.0
  0
SPLINE
  5
82
330
1F
100
AcDbEntity
  8
0
370
    -3
100
AcDbSpline
210
0.0
220
0.0
230
1.0
 70
     8
 71
     3
 72
    14
 73
    10
 74
     0
 42
0.000000001
 43
0.0000000001
 40
0.0002551272095161
 40
0.0002551272095161
 40
0.0002551272095161
 40
0.0002551272095161
 40
0.4144098018769032
 40
0.4144098018769032
 40
0.4144098018769032
 40
0.8728858706888216
 40
0.8728858706888216
 40
0.8728858706888216
 40
1.169216455280414
 40
1.169216455280414
 40
1.169216455280414
 40
1.169216455280414
 10
32.88801430504409
 20
25.22171460541585
 30
0.0
 10
32.87073269503017
 20
25.17432940017564
 30
0.0
 10
32.85343327531828
 20
25.1269139860521
 30
0.0
 10
32.83611701129698
 20
25.07946947577556
 30
0.0
 10
32.81694752284926
 20
25.02694735030243
 30
0.0
 10
32.79775702802399
 20
24.9743885646803
 30
0.0
 10
32.7785468034985
 20
24.92179451872558
 30
0.0
 10
32.76613044185677
 20
24.88780081428403
 30
0.0
 10
32.75370570546059
 20
24.85379202271226
 30
0.0
 10
32.74127292785502
 20
24.8197684961897
 30
0.0
  0
SPLINE
  5
83
330
1F
100
AcDbEntity
  8
0
370
    -3
100
AcDbSpline
210
0.0
220
0.0
230
1.0
 70
     8
 71
     3
 72
    17
 73
    13
 74
     0
 42
0.000000001
 43
0.0000000001
 40
-0.6291035567939833
 40
-0.6291035567939833
 40
-0.6291035567939833
 40
-0.6291035567939833
 40
-0.6100588898612903
 40
-0.5910142229285891
 40
-0.5719695559959617
 40
-0.5624472225296481
 40
-0.5529248890632604
 40
-0.5434025555969468
 40
-0.5338802221306331
 40
-0.5148355551979319
 40
-0.4957908882653046
 40
-0.4767462213326279
 40
-0.4767462213326279
 40
-0.4767462213326279
 40
-0.4767462213326279
 10
47.39642670303309
 20
16.37621818445546
 30
0.0
 10
47.38348768621765
 20
16.38968748593125
 30
0.0
 10
47.35354960514812
 20
16.43239186078706
 30
0.0
 10
47.28948623713231
 20
16.54204487198536
 30
0.0
 10
47.22264716257885
 20
16.66039480328727
 30
0.0
 10
47.1645158175825
 20
16.76349512919941
 30
0.0
 10
47.11969743825168
 20
16.84300462371384
 30
0.0
 10
47.06964081523213
 20
16.9318190851846
 30
0.0
 10
46.99132233493799
 20
17.07083725969797
 30
0.0
 10
46.87322335309753
 20
17.28090969529941
 30
0.0
 10
46.70092110279913
 20
17.58912917909756
 30
0.0
 10
46.57841060694571
 20
17.80801431807992
 30
0.0
 10
46.51513457191629
 20
17.91957646236964
 30
0.0
  0
SPLINE
  5
84
330
1F
100
AcDbEntity
  8
0
370
    -3
100
AcDbSpline
210
0.0
220
0.0
230
1.0
 70
    24
 71
     3
 72
     8
 73
     4
 74
     0
 42
0.000000001
 43
0.0000000001
 40
0.0
 40
0.0
 40
0.0
 40
0.0
 40
5.065371994682113
 40
5.065371994682113
 40
5.065371994682113
 40
5.065371994682113
 10
31.39620356225328
 20
17.88293648407696
 30
0.0
 10
31.69611783226517
 20
19.44720885012153
 30
0.0
 10
31.99145135954709
 20
20.98758929108207
 30
0.0
 10
32.28641381613531
 20
22.52603432684919
 30
0.0
  0
SPLINE
  5
85
330
1F
100
AcDbEntity
  8
0
370
    -3
100
AcDbSpline
210
0.0
220
0.0
230
1.0
 70
     8
 71
     3
 72
    10
 73
     6
 74
     0
 42
0.000000001
 43
0.0000000001
 40
0.0
 40
0.0
 40
0.0
 40
0.0
 40
0.5
 40
0.5
 40
1.0
 40
1.0
 40
1.0
 40
1.0
 10
42.9206263569265
 20
24.22149630004631
 30
0.0
 10
43.55417700892539
 20
23.11046576234136
 30
0.0
 10
44.21874685111842
 20
21.94885587081525
 30
0.0
 10
45.46158920818002
 20
19.77225470219141
 30
0.0
 10
46.04062842519949
 20
18.7561982102258
 30
0.0
 10
46.51513457191629
 20
17.91957646236964
 30
0.0
  0
SPLINE
  5
86
330
1F
100
AcDbEntity
  8
0
370
    -3
100
AcDbSpline
210
0.0
220
0.0
230
1.0
 70
     8
 71
     3
 72
     8
 73
     4
 74
     0
 42
0.000000001
 43
0.0000000001
 40
0.8131172198580231
 40
0.8131172198580231
 40
0.8131172198580231
 40
0.8131172198580231
 40
0.815133038391064
 40
0.815133038391064
 40
0.815133038391064
 40
0.815133038391064
 10
32.77631032813375
 20
24.89647082770625
 30
0.0
 10
32.77590841739737
 20
24.89568797115748
 30
0.0
 10
32.77550769692402
 20
24.89490448207077
 30
0.0
 10
32.77510816815123
 20
24.89412036270406
 30
0.0
  0
SPLINE
  5
87
330
1F
100
AcDbEntity
  8
0
370
    -3
100
AcDbSpline
210
0.0
220
0.0
230
1.0
 70
     8
 71
     3
 72
     8
 73
     4
 74
     0
 42
0.000000001
 43
0.0000000001
 40
-0.6379392198810301
 40
-0.6379392198810301
 40
-0.6379392198810301
 40
-0.6379392198810301
 40
-0.6203867984835162
 40
-0.6203867984835162
 40
-0.6203867984835162
 40
-0.6203867984835162
 10
30.79109890408776
 20
15.27156910170289
 30
0.0
 10
30.79899075094062
 20
15.27205604361357
 30
0.0
 10
30.8071211617289
 20
15.27255768191242
 30
0.0
 10
30.81549647105831
 20
15.27307440459853
 30
0.0
  0
SPLINE
  5
88
330
1F
100
AcDbEntity
  8
0
370
    -3
100
AcDbSpline
210
0.0
220
0.0
230
1.0
 70
     8
 71
     3
 72
     9
 73
     5
 74
     0
 42
0.000000001
 43
0.0000000001
 40
-0.9764500753369454
 40
-0.9764500753369454
 40
-0.9764500753369454
 40
-0.9764500753369454
 40
-0.8101933992420036
 40
-0.6379392198810301
 40
-0.6379392198810301
 40
-0.6379392198810301
 40
-0.6379392198810301
 10
30.56066996263948
 20
15.25734372033326
 30
0.0
 10
30.56516340542677
 20
15.25762128034015
 30
0.0
 10
30.60660244298262
 20
15.26018088039588
 30
0.0
 10
30.71365069494937
 20
15.26679040038745
 30
0.0
 10
30.79109890408776
 20
15.27156910170289
 30
0.0
  0
SPLINE
  5
89
330
1F
100
AcDbEntity
  8
0
370
    -3
100
AcDbSpline
210
0.0
220
0.0
230
1.0
 70
     8
 71
     3
 72
     8
 73
     4
 74
     0
 42
0.000000001
 43
0.0000000001
 40
0.0
 40
0.0
 40
0.0
 40
0.0
 40
0.0210352563652938
 40
0.0210352563652938
 40
0.0210352563652938
 40
0.0210352563652938
 10
30.76292965993079
 20
16.76728584146996
 30
0.0
 10
30.76965378619855
 20
16.76760618588845
 30
0.0
 10
30.77637371194066
 20
16.76792575983177
 30
0.0
 10
30.78308906743041
 20
16.76824454439434
 30
0.0
  0
SPLINE
  5
8A
330
1F
100
AcDbEntity
  8
0
370
    -3
100
AcDbSpline
210
0.0
220
0.0
230
1.0
 70
    24
 71
     3
 72
     8
 73
     4
 74
     0
 42
0.000000001
 43
0.0000000001
 40
0.7115543465956862
 40
0.7115543465956862
 40
0.7115543465956862
 40
0.7115543465956862
 40
0.7231473566160733
 40
0.7231473566160733
 40
0.7231473566160733
 40
0.7231473566160733
 10
30.7621936066603
 20
16.76725265897896
 30
0.0
 10
30.75552884514281
 20
16.76696919449356
 30
0.0
 10
30.74895550055047
 20
16.76668961805428
 30
0.0
 10
30.74247811782894
 20
16.76641412297368
 30
0.0
  0
SPLINE
  5
8B
330
1F
100
AcDbEntity
  8
0
370
    -3
100
AcDbSpline
210
0.0
220
0.0
230
1.0
 70
     8
 71
     3
 72
    12
 73
     8
 74
     0
 42
0.000000001
 43
0.0000000001
 40
-1.000000000000133
 40
-1.000000000000133
 40
-1.000000000000133
 40
-1.000000000000133
 40
-0.9072758891982963
 40
-0.8145517783969027
 40
-0.7681897229961572
 40
-0.7218276675955092
 40
-0.6291035567940582
 40
-0.6291035567940582
 40
-0.6291035567940582
 40
-0.6291035567940582
 10
47.79318575871505
 20
15.98905861372767
 30
0.0
 10
47.79318575871466
 20
15.98905861372765
 30
0.0
 10
47.77295262169324
 20
16.00555085465313
 30
0.0
 10
47.69710205526465
 20
16.07481300528549
 30
0.0
 10
47.61392259725883
 20
16.15532126145881
 30
0.0
 10
47.52046487055662
 20
16.24812545102623
 30
0.0
 10
47.44411972460938
 20
16.32657054158785
 30
0.0
 10
47.39642670303309
 20
16.37621818445546
 30
0.0
  0
SPLINE
  5
8C
330
1F
100
AcDbEntity
  8
0
370
    -3
100
AcDbSpline
210
0.0
220
0.0
230
1.0
 70
    24
 71
     3
 72
     8
 73
     4
 74
     0
 42
0.000000001
 43
0.0000000001
 40
0.0000000000000185
 40
0.0000000000000185
 40
0.0000000000000185
 40
0.0000000000000185
 40
1.000000000000749
 40
1.000000000000749
 40
1.000000000000749
 40
1.000000000000749
 10
47.79318575871505
 20
15.98905861372767
 30
0.0
 10
47.77550903661299
 20
16.40535015172328
 30
0.0
 10
47.75783231451126
 20
16.82164168971896
 30
0.0
 10
47.74015559240976
 20
17.23793322771504
 30
0.0
  0
SPLINE
  5
8D
330
1F
100
AcDbEntity
  8
0
370
    -3
100
AcDbSpline
210
0.0
220
0.0
230
1.0
 70
     8
 71
     3
 72
    16
 73
    12
 74
     0
 42
0.000000001
 43
0.0000000001
 40
-7.055260256219516
 40
-7.055260256219516
 40
-7.055260256219516
 40
-7.055260256219516
 40
-6.614306490212709
 40
-6.173352724200182
 40
-5.732398958185209
 40
-5.291445192170233
 40
-4.409537660142734
 40
-3.527630128115234
 40
-2.645722596085288
 40
-1.763815064057785
 40
0.0
 40
0.0
 40
0.0
 40
0.0
 10
47.74015559240976
 20
17.23793322771504
 30
0.0
 10
47.74015559240971
 20
17.23793322771527
 30
0.0
 10
47.73816408198135
 20
17.23940522938442
 30
0.0
 10
47.72860778176542
 20
17.24708404730591
 30
0.0
 10
47.71280682351946
 20
17.26048635331151
 30
0.0
 10
47.68508751974537
 20
17.28492686662634
 30
0.0
 10
47.64246023421248
 20
17.32392564073062
 30
0.0
 10
47.58616382482947
 20
17.37596804196917
 30
0.0
 10
47.53154312714886
 20
17.4253897734961
 30
0.0
 10
47.45852158068712
 20
17.48868354187686
 30
0.0
 10
47.39702834677396
 20
17.5367579968311
 30
0.0
 10
47.35326296418225
 20
17.56583263324956
 30
0.0
  0
SPLINE
  5
8E
330
1F
100
AcDbEntity
  8
0
370
    -3
100
AcDbSpline
210
0.0
220
0.0
230
1.0
 70
    24
 71
     3
 72
     8
 73
     4
 74
     0
 42
0.000000001
 43
0.0000000001
 40
-1.000000000000351
 40
-1.000000000000351
 40
-1.000000000000351
 40
-1.000000000000351
 40
-0.9999530726749155
 40
-0.9999530726749155
 40
-0.9999530726749155
 40
-0.9999530726749155
 10
30.7621936066603
 20
16.76725265897896
 30
0.0
 10
30.76243893020168
 20
16.76726430372545
 30
0.0
 10
30.76268425357455
 20
16.76727594848165
 30
0.0
 10
30.7629295767791
 20
16.76728759324758
 30
0.0
  0
SPLINE
  5
8F
330
1F
100
AcDbEntity
  8
0
370
    -3
100
AcDbSpline
210
0.0
220
0.0
230
1.0
 70
     8
 71
     3
 72
    21
 73
    17
 74
     0
 42
0.000000001
 43
0.0000000001
 40
0.4837263843839994
 40
0.4837263843839994
 40
0.4837263843839994
 40
0.4837263843839994
 40
0.5122048796591985
 40
0.5406833749357995
 40
0.5549226225741001
 40
0.5691618702125006
 40
0.5834011178508013
 40
0.5976403654891018
 40
0.6118796131274025
 40
0.626118860765803
 40
0.6403581084041036
 40
0.6545973560424041
 40
0.6688366036807046
 40
0.6830758513191053
 40
0.6973150989574058
 40
0.7111105946130069
 40
0.7111105946130069
 40
0.7111105946130069
 40
0.7111105946130069
 10
31.3945474592042
 20
18.69980108323181
 30
0.0
 10
31.36124579340213
 20
18.55368991944369
 30
0.0
 10
31.30290794179191
 20
18.26187130181026
 30
0.0
 10
31.22926947200889
 20
17.92072517160216
 30
0.0
 10
31.16303824730286
 20
17.67271979280539
 30
0.0
 10
31.11363833278418
 20
17.50224199813123
 30
0.0
 10
31.06556865337993
 20
17.34771993248619
 30
0.0
 10
31.01513499096868
 20
17.19573696659189
 30
0.0
 10
30.96764273901007
 20
17.06319704923335
 30
0.0
 10
30.93213020781943
 20
16.97197412001186
 30
0.0
 10
30.89974382096665
 20
16.89581147392503
 30
0.0
 10
30.86838574381548
 20
16.83327351110541
 30
0.0
 10
30.83888319065849
 20
16.79697853787339
 30
0.0
 10
30.81154087093617
 20
16.77836429558645
 30
0.0
 10
30.78644106700386
 20
16.76964576846597
 30
0.0
 10
30.77056299770834
 20
16.76764950167825
 30
0.0
 10
30.76292965992786
 20
16.76728584147073
 30
0.0
  0
SPLINE
  5
90
330
1F
100
AcDbEntity
  8
0
370
    -3
100
AcDbSpline
210
0.0
220
0.0
230
1.0
 70
     8
 71
     3
 72
    21
 73
    17
 74
     0
 42
0.000000001
 43
0.0000000001
 40
0.4767462213326279
 40
0.4767462213326279
 40
0.4767462213326279
 40
0.4767462213326279
 40
0.4957908882654
 40
0.5053132217317
 40
0.514835555198
 40
0.5243578886644
 40
0.5338802221307
 40
0.543402555597
 40
0.5529248890634
 40
0.5624472225297
 40
0.571969555996
 40
0.5814918894624
 40
0.5910142229287
 40
0.600536556395
 40
0.6100588898614
 40
0.6291035567939833
 40
0.6291035567939833
 40
0.6291035567939833
 40
0.6291035567939833
 10
46.45288101752737
 20
18.83976386211822
 30
0.0
 10
46.49959130551011
 20
18.75978813699033
 30
0.0
 10
46.57184094322267
 20
18.63507973045122
 30
0.0
 10
46.66058197828005
 20
18.47848189706703
 30
0.0
 10
46.7267711629938
 20
18.36337887107468
 30
0.0
 10
46.8004900539396
 20
18.23966375680923
 30
0.0
 10
46.88588832469688
 20
18.10364375744363
 30
0.0
 10
46.97730597993473
 20
17.96812955044768
 30
0.0
 10
47.06077667224889
 20
17.85261595743324
 30
0.0
 10
47.12692088575108
 20
17.76718461286127
 30
0.0
 10
47.17538891159512
 20
17.70722218013744
 30
0.0
 10
47.21752552320356
 20
17.66395874891579
 30
0.0
 10
47.25454103486535
 20
17.63430729870777
 30
0.0
 10
47.28470763339365
 20
17.61232445676063
 30
0.0
 10
47.31863597204384
 20
17.5888359899203
 30
0.0
 10
47.34024794813004
 20
17.57447889285699
 30
0.0
 10
47.35326296418225
 20
17.56583263324956
 30
0.0
  0
SPLINE
  5
91
330
1F
100
AcDbEntity
  8
0
370
    -3
100
AcDbSpline
210
0.0
220
0.0
230
1.0
 70
     8
 71
     3
 72
    14
 73
    10
 74
     0
 42
0.000000001
 43
0.0000000001
 40
-0.483726384384092
 40
-0.483726384384092
 40
-0.483726384384092
 40
-0.483726384384092
 40
-0.4278133923997613
 40
-0.4278133923997613
 40
-0.3719004004154307
 40
-0.3719004004154307
 40
-0.2600744164467693
 40
-0.2600744164467693
 40
-0.0364224485094466
 40
-0.0364224485094466
 40
-0.0364224485094466
 40
-0.0364224485094466
 10
46.45288101752737
 20
18.83976386211822
 30
0.0
 10
46.31788085417523
 20
19.07090700940405
 30
0.0
 10
46.18539058580217
 20
19.3071392661384
 30
0.0
 10
45.91730323067978
 20
19.78513417935873
 30
0.0
 10
45.78137387052371
 20
20.02675302530933
 30
0.0
 10
45.36978786090694
 20
20.75858250370429
 30
0.0
 10
45.09071713454355
 20
21.25594193445669
 30
0.0
 10
44.24539442461634
 20
22.76502794023033
 30
0.0
 10
43.67069849568006
 20
23.7938390310525
 30
0.0
 10
43.10479131622594
 20
24.81492326793598
 30
0.0
  0
SPLINE
  5
92
330
1F
100
AcDbEntity
  8
0
370
    -3
100
AcDbSpline
210
0.0
220
0.0
230
1.0
 70
     8
 71
     3
 72
     8
 73
     4
 74
     0
 42
0.000000001
 43
0.0000000001
 40
-1.0
 40
-1.0
 40
-1.0
 40
-1.0
 40
0.0
 40
0.0
 40
0.0
 40
0.0
 10
42.04656020331609
 20
24.75076665688842
 30
0.0
 10
42.41467759327853
 20
24.72289792387047
 30
0.0
 10
42.7511722699692
 20
24.51859446665808
 30
0.0
 10
42.9206263569265
 20
24.22149630004631
 30
0.0
  0
SPLINE
  5
93
330
1F
100
AcDbEntity
  8
0
370
    -3
100
AcDbSpline
210
0.0
220
0.0
230
1.0
 70
     8
 71
     3
 72
     8
 73
     4
 74
     0
 42
0.000000001
 43
0.0000000001
 40
-1.0
 40
-1.0
 40
-1.0
 40
-1.0
 40
0.0
 40
0.0
 40
0.0
 40
0.0
 10
43.10479131622594
 20
24.81492326793598
 30
0.0
 10
42.9337189602289
 20
25.12358278811129
 30
0.0
 10
42.5828887297366
 20
25.33380954072313
 30
0.0
 10
42.20200383470174
 20
25.35447560116044
 30
0.0
  0
SPLINE
  5
94
330
1F
100
AcDbEntity
  8
0
370
    -3
100
AcDbSpline
210
0.0
220
0.0
230
1.0
 70
     8
 71
     3
 72
     8
 73
     4
 74
     0
 42
0.000000001
 43
0.0000000001
 40
0.0
 40
0.0
 40
0.0
 40
0.0
 40
1.0
 40
1.0
 40
1.0
 40
1.0
 10
33.69231245729915
 20
25.38315078336784
 30
0.0
 10
36.47386192062447
 20
25.17259912646457
 30
0.0
 10
39.25875127057759
 20
24.96179381350828
 30
0.0
 10
42.04656020331609
 20
24.75076665688842
 30
0.0
  0
SPLINE
  5
95
330
1F
100
AcDbEntity
  8
0
370
    -3
100
AcDbSpline
210
0.0
220
0.0
230
1.0
 70
     8
 71
     3
 72
     8
 73
     4
 74
     0
 42
0.000000001
 43
0.0000000001
 40
0.0
 40
0.0
 40
0.0
 40
0.0
 40
1.0
 40
1.0
 40
1.0
 40
1.0
 10
42.20200383470174
 20
25.35447560116044
 30
0.0
 10
39.40693386710862
 20
25.50614541309957
 30
0.0
 10
36.61460941985715
 20
25.65766579858394
 30
0.0
 10
33.82535168518146
 20
25.80901933033906
 30
0.0
  0
SPLINE
  5
96
330
1F
100
AcDbEntity
  8
0
370
    -3
100
AcDbSpline
210
0.0
220
0.0
230
1.0
 70
    24
 71
     3
 72
     8
 73
     4
 74
     0
 42
0.000000001
 43
0.0000000001
 40
0.5534868054479777
 40
0.5534868054479777
 40
0.5534868054479777
 40
0.5534868054479777
 40
0.8270485718275951
 40
0.8270485718275951
 40
0.8270485718275951
 40
0.8270485718275951
 10
31.3945474592042
 20
18.69980108323181
 30
0.0
 10
31.72286614440631
 20
20.14030035070606
 30
0.0
 10
32.05683228468982
 20
21.60557784516337
 30
0.0
 10
32.39125590647777
 20
23.07286254116522
 30
0.0
  0
ARC
  5
97
330
1F
100
AcDbEntity
  8
0
100
AcDbCircle
 10
-13.31749350000001
 20
0.3543309999999997
 30
0.0
 40
0.0393699916941807
100
AcDbArc
 50
182.0000107679837
 51
270.0
  0
LINE
  5
98
330
1F
100
AcDbEntity
  8
0
100
AcDbLine
 10
-0.6324594999999817
 20
0.7772719999999999
 30
0.0
 11
-0.6359214999999949
 21
1.004435999999999
 31
0.0
  0
LINE
  5
99
330
1F
100
AcDbEntity
  8
0
100
AcDbLine
 10
0.6127515000000017
 20
0.3527349999999996
 30
0.0
 11
0.6324584999999843
 21
0.7772719999999999
 31
0.0
  0
ARC
  5
9A
330
1F
100
AcDbEntity
  8
0
100
AcDbCircle
 10
0.5658079491741432
 20
0.3549141187955937
 30
0.0
 40
0.0469941009368722
100
AcDbArc
 50
301.7695022051527
 51
357.3422388312247
  0
ARC
  5
9B
330
1F
100
AcDbEntity
  8
0
100
AcDbCircle
 10
-0.5658089491741407
 20
0.3549141187955935
 30
0.0
 40
0.0469941009368686
100
AcDbArc
 50
182.6577611687751
 51
238.2304977948548
  0
LINE
  5
9C
330
1F
100
AcDbEntity
  8
0
100
AcDbLine
 10
-12.15354450000001
 20
0.236221
 30
0.0
 11
-12.15354450000001
 21
0.3149609999999998
 31
0.0
  0
LINE
  5
9D
330
1F
100
AcDbEntity
  8
0
100
AcDbLine
 10
-0.6127524999999991
 20
0.3527349999999996
 30
0.0
 11
-0.6324594999999817
 21
0.7772719999999999
 31
0.0
  0
LINE
  5
9E
330
1F
100
AcDbEntity
  8
0
100
AcDbLine
 10
-0.6359214999999949
 20
1.004435999999999
 30
0.0
 11
-0.6373288138390194
 21
1.059386383289
 31
0.0
  0
LINE
  5
9F
330
1F
100
AcDbEntity
  8
0
100
AcDbLine
 10
-0.9068624999999884
 20
2.677166
 30
0.0
 11
0.9068624999999884
 21
2.677166
 31
0.0
  0
LINE
  5
A0
330
1F
100
AcDbEntity
  8
0
100
AcDbLine
 10
12.15354350000001
 20
0.236221
 30
0.0
 11
13.33464549999999
 21
0.236221
 31
0.0
  0
LINE
  5
A1
330
1F
100
AcDbEntity
  8
0
100
AcDbLine
 10
-0.949410499999999
 20
2.547483999999999
 30
0.0
 11
-0.9462085000000116
 21
2.63917
 31
0.0
  0
LINE
  5
A2
330
1F
100
AcDbEntity
  8
0
100
AcDbLine
 10
13.33464549999999
 20
0.236221
 30
0.0
 11
13.33464549999999
 21
0.3149609999999998
 31
0.0
  0
LINE
  5
A3
330
1F
100
AcDbEntity
  8
0
100
AcDbLine
 10
0.8470145000000002
 20
1.929766
 30
0.0
 11
0.6373278138390219
 21
1.059386383289
 31
0.0
  0
LINE
  5
A4
330
1F
100
AcDbEntity
  8
0
100
AcDbLine
 10
-0.5905515000000037
 20
0.236221
 30
0.0
 11
-0.5905515000000037
 21
0.3149609999999998
 31
0.0
  0
LINE
  5
A5
330
1F
100
AcDbEntity
  8
0
100
AcDbLine
 10
0.949410499999999
 20
2.547483999999999
 30
0.0
 11
0.9462085000000116
 21
2.63917
 31
0.0
  0
LINE
  5
A6
330
1F
100
AcDbEntity
  8
0
100
AcDbLine
 10
0.5905505000000062
 20
0.236221
 30
0.0
 11
0.5905505000000062
 21
0.3149609999999998
 31
0.0
  0
ARC
  5
A7
330
1F
100
AcDbEntity
  8
0
100
AcDbCircle
 10
12.54724350000001
 20
0.4461949999999999
 30
0.0
 40
0.4461943235296068
100
AcDbArc
 50
208.0725624712171
 51
270.0
  0
LINE
  5
A8
330
1F
100
AcDbEntity
  8
0
100
AcDbLine
 10
-12.54725050000002
 20
0.0
 30
0.0
 11
-12.94094050000001
 21
0.0
 31
0.0
  0
ARC
  5
A9
330
1F
100
AcDbEntity
  8
0
100
AcDbCircle
 10
0.1968504999999823
 20
0.4461949999999999
 30
0.0
 40
0.4461943235296055
100
AcDbArc
 50
270.0
 51
331.9274375287827
  0
LINE
  5
AA
330
1F
100
AcDbEntity
  8
0
100
AcDbLine
 10
-0.1968454999999949
 20
0.0
 30
0.0
 11
0.1968444999999974
 21
0.0
 31
0.0
  0
LINE
  5
AB
330
1F
100
AcDbEntity
  8
0
100
AcDbLine
 10
11.93188650000002
 20
0.3149609999999998
 30
0.0
 11
0.6318615000000136
 21
0.7487849999999997
 31
0.0
  0
LINE
  5
AC
330
1F
100
AcDbEntity
  8
0
100
AcDbLine
 10
-0.8470154999999977
 20
1.929766
 30
0.0
 11
-0.6373288138390194
 21
1.059386383289
 31
0.0
  0
LINE
  5
AD
330
1F
100
AcDbEntity
  8
0
100
AcDbLine
 10
-0.6373288138390194
 20
1.059386383289
 30
0.0
 11
0.6373283684570197
 21
1.059386383289
 31
0.0
  0
LINE
  5
AE
330
1F
100
AcDbEntity
  8
0
100
AcDbLine
 10
-12.15354450000001
 20
0.236221
 30
0.0
 11
-13.33464650000002
 21
0.236221
 31
0.0
  0
ARC
  5
AF
330
1F
100
AcDbEntity
  8
0
100
AcDbCircle
 10
-12.9409455
 20
0.4461949999999999
 30
0.0
 40
0.44619476470589
100
AcDbArc
 50
208.072502042896
 51
270.0000000000002
  0
LINE
  5
B0
330
1F
100
AcDbEntity
  8
0
100
AcDbLine
 10
0.6359204999999974
 20
1.004435999999999
 30
0.0
 11
0.6373278138390219
 21
1.059386383289
 31
0.0
  0
LINE
  5
B1
330
1F
100
AcDbEntity
  8
0
100
AcDbLine
 10
0.6324584999999843
 20
0.7772719999999999
 30
0.0
 11
0.6359204999999974
 21
1.004435999999999
 31
0.0
  0
ARC
  5
B2
330
1F
100
AcDbEntity
  8
0
100
AcDbCircle
 10
1.342871500000001
 20
2.561222999999999
 30
0.0
 40
0.3937004384692384
100
AcDbArc
 50
181.9998602463671
 51
265.8665213273553
  0
ARC
  5
B3
330
1F
100
AcDbEntity
  8
0
100
AcDbCircle
 10
-1.342871500000001
 20
2.561222999999999
 30
0.0
 40
0.3937004024297452
100
AcDbArc
 50
274.1333335196276
 51
358.0001397536328
  0
ARC
  5
B4
330
1F
100
AcDbEntity
  8
0
100
AcDbCircle
 10
13.31749250000001
 20
0.3543309999999997
 30
0.0
 40
0.0393699916941807
100
AcDbArc
 50
270.0
 51
357.9999892320163
  0
ARC
  5
B5
330
1F
100
AcDbEntity
  8
0
100
AcDbCircle
 10
0.9068624999999884
 20
2.637795999999999
 30
0.0
 40
0.0393699916941817
100
AcDbArc
 50
2.000010767984079
 51
90.0
  0
ARC
  5
B6
330
1F
100
AcDbEntity
  8
0
100
AcDbCircle
 10
-0.9068624999999884
 20
2.637795999999999
 30
0.0
 40
0.0393699916941817
100
AcDbArc
 50
90.0
 51
177.9999892320159
  0
ARC
  5
B7
330
1F
100
AcDbEntity
  8
0
100
AcDbCircle
 10
-0.1968504999999823
 20
0.4461949999999999
 30
0.0
 40
0.44619476470589
100
AcDbArc
 50
208.0725020428958
 51
269.9999999999999
  0
LINE
  5
B8
330
1F
100
AcDbEntity
  8
0
100
AcDbLine
 10
-11.93188750000002
 20
0.3149609999999998
 30
0.0
 11
-0.6318625000000111
 21
0.7487849999999997
 31
0.0
  0
LINE
  5
B9
330
1F
100
AcDbEntity
  8
0
100
AcDbLine
 10
-11.93188750000002
 20
0.3149609999999998
 30
0.0
 11
-13.33464650000002
 21
0.3149609999999998
 31
0.0
  0
LINE
  5
BA
330
1F
100
AcDbEntity
  8
0
100
AcDbLine
 10
13.32985650000001
 20
1.096626
 30
0.0
 11
13.35683850000001
 21
0.352957
 31
0.0
  0
LINE
  5
BB
330
1F
100
AcDbEntity
  8
0
100
AcDbLine
 10
1.314493474057826
 20
2.168546641029288
 30
0.0
 11
13.32985650000001
 21
1.096626
 31
0.0
  0
POLYLINE
  5
BC
330
1F
100
AcDbEntity
  8
0
100
AcDb2dPolyline
 66
     1
 10
0.0
 20
0.0
 30
0.0
  0
VERTEX
  5
BD
330
BC
100
AcDbEntity
  8
0
100
AcDbVertex
100
AcDb2dVertex
 10
-0.8470154999999977
 20
1.929766
 30
0.0
  0
VERTEX
  5
BE
330
BC
100
AcDbEntity
  8
0
100
AcDbVertex
100
AcDb2dVertex
 10
-0.9594892974506593
 20
1.937676986571137
 30
0.0
  0
VERTEX
  5
BF
330
BC
100
AcDbEntity
  8
0
100
AcDbVertex
100
AcDb2dVertex
 10
-1.072203009915427
 20
1.943327691264807
 30
0.0
  0
VERTEX
  5
C0
330
BC
100
AcDbEntity
  8
0
100
AcDbVertex
100
AcDb2dVertex
 10
-1.1851566373943
 20
1.946718114081008
 30
0.0
  0
VERTEX
  5
C1
330
BC
100
AcDbEntity
  8
0
100
AcDbVertex
100
AcDb2dVertex
 10
-1.298350179887279
 20
1.947848255019742
 30
0.0
  0
VERTEX
  5
C2
330
BC
100
AcDbEntity
  8
0
100
AcDbVertex
100
AcDb2dVertex
 10
-1.411783637394308
 20
1.946718114081008
 30
0.0
  0
VERTEX
  5
C3
330
BC
100
AcDbEntity
  8
0
100
AcDbVertex
100
AcDb2dVertex
 10
-1.525457009915442
 20
1.943327691264807
 30
0.0
  0
VERTEX
  5
C4
330
BC
100
AcDbEntity
  8
0
100
AcDbVertex
100
AcDb2dVertex
 10
-1.639370297450682
 20
1.937676986571137
 30
0.0
  0
VERTEX
  5
C5
330
BC
100
AcDbEntity
  8
0
100
AcDbVertex
100
AcDb2dVertex
 10
-13.37870911098
 20
1.010005048988
 30
0.0
  0
SEQEND
  5
C6
330
BC
100
AcDbEntity
  8
0
  0
POLYLINE
  5
C7
330
1F
100
AcDbEntity
  8
0
100
AcDb2dPolyline
 66
     1
 10
0.0
 20
0.0
 30
0.0
  0
VERTEX
  5
C8
330
C7
100
AcDbEntity
  8
0
100
AcDbVertex
100
AcDb2dVertex
 10
0.8470145000000002
 20
1.929766
 30
0.0
  0
VERTEX
  5
C9
330
C7
100
AcDbEntity
  8
0
100
AcDbVertex
100
AcDb2dVertex
 10
0.9594882974506618
 20
1.937676986571137
 30
0.0
  0
VERTEX
  5
CA
330
C7
100
AcDbEntity
  8
0
100
AcDbVertex
100
AcDb2dVertex
 10
1.072202009915429
 20
1.943327691264807
 30
0.0
  0
VERTEX
  5
CB
330
C7
100
AcDbEntity
  8
0
100
AcDbVertex
100
AcDb2dVertex
 10
1.185155637394303
 20
1.946718114081008
 30
0.0
  0
VERTEX
  5
CC
330
C7
100
AcDbEntity
  8
0
100
AcDbVertex
100
AcDb2dVertex
 10
1.298349179887282
 20
1.947848255019742
 30
0.0
  0
VERTEX
  5
CD
330
C7
100
AcDbEntity
  8
0
100
AcDbVertex
100
AcDb2dVertex
 10
1.41178263739431
 20
1.946718114081008
 30
0.0
  0
VERTEX
  5
CE
330
C7
100
AcDbEntity
  8
0
100
AcDbVertex
100
AcDb2dVertex
 10
1.525456009915445
 20
1.943327691264807
 30
0.0
  0
VERTEX
  5
CF
330
C7
100
AcDbEntity
  8
0
100
AcDbVertex
100
AcDb2dVertex
 10
1.639369297450685
 20
1.937676986571137
 30
0.0
  0
VERTEX
  5
D0
330
C7
100
AcDbEntity
  8
0
100
AcDbVertex
100
AcDb2dVertex
 10
13.37870811098
 20
1.010005048988
 30
0.0
  0
SEQEND
  5
D1
330
C7
100
AcDbEntity
  8
0
  0
LINE
  5
D2
330
1F
100
AcDbEntity
  8
0
100
AcDbLine
 10
-13.3298575
 20
1.096626
 30
0.0
 11
-13.35683949999998
 21
0.352957
 31
0.0
  0
LINE
  5
D3
330
1F
100
AcDbEntity
  8
0
100
AcDbLine
 10
-1.314494474057824
 20
2.168546641029288
 30
0.0
 11
-13.3298575
 21
1.096626
 31
0.0
  0
ARC
  5
D4
330
1F
100
AcDbEntity
  8
0
100
AcDbCircle
 10
-12.54724449999998
 20
0.4461949999999999
 30
0.0
 40
0.4461943235296068
100
AcDbArc
 50
270.0
 51
331.9274375287827
  0
LINE
  5
D5
330
1F
100
AcDbEntity
  8
0
100
AcDbLine
 10
-0.5905515000000037
 20
0.236221
 30
0.0
 11
0.5905505000000062
 21
0.236221
 31
0.0
  0
LINE
  5
D6
330
1F
100
AcDbEntity
  8
0
100
AcDbLine
 10
12.15354350000001
 20
0.236221
 30
0.0
 11
12.15354350000001
 21
0.3149609999999998
 31
0.0
  0
LINE
  5
D7
330
1F
100
AcDbEntity
  8
0
100
AcDbLine
 10
12.54724949999999
 20
0.0
 30
0.0
 11
12.94093950000001
 21
0.0
 31
0.0
  0
LINE
  5
D8
330
1F
100
AcDbEntity
  8
0
100
AcDbLine
 10
0.5905505000000062
 20
0.3149609999999998
 30
0.0
 11
-0.5905515000000037
 21
0.3149609999999998
 31
0.0
  0
ARC
  5
D9
330
1F
100
AcDbEntity
  8
0
100
AcDbCircle
 10
12.9409445
 20
0.4461949999999999
 30
0.0
 40
0.44619476470589
100
AcDbArc
 50
270.0
 51
331.9274979571039
  0
LINE
  5
DA
330
1F
100
AcDbEntity
  8
0
100
AcDbLine
 10
-13.33464650000002
 20
0.236221
 30
0.0
 11
-13.33464650000002
 21
0.3149609999999998
 31
0.0
  0
LINE
  5
DB
330
1F
100
AcDbEntity
  8
0
100
AcDbLine
 10
11.93188650000002
 20
0.3149609999999998
 30
0.0
 11
13.33464549999999
 21
0.3149609999999998
 31
0.0
  0
ARC
  5
DC
330
1F
100
AcDbEntity
  8
0
100
AcDbCircle
 10
22.77264324130701
 20
0.3543309999999997
 30
0.0
 40
0.0393699916941807
100
AcDbArc
 50
182.0000107679837
 51
270.0
  0
LINE
  5
DD
330
1F
100
AcDbEntity
  8
0
100
AcDbLine
 10
35.45767724130701
 20
0.7772719999999999
 30
0.0
 11
35.45421524130703
 21
1.004435999999999
 31
0.0
  0
LINE
  5
DE
330
1F
100
AcDbEntity
  8
0
100
AcDbLine
 10
36.70288824130702
 20
0.3527349999999996
 30
0.0
 11
36.722595241307
 21
0.7772719999999999
 31
0.0
  0
ARC
  5
DF
330
1F
100
AcDbEntity
  8
0
100
AcDbCircle
 10
36.65594469048116
 20
0.3549141187955937
 30
0.0
 40
0.0469941009368722
100
AcDbArc
 50
301.7695022051527
 51
357.3422388312249
  0
ARC
  5
E0
330
1F
100
AcDbEntity
  8
0
100
AcDbCircle
 10
35.52432779213285
 20
0.3549141187955935
 30
0.0
 40
0.0469941009368686
100
AcDbArc
 50
182.6577611687751
 51
238.2304977948548
  0
LINE
  5
E1
330
1F
100
AcDbEntity
  8
0
100
AcDbLine
 10
23.93659224130701
 20
0.236221
 30
0.0
 11
23.93659224130701
 21
0.3149609999999998
 31
0.0
  0
LINE
  5
E2
330
1F
100
AcDbEntity
  8
0
100
AcDbLine
 10
35.47738424130702
 20
0.3527349999999996
 30
0.0
 11
35.45767724130701
 21
0.7772719999999999
 31
0.0
  0
LINE
  5
E3
330
1F
100
AcDbEntity
  8
0
100
AcDbLine
 10
35.45421524130703
 20
1.004435999999999
 30
0.0
 11
35.452807927468
 21
1.059386383289
 31
0.0
  0
LINE
  5
E4
330
1F
100
AcDbEntity
  8
0
100
AcDbLine
 10
35.183274241307
 20
2.677166
 30
0.0
 11
36.99699924130701
 21
2.677166
 31
0.0
  0
LINE
  5
E5
330
1F
100
AcDbEntity
  8
0
100
AcDbLine
 10
48.243680241307
 20
0.236221
 30
0.0
 11
49.42478224130701
 21
0.236221
 31
0.0
  0
LINE
  5
E6
330
1F
100
AcDbEntity
  8
0
100
AcDbLine
 10
35.14072624130702
 20
2.547483999999999
 30
0.0
 11
35.14392824130701
 21
2.63917
 31
0.0
  0
LINE
  5
E7
330
1F
100
AcDbEntity
  8
0
100
AcDbLine
 10
49.42478224130701
 20
0.236221
 30
0.0
 11
49.42478224130701
 21
0.3149609999999998
 31
0.0
  0
LINE
  5
E8
330
1F
100
AcDbEntity
  8
0
100
AcDbLine
 10
36.93715124130702
 20
1.929766
 30
0.0
 11
36.72746455514601
 21
1.059386383289
 31
0.0
  0
LINE
  5
E9
330
1F
100
AcDbEntity
  8
0
100
AcDbLine
 10
35.49958524130702
 20
0.236221
 30
0.0
 11
35.49958524130702
 21
0.3149609999999998
 31
0.0
  0
LINE
  5
EA
330
1F
100
AcDbEntity
  8
0
100
AcDbLine
 10
37.03954724130702
 20
2.547483999999999
 30
0.0
 11
37.036345241307
 21
2.63917
 31
0.0
  0
LINE
  5
EB
330
1F
100
AcDbEntity
  8
0
100
AcDbLine
 10
36.68068724130703
 20
0.236221
 30
0.0
 11
36.68068724130703
 21
0.3149609999999998
 31
0.0
  0
ARC
  5
EC
330
1F
100
AcDbEntity
  8
0
100
AcDbCircle
 10
48.637380241307
 20
0.4461949999999999
 30
0.0
 40
0.4461943235296068
100
AcDbArc
 50
208.0725624712171
 51
270.0
  0
LINE
  5
ED
330
1F
100
AcDbEntity
  8
0
100
AcDbLine
 10
23.542886241307
 20
0.0
 30
0.0
 11
23.14919624130701
 21
0.0
 31
0.0
  0
ARC
  5
EE
330
1F
100
AcDbEntity
  8
0
100
AcDbCircle
 10
36.286987241307
 20
0.4461949999999999
 30
0.0
 40
0.4461943235296055
100
AcDbArc
 50
270.0
 51
331.9274375287828
  0
LINE
  5
EF
330
1F
100
AcDbEntity
  8
0
100
AcDbLine
 10
35.89329124130703
 20
0.0
 30
0.0
 11
36.28698124130702
 21
0.0
 31
0.0
  0
LINE
  5
F0
330
1F
100
AcDbEntity
  8
0
100
AcDbLine
 10
48.02202324130701
 20
0.3149609999999998
 30
0.0
 11
36.72199824130701
 21
0.7487849999999997
 31
0.0
  0
LINE
  5
F1
330
1F
100
AcDbEntity
  8
0
100
AcDbLine
 10
35.24312124130702
 20
1.929766
 30
0.0
 11
35.452807927468
 21
1.059386383289
 31
0.0
  0
LINE
  5
F2
330
1F
100
AcDbEntity
  8
0
100
AcDbLine
 10
35.452807927468
 20
1.059386383289
 30
0.0
 11
36.72746510976401
 21
1.059386383289
 31
0.0
  0
LINE
  5
F3
330
1F
100
AcDbEntity
  8
0
100
AcDbLine
 10
23.93659224130701
 20
0.236221
 30
0.0
 11
22.755490241307
 21
0.236221
 31
0.0
  0
ARC
  5
F4
330
1F
100
AcDbEntity
  8
0
100
AcDbCircle
 10
23.14919124130699
 20
0.4461949999999999
 30
0.0
 40
0.44619476470589
100
AcDbArc
 50
208.072502042896
 51
270.0
  0
LINE
  5
F5
330
1F
100
AcDbEntity
  8
0
100
AcDbLine
 10
36.72605724130702
 20
1.004435999999999
 30
0.0
 11
36.72746455514601
 21
1.059386383289
 31
0.0
  0
LINE
  5
F6
330
1F
100
AcDbEntity
  8
0
100
AcDbLine
 10
36.722595241307
 20
0.7772719999999999
 30
0.0
 11
36.72605724130702
 21
1.004435999999999
 31
0.0
  0
ARC
  5
F7
330
1F
100
AcDbEntity
  8
0
100
AcDbCircle
 10
37.43300824130702
 20
2.561222999999999
 30
0.0
 40
0.3937004384692384
100
AcDbArc
 50
181.9998602463671
 51
265.8665213273548
  0
ARC
  5
F8
330
1F
100
AcDbEntity
  8
0
100
AcDbCircle
 10
34.74726524130702
 20
2.561222999999999
 30
0.0
 40
0.3937004024297452
100
AcDbArc
 50
274.1333335196275
 51
358.0001397536328
  0
ARC
  5
F9
330
1F
100
AcDbEntity
  8
0
100
AcDbCircle
 10
49.40762924130701
 20
0.3543309999999997
 30
0.0
 40
0.0393699916941807
100
AcDbArc
 50
270.0
 51
357.9999892320164
  0
ARC
  5
FA
330
1F
100
AcDbEntity
  8
0
100
AcDbCircle
 10
36.99699924130701
 20
2.637795999999999
 30
0.0
 40
0.0393699916941817
100
AcDbArc
 50
2.00001076798396
 51
90.0
  0
ARC
  5
FB
330
1F
100
AcDbEntity
  8
0
100
AcDbCircle
 10
35.183274241307
 20
2.637795999999999
 30
0.0
 40
0.0393699916941817
100
AcDbArc
 50
90.0
 51
177.999989232016
  0
ARC
  5
FC
330
1F
100
AcDbEntity
  8
0
100
AcDbCircle
 10
35.89328624130701
 20
0.4461949999999999
 30
0.0
 40
0.44619476470589
100
AcDbArc
 50
208.0725020428957
 51
270.0
  0
LINE
  5
FD
330
1F
100
AcDbEntity
  8
0
100
AcDbLine
 10
24.158249241307
 20
0.3149609999999998
 30
0.0
 11
35.45827424130701
 21
0.7487849999999997
 31
0.0
  0
LINE
  5
FE
330
1F
100
AcDbEntity
  8
0
100
AcDbLine
 10
24.158249241307
 20
0.3149609999999998
 30
0.0
 11
22.755490241307
 21
0.3149609999999998
 31
0.0
  0
LINE
  5
FF
330
1F
100
AcDbEntity
  8
0
100
AcDbLine
 10
49.41999324130703
 20
1.096626
 30
0.0
 11
49.446975241307
 21
0.352957
 31
0.0
  0
LINE
  5
100
330
1F
100
AcDbEntity
  8
0
100
AcDbLine
 10
37.40463021536485
 20
2.168546641029288
 30
0.0
 11
49.41999324130703
 21
1.096626
 31
0.0
  0
POLYLINE
  5
101
330
1F
100
AcDbEntity
  8
0
100
AcDb2dPolyline
 66
     1
 10
0.0
 20
0.0
 30
0.0
  0
VERTEX
  5
102
330
101
100
AcDbEntity
  8
0
100
AcDbVertex
100
AcDb2dVertex
 10
35.24312124130702
 20
1.929766
 30
0.0
  0
VERTEX
  5
103
330
101
100
AcDbEntity
  8
0
100
AcDbVertex
100
AcDb2dVertex
 10
35.13064744385633
 20
1.937676986571137
 30
0.0
  0
VERTEX
  5
104
330
101
100
AcDbEntity
  8
0
100
AcDbVertex
100
AcDb2dVertex
 10
35.01793373139157
 20
1.943327691264807
 30
0.0
  0
VERTEX
  5
105
330
101
100
AcDbEntity
  8
0
100
AcDbVertex
100
AcDb2dVertex
 10
34.90498010391269
 20
1.946718114081008
 30
0.0
  0
VERTEX
  5
106
330
101
100
AcDbEntity
  8
0
100
AcDbVertex
100
AcDb2dVertex
 10
34.79178656141974
 20
1.947848255019742
 30
0.0
  0
VERTEX
  5
107
330
101
100
AcDbEntity
  8
0
100
AcDbVertex
100
AcDb2dVertex
 10
34.67835310391271
 20
1.946718114081008
 30
0.0
  0
VERTEX
  5
108
330
101
100
AcDbEntity
  8
0
100
AcDbVertex
100
AcDb2dVertex
 10
34.56467973139158
 20
1.943327691264807
 30
0.0
  0
VERTEX
  5
109
330
101
100
AcDbEntity
  8
0
100
AcDbVertex
100
AcDb2dVertex
 10
34.45076644385634
 20
1.937676986571137
 30
0.0
  0
VERTEX
  5
10A
330
101
100
AcDbEntity
  8
0
100
AcDbVertex
100
AcDb2dVertex
 10
22.71142763032702
 20
1.010005048988
 30
0.0
  0
SEQEND
  5
10B
330
101
100
AcDbEntity
  8
0
  0
POLYLINE
  5
10C
330
1F
100
AcDbEntity
  8
0
100
AcDb2dPolyline
 66
     1
 10
0.0
 20
0.0
 30
0.0
  0
VERTEX
  5
10D
330
10C
100
AcDbEntity
  8
0
100
AcDbVertex
100
AcDb2dVertex
 10
36.93715124130702
 20
1.929766
 30
0.0
  0
VERTEX
  5
10E
330
10C
100
AcDbEntity
  8
0
100
AcDbVertex
100
AcDb2dVertex
 10
37.04962503875768
 20
1.937676986571137
 30
0.0
  0
VERTEX
  5
10F
330
10C
100
AcDbEntity
  8
0
100
AcDbVertex
100
AcDb2dVertex
 10
37.16233875122245
 20
1.943327691264807
 30
0.0
  0
VERTEX
  5
110
330
10C
100
AcDbEntity
  8
0
100
AcDbVertex
100
AcDb2dVertex
 10
37.27529237870132
 20
1.946718114081008
 30
0.0
  0
VERTEX
  5
111
330
10C
100
AcDbEntity
  8
0
100
AcDbVertex
100
AcDb2dVertex
 10
37.38848592119427
 20
1.947848255019742
 30
0.0
  0
VERTEX
  5
112
330
10C
100
AcDbEntity
  8
0
100
AcDbVertex
100
AcDb2dVertex
 10
37.50191937870133
 20
1.946718114081008
 30
0.0
  0
VERTEX
  5
113
330
10C
100
AcDbEntity
  8
0
100
AcDbVertex
100
AcDb2dVertex
 10
37.61559275122247
 20
1.943327691264807
 30
0.0
  0
VERTEX
  5
114
330
10C
100
AcDbEntity
  8
0
100
AcDbVertex
100
AcDb2dVertex
 10
37.72950603875771
 20
1.937676986571137
 30
0.0
  0
VERTEX
  5
115
330
10C
100
AcDbEntity
  8
0
100
AcDbVertex
100
AcDb2dVertex
 10
49.46884485228699
 20
1.010005048988
 30
0.0
  0
SEQEND
  5
116
330
10C
100
AcDbEntity
  8
0
  0
LINE
  5
117
330
1F
100
AcDbEntity
  8
0
100
AcDbLine
 10
22.76027924130699
 20
1.096626
 30
0.0
 11
22.73329724130701
 21
0.352957
 31
0.0
  0
LINE
  5
118
330
1F
100
AcDbEntity
  8
0
100
AcDbLine
 10
34.7756422672492
 20
2.168546641029288
 30
0.0
 11
22.76027924130699
 21
1.096626
 31
0.0
  0
ARC
  5
119
330
1F
100
AcDbEntity
  8
0
100
AcDbCircle
 10
23.54289224130702
 20
0.4461949999999999
 30
0.0
 40
0.4461943235296068
100
AcDbArc
 50
270.0
 51
331.9274375287828
  0
LINE
  5
11A
330
1F
100
AcDbEntity
  8
0
100
AcDbLine
 10
35.49958524130702
 20
0.236221
 30
0.0
 11
36.68068724130703
 21
0.236221
 31
0.0
  0
LINE
  5
11B
330
1F
100
AcDbEntity
  8
0
100
AcDbLine
 10
48.243680241307
 20
0.236221
 30
0.0
 11
48.243680241307
 21
0.3149609999999998
 31
0.0
  0
LINE
  5
11C
330
1F
100
AcDbEntity
  8
0
100
AcDbLine
 10
48.63738624130701
 20
0.0
 30
0.0
 11
49.03107624130701
 21
0.0
 31
0.0
  0
LINE
  5
11D
330
1F
100
AcDbEntity
  8
0
100
AcDbLine
 10
36.68068724130703
 20
0.3149609999999998
 30
0.0
 11
35.49958524130702
 21
0.3149609999999998
 31
0.0
  0
ARC
  5
11E
330
1F
100
AcDbEntity
  8
0
100
AcDbCircle
 10
49.03108124130702
 20
0.4461949999999999
 30
0.0
 40
0.44619476470589
100
AcDbArc
 50
270.0
 51
331.9274979571042
  0
LINE
  5
11F
330
1F
100
AcDbEntity
  8
0
100
AcDbLine
 10
22.755490241307
 20
0.236221
 30
0.0
 11
22.755490241307
 21
0.3149609999999998
 31
0.0
  0
LINE
  5
120
330
1F
100
AcDbEntity
  8
0
100
AcDbLine
 10
48.02202324130701
 20
0.3149609999999998
 30
0.0
 11
49.42478224130701
 21
0.3149609999999998
 31
0.0
  0
SPLINE
  5
121
330
1F
100
AcDbEntity
  8
0
370
    -3
100
AcDbSpline
210
0.0
220
0.0
230
1.0
 70
    12
 71
     2
 72
     6
 73
     3
 74
     0
 42
0.000000001
 43
0.0000000001
 40
-0.7853981633974483
 40
-0.7853981633974483
 40
-0.7853981633974483
 40
0.0
 40
0.0
 40
0.0
 10
-3.5
 20
15.53909743751821
 30
0.0
 41
1.0
 10
-3.499999999999978
 20
15.56090713120088
 30
0.0
 41
0.7071067811865476
 10
-3.0
 20
15.56090713120088
 30
0.0
 41
1.0
  0
SPLINE
  5
122
330
1F
100
AcDbEntity
  8
0
370
    -3
100
AcDbSpline
210
0.0
220
0.0
230
1.0
 70
    24
 71
     2
 72
     6
 73
     3
 74
     0
 42
0.000000001
 43
0.0000000001
 40
0.0
 40
0.0
 40
0.0
 40
6.0
 40
6.0
 40
6.0
 10
-3.0
 20
15.56090713120088
 30
0.0
 10
0.0
 20
15.56090713120088
 30
0.0
 10
3.0
 20
15.56090713120088
 30
0.0
  0
SPLINE
  5
123
330
1F
100
AcDbEntity
  8
0
370
    -3
100
AcDbSpline
210
0.0
220
0.0
230
1.0
 70
    12
 71
     2
 72
     6
 73
     3
 74
     0
 42
0.000000001
 43
0.0000000001
 40
6.0
 40
6.0
 40
6.0
 40
6.785398163397448
 40
6.785398163397448
 40
6.785398163397448
 10
3.0
 20
15.56090713120088
 30
0.0
 41
1.0
 10
3.499999999999989
 20
15.56090713120088
 30
0.0
 41
0.7071067811865472
 10
3.5
 20
15.53909743751821
 30
0.0
 41
1.0
  0
SPLINE
  5
124
330
1F
100
AcDbEntity
  8
0
370
    -3
100
AcDbSpline
210
0.0
220
0.0
230
1.0
 70
    24
 71
     2
 72
     6
 73
     3
 74
     0
 42
0.000000001
 43
0.0000000001
 40
4.500702707071513
 40
4.500702707071513
 40
4.500702707071513
 40
6.0
 40
6.0
 40
6.0
 10
-1.500702707071497
 20
15.11380841070616
 30
0.0
 10
-2.250351353535748
 20
15.11380841070616
 30
0.0
 10
-3.0
 20
15.11380841070616
 30
0.0
  0
SPLINE
  5
125
330
1F
100
AcDbEntity
  8
0
370
    -3
100
AcDbSpline
210
0.0
220
0.0
230
1.0
 70
    12
 71
     2
 72
     6
 73
     3
 74
     0
 42
0.000000001
 43
0.0000000001
 40
6.0
 40
6.0
 40
6.0
 40
6.785398163397448
 40
6.785398163397448
 40
6.785398163397448
 10
-3.0
 20
15.11380841070616
 30
0.0
 41
1.0
 10
-3.499999999999989
 20
15.11380841070616
 30
0.0
 41
0.7071067811865472
 10
-3.5
 20
15.13561810438883
 30
0.0
 41
1.0
  0
SPLINE
  5
126
330
1F
100
AcDbEntity
  8
0
370
    -3
100
AcDbSpline
210
0.0
220
0.0
230
1.0
 70
    12
 71
     2
 72
     6
 73
     3
 74
     0
 42
0.000000001
 43
0.0000000001
 40
-0.7853981633974483
 40
-0.7853981633974483
 40
-0.7853981633974483
 40
0.0
 40
0.0
 40
0.0
 10
3.5
 20
15.13561810438883
 30
0.0
 41
1.0
 10
3.499999999999998
 20
15.11380841070616
 30
0.0
 41
0.7071067811865476
 10
3.0
 20
15.11380841070616
 30
0.0
 41
1.0
  0
SPLINE
  5
127
330
1F
100
AcDbEntity
  8
0
370
    -3
100
AcDbSpline
210
0.0
220
0.0
230
1.0
 70
    24
 71
     2
 72
     6
 73
     3
 74
     0
 42
0.000000001
 43
0.0000000001
 40
0.0
 40
0.0
 40
0.0
 40
1.499809118772094
 40
1.499809118772094
 40
1.499809118772094
 10
3.0
 20
15.11380841070616
 30
0.0
 10
2.250095440613961
 20
15.11380841070616
 30
0.0
 10
1.500190881227923
 20
15.11380841070616
 30
0.0
  0
SPLINE
  5
128
330
1F
100
AcDbEntity
  8
0
370
    -3
100
AcDbSpline
210
0.0
220
0.0
230
1.0
 70
     8
 71
     3
 72
    10
 73
     6
 74
     0
 42
0.000000001
 43
0.0000000001
 40
0.5051580329669068
 40
0.5051580329669068
 40
0.5051580329669068
 40
0.5051580329669068
 40
0.5409321705176693
 40
0.5409321705176693
 40
0.554587239864294
 40
0.554587239864294
 40
0.554587239864294
 40
0.554587239864294
 10
31.64180548238608
 20
24.92814037695501
 30
0.0
 10
31.64424573774753
 20
24.65225585848667
 30
0.0
 10
31.6268992659833
 20
24.3861427377191
 30
0.0
 10
31.58139224849083
 20
24.02053332241942
 30
0.0
 10
31.56702317519833
 20
23.92058798441843
 30
0.0
 10
31.55259080453908
 20
23.82067575497185
 30
0.0
  0
SPLINE
  5
129
330
1F
100
AcDbEntity
  8
0
370
    -3
100
AcDbSpline
210
0.0
220
0.0
230
1.0
 70
     8
 71
     3
 72
    12
 73
     8
 74
     0
 42
0.000000001
 43
0.0000000001
 40
0.7524164921522183
 40
0.7524164921522183
 40
0.7524164921522183
 40
0.7524164921522183
 40
0.7810055898892263
 40
0.7810055898892263
 40
0.8108410312666829
 40
0.8108410312666829
 40
0.8227840115123347
 40
0.8227840115123347
 40
0.8227840115123347
 40
0.8227840115123347
 10
30.9390561325188
 20
19.46988147884457
 30
0.0
 10
30.90951322007658
 20
19.26028313192773
 30
0.0
 10
30.88001917015151
 20
19.05078818984608
 30
0.0
 10
30.81880291182918
 20
18.62249730438167
 30
0.0
 10
30.78826275343928
 20
18.40319430573373
 30
0.0
 10
30.74556954242456
 20
18.09725941185047
 30
0.0
 10
30.73314580391283
 20
18.01018194911804
 30
0.0
 10
30.72061713548371
 20
17.92357802889265
 30
0.0
  0
SPLINE
  5
12A
330
1F
100
AcDbEntity
  8
0
370
    -3
100
AcDbSpline
210
0.0
220
0.0
230
1.0
 70
     8
 71
     3
 72
     8
 73
     4
 74
     0
 42
0.000000001
 43
0.0000000001
 40
0.0
 40
0.0
 40
0.0
 40
0.0
 40
0.007771339165942
 40
0.007771339165942
 40
0.007771339165942
 40
0.007771339165942
 10
30.30936014860208
 20
15.23940320434225
 30
0.0
 10
30.30826352115938
 20
15.23909295194058
 30
0.0
 10
30.30716259833514
 20
15.23885087580098
 30
0.0
 10
30.30605889172787
 20
15.23866457052
 30
0.0
  0
SPLINE
  5
12B
330
1F
100
AcDbEntity
  8
0
370
    -3
100
AcDbSpline
210
0.0
220
0.0
230
1.0
 70
     8
 71
     3
 72
    17
 73
    13
 74
     0
 42
0.000000001
 43
0.0000000001
 40
1.108553754375395
 40
1.108553754375395
 40
1.108553754375395
 40
1.108553754375395
 40
1.662972638903822
 40
1.662972638903822
 40
1.662972638903822
 40
2.21710750875079
 40
2.21710750875079
 40
2.21710750875079
 40
2.771242378597758
 40
2.771242378597758
 40
2.771242378597758
 40
3.325661263126185
 40
3.325661263126185
 40
3.325661263126185
 40
3.325661263126185
 10
0.6875983796967944
 20
14.96127040915859
 30
0.0
 10
0.6875983796967944
 20
14.96899916285146
 30
0.0
 10
0.6151890702314518
 20
14.97641391051996
 30
0.0
 10
0.4862054770164832
 20
14.98188183762078
 30
0.0
 10
0.3572896973253137
 20
14.98734688994199
 30
0.0
 10
0.1824104077208517
 20
14.99041937082971
 30
0.0
 10
0.0
 20
14.99041937082971
 30
0.0
 10
-0.1824104077208517
 20
14.99041937082971
 30
0.0
 10
-0.3572896973253137
 20
14.98734688994199
 30
0.0
 10
-0.4862054770164832
 20
14.98188183762079
 30
0.0
 10
-0.6151890702314518
 20
14.97641391051996
 30
0.0
 10
-0.6875983796967944
 20
14.96899916285146
 30
0.0
 10
-0.6875983796967944
 20
14.96127040915859
 30
0.0
  0
POLYLINE
  5
12C
330
1F
100
AcDbEntity
  8
0
370
    -3
100
AcDb2dPolyline
 66
     1
 10
0.0
 20
0.0
 30
0.0
  0
VERTEX
  5
12D
330
12C
100
AcDbEntity
  8
0
370
    -3
100
AcDbVertex
100
AcDb2dVertex
 10
-0.6875983796967944
 20
14.96127040915859
 30
0.0
  0
VERTEX
  5
12E
330
12C
100
AcDbEntity
  8
0
370
    -3
100
AcDbVertex
100
AcDb2dVertex
 10
-0.6875983796967944
 20
13.90629806294814
 30
0.0
  0
VERTEX
  5
12F
330
12C
100
AcDbEntity
  8
0
370
    -3
100
AcDbVertex
100
AcDb2dVertex
 10
0.6875983796967944
 20
13.90629806294814
 30
0.0
  0
VERTEX
  5
130
330
12C
100
AcDbEntity
  8
0
370
    -3
100
AcDbVertex
100
AcDb2dVertex
 10
0.6875983796967944
 20
14.96127040915859
 30
0.0
  0
SEQEND
  5
131
330
12C
100
AcDbEntity
  8
0
370
    -3
  0
POLYLINE
  5
132
330
1F
100
AcDbEntity
  8
0
370
    -3
100
AcDb2dPolyline
 66
     1
 10
0.0
 20
0.0
 30
0.0
 70
     1
  0
VERTEX
  5
133
330
132
100
AcDbEntity
  8
0
370
    -3
100
AcDbVertex
100
AcDb2dVertex
 10
-0.5511811023621931
 20
13.90629806294814
 30
0.0
  0
VERTEX
  5
134
330
132
100
AcDbEntity
  8
0
370
    -3
100
AcDbVertex
100
AcDb2dVertex
 10
0.5511811023622215
 20
13.90629806294814
 30
0.0
  0
VERTEX
  5
135
330
132
100
AcDbEntity
  8
0
370
    -3
100
AcDbVertex
100
AcDb2dVertex
 10
0.5511811023622215
 20
13.38582295505426
 30
0.0
  0
VERTEX
  5
136
330
132
100
AcDbEntity
  8
0
370
    -3
100
AcDbVertex
100
AcDb2dVertex
 10
-0.5511811023621931
 20
13.38582295505426
 30
0.0
  0
SEQEND
  5
137
330
132
100
AcDbEntity
  8
0
370
    -3
  0
POLYLINE
  5
138
330
1F
100
AcDbEntity
  8
0
100
AcDb2dPolyline
 66
     1
 10
0.0
 20
0.0
 30
0.0
  0
VERTEX
  5
139
330
138
100
AcDbEntity
  8
0
100
AcDbVertex
100
AcDb2dVertex
 10
-3.5
 20
15.78885949291368
 30
0.0
  0
VERTEX
  5
13A
330
138
100
AcDbEntity
  8
0
100
AcDbVertex
100
AcDb2dVertex
 10
-3.5
 20
15.13561810438883
 30
0.0
  0
SEQEND
  5
13B
330
138
100
AcDbEntity
  8
0
  0
POLYLINE
  5
13C
330
1F
100
AcDbEntity
  8
0
100
AcDb2dPolyline
 66
     1
 10
0.0
 20
0.0
 30
0.0
  0
VERTEX
  5
13D
330
13C
100
AcDbEntity
  8
0
100
AcDbVertex
100
AcDb2dVertex
 10
3.5
 20
15.78885949291368
 30
0.0
  0
VERTEX
  5
13E
330
13C
100
AcDbEntity
  8
0
100
AcDbVertex
100
AcDb2dVertex
 10
3.5
 20
15.13561810438883
 30
0.0
  0
SEQEND
  5
13F
330
13C
100
AcDbEntity
  8
0
  0
POLYLINE
  5
140
330
1F
100
AcDbEntity
  8
0
100
AcDb2dPolyline
 66
     1
 10
0.0
 20
0.0
 30
0.0
  0
VERTEX
  5
141
330
140
100
AcDbEntity
  8
0
100
AcDbVertex
100
AcDb2dVertex
 10
-1.5
 20
15.38112389908021
 30
0.0
  0
VERTEX
  5
142
330
140
100
AcDbEntity
  8
0
100
AcDbVertex
100
AcDb2dVertex
 10
-1.5
 20
14.70358377331474
 30
0.0
  0
SEQEND
  5
143
330
140
100
AcDbEntity
  8
0
  0
POLYLINE
  5
144
330
1F
100
AcDbEntity
  8
0
100
AcDb2dPolyline
 66
     1
 10
0.0
 20
0.0
 30
0.0
  0
VERTEX
  5
145
330
144
100
AcDbEntity
  8
0
100
AcDbVertex
100
AcDb2dVertex
 10
1.5
 20
14.70358377331474
 30
0.0
  0
VERTEX
  5
146
330
144
100
AcDbEntity
  8
0
100
AcDbVertex
100
AcDb2dVertex
 10
1.5
 20
15.38112389908021
 30
0.0
  0
SEQEND
  5
147
330
144
100
AcDbEntity
  8
0
  0
SPLINE
  5
148
330
1F
100
AcDbEntity
  8
0
370
    -3
100
AcDbSpline
210
0.0
220
0.0
230
1.0
 70
    12
 71
     2
 72
     6
 73
     3
 74
     0
 42
0.000000001
 43
0.0000000001
 40
-0.7853981633974483
 40
-0.7853981633974483
 40
-0.7853981633974483
 40
0.0
 40
0.0
 40
0.0
 10
3.5
 20
15.78885949291368
 30
0.0
 41
1.0
 10
3.499999999999998
 20
15.81066918659635
 30
0.0
 41
0.7071067811865476
 10
3.0
 20
15.81066918659635
 30
0.0
 41
1.0
  0
POLYLINE
  5
149
330
1F
100
AcDbEntity
  8
0
370
    -3
100
AcDb2dPolyline
 66
     1
 10
0.0
 20
0.0
 30
0.0
  0
VERTEX
  5
14A
330
149
100
AcDbEntity
  8
0
370
    -3
100
AcDbVertex
100
AcDb2dVertex
 10
3.0
 20
15.81066918659635
 30
0.0
  0
VERTEX
  5
14B
330
149
100
AcDbEntity
  8
0
370
    -3
100
AcDbVertex
100
AcDb2dVertex
 10
-3.0
 20
15.81066918659635
 30
0.0
  0
SEQEND
  5
14C
330
149
100
AcDbEntity
  8
0
370
    -3
  0
SPLINE
  5
14D
330
1F
100
AcDbEntity
  8
0
370
    -3
100
AcDbSpline
210
0.0
220
0.0
230
1.0
 70
    12
 71
     2
 72
     6
 73
     3
 74
     0
 42
0.000000001
 43
0.0000000001
 40
6.0
 40
6.0
 40
6.0
 40
6.785398163397448
 40
6.785398163397448
 40
6.785398163397448
 10
-3.0
 20
15.81066918659635
 30
0.0
 41
1.0
 10
-3.499999999999989
 20
15.81066918659634
 30
0.0
 41
0.7071067811865472
 10
-3.5
 20
15.78885949291368
 30
0.0
 41
1.0
  0
SPLINE
  5
14E
330
1F
100
AcDbEntity
  8
0
370
    -3
100
AcDbSpline
210
0.0
220
0.0
230
1.0
 70
     8
 71
     3
 72
     8
 73
     4
 74
     0
 42
0.000000001
 43
0.0000000001
 40
0.0133895779120832
 40
0.0133895779120832
 40
0.0133895779120832
 40
0.0133895779120832
 40
1.0
 40
1.0
 40
1.0
 40
1.0
 10
-12.46906507480978
 20
25.35354373668616
 30
0.0
 10
-12.51457186077931
 20
25.32816219918035
 30
0.0
 10
-12.44954111278304
 20
25.1194499539537
 30
0.0
 10
-12.29872742732243
 20
24.81492326793622
 30
0.0
  0
SPLINE
  5
14F
330
1F
100
AcDbEntity
  8
0
370
    -3
100
AcDbSpline
210
0.0
220
0.0
230
1.0
 70
     8
 71
     3
 72
    14
 73
    10
 74
     0
 42
0.000000001
 43
0.0000000001
 40
1.0
 40
1.0
 40
1.0
 40
1.0
 40
1.223651967937328
 40
1.223651967937328
 40
1.335477951905992
 40
1.335477951905992
 40
1.391390943890324
 40
1.391390943890324
 40
1.447303935874656
 40
1.447303935874656
 40
1.447303935874656
 40
1.447303935874656
 10
-12.29872742732243
 20
24.81492326793622
 30
0.0
 10
-11.79310401801931
 20
23.79383903105268
 30
0.0
 10
-11.25875146058286
 20
22.76502794023047
 30
0.0
 10
-10.43727331368376
 20
21.25594193445674
 30
0.0
 10
-10.16023797671465
 20
20.75858250370431
 30
0.0
 10
-9.743566867964034
 20
20.02675302530931
 30
0.0
 10
-9.60447217771818
 20
19.7851341793587
 30
0.0
 10
-9.326378095050643
 20
19.30713926613835
 30
0.0
 10
-9.187455986468962
 20
19.07090700940398
 30
0.0
 10
-9.049999999999528
 20
18.83976386211815
 30
0.0
  0
SPLINE
  5
150
330
1F
100
AcDbEntity
  8
0
370
    -3
100
AcDbSpline
210
0.0
220
0.0
230
1.0
 70
     8
 71
     3
 72
    10
 73
     6
 74
     0
 42
0.000000001
 43
0.0000000001
 40
1.447303935874656
 40
1.447303935874656
 40
1.447303935874656
 40
1.447303935874656
 40
2.447303935874657
 40
3.447303935874657
 40
4.447303935874657
 40
4.447303935874657
 40
4.447303935874657
 40
4.447303935874657
 10
-9.049999999999528
 20
18.83976386211815
 30
0.0
 10
-8.902302559307458
 20
18.60025273598173
 30
0.0
 10
-8.637303808631458
 20
18.08354327287281
 30
0.0
 10
-7.892418025543606
 20
17.60802736445211
 30
0.0
 10
-7.3089714428516
 20
17.60023373328327
 30
0.0
 10
-7.030000000000086
 20
17.56583263324952
 30
0.0
  0
SPLINE
  5
151
330
1F
100
AcDbEntity
  8
0
370
    -3
100
AcDbSpline
210
0.0
220
0.0
230
1.0
 70
     8
 71
     3
 72
    16
 73
    12
 74
     0
 42
0.000000001
 43
0.0000000001
 40
4.447303935874657
 40
4.447303935874657
 40
4.447303935874657
 40
4.447303935874657
 40
6.211118999932441
 40
7.093026531959942
 40
7.974934063989887
 40
8.856841596017388
 40
9.738749128044887
 40
10.17970289405986
 40
10.62065666007483
 40
11.06161042608736
 40
11.50256419209417
 40
11.50256419209417
 40
11.50256419209417
 40
11.50256419209417
 10
-7.030000000000086
 20
17.56583263324952
 30
0.0
 10
-6.714982770600585
 20
17.53675799683107
 30
0.0
 10
-6.165933424241786
 20
17.48868354187683
 30
0.0
 10
-5.32496132319605
 20
17.42538977349608
 30
0.0
 10
-4.583670170311393
 20
17.37596804196915
 30
0.0
 10
-3.648530416989786
 20
17.32392564073061
 30
0.0
 10
-2.717706923230082
 20
17.28492686662633
 30
0.0
 10
-1.883636803864704
 20
17.26048635331151
 30
0.0
 10
-1.236240753616784
 20
17.24708404730591
 30
0.0
 10
-0.5945475906175375
 20
17.23940522938442
 30
0.0
 10
-0.1944779843421145
 20
17.23793322771527
 30
0.0
 10
0.0
 20
17.23793322771504
 30
0.0
  0
SPLINE
  5
152
330
1F
100
AcDbEntity
  8
0
370
    -3
100
AcDbSpline
210
0.0
220
0.0
230
1.0
 70
     8
 71
     3
 72
    16
 73
    12
 74
     0
 42
0.000000001
 43
0.0000000001
 40
11.50256419209417
 40
11.50256419209417
 40
11.50256419209417
 40
11.50256419209417
 40
11.94351795810098
 40
12.38447172411351
 40
12.82542549012848
 40
13.26637925614346
 40
14.14828678817095
 40
15.03019432019845
 40
15.9121018522284
 40
16.7940093842559
 40
18.55782444831369
 40
18.55782444831369
 40
18.55782444831369
 40
18.55782444831369
 10
0.0
 20
17.23793322771504
 30
0.0
 10
0.1944779843421145
 20
17.23793322771527
 30
0.0
 10
0.5945475906175375
 20
17.23940522938442
 30
0.0
 10
1.236240753616784
 20
17.24708404730591
 30
0.0
 10
1.883636803864732
 20
17.26048635331151
 30
0.0
 10
2.717706923230082
 20
17.28492686662634
 30
0.0
 10
3.648530416989786
 20
17.32392564073062
 30
0.0
 10
4.583670170311393
 20
17.37596804196917
 30
0.0
 10
5.324961323196021
 20
17.4253897734961
 30
0.0
 10
6.165933424241757
 20
17.48868354187686
 30
0.0
 10
6.714982770600557
 20
17.5367579968311
 30
0.0
 10
7.030000000000058
 20
17.56583263324956
 30
0.0
  0
SPLINE
  5
153
330
1F
100
AcDbEntity
  8
0
370
    -3
100
AcDbSpline
210
0.0
220
0.0
230
1.0
 70
     8
 71
     3
 72
    10
 73
     6
 74
     0
 42
0.000000001
 43
0.0000000001
 40
18.55782444831369
 40
18.55782444831369
 40
18.55782444831369
 40
18.55782444831369
 40
19.55782444831369
 40
20.55782444831369
 40
21.55782444831369
 40
21.55782444831369
 40
21.55782444831369
 40
21.55782444831369
 10
7.030000000000058
 20
17.56583263324956
 30
0.0
 10
7.308997117038928
 20
17.60013965619892
 30
0.0
 10
7.89229833813539
 20
17.60847059822194
 30
0.0
 10
8.637347932725618
 20
18.08340238874374
 30
0.0
 10
8.90229536687039
 20
18.60028094911898
 30
0.0
 10
9.049999999999557
 20
18.83976386211822
 30
0.0
  0
SPLINE
  5
154
330
1F
100
AcDbEntity
  8
0
370
    -3
100
AcDbSpline
210
0.0
220
0.0
230
1.0
 70
     8
 71
     3
 72
    14
 73
    10
 74
     0
 42
0.000000001
 43
0.0000000001
 40
21.55782444831369
 40
21.55782444831369
 40
21.55782444831369
 40
21.55782444831369
 40
21.61373744029802
 40
21.61373744029802
 40
21.66965043228235
 40
21.66965043228235
 40
21.78147641625101
 40
21.78147641625101
 40
22.00512838418834
 40
22.00512838418834
 40
22.00512838418834
 40
22.00512838418834
 10
9.049999999999557
 20
18.83976386211822
 30
0.0
 10
9.18745598646899
 20
19.07090700940405
 30
0.0
 10
9.326378095050643
 20
19.3071392661384
 30
0.0
 10
9.60447217771818
 20
19.78513417935873
 30
0.0
 10
9.743566867964034
 20
20.02675302530933
 30
0.0
 10
10.16023797671463
 20
20.75858250370429
 30
0.0
 10
10.43727331368376
 20
21.25594193445669
 30
0.0
 10
11.2587514605828
 20
22.76502794023033
 30
0.0
 10
11.79310401801922
 20
23.7938390310525
 30
0.0
 10
12.29872742732235
 20
24.81492326793598
 30
0.0
  0
SPLINE
  5
155
330
1F
100
AcDbEntity
  8
0
370
    -3
100
AcDbSpline
210
0.0
220
0.0
230
1.0
 70
     8
 71
     3
 72
     8
 73
     4
 74
     0
 42
0.000000001
 43
0.0000000001
 40
22.00512838418834
 40
22.00512838418834
 40
22.00512838418834
 40
22.00512838418834
 40
22.99173880685026
 40
22.99173880685026
 40
22.99173880685026
 40
22.99173880685026
 10
12.29872742732235
 20
24.81492326793598
 30
0.0
 10
12.44954111953865
 20
25.11944996759477
 30
0.0
 10
12.51457186314971
 20
25.3281621988944
 30
0.0
 10
12.46906507481896
 20
25.35354373670199
 30
0.0
  0
SPLINE
  5
156
330
1F
100
AcDbEntity
  8
0
370
    -3
100
AcDbSpline
210
0.0
220
0.0
230
1.0
 70
     8
 71
     3
 72
    25
 73
    21
 74
     0
 42
0.000000001
 43
0.0000000001
 40
0.0
 40
0.0
 40
0.0
 40
0.0
 40
1.0
 40
2.0
 40
3.0
 40
4.0
 40
5.0
 40
6.0
 40
7.0
 40
8.0
 40
9.0
 40
10.0
 40
11.0
 40
12.0
 40
13.0
 40
14.0
 40
15.0
 40
16.0
 40
17.0
 40
18.0
 40
18.0
 40
18.0
 40
18.0
 10
7.773490377473252
 20
17.65965693922882
 30
0.0
 10
7.881432472683628
 20
17.78500639348906
 30
0.0
 10
8.064518618989098
 20
18.0623833947834
 30
0.0
 10
8.262151081286788
 20
18.51804679705058
 30
0.0
 10
8.444534657290887
 20
18.97900029592468
 30
0.0
 10
8.629945469333421
 20
19.43896505615469
 30
0.0
 10
8.814545136893287
 20
19.89919474655481
 30
0.0
 10
8.999362146345476
 20
20.35935345491862
 30
0.0
 10
9.18412093271104
 20
20.81953116125759
 30
0.0
 10
9.368895269530725
 20
21.27970385773219
 30
0.0
 10
9.553665627620603
 20
21.73987759568916
 30
0.0
 10
9.738436350175533
 20
22.20005217758096
 30
0.0
 10
9.92320959360012
 20
22.66022234225107
 30
0.0
 10
10.10797238908103
 20
23.1204093318732
 30
0.0
 10
10.29277445546694
 20
23.58053343890882
 30
0.0
 10
10.47742988617659
 20
24.04089225133855
 30
0.0
 10
10.66263258868619
 20
24.50037512477834
 30
0.0
 10
10.84579283967236
 20
24.96312704878376
 30
0.0
 10
11.03657562495229
 20
25.41367870951665
 30
0.0
 10
11.17929201570641
 20
25.72975379752004
 30
0.0
 10
11.32124289444613
 20
25.80901933033906
 30
0.0
  0
SPLINE
  5
157
330
1F
100
AcDbEntity
  8
0
370
    -3
100
AcDbSpline
210
0.0
220
0.0
230
1.0
 70
     8
 71
     3
 72
    13
 73
     9
 74
     0
 42
0.000000001
 43
0.0000000001
 40
18.0
 40
18.0
 40
18.0
 40
18.0
 40
19.0
 40
20.0
 40
21.0
 40
22.0
 40
23.0
 40
24.0
 40
24.0
 40
24.0
 40
24.0
 10
11.32124289444613
 20
25.80901933033906
 30
0.0
 10
11.44963849528324
 20
25.76058015227436
 30
0.0
 10
11.70664023235105
 20
25.66379178396732
 30
0.0
 10
12.08750373689651
 20
25.50817819748201
 30
0.0
 10
12.47529068022442
 20
25.36575679875794
 30
0.0
 10
12.82714312737346
 20
25.14926210790897
 30
0.0
 10
13.18869938110677
 20
24.95278144946996
 30
0.0
 10
13.42768021968894
 20
24.8175620757883
 30
0.0
 10
13.54756397713257
 20
24.75076665688842
 30
0.0
  0
SPLINE
  5
158
330
1F
100
AcDbEntity
  8
0
370
    -3
100
AcDbSpline
210
0.0
220
0.0
230
1.0
 70
     8
 71
     3
 72
     8
 73
     4
 74
     0
 42
0.000000001
 43
0.0000000001
 40
24.0
 40
24.0
 40
24.0
 40
24.0
 40
25.0
 40
25.0
 40
25.0
 40
25.0
 10
13.54756397713257
 20
24.75076665688842
 30
0.0
 10
13.59176555079432
 20
24.72289792387047
 30
0.0
 10
13.52936911671725
 20
24.51859446665808
 30
0.0
 10
13.38360069893906
 20
24.22149630004631
 30
0.0
  0
SPLINE
  5
159
330
1F
100
AcDbEntity
  8
0
370
    -3
100
AcDbSpline
210
0.0
220
0.0
230
1.0
 70
     8
 71
     3
 72
    10
 73
     6
 74
     0
 42
0.000000001
 43
0.0000000001
 40
25.0
 40
25.0
 40
25.0
 40
25.0
 40
25.5
 40
25.5
 40
26.0
 40
26.0
 40
26.0
 40
26.0
 10
13.38360069893906
 20
24.22149630004631
 30
0.0
 10
12.83839223972529
 20
23.11046576234136
 30
0.0
 10
12.23639714855531
 20
21.94885587081525
 30
0.0
 10
11.0426988489688
 20
19.77225470219141
 30
0.0
 10
10.45215425221448
 20
18.7561982102258
 30
0.0
 10
9.948000000000292
 20
17.91957646236964
 30
0.0
  0
SPLINE
  5
15A
330
1F
100
AcDbEntity
  8
0
370
    -3
100
AcDbSpline
210
0.0
220
0.0
230
1.0
 70
     8
 71
     3
 72
    10
 73
     6
 74
     0
 42
0.000000001
 43
0.0000000001
 40
26.0
 40
26.0
 40
26.0
 40
26.0
 40
27.0
 40
28.0
 40
29.0
 40
29.0
 40
29.0
 40
29.0
 10
9.948000000000292
 20
17.91957646236964
 30
0.0
 10
9.787142344592667
 20
17.6529901807743
 30
0.0
 10
9.427418085481861
 20
17.13678857619671
 30
0.0
 10
8.66749170863531
 20
16.56429957685569
 30
0.0
 10
8.051445058124727
 20
16.4069108067193
 30
0.0
 10
7.74175000000028
 20
16.37621818445545
 30
0.0
  0
SPLINE
  5
15B
330
1F
100
AcDbEntity
  8
0
370
    -3
100
AcDbSpline
210
0.0
220
0.0
230
1.0
 70
     8
 71
     3
 72
    12
 73
     8
 74
     0
 42
0.000000001
 43
0.0000000001
 40
29.0
 40
29.0
 40
29.0
 40
29.0
 40
29.09272411080145
 40
29.1390861662021
 40
29.18544822160284
 40
29.27817233240424
 40
29.37089644320607
 40
29.37089644320607
 40
29.37089644320607
 40
29.37089644320607
 10
7.74175000000028
 20
16.37621818445545
 30
0.0
 10
7.247991745761709
 20
16.32657054158785
 30
0.0
 10
6.394338978593026
 20
16.24812545102623
 30
0.0
 10
5.113395972957221
 20
16.15532126145881
 30
0.0
 10
3.766494566923569
 20
16.07481300528549
 30
0.0
 10
2.013947952988218
 20
16.00555085465313
 30
0.0
 10
0.6470830056551904
 20
15.98905861372765
 30
0.0
 10
0.0
 20
15.98905861372767
 30
0.0
  0
SPLINE
  5
15C
330
1F
100
AcDbEntity
  8
0
370
    -3
100
AcDbSpline
210
0.0
220
0.0
230
1.0
 70
     8
 71
     3
 72
    12
 73
     8
 74
     0
 42
0.000000001
 43
0.0000000001
 40
29.37089644320607
 40
29.37089644320607
 40
29.37089644320607
 40
29.37089644320607
 40
29.46362055400791
 40
29.55634466480931
 40
29.60270672021005
 40
29.6490687756107
 40
29.74179288641215
 40
29.74179288641215
 40
29.74179288641215
 40
29.74179288641215
 10
0.0
 20
15.98905861372767
 30
0.0
 10
-0.6470830056551904
 20
15.98905861372765
 30
0.0
 10
-2.013947952988218
 20
16.00555085465312
 30
0.0
 10
-3.766494566923569
 20
16.0748130052855
 30
0.0
 10
-5.113395972957221
 20
16.15532126145882
 30
0.0
 10
-6.394338978593055
 20
16.24812545102624
 30
0.0
 10
-7.247991745761738
 20
16.32657054158787
 30
0.0
 10
-7.741750000000309
 20
16.37621818445548
 30
0.0
  0
SPLINE
  5
15D
330
1F
100
AcDbEntity
  8
0
370
    -3
100
AcDbSpline
210
0.0
220
0.0
230
1.0
 70
     8
 71
     3
 72
    10
 73
     6
 74
     0
 42
0.000000001
 43
0.0000000001
 40
29.74179288641215
 40
29.74179288641215
 40
29.74179288641215
 40
29.74179288641215
 40
30.74179288641215
 40
31.74179288641215
 40
32.74179288641215
 40
32.74179288641215
 40
32.74179288641215
 40
32.74179288641215
 10
-7.741750000000309
 20
16.37621818445548
 30
0.0
 10
-8.051445007618725
 20
16.40691079384016
 30
0.0
 10
-8.667491754346202
 20
16.56429959759696
 30
0.0
 10
-9.427418047698836
 20
17.13678854517484
 30
0.0
 10
-9.787142353507505
 20
17.65299018862474
 30
0.0
 10
-9.948000000000178
 20
17.91957646236949
 30
0.0
  0
SPLINE
  5
15E
330
1F
100
AcDbEntity
  8
0
370
    -3
100
AcDbSpline
210
0.0
220
0.0
230
1.0
 70
     8
 71
     3
 72
    10
 73
     6
 74
     0
 42
0.000000001
 43
0.0000000001
 40
32.74179288641215
 40
32.74179288641215
 40
32.74179288641215
 40
32.74179288641215
 40
33.24179288641215
 40
33.24179288641215
 40
33.74179288641215
 40
33.74179288641215
 40
33.74179288641215
 40
33.74179288641215
 10
-9.948000000000178
 20
17.91957646236949
 30
0.0
 10
-10.45215425221437
 20
18.75619821022566
 30
0.0
 10
-11.04269884896871
 20
19.7722547021913
 30
0.0
 10
-12.23639714855526
 20
21.9488558708152
 30
0.0
 10
-12.83839223972527
 20
23.11046576234132
 30
0.0
 10
-13.38360069893903
 20
24.22149630004631
 30
0.0
  0
SPLINE
  5
15F
330
1F
100
AcDbEntity
  8
0
370
    -3
100
AcDbSpline
210
0.0
220
0.0
230
1.0
 70
     8
 71
     3
 72
     8
 73
     4
 74
     0
 42
0.000000001
 43
0.0000000001
 40
33.74179288641215
 40
33.74179288641215
 40
33.74179288641215
 40
33.74179288641215
 40
34.74179288641215
 40
34.74179288641215
 40
34.74179288641215
 40
34.74179288641215
 10
-13.38360069893903
 20
24.22149630004631
 30
0.0
 10
-13.52936911724578
 20
24.51859446773533
 30
0.0
 10
-13.59176555095456
 20
24.72289792376943
 30
0.0
 10
-13.54756397713254
 20
24.75076665688842
 30
0.0
  0
SPLINE
  5
160
330
1F
100
AcDbEntity
  8
0
370
    -3
100
AcDbSpline
210
0.0
220
0.0
230
1.0
 70
     8
 71
     3
 72
    13
 73
     9
 74
     0
 42
0.000000001
 43
0.0000000001
 40
34.74179288641215
 40
34.74179288641215
 40
34.74179288641215
 40
34.74179288641215
 40
35.74179288641215
 40
36.74179288641215
 40
37.74179288641215
 40
38.74179288641215
 40
39.74179288641215
 40
40.74179288641215
 40
40.74179288641215
 40
40.74179288641215
 40
40.74179288641215
 10
-13.54756397713254
 20
24.75076665688842
 30
0.0
 10
-13.42768021968894
 20
24.8175620757883
 30
0.0
 10
-13.18869938110677
 20
24.95278144946996
 30
0.0
 10
-12.82714312737346
 20
25.14926210790897
 30
0.0
 10
-12.47529068022442
 20
25.36575679875794
 30
0.0
 10
-12.08750373689651
 20
25.50817819748201
 30
0.0
 10
-11.70664023235105
 20
25.66379178396732
 30
0.0
 10
-11.44963849528324
 20
25.76058015227436
 30
0.0
 10
-11.3212428944461
 20
25.80901933033906
 30
0.0
  0
SPLINE
  5
161
330
1F
100
AcDbEntity
  8
0
370
    -3
100
AcDbSpline
210
0.0
220
0.0
230
1.0
 70
     8
 71
     3
 72
    25
 73
    21
 74
     0
 42
0.000000001
 43
0.0000000001
 40
40.74179288641215
 40
40.74179288641215
 40
40.74179288641215
 40
40.74179288641215
 40
41.74179288641215
 40
42.74179288641215
 40
43.74179288641215
 40
44.74179288641215
 40
45.74179288641215
 40
46.74179288641215
 40
47.74179288641215
 40
48.74179288641215
 40
49.74179288641215
 40
50.74179288641215
 40
51.74179288641215
 40
52.74179288641215
 40
53.74179288641215
 40
54.74179288641215
 40
55.74179288641215
 40
56.74179288641215
 40
57.74179288641215
 40
58.74179288641215
 40
58.74179288641215
 40
58.74179288641215
 40
58.74179288641215
 10
-11.3212428944461
 20
25.80901933033906
 30
0.0
 10
-11.17928813927591
 20
25.72974755410494
 30
0.0
 10
-11.03656610043956
 20
25.41366131275222
 30
0.0
 10
-10.8457787768333
 20
24.96309033065347
 30
0.0
 10
-10.6626105903045
 20
24.50032079166328
 30
0.0
 10
-10.47740086246273
 20
24.04081984605067
 30
0.0
 10
-10.29273816279539
 20
23.58044308381916
 30
0.0
 10
-10.10792889174328
 20
23.12030099468572
 30
0.0
 10
-9.923158878055915
 20
22.66009602977889
 30
0.0
 10
-9.738378406294316
 20
22.19990789486761
 30
0.0
 10
-9.553600509464815
 20
21.73971531574742
 30
0.0
 10
-9.368822770981211
 20
21.27952368346734
 30
0.0
 10
-9.184041824181975
 20
20.81933270803578
 30
0.0
 10
-8.999273552299258
 20
20.35913815836994
 30
0.0
 10
-8.814457789066125
 20
19.89895724879268
 30
0.0
 10
-8.629819316318162
 20
19.43872535309549
 30
0.0
 10
-8.444519172979966
 20
18.97868376178939
 30
0.0
 10
-8.261688421517476
 20
18.51793193903887
 30
0.0
 10
-8.065254616166015
 20
18.06160844316687
 30
0.0
 10
-7.880957954183401
 20
17.7849469365516
 30
0.0
 10
-7.773294563219309
 20
17.65940974276958
 30
0.0
  0
SPLINE
  5
162
330
1F
100
AcDbEntity
  8
0
370
    -3
100
AcDbSpline
210
0.0
220
0.0
230
1.0
 70
     8
 71
     3
 72
    22
 73
    18
 74
     0
 42
0.000000001
 43
0.0000000001
 40
0.0
 40
0.0
 40
0.0
 40
0.0
 40
1.0
 40
2.0
 40
3.0
 40
4.0
 40
5.0
 40
6.0
 40
7.0
 40
8.0
 40
9.0
 40
10.0
 40
11.0
 40
12.0
 40
13.0
 40
14.0
 40
15.0
 40
15.0
 40
15.0
 40
15.0
 10
-11.72055091064632
 20
25.65633822410366
 30
0.0
 10
-11.72258869422717
 20
25.87287136872239
 30
0.0
 10
-11.69546706873513
 20
26.30555428681375
 30
0.0
 10
-11.56796660278962
 20
26.94511775024656
 30
0.0
 10
-11.32225719867404
 20
27.54805385905323
 30
0.0
 10
-11.0191773944448
 20
28.12258858923967
 30
0.0
 10
-10.73124512981911
 20
28.70463545949282
 30
0.0
 10
-10.43875331422254
 20
29.28441670897562
 30
0.0
 10
-10.1472916205374
 20
29.86471368853571
 30
0.0
 10
-9.855612862212979
 20
30.44488392513202
 30
0.0
 10
-9.563471939732892
 20
31.02489443414973
 30
0.0
 10
-9.273378889501657
 20
31.60566193192089
 30
0.0
 10
-8.975906136634364
 20
32.18373663309413
 30
0.0
 10
-8.703868393116267
 20
32.77080064858023
 30
0.0
 10
-8.329721165157508
 20
33.3204928596086
 30
0.0
 10
-7.7244881108615
 20
33.59326256878617
 30
0.0
 10
-7.319470605131585
 20
33.7354892924687
 30
0.0
 10
-7.117656237012909
 20
33.81554082223307
 30
0.0
  0
SPLINE
  5
163
330
1F
100
AcDbEntity
  8
0
370
    -3
100
AcDbSpline
210
0.0
220
0.0
230
1.0
 70
     8
 71
     3
 72
    22
 73
    18
 74
     0
 42
0.000000001
 43
0.0000000001
 40
0.0
 40
0.0
 40
0.0
 40
0.0
 40
1.0
 40
2.0
 40
3.0
 40
4.0
 40
5.0
 40
6.0
 40
7.0
 40
8.0
 40
9.0
 40
10.0
 40
11.0
 40
12.0
 40
13.0
 40
14.0
 40
15.0
 40
15.0
 40
15.0
 40
15.0
 10
-10.82838599543015
 20
24.91457780506661
 30
0.0
 10
-10.87084023852856
 20
25.14641882089868
 30
0.0
 10
-10.92432229816902
 20
25.6159647174924
 30
0.0
 10
-10.90832299830413
 20
26.32429392165789
 30
0.0
 10
-10.78631419454439
 20
27.02442176297198
 30
0.0
 10
-10.52692740120898
 20
27.68411360004707
 30
0.0
 10
-10.21081724131054
 20
28.3167909013365
 30
0.0
 10
-9.908896586945474
 20
28.95622621332172
 30
0.0
 10
-9.603487547208346
 20
29.59400243721361
 30
0.0
 10
-9.298982931963081
 20
30.23220212657704
 30
0.0
 10
-8.994676291660284
 20
30.87052307619959
 30
0.0
 10
-8.690490847137795
 20
31.50880256732364
 30
0.0
 10
-8.385288972797042
 20
32.14696750076683
 30
0.0
 10
-8.0803573330206
 20
32.78387708503177
 30
0.0
 10
-7.733477775477184
 20
33.40531542413753
 30
0.0
 10
-7.171867837477407
 20
33.86982279700042
 30
0.0
 10
-6.683430930659796
 20
33.92141378055659
 30
0.0
 10
-6.450000648091788
 20
33.91430460919311
 30
0.0
  0
SPLINE
  5
164
330
1F
100
AcDbEntity
  8
0
370
    -3
100
AcDbSpline
210
0.0
220
0.0
230
1.0
 70
     8
 71
     3
 72
    22
 73
    18
 74
     0
 42
0.000000001
 43
0.0000000001
 40
0.0
 40
0.0
 40
0.0
 40
0.0
 40
1.0
 40
2.0
 40
3.0
 40
4.0
 40
5.0
 40
6.0
 40
7.0
 40
8.0
 40
9.0
 40
10.0
 40
11.0
 40
12.0
 40
13.0
 40
14.0
 40
15.0
 40
15.0
 40
15.0
 40
15.0
 10
11.72055091064632
 20
25.65633822410366
 30
0.0
 10
11.72258869422717
 20
25.87287136872239
 30
0.0
 10
11.69546706873513
 20
26.30555428681375
 30
0.0
 10
11.56796660278962
 20
26.94511775024656
 30
0.0
 10
11.32225719867404
 20
27.54805385905323
 30
0.0
 10
11.0191773944448
 20
28.12258858923967
 30
0.0
 10
10.73124512981911
 20
28.70463545949282
 30
0.0
 10
10.43875331422254
 20
29.28441670897562
 30
0.0
 10
10.1472916205374
 20
29.86471368853571
 30
0.0
 10
9.855612862212979
 20
30.44488392513202
 30
0.0
 10
9.563471939732892
 20
31.02489443414973
 30
0.0
 10
9.273378889501657
 20
31.60566193192089
 30
0.0
 10
8.975906136634364
 20
32.18373663309413
 30
0.0
 10
8.703868393116267
 20
32.77080064858023
 30
0.0
 10
8.329721165157508
 20
33.3204928596086
 30
0.0
 10
7.7244881108615
 20
33.59326256878617
 30
0.0
 10
7.319470605131585
 20
33.7354892924687
 30
0.0
 10
7.117656237012909
 20
33.81554082223307
 30
0.0
  0
SPLINE
  5
165
330
1F
100
AcDbEntity
  8
0
370
    -3
100
AcDbSpline
210
0.0
220
0.0
230
1.0
 70
     8
 71
     3
 72
    22
 73
    18
 74
     0
 42
0.000000001
 43
0.0000000001
 40
0.0
 40
0.0
 40
0.0
 40
0.0
 40
1.0
 40
2.0
 40
3.0
 40
4.0
 40
5.0
 40
6.0
 40
7.0
 40
8.0
 40
9.0
 40
10.0
 40
11.0
 40
12.0
 40
13.0
 40
14.0
 40
15.0
 40
15.0
 40
15.0
 40
15.0
 10
10.82838599543015
 20
24.91457780506661
 30
0.0
 10
10.87084023852856
 20
25.14641882089868
 30
0.0
 10
10.92432229816902
 20
25.6159647174924
 30
0.0
 10
10.90832299830413
 20
26.32429392165789
 30
0.0
 10
10.78631419454439
 20
27.02442176297198
 30
0.0
 10
10.52692740120898
 20
27.68411360004707
 30
0.0
 10
10.21081724131054
 20
28.3167909013365
 30
0.0
 10
9.908896586945474
 20
28.95622621332172
 30
0.0
 10
9.603487547208346
 20
29.59400243721361
 30
0.0
 10
9.298982931963081
 20
30.23220212657704
 30
0.0
 10
8.994676291660284
 20
30.87052307619959
 30
0.0
 10
8.690490847137795
 20
31.50880256732364
 30
0.0
 10
8.385288972797042
 20
32.14696750076683
 30
0.0
 10
8.0803573330206
 20
32.78387708503177
 30
0.0
 10
7.733477775477184
 20
33.40531542413753
 30
0.0
 10
7.171867837477407
 20
33.86982279700042
 30
0.0
 10
6.683430930659796
 20
33.92141378055659
 30
0.0
 10
6.450000648091788
 20
33.91430460919311
 30
0.0
  0
SPLINE
  5
166
330
1F
100
AcDbEntity
  8
0
370
    -3
100
AcDbSpline
210
0.0
220
0.0
230
1.0
 70
     8
 71
     3
 72
    16
 73
    12
 74
     0
 42
0.000000001
 43
0.0000000001
 40
0.0
 40
0.0
 40
0.0
 40
0.0
 40
0.0625
 40
0.0625
 40
0.125
 40
0.125
 40
0.25
 40
0.25
 40
0.5
 40
0.5
 40
1.0
 40
1.0
 40
1.0
 40
1.0
 10
-6.450000648091788
 20
33.91430460919311
 30
0.0
 10
-6.317510418537296
 20
33.91178840358016
 30
0.0
 10
-6.185384737232084
 20
33.90651502406978
 30
0.0
 10
-5.92039298965949
 20
33.89899799464659
 30
0.0
 10
-5.787663649439907
 20
33.8957611247444
 30
0.0
 10
-5.389191694944685
 20
33.88582826912094
 30
0.0
 10
-5.123067340364116
 20
33.87935640684175
 30
0.0
 10
-4.322966593954561
 20
33.86216625763863
 30
0.0
 10
-3.787485785316505
 20
33.85267587204527
 30
0.0
 10
-2.174844384150077
 20
33.83005584698998
 30
0.0
 10
-1.091223925364375
 20
33.82259258695733
 30
0.0
 10
0.0
 20
33.82259086163575
 30
0.0
  0
SPLINE
  5
167
330
1F
100
AcDbEntity
  8
0
370
    -3
100
AcDbSpline
210
0.0
220
0.0
230
1.0
 70
     8
 71
     3
 72
    12
 73
     8
 74
     0
 42
0.000000001
 43
0.0000000001
 40
1.0
 40
1.0
 40
1.0
 40
1.0
 40
1.520868029944228
 40
1.520868029944228
 40
1.772943704552294
 40
1.772943704552294
 40
2.0
 40
2.0
 40
2.0
 40
2.0
 10
0.0
 20
33.82259086163575
 30
0.0
 10
1.137591962957487
 20
33.82259047811678
 30
0.0
 10
2.260387526698111
 20
33.83060129132991
 30
0.0
 10
3.930802552025028
 20
33.85505904865461
 30
0.0
 10
4.471077051213115
 20
33.86439333278859
 30
0.0
 10
5.493392918932841
 20
33.88846682784306
 30
0.0
 10
5.973368857423338
 20
33.90493912293294
 30
0.0
 10
6.450000648091816
 20
33.91430460919311
 30
0.0
  0
SPLINE
  5
168
330
1F
100
AcDbEntity
  8
0
370
    -3
100
AcDbSpline
210
0.0
220
0.0
230
1.0
 70
     8
 71
     3
 72
    22
 73
    18
 74
     0
 42
0.000000001
 43
0.0000000001
 40
0.0
 40
0.0
 40
0.0
 40
0.0
 40
1.0
 40
2.0
 40
3.0
 40
4.0
 40
5.0
 40
6.0
 40
7.0
 40
8.0
 40
9.0
 40
10.0
 40
11.0
 40
12.0
 40
13.0
 40
14.0
 40
15.0
 40
15.0
 40
15.0
 40
15.0
 10
-1.49978708906454
 20
14.92467972802286
 30
0.0
 10
-1.682448730147712
 20
14.92474965388137
 30
0.0
 10
-2.04777203240792
 20
14.92499403947517
 30
0.0
 10
-2.595756501742301
 20
14.92579001276156
 30
0.0
 10
-3.143739714164809
 20
14.92717869600856
 30
0.0
 10
-3.691721446482973
 20
14.92931663275499
 30
0.0
 10
-4.239697172792006
 20
14.93192562774149
 30
0.0
 10
-4.787680257784331
 20
14.93599595208336
 30
0.0
 10
-5.335400713926703
 20
14.95655856489143
 30
0.0
 10
-5.881593643191962
 20
15.00226287106746
 30
0.0
 10
-6.423971283725251
 20
15.08641768056674
 30
0.0
 10
-6.949989379377826
 20
15.24447479239808
 30
0.0
 10
-7.448269351281311
 20
15.47776305042139
 30
0.0
 10
-7.893081971702031
 20
15.80124683989739
 30
0.0
 10
-8.289699862534832
 20
16.17951662506585
 30
0.0
 10
-8.694061383544806
 20
16.54861087793381
 30
0.0
 10
-8.968897403675328
 20
16.78954040327765
 30
0.0
 10
-9.106061678129777
 20
16.91011741971934
 30
0.0
  0
SPLINE
  5
169
330
1F
100
AcDbEntity
  8
0
370
    -3
100
AcDbSpline
210
0.0
220
0.0
230
1.0
 70
     8
 71
     3
 72
    22
 73
    18
 74
     0
 42
0.000000001
 43
0.0000000001
 40
0.0
 40
0.0
 40
0.0
 40
0.0
 40
1.0
 40
2.0
 40
3.0
 40
4.0
 40
5.0
 40
6.0
 40
7.0
 40
8.0
 40
9.0
 40
10.0
 40
11.0
 40
12.0
 40
13.0
 40
14.0
 40
15.0
 40
15.0
 40
15.0
 40
15.0
 10
1.49978708906454
 20
14.92467972802286
 30
0.0
 10
1.682448730147712
 20
14.92474965388137
 30
0.0
 10
2.04777203240792
 20
14.92499403947517
 30
0.0
 10
2.595756501742301
 20
14.92579001276156
 30
0.0
 10
3.143739714164809
 20
14.92717869600856
 30
0.0
 10
3.691721446482973
 20
14.92931663275499
 30
0.0
 10
4.239697172792006
 20
14.93192562774149
 30
0.0
 10
4.787680257784331
 20
14.93599595208336
 30
0.0
 10
5.335400713926703
 20
14.95655856489143
 30
0.0
 10
5.881593643191962
 20
15.00226287106746
 30
0.0
 10
6.423971283725251
 20
15.08641768056674
 30
0.0
 10
6.949989379377826
 20
15.24447479239808
 30
0.0
 10
7.448269351281311
 20
15.47776305042139
 30
0.0
 10
7.893081971702031
 20
15.80124683989739
 30
0.0
 10
8.289699862534832
 20
16.17951662506585
 30
0.0
 10
8.694061383544806
 20
16.54861087793381
 30
0.0
 10
8.968897403675328
 20
16.78954040327765
 30
0.0
 10
9.106061678129777
 20
16.91011741971934
 30
0.0
  0
POLYLINE
  5
16A
330
1F
100
AcDbEntity
  8
0
370
    -3
100
AcDb2dPolyline
 66
     1
 10
0.0
 20
0.0
 30
0.0
 70
     1
  0
VERTEX
  5
16B
330
16A
100
AcDbEntity
  8
0
370
    -3
100
AcDbVertex
100
AcDb2dVertex
 10
-0.7874015748031411
 20
2.677161537731429
 30
0.0
  0
VERTEX
  5
16C
330
16A
100
AcDbEntity
  8
0
370
    -3
100
AcDbVertex
100
AcDb2dVertex
 10
0.7874015748031695
 20
2.677161537731429
 30
0.0
  0
VERTEX
  5
16D
330
16A
100
AcDbEntity
  8
0
370
    -3
100
AcDbVertex
100
AcDb2dVertex
 10
0.7874015748031695
 20
13.34645287631411
 30
0.0
  0
VERTEX
  5
16E
330
16A
100
AcDbEntity
  8
0
370
    -3
100
AcDbVertex
100
AcDb2dVertex
 10
0.7480314960629926
 20
13.38582295505426
 30
0.0
  0
VERTEX
  5
16F
330
16A
100
AcDbEntity
  8
0
370
    -3
100
AcDbVertex
100
AcDb2dVertex
 10
-0.7480314960629926
 20
13.38582295505426
 30
0.0
  0
VERTEX
  5
170
330
16A
100
AcDbEntity
  8
0
370
    -3
100
AcDbVertex
100
AcDb2dVertex
 10
-0.7874015748031411
 20
13.34645287631411
 30
0.0
  0
SEQEND
  5
171
330
16A
100
AcDbEntity
  8
0
370
    -3
  0
POLYLINE
  5
172
330
1F
100
AcDbEntity
  8
0
370
    -3
100
AcDb2dPolyline
 66
     1
 10
0.0
 20
0.0
 30
0.0
 70
     1
  0
VERTEX
  5
173
330
172
100
AcDbEntity
  8
0
370
    -3
100
AcDbVertex
100
AcDb2dVertex
 10
35.53895563894483
 20
13.90629806294814
 30
0.0
  0
VERTEX
  5
174
330
172
100
AcDbEntity
  8
0
370
    -3
100
AcDbVertex
100
AcDb2dVertex
 10
36.64131784366921
 20
13.90629806294814
 30
0.0
  0
VERTEX
  5
175
330
172
100
AcDbEntity
  8
0
370
    -3
100
AcDbVertex
100
AcDb2dVertex
 10
36.64131784366921
 20
13.38582295505426
 30
0.0
  0
VERTEX
  5
176
330
172
100
AcDbEntity
  8
0
370
    -3
100
AcDbVertex
100
AcDb2dVertex
 10
35.53895563894483
 20
13.38582295505426
 30
0.0
  0
SEQEND
  5
177
330
172
100
AcDbEntity
  8
0
370
    -3
  0
POLYLINE
  5
178
330
1F
100
AcDbEntity
  8
0
370
    -3
100
AcDb2dPolyline
 66
     1
 10
0.0
 20
0.0
 30
0.0
 70
     1
  0
VERTEX
  5
179
330
178
100
AcDbEntity
  8
0
370
    -3
100
AcDbVertex
100
AcDb2dVertex
 10
35.30273516650388
 20
2.677161537731429
 30
0.0
  0
VERTEX
  5
17A
330
178
100
AcDbEntity
  8
0
370
    -3
100
AcDbVertex
100
AcDb2dVertex
 10
36.87753831611016
 20
2.677161537731429
 30
0.0
  0
VERTEX
  5
17B
330
178
100
AcDbEntity
  8
0
370
    -3
100
AcDbVertex
100
AcDb2dVertex
 10
36.87753831611016
 20
13.34645287631411
 30
0.0
  0
VERTEX
  5
17C
330
178
100
AcDbEntity
  8
0
370
    -3
100
AcDbVertex
100
AcDb2dVertex
 10
36.83816823737001
 20
13.38582295505426
 30
0.0
  0
VERTEX
  5
17D
330
178
100
AcDbEntity
  8
0
370
    -3
100
AcDbVertex
100
AcDb2dVertex
 10
35.34210524524403
 20
13.38582295505426
 30
0.0
  0
VERTEX
  5
17E
330
178
100
AcDbEntity
  8
0
370
    -3
100
AcDbVertex
100
AcDb2dVertex
 10
35.30273516650388
 20
13.34645287631411
 30
0.0
  0
SEQEND
  5
17F
330
178
100
AcDbEntity
  8
0
370
    -3
  0
SPLINE
  5
180
330
1F
100
AcDbEntity
  8
0
370
    -3
100
AcDbSpline
210
0.0
220
0.0
230
1.0
 70
     8
 71
     3
 72
    20
 73
    16
 74
     0
 42
0.000000001
 43
0.0000000001
 40
0.0
 40
0.0
 40
0.0
 40
0.0
 40
1.0
 40
2.0
 40
3.0
 40
4.0
 40
5.0
 40
6.0
 40
7.0
 40
8.0
 40
9.0
 40
10.0
 40
11.0
 40
12.0
 40
13.0
 40
13.0
 40
13.0
 40
13.0
 10
30.30936014860208
 20
15.23940320434225
 30
0.0
 10
30.40534372253177
 20
15.53039460253309
 30
0.0
 10
30.45295309448645
 20
16.16210713345456
 30
0.0
 10
30.59918704172509
 20
17.08730091156107
 30
0.0
 10
30.73492896603321
 20
18.01712015580583
 30
0.0
 10
30.8665854106859
 20
18.94669299044095
 30
0.0
 10
30.9958335136009
 20
19.87682851339291
 30
0.0
 10
31.12670439747379
 20
20.80668937036699
 30
0.0
 10
31.25752557500581
 20
21.73652196876064
 30
0.0
 10
31.38961086976005
 20
22.66636415774429
 30
0.0
 10
31.51891453018629
 20
23.59588220558192
 30
0.0
 10
31.66020058787799
 20
24.52638739990946
 30
0.0
 10
31.6332357687165
 20
25.46789378382431
 30
0.0
 10
31.4822332381199
 20
26.39812054995321
 30
0.0
 10
31.25175626777363
 20
26.98494267657058
 30
0.0
 10
31.10015250652188
 20
27.25932487249137
 30
0.0
  0
SPLINE
  5
181
330
1F
100
AcDbEntity
  8
0
370
    -3
100
AcDbSpline
210
0.0
220
0.0
230
1.0
 70
     8
 71
     3
 72
    22
 73
    18
 74
     0
 42
0.000000001
 43
0.0000000001
 40
13.0
 40
13.0
 40
13.0
 40
13.0
 40
13.0184723602224
 40
13.0184723602224
 40
13.04356758641643
 40
13.04356758641643
 40
13.24025572776551
 40
13.24025572776551
 40
13.26284755261616
 40
13.26284755261616
 40
13.28456744162287
 40
13.28456744162287
 40
13.32367218526773
 40
13.32367218526773
 40
13.36047923227708
 40
13.36047923227708
 40
13.40056387822522
 40
13.40056387822522
 40
13.40056387822522
 40
13.40056387822522
 10
31.10015250652188
 20
27.25932487249137
 30
0.0
 10
31.03351968141178
 20
27.38198182799543
 30
0.0
 10
30.9624468932908
 20
27.49879927453616
 30
0.0
 10
30.78689235296952
 20
27.76741546734412
 30
0.0
 10
30.68307488876513
 20
27.91851472489278
 30
0.0
 10
29.76951527850326
 20
29.25929119094148
 30
0.0
 10
28.96412396882525
 20
30.4550284221691
 30
0.0
 10
28.06420888654668
 20
31.78497264850462
 30
0.0
 10
27.97150144433951
 20
31.92199957771397
 30
0.0
 10
27.78942537430291
 20
32.19069633399788
 30
0.0
 10
27.69999029740666
 20
32.32242295389302
 30
0.0
 10
27.45280531634819
 20
32.69159637415808
 30
0.0
 10
27.30003976942413
 20
32.92922288108142
 30
0.0
 10
27.00983623409888
 20
33.36919783016583
 30
0.0
 10
26.87406329498117
 20
33.57112300308845
 30
0.0
 10
26.61945829667854
 20
33.86529598844503
 30
0.0
 10
26.51878099463403
 20
33.92025615368253
 30
0.0
 10
26.43116369804829
 20
33.91430460919311
 30
0.0
  0
SPLINE
  5
182
330
1F
100
AcDbEntity
  8
0
370
    -3
100
AcDbSpline
210
0.0
220
0.0
230
1.0
 70
     8
 71
     3
 72
    12
 73
     8
 74
     0
 42
0.000000001
 43
0.0000000001
 40
13.40056387822522
 40
13.40056387822522
 40
13.40056387822522
 40
13.40056387822522
 40
14.40056387822522
 40
15.40056387822522
 40
16.40056387822522
 40
17.40056387822522
 40
18.40056387822522
 40
18.40056387822522
 40
18.40056387822522
 40
18.40056387822522
 10
26.43116369804829
 20
33.91430460919311
 30
0.0
 10
26.28768849929031
 20
33.90501074879874
 30
0.0
 10
26.00354240275905
 20
33.86293969399357
 30
0.0
 10
25.57133315259375
 20
33.84159384622821
 30
0.0
 10
25.15363252993072
 20
33.73162392944053
 30
0.0
 10
24.73349205652875
 20
33.63668018778423
 30
0.0
 10
24.45390670983053
 20
33.57025390686104
 30
0.0
 10
24.31401237603367
 20
33.53766685702993
 30
0.0
  0
SPLINE
  5
183
330
1F
100
AcDbEntity
  8
0
370
    -3
100
AcDbSpline
210
0.0
220
0.0
230
1.0
 70
    24
 71
     3
 72
     9
 73
     5
 74
     0
 42
0.000000001
 43
0.0000000001
 40
18.40056387822522
 40
18.40056387822522
 40
18.40056387822522
 40
18.40056387822522
 40
18.88214964048263
 40
19.40056387822575
 40
19.40056387822575
 40
19.40056387822575
 40
19.40056387822575
 10
24.31401237603367
 20
33.53766685702993
 30
0.0
 10
24.99442476891446
 20
30.59776554252472
 30
0.0
 10
26.38584599756248
 20
24.585762907182
 30
0.0
 10
27.8662938227618
 20
18.18909736598305
 30
0.0
 10
28.62181595679624
 20
14.92466459222646
 30
0.0
  0
POLYLINE
  5
184
330
1F
100
AcDbEntity
  8
0
370
    -3
100
AcDb2dPolyline
 66
     1
 10
0.0
 20
0.0
 30
0.0
  0
VERTEX
  5
185
330
184
100
AcDbEntity
  8
0
370
    -3
100
AcDbVertex
100
AcDb2dVertex
 10
28.62181595679624
 20
14.92466459222646
 30
0.0
  0
VERTEX
  5
186
330
184
100
AcDbEntity
  8
0
370
    -3
100
AcDbVertex
100
AcDb2dVertex
 10
30.30936014860208
 20
15.23940320434225
 30
0.0
  0
SEQEND
  5
187
330
184
100
AcDbEntity
  8
0
370
    -3
  0
SPLINE
  5
188
330
1F
100
AcDbEntity
  8
0
370
    -3
100
AcDbSpline
210
0.0
220
0.0
230
1.0
 70
     8
 71
     3
 72
    66
 73
    62
 74
     0
 42
0.000000001
 43
0.0000000001
 40
0.0088980913941428
 40
0.0088980913941428
 40
0.0088980913941428
 40
0.0088980913941428
 40
0.0503783025519481
 40
0.0503783025519481
 40
0.0772752481320334
 40
0.0772752481320334
 40
0.1033070592345866
 40
0.1033070592345866
 40
0.1290183853041506
 40
0.1290183853041506
 40
0.154389678436308
 40
0.154389678436308
 40
0.2063017438329514
 40
0.2063017438329514
 40
0.270294940825992
 40
0.270294940825992
 40
0.3018568625309073
 40
0.3018568625309073
 40
0.3338205551675716
 40
0.3338205551675716
 40
0.3973136534314079
 40
0.3973136534314079
 40
0.4607630090014164
 40
0.4607630090014164
 40
0.5026497406823178
 40
0.5026497406823178
 40
0.517674342631357
 40
0.517674342631357
 40
0.545692484090098
 40
0.545692484090098
 40
0.565891549743126
 40
0.565891549743126
 40
0.5838417966911149
 40
0.5838417966911149
 40
0.6095111828915142
 40
0.6095111828915142
 40
0.6360215108556643
 40
0.6360215108556643
 40
0.6544415078321602
 40
0.6544415078321602
 40
0.6839412596706641
 40
0.6839412596706641
 40
0.7057008509029051
 40
0.7057008509029051
 40
0.7270699859327905
 40
0.7270699859327905
 40
0.8190538437790724
 40
0.8190538437790724
 40
0.8636304356302548
 40
0.8636304356302548
 40
0.8857519316251456
 40
0.8857519316251456
 40
0.9079365929879635
 40
0.9079365929879635
 40
0.9305328132249278
 40
0.9305328132249278
 40
0.953146979569227
 40
0.953146979569227
 40
0.9759418930109137
 40
0.9759418930109137
 40
1.0
 40
1.0
 40
1.0
 40
1.0
 10
28.76467499654132
 20
14.93447785738798
 30
0.0
 10
28.78480896946283
 20
14.93842022560854
 30
0.0
 10
28.80546041432962
 20
14.94818870531101
 30
0.0
 10
28.84113112266911
 20
14.99198844253938
 30
0.0
 10
28.85590782968305
 20
15.01518154485304
 30
0.0
 10
28.88925283325679
 20
15.08601285833421
 30
0.0
 10
28.90739465837132
 20
15.133513158148
 30
0.0
 10
28.94920348698903
 20
15.26531182056234
 30
0.0
 10
28.97282306066361
 20
15.34454978051664
 30
0.0
 10
29.02913806184048
 20
15.53966510933181
 30
0.0
 10
29.06071113446686
 20
15.6515335572294
 30
0.0
 10
29.16173509552235
 20
16.04545214605325
 30
0.0
 10
29.22963450177735
 20
16.36423799841824
 30
0.0
 10
29.37973498732825
 20
17.15632843675486
 30
0.0
 10
29.46136593963143
 20
17.62104620445161
 30
0.0
 10
29.59008795260888
 20
18.32607861047181
 30
0.0
 10
29.6337638049462
 20
18.55958529479614
 30
0.0
 10
29.72048945537077
 20
19.02960325061107
 30
0.0
 10
29.76338334708763
 20
19.2660858741903
 30
0.0
 10
29.89226042526934
 20
19.97175848432616
 30
0.0
 10
29.97853240814069
 20
20.44099957001328
 30
0.0
 10
30.1505959662212
 20
21.37951541641691
 30
0.0
 10
30.23635040532466
 20
21.84869589779331
 30
0.0
 10
30.37875151869616
 20
22.62742519915161
 30
0.0
 10
30.43563716813435
 20
22.93691914736659
 30
0.0
 10
30.51187083899643
 20
23.35798159858918
 30
0.0
 10
30.5325831650992
 20
23.46882511056613
 30
0.0
 10
30.59194131786737
 20
23.78636398747508
 30
0.0
 10
30.62972335349733
 20
23.9927315125825
 30
0.0
 10
30.66986853894821
 20
24.36176915679179
 30
0.0
 10
30.68037602660291
 20
24.51747609854972
 30
0.0
 10
30.68672920332861
 20
24.81728194305142
 30
0.0
 10
30.68436619039818
 20
24.95849574726715
 30
0.0
 10
30.66472487125043
 20
25.30521012576878
 30
0.0
 10
30.64199936744194
 20
25.50644134002767
 30
0.0
 10
30.56835423841579
 20
25.91871314310738
 30
0.0
 10
30.51883184044979
 20
26.12165573381644
 30
0.0
 10
30.41135086886257
 20
26.46271905066981
 30
0.0
 10
30.3612802790131
 20
26.59825508157646
 30
0.0
 10
30.21559552309071
 20
26.94471074966331
 30
0.0
 10
30.11307883242694
 20
27.14269705728958
 30
0.0
 10
29.9100625196719
 20
27.47194918286941
 30
0.0
 10
29.81875770494281
 20
27.60471263084005
 30
0.0
 10
29.63561227606581
 20
27.86594710355593
 30
0.0
 10
29.54510734212676
 20
27.99569771623943
 30
0.0
 10
29.06614824866645
 20
28.68550987601077
 30
0.0
 10
27.6989669836083
 20
30.64722703712121
 30
0.0
 10
27.12127495202941
 20
31.47722347709909
 30
0.0
 10
26.93246890169397
 20
31.74799677521942
 30
0.0
 10
26.64981253966684
 20
32.15297263201704
 30
0.0
 10
26.55574360033361
 20
32.28690755051156
 30
0.0
 10
26.36928212788038
 20
32.55700432616217
 30
0.0
 10
26.27875429453249
 20
32.69492902446598
 30
0.0
 10
26.09974083870577
 20
32.96470237752297
 30
0.0
 10
26.01190773536374
 20
33.09107376861813
 30
0.0
 10
25.8331801474755
 20
33.31340446819759
 30
0.0
 10
25.75249269684858
 20
33.40182805808112
 30
0.0
 10
25.59908596991707
 20
33.55077624102778
 30
0.0
 10
25.53261136288634
 20
33.60426993858309
 30
0.0
 10
25.40542493361932
 20
33.67850266207867
 30
0.0
 10
25.35953853634481
 20
33.68518901491105
 30
0.0
 10
25.30561376967515
 20
33.6794368044611
 30
0.0
  0
SPLINE
  5
189
330
1F
100
AcDbEntity
  8
0
370
    -3
100
AcDbSpline
210
0.0
220
0.0
230
1.0
 70
     8
 71
     3
 72
    16
 73
    12
 74
     0
 42
0.000000001
 43
0.0000000001
 40
1.0
 40
1.0
 40
1.0
 40
1.0
 40
1.062078181244478
 40
1.062078181244478
 40
1.124334123269999
 40
1.124334123269999
 40
1.249276016700847
 40
1.249276016700847
 40
1.500460504509117
 40
1.500460504509117
 40
2.0
 40
2.0
 40
2.0
 40
2.0
 10
25.30561376967515
 20
33.6794368044611
 30
0.0
 10
25.26493938467226
 20
33.67512285213482
 30
0.0
 10
25.2256278316309
 20
33.66753487691831
 30
0.0
 10
25.14927524759537
 20
33.65640571811227
 30
0.0
 10
25.11229566945204
 20
33.65150662998411
 30
0.0
 10
25.00483610384882
 20
33.63628802778618
 30
0.0
 10
24.93815294545067
 20
33.62641448309107
 30
0.0
 10
24.75188319430615
 20
33.59983412529759
 30
0.0
 10
24.64767482960551
 20
33.5849313165255
 30
0.0
 10
24.39863227959523
 20
33.54952738912952
 30
0.0
 10
24.3140142406329
 20
33.53766729288213
 30
0.0
 10
24.31401237603367
 20
33.53766685702993
 30
0.0
  0
POLYLINE
  5
18A
330
1F
100
AcDbEntity
  8
0
370
    -3
100
AcDb2dPolyline
 66
     1
 10
0.0
 20
0.0
 30
0.0
 70
     1
  0
VERTEX
  5
18B
330
18A
100
AcDbEntity
  8
0
370
    -3
100
AcDbVertex
100
AcDb2dVertex
 10
35.40253836161057
 20
14.93212144748748
 30
0.0
  0
VERTEX
  5
18C
330
18A
100
AcDbEntity
  8
0
370
    -3
100
AcDbVertex
100
AcDb2dVertex
 10
35.40253836161057
 20
13.90629806294814
 30
0.0
  0
VERTEX
  5
18D
330
18A
100
AcDbEntity
  8
0
370
    -3
100
AcDbVertex
100
AcDb2dVertex
 10
36.77773512100416
 20
13.90629806294814
 30
0.0
  0
VERTEX
  5
18E
330
18A
100
AcDbEntity
  8
0
370
    -3
100
AcDbVertex
100
AcDb2dVertex
 10
36.77770609802607
 20
14.99041814047537
 30
0.0
  0
SEQEND
  5
18F
330
18A
100
AcDbEntity
  8
0
370
    -3
  0
POLYLINE
  5
190
330
1F
100
AcDbEntity
  8
0
370
    -3
100
AcDb2dPolyline
 66
     1
 10
0.0
 20
0.0
 30
0.0
  0
VERTEX
  5
191
330
190
100
AcDbEntity
  8
0
370
    -3
100
AcDbVertex
100
AcDb2dVertex
 10
42.44130909342664
 20
15.5609071312009
 30
0.0
  0
VERTEX
  5
192
330
190
100
AcDbEntity
  8
0
370
    -3
100
AcDbVertex
100
AcDb2dVertex
 10
42.43040424658531
 20
15.81066918659634
 30
0.0
  0
SEQEND
  5
193
330
190
100
AcDbEntity
  8
0
370
    -3
  0
LINE
  5
194
330
1F
100
AcDbEntity
  8
0
370
    -3
100
AcDbLine
 10
42.43040424658531
 20
15.81066918659634
 30
0.0
 11
32.1901599753713
 21
15.36357046610163
 31
0.0
  0
POLYLINE
  5
195
330
1F
100
AcDbEntity
  8
0
370
    -3
100
AcDb2dPolyline
 66
     1
 10
0.0
 20
0.0
 30
0.0
  0
VERTEX
  5
196
330
195
100
AcDbEntity
  8
0
370
    -3
100
AcDbVertex
100
AcDb2dVertex
 10
32.1901599753713
 20
15.36357046610163
 30
0.0
  0
VERTEX
  5
197
330
195
100
AcDbEntity
  8
0
370
    -3
100
AcDbVertex
100
AcDb2dVertex
 10
32.20106482221266
 20
15.11380841070616
 30
0.0
  0
SEQEND
  5
198
330
195
100
AcDbEntity
  8
0
370
    -3
  0
SPLINE
  5
199
330
1F
100
AcDbEntity
  8
0
370
    -3
100
AcDbSpline
210
0.0
220
0.0
230
1.0
 70
    28
 71
     2
 72
     6
 73
     3
 74
     0
 42
0.000000001
 43
0.0000000001
 40
10.00000000000001
 40
10.00000000000001
 40
10.00000000000001
 40
10.78539816339746
 40
10.78539816339746
 40
10.78539816339746
 10
32.20106482221266
 20
15.11380841070616
 30
0.0
 41
1.0
 10
32.20106482221263
 20
15.11380841070616
 30
0.0
 41
0.7071067811865476
 10
32.70058893300359
 20
15.13561810438883
 30
0.0
 41
1.0
  0
LINE
  5
19A
330
1F
100
AcDbEntity
  8
0
370
    -3
100
AcDbLine
 10
32.70058893300359
 20
15.13561810438883
 30
0.0
 11
42.44130909342664
 21
15.5609071312009
 31
0.0
  0
SPLINE
  5
19B
330
1F
100
AcDbEntity
  8
0
370
    -3
100
AcDbSpline
210
0.0
220
0.0
230
1.0
 70
    12
 71
     2
 72
     6
 73
     3
 74
     0
 42
0.000000001
 43
0.0000000001
 40
-3.764995543159046
 40
-3.764995543159046
 40
-3.764995543159046
 40
-3.063436809682978
 40
-3.063436809682978
 40
-3.063436809682978
 10
29.67066235948069
 20
15.12028238574399
 30
0.0
 41
0.8862916170901465
 10
29.81534943480618
 20
15.00804764221983
 30
0.0
 41
0.8840117955931328
 10
29.99829980073102
 20
15.01580335160127
 30
0.0
 41
1.0
  0
POLYLINE
  5
19C
330
1F
100
AcDbEntity
  8
0
370
    -3
100
AcDb2dPolyline
 66
     1
 10
0.0
 20
0.0
 30
0.0
  0
VERTEX
  5
19D
330
19C
100
AcDbEntity
  8
0
370
    -3
100
AcDbVertex
100
AcDb2dVertex
 10
29.99829980073102
 20
15.01580335160127
 30
0.0
  0
VERTEX
  5
19E
330
19C
100
AcDbEntity
  8
0
370
    -3
100
AcDbVertex
100
AcDb2dVertex
 10
38.61589034656771
 20
15.38112389908002
 30
0.0
  0
VERTEX
  5
19F
330
19C
100
AcDbEntity
  8
0
370
    -3
100
AcDbVertex
100
AcDb2dVertex
 10
38.62912609113434
 20
15.06890432079467
 30
0.0
  0
VERTEX
  5
1A0
330
19C
100
AcDbEntity
  8
0
370
    -3
100
AcDbVertex
100
AcDb2dVertex
 10
30.01153554529341
 20
14.70358377331474
 30
0.0
  0
SEQEND
  5
1A1
330
19C
100
AcDbEntity
  8
0
370
    -3
  0
SPLINE
  5
1A2
330
1F
100
AcDbEntity
  8
0
370
    -3
100
AcDbSpline
210
0.0
220
0.0
230
1.0
 70
    12
 71
     2
 72
     6
 73
     3
 74
     0
 42
0.000000001
 43
0.0000000001
 40
14.49972415366352
 40
14.49972415366352
 40
14.49972415366352
 40
15.48932605507673
 40
15.48932605507673
 40
15.48932605507673
 10
30.01153554529341
 20
14.70358377331474
 30
0.0
 41
1.0
 10
29.56830217225048
 20
14.68479403648444
 30
0.0
 41
0.8363898243370996
 10
29.31284654805238
 20
15.04749405200045
 30
0.0
 41
0.9081004502821219
  0
POLYLINE
  5
1A3
330
1F
100
AcDbEntity
  8
0
370
    -3
100
AcDb2dPolyline
 66
     1
 10
0.0
 20
0.0
 30
0.0
  0
VERTEX
  5
1A4
330
1A3
100
AcDbEntity
  8
0
370
    -3
100
AcDbVertex
100
AcDb2dVertex
 10
29.31284654805242
 20
15.04749405200045
 30
0.0
  0
VERTEX
  5
1A5
330
1A3
100
AcDbEntity
  8
0
370
    -3
100
AcDbVertex
100
AcDb2dVertex
 10
29.6706623594807
 20
15.12028238574399
 30
0.0
  0
SEQEND
  5
1A6
330
1A3
100
AcDbEntity
  8
0
370
    -3
  0
SPLINE
  5
1A7
330
1F
100
AcDbEntity
  8
0
370
    -3
100
AcDbSpline
210
0.0
220
0.0
230
1.0
 70
    24
 71
     2
 72
     6
 73
     3
 74
     0
 42
0.000000001
 43
0.0000000001
 40
6.77136283995501
 40
6.77136283995501
 40
6.77136283995501
 40
7.179860676427618
 40
7.179860676427618
 40
7.179860676427618
 10
-1.5
 20
62.90621820284222
 30
0.0
 10
-1.5
 20
63.11028383841759
 30
0.0
 10
-1.5
 20
63.31434947399296
 30
0.0
  0
SPLINE
  5
1A8
330
1F
100
AcDbEntity
  8
0
370
    -3
100
AcDbSpline
210
0.0
220
0.0
230
1.0
 70
     8
 71
     3
 72
     8
 73
     4
 74
     0
 42
0.000000001
 43
0.0000000001
 40
0.2566682733758452
 40
0.2566682733758452
 40
0.2566682733758452
 40
0.2566682733758452
 40
0.992177252570368
 40
0.992177252570368
 40
0.992177252570368
 40
0.992177252570368
 10
0.6556266605048222
 20
69.09897249007003
 30
0.0
 10
0.6494211018251974
 20
69.4245264516468
 30
0.0
 10
0.643215986820195
 20
69.75007858142551
 30
0.0
 10
0.637011315489616
 20
70.07562887940692
 30
0.0
  0
SPLINE
  5
1A9
330
1F
100
AcDbEntity
  8
0
370
    -3
100
AcDbSpline
210
0.0
220
0.0
230
1.0
 70
    24
 71
     3
 72
     8
 73
     4
 74
     0
 42
0.000000001
 43
0.0000000001
 40
0.992177252570368
 40
0.992177252570368
 40
0.992177252570368
 40
0.992177252570368
 40
1.992177231342119
 40
1.992177231342119
 40
1.992177231342119
 40
1.992177231342119
 10
0.637011315489616
 20
70.07562887940692
 30
0.0
 10
0.6369447932328001
 20
70.07909136550363
 30
0.0
 10
0.63687827102612
 20
70.08255385139245
 30
0.0
 10
0.6368117488675011
 20
70.08601633718551
 30
0.0
  0
SPLINE
  5
1AA
330
1F
100
AcDbEntity
  8
0
370
    -3
100
AcDbSpline
210
0.0
220
0.0
230
1.0
 70
     8
 71
     3
 72
     8
 73
     4
 74
     0
 42
0.000000001
 43
0.0000000001
 40
1.992177231342119
 40
1.992177231342119
 40
1.992177231342119
 40
1.992177231342119
 40
2.024578050329499
 40
2.024578050329499
 40
2.024578050329499
 40
2.024578050329499
 10
0.6368117488675011
 20
70.08601633718551
 30
0.0
 10
0.6363926545421066
 20
70.10766223247686
 30
0.0
 10
0.6348618799099199
 20
70.12926015657936
 30
0.0
 10
0.632247387271633
 20
70.15070238596626
 30
0.0
  0
SPLINE
  5
1AB
330
1F
100
AcDbEntity
  8
0
370
    -3
100
AcDbSpline
210
0.0
220
0.0
230
1.0
 70
     8
 71
     3
 72
     9
 73
     5
 74
     0
 42
0.000000001
 43
0.0000000001
 40
2.024578050329499
 40
2.024578050329499
 40
2.024578050329499
 40
2.024578050329499
 40
2.11028034209722
 40
2.136313934303232
 40
2.136313934303232
 40
2.136313934303232
 40
2.136313934303232
 10
0.632247387271633
 20
70.15070238596626
 30
0.0
 10
0.6253318827284602
 20
70.20741848933952
 30
0.0
 10
0.6064303808572049
 20
70.27994292393223
 30
0.0
 10
0.5755203515105904
 20
70.3472271577337
 30
0.0
 10
0.5677005494457603
 20
70.36257438341707
 30
0.0
  0
SPLINE
  5
1AC
330
1F
100
AcDbEntity
  8
0
370
    -3
100
AcDbSpline
210
0.0
220
0.0
230
1.0
 70
     8
 71
     3
 72
    12
 73
     8
 74
     0
 42
0.000000001
 43
0.0000000001
 40
2.136313934303232
 40
2.136313934303232
 40
2.136313934303232
 40
2.136313934303232
 40
2.237579304913598
 40
2.364878267729976
 40
2.492177230546353
 40
2.61946948074993
 40
2.678456503840828
 40
2.678456503840828
 40
2.678456503840828
 40
2.678456503840828
 10
0.5677005494457603
 20
70.36257438341707
 30
0.0
 10
0.5372831123158335
 20
70.42227196507882
 30
0.0
 10
0.4475230352836093
 20
70.54576241994855
 30
0.0
 10
0.2494199570408284
 20
70.67747750125204
 30
0.0
 10
0.0000043886382457
 20
70.72667503098718
 30
0.0
 10
-0.2047961009652681
 20
70.68628004050483
 30
0.0
 10
-0.3133152151529828
 20
70.62939563156212
 30
0.0
 10
-0.3458150251444181
 20
70.6084126617337
 30
0.0
  0
SPLINE
  5
1AD
330
1F
100
AcDbEntity
  8
0
370
    -3
100
AcDbSpline
210
0.0
220
0.0
230
1.0
 70
     8
 71
     3
 72
    10
 73
     6
 74
     0
 42
0.000000001
 43
0.0000000001
 40
2.678456503840828
 40
2.678456503840828
 40
2.678456503840828
 40
2.678456503840828
 40
2.746761730953793
 40
2.874053981157497
 40
2.968159970761991
 40
2.968159970761991
 40
2.968159970761991
 40
2.968159970761991
 10
-0.3458150251444181
 20
70.6084126617337
 30
0.0
 10
-0.3834488433347474
 20
70.58411500362969
 30
0.0
 10
-0.4840599239836365
 20
70.50313260611986
 30
0.0
 10
-0.5924276228624592
 20
70.34100078448601
 30
0.0
 10
-0.6280993887541229
 20
70.19651932382993
 30
0.0
 10
-0.6340587264718636
 20
70.13402875665727
 30
0.0
  0
SPLINE
  5
1AE
330
1F
100
AcDbEntity
  8
0
370
    -3
100
AcDbSpline
210
0.0
220
0.0
230
1.0
 70
     8
 71
     3
 72
     8
 73
     4
 74
     0
 42
0.000000001
 43
0.0000000001
 40
2.968159970761991
 40
2.968159970761991
 40
2.968159970761991
 40
2.968159970761991
 40
2.992177231342119
 40
2.992177231342119
 40
2.992177231342119
 40
2.992177231342119
 10
-0.6340587264718636
 20
70.13402875665727
 30
0.0
 10
-0.6355796388755834
 20
70.11808022626198
 30
0.0
 10
-0.6365011131327094
 20
70.10206146199783
 30
0.0
 10
-0.6368117573788368
 20
70.08601633736441
 30
0.0
  0
SPLINE
  5
1AF
330
1F
100
AcDbEntity
  8
0
370
    -3
100
AcDbSpline
210
0.0
220
0.0
230
1.0
 70
    24
 71
     3
 72
     8
 73
     4
 74
     0
 42
0.000000001
 43
0.0000000001
 40
2.992177231342119
 40
2.992177231342119
 40
2.992177231342119
 40
2.992177231342119
 40
3.992177210350405
 40
3.992177210350405
 40
3.992177210350405
 40
3.992177210350405
 10
-0.6368117573788368
 20
70.08601633736441
 30
0.0
 10
-0.6368782767003154
 20
70.08255385151233
 30
0.0
 10
-0.6369447960698835
 20
70.07909136556357
 30
0.0
 10
-0.6370113154895876
 20
70.07562887940692
 30
0.0
  0
SPLINE
  5
1B0
330
1F
100
AcDbEntity
  8
0
370
    -3
100
AcDbSpline
210
0.0
220
0.0
230
1.0
 70
     8
 71
     3
 72
     8
 73
     4
 74
     0
 42
0.000000001
 43
0.0000000001
 40
3.992177210350405
 40
3.992177210350405
 40
3.992177210350405
 40
3.992177210350405
 40
4.727686189540447
 40
4.727686189540447
 40
4.727686189540447
 40
4.727686189540447
 10
-0.6370113154895876
 20
70.07562887940692
 30
0.0
 10
-0.6432159868201381
 20
69.75007858142749
 30
0.0
 10
-0.6494211018251121
 20
69.42452645165076
 30
0.0
 10
-0.6556266605047085
 20
69.09897249007598
 30
0.0
  0
SPLINE
  5
1B1
330
1F
100
AcDbEntity
  8
0
370
    -3
100
AcDbSpline
210
0.0
220
0.0
230
1.0
 70
     8
 71
     3
 72
    30
 73
    26
 74
     0
 42
0.000000001
 43
0.0000000001
 40
-23.0
 40
-23.0
 40
-23.0
 40
-23.0
 40
-22.0
 40
-21.0
 40
-20.0
 40
-19.0
 40
-18.0
 40
-17.0
 40
-16.0
 40
-15.0
 40
-14.0
 40
-13.0
 40
-12.0
 40
-11.0
 40
-10.0
 40
-9.0
 40
-8.0
 40
-7.0
 40
-6.0
 40
-5.0
 40
-4.0
 40
-3.0
 40
-2.0
 40
-1.0
 40
0.0
 40
0.0
 40
0.0
 40
0.0
 10
10.89784999137271
 20
61.80676141993877
 30
0.0
 10
10.91449002921715
 20
62.00069954990805
 30
0.0
 10
10.67528380275382
 20
62.34016454549431
 30
0.0
 10
10.34895346677246
 20
62.82105615155022
 30
0.0
 10
10.00518857728545
 20
63.30355810252357
 30
0.0
 10
9.66621492417778
 20
63.78571165455069
 30
0.0
 10
9.325706774821867
 20
64.2677860320689
 30
0.0
 10
8.986783396905821
 20
64.75069340598002
 30
0.0
 10
8.647226555480842
 20
65.23328408973177
 30
0.0
 10
8.307628747082333
 20
65.71561195483345
 30
0.0
 10
7.958552692669628
 20
66.19204850742771
 30
0.0
 10
7.517341062115378
 20
66.59292280941573
 30
0.0
 10
6.97484136158252
 20
66.83747471645789
 30
0.0
 10
6.409226685081052
 20
67.00447178647016
 30
0.0
 10
5.839601423725441
 20
67.15878764115949
 30
0.0
 10
5.265954908069347
 20
67.29699805811629
 30
0.0
 10
4.689160437370447
 20
67.42148394198323
 30
0.0
 10
4.109471804392172
 20
67.53170465593793
 30
0.0
 10
3.52720718704802
 20
67.62739751275701
 30
0.0
 10
2.942727441149827
 20
67.70846528680698
 30
0.0
 10
2.356416640576754
 20
67.77500938442586
 30
0.0
 10
1.768614517271942
 20
67.82676525152004
 30
0.0
 10
1.179693423375596
 20
67.86366553325954
 30
0.0
 10
0.5900295430791402
 20
67.88570819291266
 30
0.0
 10
0.1966763130730556
 20
67.89056549816618
 30
0.0
 10
0.0
 20
67.89056515325748
 30
0.0
  0
SPLINE
  5
1B2
330
1F
100
AcDbEntity
  8
0
370
    -3
100
AcDbSpline
210
0.0
220
0.0
230
1.0
 70
     8
 71
     3
 72
    30
 73
    26
 74
     0
 42
0.000000001
 43
0.0000000001
 40
0.0
 40
0.0
 40
0.0
 40
0.0
 40
1.0
 40
2.0
 40
3.0
 40
4.0
 40
5.0
 40
6.0
 40
7.0
 40
8.0
 40
9.0
 40
10.0
 40
11.0
 40
12.0
 40
13.0
 40
14.0
 40
15.0
 40
16.0
 40
17.0
 40
18.0
 40
19.0
 40
20.0
 40
21.0
 40
22.0
 40
23.0
 40
23.0
 40
23.0
 40
23.0
 10
0.0
 20
67.89056515325748
 30
0.0
 10
-0.1966763130730556
 20
67.89056549816618
 30
0.0
 10
-0.5900295430791402
 20
67.88570819291266
 30
0.0
 10
-1.179693423375596
 20
67.86366553325954
 30
0.0
 10
-1.768614517271942
 20
67.82676525152004
 30
0.0
 10
-2.356416640576754
 20
67.77500938442586
 30
0.0
 10
-2.942727441149827
 20
67.70846528680698
 30
0.0
 10
-3.52720718704802
 20
67.62739751275701
 30
0.0
 10
-4.109471804392172
 20
67.53170465593793
 30
0.0
 10
-4.689160437370447
 20
67.42148394198323
 30
0.0
 10
-5.265954908069347
 20
67.29699805811629
 30
0.0
 10
-5.839601423725441
 20
67.15878764115949
 30
0.0
 10
-6.409226685081052
 20
67.00447178647016
 30
0.0
 10
-6.97484136158252
 20
66.83747471645789
 30
0.0
 10
-7.517341062115378
 20
66.59292280941573
 30
0.0
 10
-7.958552692669628
 20
66.19204850742771
 30
0.0
 10
-8.307628747082333
 20
65.71561195483345
 30
0.0
 10
-8.647226555480842
 20
65.23328408973177
 30
0.0
 10
-8.986783396905821
 20
64.75069340598002
 30
0.0
 10
-9.325706774821867
 20
64.2677860320689
 30
0.0
 10
-9.66621492417778
 20
63.78571165455069
 30
0.0
 10
-10.00518857728545
 20
63.30355810252357
 30
0.0
 10
-10.34895346677246
 20
62.82105615155022
 30
0.0
 10
-10.67528380275382
 20
62.34016454549431
 30
0.0
 10
-10.91449002921715
 20
62.00069954990805
 30
0.0
 10
-10.89784999137271
 20
61.80676141993877
 30
0.0
  0
SPLINE
  5
1B3
330
1F
100
AcDbEntity
  8
0
370
    -3
100
AcDbSpline
210
0.0
220
0.0
230
1.0
 70
     8
 71
     3
 72
     8
 73
     4
 74
     0
 42
0.000000001
 43
0.0000000001
 40
-24.25655351810215
 40
-24.25655351810215
 40
-24.25655351810215
 40
-24.25655351810215
 40
-23.0
 40
-23.0
 40
-23.0
 40
-23.0
 10
11.70414470842096
 20
62.76053167861178
 30
0.0
 10
11.43564479473702
 20
62.44301461628168
 30
0.0
 10
11.16705053092127
 20
62.12533238829629
 30
0.0
 10
10.89811773921858
 20
61.80708296147078
 30
0.0
  0
SPLINE
  5
1B4
330
1F
100
AcDbEntity
  8
0
370
    -3
100
AcDbSpline
210
0.0
220
0.0
230
1.0
 70
     8
 71
     3
 72
    30
 73
    26
 74
     0
 42
0.000000001
 43
0.0000000001
 40
-23.0
 40
-23.0
 40
-23.0
 40
-23.0
 40
-22.0
 40
-21.0
 40
-20.0
 40
-19.0
 40
-18.0
 40
-17.0
 40
-16.0
 40
-15.0
 40
-14.0
 40
-13.0
 40
-12.0
 40
-11.0
 40
-10.0
 40
-9.0
 40
-8.0
 40
-7.0
 40
-6.0
 40
-5.0
 40
-4.0
 40
-3.0
 40
-2.0
 40
-1.0
 40
0.0
 40
0.0
 40
0.0
 40
0.0
 10
10.89811773921858
 20
61.80708296147078
 30
0.0
 10
10.74397596158761
 20
61.7486679986873
 30
0.0
 10
10.44033286799515
 20
61.91359209583148
 30
0.0
 10
9.991748318636553
 20
62.07188867814057
 30
0.0
 10
9.541409698769058
 20
62.25425665197268
 30
0.0
 10
9.091304559134727
 20
62.42967672890386
 30
0.0
 10
8.642064712758923
 20
62.60893171439282
 30
0.0
 10
8.191029862720626
 20
62.78459627313285
 30
0.0
 10
7.721449894155796
 20
62.90395969338117
 30
0.0
 10
7.243759027090505
 20
62.98127831995519
 30
0.0
 10
6.76244783374915
 20
63.02995753884026
 30
0.0
 10
6.279937280020789
 20
63.06317863149198
 30
0.0
 10
5.797167454259636
 20
63.09230849664266
 30
0.0
 10
5.314989032602682
 20
63.1299780306329
 30
0.0
 10
4.832630812441153
 20
63.16513270263933
 30
0.0
 10
4.350018893806066
 20
63.19668807162851
 30
0.0
 10
3.867203711442642
 20
63.22493332062835
 30
0.0
 10
3.384195174932927
 20
63.24966515702985
 30
0.0
 10
2.901030295667169
 20
63.2711117629341
 30
0.0
 10
2.417734438594493
 20
63.28937531998294
 30
0.0
 10
1.934324049862767
 20
63.30430848453582
 30
0.0
 10
1.450822930238928
 20
63.31593357954515
 30
0.0
 10
0.9672533135552328
 20
63.32423928449454
 30
0.0
 10
0.4836380502098905
 20
63.32922602194752
 30
0.0
 10
0.1612126967617655
 20
63.33033787788449
 30
0.0
 10
0.0
 20
63.33034111865179
 30
0.0
  0
SPLINE
  5
1B5
330
1F
100
AcDbEntity
  8
0
370
    -3
100
AcDbSpline
210
0.0
220
0.0
230
1.0
 70
     8
 71
     3
 72
    30
 73
    26
 74
     0
 42
0.000000001
 43
0.0000000001
 40
0.0
 40
0.0
 40
0.0
 40
0.0
 40
1.0
 40
2.0
 40
3.0
 40
4.0
 40
5.0
 40
6.0
 40
7.0
 40
8.0
 40
9.0
 40
10.0
 40
11.0
 40
12.0
 40
13.0
 40
14.0
 40
15.0
 40
16.0
 40
17.0
 40
18.0
 40
19.0
 40
20.0
 40
21.0
 40
22.0
 40
23.0
 40
23.0
 40
23.0
 40
23.0
 10
0.0
 20
63.33034111865179
 30
0.0
 10
-0.1612126967617655
 20
63.33033787788449
 30
0.0
 10
-0.4836380502098905
 20
63.32922602194752
 30
0.0
 10
-0.9672533135552328
 20
63.32423928449454
 30
0.0
 10
-1.450822930238928
 20
63.31593357954515
 30
0.0
 10
-1.934324049862767
 20
63.30430848453582
 30
0.0
 10
-2.417734438594493
 20
63.28937531998294
 30
0.0
 10
-2.901030295667169
 20
63.2711117629341
 30
0.0
 10
-3.384195174932927
 20
63.24966515702985
 30
0.0
 10
-3.867203711442642
 20
63.22493332062835
 30
0.0
 10
-4.350018893806066
 20
63.19668807162851
 30
0.0
 10
-4.832630812441153
 20
63.16513270263933
 30
0.0
 10
-5.314989032602682
 20
63.1299780306329
 30
0.0
 10
-5.797167454259636
 20
63.09230849664266
 30
0.0
 10
-6.279937280020789
 20
63.06317863149198
 30
0.0
 10
-6.76244783374915
 20
63.02995753884026
 30
0.0
 10
-7.243759027090505
 20
62.98127831995519
 30
0.0
 10
-7.721449894155796
 20
62.90395969338117
 30
0.0
 10
-8.191029862720626
 20
62.78459627313285
 30
0.0
 10
-8.642064712758923
 20
62.60893171439282
 30
0.0
 10
-9.091304559134727
 20
62.42967672890386
 30
0.0
 10
-9.541409698769058
 20
62.25425665197268
 30
0.0
 10
-9.991748318636553
 20
62.07188867814057
 30
0.0
 10
-10.44033286799515
 20
61.91359209583148
 30
0.0
 10
-10.74397596158761
 20
61.7486679986873
 30
0.0
 10
-10.89811773921858
 20
61.80708296147078
 30
0.0
  0
SPLINE
  5
1B6
330
1F
100
AcDbEntity
  8
0
370
    -3
100
AcDbSpline
210
0.0
220
0.0
230
1.0
 70
     8
 71
     3
 72
     8
 73
     4
 74
     0
 42
0.000000001
 43
0.0000000001
 40
23.0
 40
23.0
 40
23.0
 40
23.0
 40
24.25655351810215
 40
24.25655351810215
 40
24.25655351810215
 40
24.25655351810215
 10
-10.89811773921858
 20
61.80708296147078
 30
0.0
 10
-11.16705053092127
 20
62.12533238829629
 30
0.0
 10
-11.43564479473702
 20
62.44301461628168
 30
0.0
 10
-11.70414470842096
 20
62.76053167861178
 30
0.0
  0
SPLINE
  5
1B7
330
1F
100
AcDbEntity
  8
0
370
    -3
100
AcDbSpline
210
0.0
220
0.0
230
1.0
 70
     8
 71
     3
 72
    30
 73
    26
 74
     0
 42
0.000000001
 43
0.0000000001
 40
24.25655351810215
 40
24.25655351810215
 40
24.25655351810215
 40
24.25655351810215
 40
25.25655351810215
 40
26.25655351810215
 40
27.25655351810215
 40
28.25655351810215
 40
29.25655351810215
 40
30.25655351810215
 40
31.25655351810215
 40
32.25655351810215
 40
33.25655351810215
 40
34.25655351810215
 40
35.25655351810215
 40
36.25655351810215
 40
37.25655351810215
 40
38.25655351810215
 40
39.25655351810215
 40
40.25655351810215
 40
41.25655351810215
 40
42.25655351810215
 40
43.25655351810215
 40
44.25655351810215
 40
45.25655351810215
 40
46.25655351810215
 40
47.25655351810215
 40
47.25655351810215
 40
47.25655351810215
 40
47.25655351810215
 10
-11.70414470842096
 20
62.76053167861178
 30
0.0
 10
-11.72434553975316
 20
62.96777735671179
 30
0.0
 10
-11.47249168750835
 20
63.33079143645283
 30
0.0
 10
-11.11658548754539
 20
63.8366897432394
 30
0.0
 10
-10.74614684794437
 20
64.34687117623511
 30
0.0
 10
-10.37949142785217
 20
64.85581466536183
 30
0.0
 10
-10.01174282309174
 20
65.36507196832964
 30
0.0
 10
-9.644330812754873
 20
65.8741297802241
 30
0.0
 10
-9.276481576339904
 20
66.38353939046209
 30
0.0
 10
-8.910154728547639
 20
66.89181879026859
 30
0.0
 10
-8.53863076491669
 20
67.40459656128974
 30
0.0
 10
-8.007489775305999
 20
67.75495435025046
 30
0.0
 10
-7.424807121195698
 20
67.99107264192011
 30
0.0
 10
-6.821355327384083
 20
68.1663696175902
 30
0.0
 10
-6.215058529569632
 20
68.32956336223748
 30
0.0
 10
-5.604488263459075
 20
68.47663802681245
 30
0.0
 10
-4.990634332982552
 20
68.60910239558382
 30
0.0
 10
-4.373694112896686
 20
68.72644290165198
 30
0.0
 10
-3.754008849430789
 20
68.8282872379768
 30
0.0
 10
-3.131924214904615
 20
68.91427853741297
 30
0.0
 10
-2.507869006006274
 20
68.98453785117911
 30
0.0
 10
-1.882263272861763
 20
69.03928525161638
 30
0.0
 10
-1.255496084838001
 20
69.0785640353768
 30
0.0
 10
-0.6279479689074492
 20
69.10231080958656
 30
0.0
 10
-0.2093163249930399
 20
69.10765846906745
 30
0.0
 10
0.0
 20
69.10765936144522
 30
0.0
  0
SPLINE
  5
1B8
330
1F
100
AcDbEntity
  8
0
370
    -3
100
AcDbSpline
210
0.0
220
0.0
230
1.0
 70
     8
 71
     3
 72
    30
 73
    26
 74
     0
 42
0.000000001
 43
0.0000000001
 40
47.25655351810215
 40
47.25655351810215
 40
47.25655351810215
 40
47.25655351810215
 40
48.25655351810215
 40
49.25655351810215
 40
50.25655351810215
 40
51.25655351810215
 40
52.25655351810215
 40
53.25655351810215
 40
54.25655351810215
 40
55.25655351810215
 40
56.25655351810215
 40
57.25655351810215
 40
58.25655351810215
 40
59.25655351810215
 40
60.25655351810215
 40
61.25655351810215
 40
62.25655351810215
 40
63.25655351810215
 40
64.25655351810215
 40
65.25655351810215
 40
66.25655351810215
 40
67.25655351810215
 40
68.25655351810215
 40
69.25655351810215
 40
70.25655351810215
 40
70.25655351810215
 40
70.25655351810215
 40
70.25655351810215
 10
0.0
 20
69.10765936144522
 30
0.0
 10
0.2093163249930399
 20
69.10765846906745
 30
0.0
 10
0.6279479689074492
 20
69.10231080958656
 30
0.0
 10
1.255496084838001
 20
69.0785640353768
 30
0.0
 10
1.882263272861763
 20
69.03928525161638
 30
0.0
 10
2.507869006006274
 20
68.98453785117911
 30
0.0
 10
3.131924214904615
 20
68.91427853741297
 30
0.0
 10
3.754008849430789
 20
68.8282872379768
 30
0.0
 10
4.373694112896686
 20
68.72644290165198
 30
0.0
 10
4.990634332982552
 20
68.60910239558382
 30
0.0
 10
5.604488263459075
 20
68.47663802681245
 30
0.0
 10
6.215058529569632
 20
68.32956336223748
 30
0.0
 10
6.821355327384083
 20
68.1663696175902
 30
0.0
 10
7.424807121195698
 20
67.99107264192011
 30
0.0
 10
8.007489775305999
 20
67.75495435025046
 30
0.0
 10
8.53863076491669
 20
67.40459656128974
 30
0.0
 10
8.910154728547639
 20
66.89181879026859
 30
0.0
 10
9.276481576339904
 20
66.38353939046209
 30
0.0
 10
9.644330812754873
 20
65.8741297802241
 30
0.0
 10
10.01174282309174
 20
65.36507196832964
 30
0.0
 10
10.37949142785217
 20
64.85581466536183
 30
0.0
 10
10.74614684794437
 20
64.34687117623511
 30
0.0
 10
11.11658548754539
 20
63.8366897432394
 30
0.0
 10
11.47249168750835
 20
63.33079143645283
 30
0.0
 10
11.72434553975316
 20
62.96777735671179
 30
0.0
 10
11.70414470842096
 20
62.76053167861178
 30
0.0
  0
SPLINE
  5
1B9
330
1F
100
AcDbEntity
  8
0
370
    -3
100
AcDbSpline
210
0.0
220
0.0
230
1.0
 70
     8
 71
     3
 72
    15
 73
    11
 74
     0
 42
0.000000001
 43
0.0000000001
 40
-0.9381793405093792
 40
-0.9381793405093792
 40
-0.9381793405093792
 40
-0.9381793405093792
 40
-0.8818968892448916
 40
-0.7545979264285143
 40
-0.6272989636121369
 40
-0.5000000007957596
 40
-0.3727077505921837
 40
-0.2454155003883212
 40
-0.118123250184618
 40
0.0
 40
0.0
 40
0.0
 40
0.0
 10
-12.87711008409954
 20
56.70906896980214
 30
0.0
 10
-12.91371129631165
 20
56.71698907219963
 30
0.0
 10
-13.03060162871137
 20
56.7532389861036
 30
0.0
 10
-13.20459165422631
 20
56.86951950041773
 30
0.0
 10
-13.34594250508016
 20
57.08211503913105
 30
0.0
 10
-13.39514003481531
 20
57.33153060753367
 30
0.0
 10
-13.34594599936941
 20
57.58094179502457
 30
0.0
 10
-13.20460955008153
 20
57.79352998588323
 30
0.0
 10
-12.99602458842136
 20
57.93294661667202
 30
0.0
 10
-12.8333955148133
 20
57.96681892285241
 30
0.0
 10
-12.75448134119253
 20
57.96834675355073
 30
0.0
  0
SPLINE
  5
1BA
330
1F
100
AcDbEntity
  8
0
370
    -3
100
AcDbSpline
210
0.0
220
0.0
230
1.0
 70
    24
 71
     3
 72
     8
 73
     4
 74
     0
 42
0.000000001
 43
0.0000000001
 40
0.0
 40
0.0
 40
0.0
 40
0.0
 40
0.9999999792069942
 40
0.9999999792069942
 40
0.9999999792069942
 40
0.9999999792069942
 10
-12.75448134119253
 20
57.96834675355073
 30
0.0
 10
-12.75101885534045
 20
57.96841327287221
 30
0.0
 10
-12.7475563693917
 20
57.96847979224177
 30
0.0
 10
-12.74409388323505
 20
57.96854631166148
 30
0.0
  0
SPLINE
  5
1BB
330
1F
100
AcDbEntity
  8
0
370
    -3
100
AcDbSpline
210
0.0
220
0.0
230
1.0
 70
     8
 71
     3
 72
     8
 73
     4
 74
     0
 42
0.000000001
 43
0.0000000001
 40
0.9999999792069942
 40
0.9999999792069942
 40
0.9999999792069942
 40
0.9999999792069942
 40
1.025669281411288
 40
1.025669281411288
 40
1.025669281411288
 40
1.025669281411288
 10
-12.74409388323505
 20
57.96854631166148
 30
0.0
 10
-12.7327321606484
 20
57.96876285501848
 30
0.0
 10
-12.72137043583064
 20
57.96897939891589
 30
0.0
 10
-12.71000870878169
 20
57.9691959433537
 30
0.0
  0
SPLINE
  5
1BC
330
1F
100
AcDbEntity
  8
0
370
    -3
100
AcDbSpline
210
0.0
220
0.0
230
1.0
 70
     8
 71
     3
 72
    64
 73
    60
 74
     0
 42
0.000000001
 43
0.0000000001
 40
0.0
 40
0.0
 40
0.0
 40
0.0
 40
1.0
 40
2.0
 40
3.0
 40
4.0
 40
5.0
 40
6.0
 40
7.0
 40
8.0
 40
9.0
 40
10.0
 40
11.0
 40
12.0
 40
13.0
 40
14.0
 40
15.0
 40
16.0
 40
17.0
 40
18.0
 40
19.0
 40
20.0
 40
21.0
 40
22.0
 40
23.0
 40
24.0
 40
25.0
 40
26.0
 40
27.0
 40
28.0
 40
29.0
 40
30.0
 40
31.0
 40
32.0
 40
33.0
 40
34.0
 40
35.0
 40
36.0
 40
37.0
 40
38.0
 40
39.0
 40
40.0
 40
41.0
 40
42.0
 40
43.0
 40
44.0
 40
45.0
 40
46.0
 40
47.0
 40
48.0
 40
49.0
 40
50.0
 40
51.0
 40
52.0
 40
53.0
 40
54.0
 40
55.0
 40
56.0
 40
57.0
 40
57.0
 40
57.0
 40
57.0
 10
-5.751308904503219
 20
62.63808286365823
 30
0.0
 10
-5.926284707900464
 20
62.61970237231756
 30
0.0
 10
-6.275712911499056
 20
62.57816233749005
 30
0.0
 10
-6.797915804319189
 20
62.50063669796602
 30
0.0
 10
-7.315698148970483
 20
62.39746731553112
 30
0.0
 10
-7.825357520955436
 20
62.25748430872164
 30
0.0
 10
-8.31345081759838
 20
62.05328563239638
 30
0.0
 10
-8.76481592643492
 20
61.77794072409199
 30
0.0
 10
-9.2260234183548
 20
61.52142321704972
 30
0.0
 10
-9.683904984219453
 20
61.259523578013
 30
0.0
 10
-10.14524787578659
 20
61.00032506309936
 30
0.0
 10
-10.59607139053119
 20
60.73570418372757
 30
0.0
 10
-11.08551160522453
 20
60.49007134382829
 30
0.0
 10
-11.25681516893707
 20
59.95752233121803
 30
0.0
 10
-11.34637860048031
 20
59.44541269103412
 30
0.0
 10
-11.4177316760682
 20
58.92022751232339
 30
0.0
 10
-11.49333892164614
 20
58.3984556783485
 30
0.0
 10
-11.56718074863622
 20
57.87568069853168
 30
0.0
 10
-11.64087018973828
 20
57.35308539479234
 30
0.0
 10
-11.71397492528607
 20
56.83035353958602
 30
0.0
 10
-11.78661060909445
 20
56.30757151741086
 30
0.0
 10
-11.85874610919072
 20
55.78471611932751
 30
0.0
 10
-11.93039022877977
 20
55.26179442224553
 30
0.0
 10
-12.00153851130361
 20
54.73880412427602
 30
0.0
 10
-12.07219960401633
 20
54.21575015284187
 30
0.0
 10
-12.14234299862315
 20
53.69261789689151
 30
0.0
 10
-12.21208170514845
 20
53.16946366994133
 30
0.0
 10
-12.28099381582348
 20
52.64607962570001
 30
0.0
 10
-12.35065357566654
 20
52.12324363253694
 30
0.0
 10
-12.41518553627367
 20
51.59805485999104
 30
0.0
 10
-12.49651675564093
 20
51.08134243989328
 30
0.0
 10
-12.48158350252956
 20
50.52943006609623
 30
0.0
 10
-12.12638051025925
 20
50.12144773368701
 30
0.0
 10
-11.77201156335209
 20
49.73499974899595
 30
0.0
 10
-11.4127900607337
 20
49.34701901353767
 30
0.0
 10
-11.05027579083304
 20
48.96373246911828
 30
0.0
 10
-10.68397479191523
 20
48.58362738630994
 30
0.0
 10
-10.3141049527614
 20
48.20711006081421
 30
0.0
 10
-9.940605130984892
 20
47.83416549319584
 30
0.0
 10
-9.564574043997027
 20
47.46378523277033
 30
0.0
 10
-9.18122268548342
 20
47.1008686146926
 30
0.0
 10
-8.810696928704658
 20
46.72504230728944
 30
0.0
 10
-8.388455975739447
 20
46.40184426011066
 30
0.0
 10
-7.890226293829897
 20
46.21430182955589
 30
0.0
 10
-7.371174580611836
 20
46.11610886955425
 30
0.0
 10
-6.848613020003626
 20
46.04178692118747
 30
0.0
 10
-6.324173641101027
 20
45.98184940149359
 30
0.0
 10
-5.798830113885344
 20
45.93082537532938
 30
0.0
 10
-5.272870013719626
 20
45.88659110017645
 30
0.0
 10
-4.746496035631708
 20
45.84765570734671
 30
0.0
 10
-4.219792536663874
 20
45.81346160101542
 30
0.0
 10
-3.692841162589787
 20
45.78336437487204
 30
0.0
 10
-3.165681112164663
 20
45.75715793600914
 30
0.0
 10
-2.638346199222752
 20
45.73476111477346
 30
0.0
 10
-2.110866907395007
 20
45.71607510535385
 30
0.0
 10
-1.583268035197932
 20
45.70112344091341
 30
0.0
 10
-1.055572390000293
 20
45.69009256396216
 30
0.0
 10
-0.5278068062957573
 20
45.68315609370349
 30
0.0
 10
-0.175935545604716
 20
45.68151438718924
 30
0.0
 10
0.0
 20
45.68151614506915
 30
0.0
  0
SPLINE
  5
1BD
330
1F
100
AcDbEntity
  8
0
370
    -3
100
AcDbSpline
210
0.0
220
0.0
230
1.0
 70
     8
 71
     3
 72
    64
 73
    60
 74
     0
 42
0.000000001
 43
0.0000000001
 40
57.0
 40
57.0
 40
57.0
 40
57.0
 40
58.0
 40
59.0
 40
60.0
 40
61.0
 40
62.0
 40
63.0
 40
64.0
 40
65.0
 40
66.0
 40
67.0
 40
68.0
 40
69.0
 40
70.0
 40
71.0
 40
72.0
 40
73.0
 40
74.0
 40
75.0
 40
76.0
 40
77.0
 40
78.0
 40
79.0
 40
80.0
 40
81.0
 40
82.0
 40
83.0
 40
84.0
 40
85.0
 40
86.0
 40
87.0
 40
88.0
 40
89.0
 40
90.0
 40
91.0
 40
92.0
 40
93.0
 40
94.0
 40
95.0
 40
96.0
 40
97.0
 40
98.0
 40
99.0
 40
100.0
 40
101.0
 40
102.0
 40
103.0
 40
104.0
 40
105.0
 40
106.0
 40
107.0
 40
108.0
 40
109.0
 40
110.0
 40
111.0
 40
112.0
 40
113.0
 40
114.0
 40
114.0
 40
114.0
 40
114.0
 10
0.0
 20
45.68151614506915
 30
0.0
 10
0.175935545604716
 20
45.68151438718924
 30
0.0
 10
0.5278068062957573
 20
45.68315609370349
 30
0.0
 10
1.055572390000293
 20
45.69009256396216
 30
0.0
 10
1.583268035197932
 20
45.70112344091341
 30
0.0
 10
2.110866907395007
 20
45.71607510535385
 30
0.0
 10
2.638346199222752
 20
45.73476111477346
 30
0.0
 10
3.165681112164663
 20
45.75715793600914
 30
0.0
 10
3.692841162589787
 20
45.78336437487204
 30
0.0
 10
4.219792536663874
 20
45.81346160101542
 30
0.0
 10
4.746496035631708
 20
45.84765570734671
 30
0.0
 10
5.272870013719626
 20
45.88659110017645
 30
0.0
 10
5.798830113885344
 20
45.93082537532938
 30
0.0
 10
6.324173641101027
 20
45.98184940149359
 30
0.0
 10
6.848613020003626
 20
46.04178692118747
 30
0.0
 10
7.371174580611836
 20
46.11610886955425
 30
0.0
 10
7.890226293829897
 20
46.21430182955589
 30
0.0
 10
8.388455975739447
 20
46.40184426011066
 30
0.0
 10
8.810696928704658
 20
46.72504230728944
 30
0.0
 10
9.18122268548342
 20
47.1008686146926
 30
0.0
 10
9.564574043997027
 20
47.46378523277033
 30
0.0
 10
9.940605130984892
 20
47.83416549319584
 30
0.0
 10
10.3141049527614
 20
48.20711006081421
 30
0.0
 10
10.68397479191523
 20
48.58362738630994
 30
0.0
 10
11.05027579083304
 20
48.96373246911828
 30
0.0
 10
11.4127900607337
 20
49.34701901353767
 30
0.0
 10
11.77201156335209
 20
49.73499974899595
 30
0.0
 10
12.12638051025925
 20
50.12144773368701
 30
0.0
 10
12.48158350252956
 20
50.52943006609623
 30
0.0
 10
12.49651675564093
 20
51.08134243989328
 30
0.0
 10
12.41518553627367
 20
51.59805485999104
 30
0.0
 10
12.35065357566654
 20
52.12324363253694
 30
0.0
 10
12.28099381582348
 20
52.64607962570001
 30
0.0
 10
12.21208170514845
 20
53.16946366994133
 30
0.0
 10
12.14234299862315
 20
53.69261789689151
 30
0.0
 10
12.07219960401633
 20
54.21575015284187
 30
0.0
 10
12.00153851130361
 20
54.73880412427602
 30
0.0
 10
11.93039022877977
 20
55.26179442224553
 30
0.0
 10
11.85874610919072
 20
55.78471611932751
 30
0.0
 10
11.78661060909445
 20
56.30757151741086
 30
0.0
 10
11.71397492528607
 20
56.83035353958602
 30
0.0
 10
11.64087018973828
 20
57.35308539479234
 30
0.0
 10
11.56718074863622
 20
57.87568069853168
 30
0.0
 10
11.49333892164614
 20
58.3984556783485
 30
0.0
 10
11.4177316760682
 20
58.92022751232339
 30
0.0
 10
11.34637860048031
 20
59.44541269103412
 30
0.0
 10
11.25681516893707
 20
59.95752233121803
 30
0.0
 10
11.08551160522453
 20
60.49007134382829
 30
0.0
 10
10.59607139053119
 20
60.73570418372757
 30
0.0
 10
10.14524787578659
 20
61.00032506309936
 30
0.0
 10
9.683904984219453
 20
61.259523578013
 30
0.0
 10
9.2260234183548
 20
61.52142321704972
 30
0.0
 10
8.76481592643492
 20
61.77794072409199
 30
0.0
 10
8.31345081759838
 20
62.05328563239638
 30
0.0
 10
7.825357520955436
 20
62.25748430872164
 30
0.0
 10
7.315698148970483
 20
62.39746731553112
 30
0.0
 10
6.797915804319189
 20
62.50063669796602
 30
0.0
 10
6.275712911499056
 20
62.57816233749005
 30
0.0
 10
5.926284707900464
 20
62.61970237231756
 30
0.0
 10
5.751308904503219
 20
62.63808286365823
 30
0.0
  0
SPLINE
  5
1BE
330
1F
100
AcDbEntity
  8
0
370
    -3
100
AcDbSpline
210
0.0
220
0.0
230
1.0
 70
     8
 71
     3
 72
    79
 73
    75
 74
     0
 42
0.000000001
 43
0.0000000001
 40
0.0
 40
0.0
 40
0.0
 40
0.0
 40
1.0
 40
2.0
 40
3.0
 40
4.0
 40
5.0
 40
6.0
 40
7.0
 40
8.0
 40
9.0
 40
10.0
 40
11.0
 40
12.0
 40
13.0
 40
14.0
 40
15.0
 40
16.0
 40
17.0
 40
18.0
 40
19.0
 40
20.0
 40
21.0
 40
22.0
 40
23.0
 40
24.0
 40
25.0
 40
26.0
 40
27.0
 40
28.0
 40
29.0
 40
30.0
 40
31.0
 40
32.0
 40
33.0
 40
34.0
 40
35.0
 40
36.0
 40
37.0
 40
38.0
 40
39.0
 40
40.0
 40
41.0
 40
42.0
 40
43.0
 40
44.0
 40
45.0
 40
46.0
 40
47.0
 40
48.0
 40
49.0
 40
50.0
 40
51.0
 40
52.0
 40
53.0
 40
54.0
 40
55.0
 40
56.0
 40
57.0
 40
58.0
 40
59.0
 40
60.0
 40
61.0
 40
62.0
 40
63.0
 40
64.0
 40
65.0
 40
66.0
 40
67.0
 40
68.0
 40
69.0
 40
70.0
 40
71.0
 40
72.0
 40
72.0
 40
72.0
 40
72.0
 10
0.0
 20
45.62848597876382
 30
0.0
 10
-0.1760199045927209
 20
45.6284866492195
 30
0.0
 10
-0.5280597633780246
 20
45.6299783059161
 30
0.0
 10
-1.056084868880589
 20
45.63636466306249
 30
0.0
 10
-1.584047416963926
 20
45.64669094078299
 30
0.0
 10
-2.111920779902022
 20
45.66086009038931
 30
0.0
 10
-2.639678697154551
 20
45.67881298099227
 30
0.0
 10
-3.167303035398788
 20
45.70032875150279
 30
0.0
 10
-3.694775879831553
 20
45.72528087218181
 30
0.0
 10
-4.22207794676379
 20
45.75361595282811
 30
0.0
 10
-4.749189317002219
 20
45.78529536560188
 30
0.0
 10
-5.276098164000672
 20
45.82017363949956
 30
0.0
 10
-5.802795163181599
 20
45.85813693523492
 30
0.0
 10
-6.329246476628072
 20
45.89932382053824
 30
0.0
 10
-6.855487141335317
 20
45.9432116712275
 30
0.0
 10
-7.38131940469745
 20
45.99156015628198
 30
0.0
 10
-7.907424703874568
 20
46.03746683942549
 30
0.0
 10
-8.43036143741034
 20
46.11458838993574
 30
0.0
 10
-8.940584380216364
 20
46.2564230212897
 30
0.0
 10
-9.41981762296021
 20
46.48387651292722
 30
0.0
 10
-9.84674534446728
 20
46.79807027124873
 30
0.0
 10
-10.22296624610695
 20
47.1694331644064
 30
0.0
 10
-10.60426509264812
 20
47.53455428125413
 30
0.0
 10
-10.97909983477905
 20
47.90658330257825
 30
0.0
 10
-11.35058093277914
 20
48.2818807667208
 30
0.0
 10
-11.71760506774075
 20
48.66152508112565
 30
0.0
 10
-12.08031653745536
 20
49.04543839931888
 30
0.0
 10
-12.43764166874126
 20
49.43381257189424
 30
0.0
 10
-12.79467343061907
 20
49.82449798492743
 30
0.0
 10
-13.13295646220277
 20
50.22458554564334
 30
0.0
 10
-13.52118664450788
 20
50.60739690810681
 30
0.0
 10
-13.58481158977906
 20
51.15516917090738
 30
0.0
 10
-13.50868566987896
 20
51.67485426847573
 30
0.0
 10
-13.44865044258634
 20
52.20030946049755
 30
0.0
 10
-13.38358260900691
 20
52.72413134640746
 30
0.0
 10
-13.31914236653827
 20
53.24830184257168
 30
0.0
 10
-13.25381306052844
 20
53.77228997842457
 30
0.0
 10
-13.18800121373539
 20
54.29623699064189
 30
0.0
 10
-13.12159797789877
 20
54.8201042133966
 30
0.0
 10
-13.05463268961566
 20
55.34390137374814
 30
0.0
 10
-12.98709731694362
 20
55.86762452969572
 30
0.0
 10
-12.91899511711406
 20
56.39127602256025
 30
0.0
 10
-12.85032141620988
 20
56.91484782327665
 30
0.0
 10
-12.78109252605103
 20
57.43836288508328
 30
0.0
 10
-12.71124781362244
 20
57.96173773034398
 30
0.0
 10
-12.64101451825255
 20
58.48527543428717
 30
0.0
 10
-12.569544328684
 20
59.00784687838945
 30
0.0
 10
-12.50000389215273
 20
59.53366043783859
 30
0.0
 10
-12.4205752703958
 20
60.0470089498655
 30
0.0
 10
-12.26871280011542
 20
60.58762994751459
 30
0.0
 10
-11.79884049681183
 20
60.85101364508813
 30
0.0
 10
-11.32184052271319
 20
61.07166433724009
 30
0.0
 10
-10.84667207105102
 20
61.30359772766802
 30
0.0
 10
-10.37130574470416
 20
61.5331330675489
 30
0.0
 10
-9.894899309090562
 20
61.76097795266573
 30
0.0
 10
-9.422850869277426
 20
61.99798285997635
 30
0.0
 10
-8.934411229645576
 20
62.20003780769842
 30
0.0
 10
-8.41994223394093
 20
62.32500220219212
 30
0.0
 10
-7.899807412923991
 20
62.41570861661535
 30
0.0
 10
-7.375639732735038
 20
62.48108677291521
 30
0.0
 10
-6.850216613504102
 20
62.53369261089458
 30
0.0
 10
-6.324119069421016
 20
62.57939048537229
 30
0.0
 10
-5.798822334196984
 20
62.63339735670852
 30
0.0
 10
-5.273351247415434
 20
62.68561067014419
 30
0.0
 10
-4.747227765070704
 20
62.73093096346091
 30
0.0
 10
-4.220766086572695
 20
62.77202605970191
 30
0.0
 10
-3.693942865102656
 20
62.80823687450035
 30
0.0
 10
-3.166817388802571
 20
62.83971665283474
 30
0.0
 10
-2.639420127920062
 20
62.86629272059849
 30
0.0
 10
-2.111797903680582
 20
62.88792688165886
 30
0.0
 10
-1.584001214885035
 20
62.90476863130755
 30
0.0
 10
-1.056074273296787
 20
62.9168601455381
 30
0.0
 10
-0.5280598483821279
 20
62.92419201525021
 30
0.0
 10
-0.1760199834529885
 20
62.92585398452785
 30
0.0
 10
0.0
 20
62.92585431438336
 30
0.0
  0
SPLINE
  5
1BF
330
1F
100
AcDbEntity
  8
0
370
    -3
100
AcDbSpline
210
0.0
220
0.0
230
1.0
 70
     8
 71
     3
 72
    79
 73
    75
 74
     0
 42
0.000000001
 43
0.0000000001
 40
72.0
 40
72.0
 40
72.0
 40
72.0
 40
73.0
 40
74.0
 40
75.0
 40
76.0
 40
77.0
 40
78.0
 40
79.0
 40
80.0
 40
81.0
 40
82.0
 40
83.0
 40
84.0
 40
85.0
 40
86.0
 40
87.0
 40
88.0
 40
89.0
 40
90.0
 40
91.0
 40
92.0
 40
93.0
 40
94.0
 40
95.0
 40
96.0
 40
97.0
 40
98.0
 40
99.0
 40
100.0
 40
101.0
 40
102.0
 40
103.0
 40
104.0
 40
105.0
 40
106.0
 40
107.0
 40
108.0
 40
109.0
 40
110.0
 40
111.0
 40
112.0
 40
113.0
 40
114.0
 40
115.0
 40
116.0
 40
117.0
 40
118.0
 40
119.0
 40
120.0
 40
121.0
 40
122.0
 40
123.0
 40
124.0
 40
125.0
 40
126.0
 40
127.0
 40
128.0
 40
129.0
 40
130.0
 40
131.0
 40
132.0
 40
133.0
 40
134.0
 40
135.0
 40
136.0
 40
137.0
 40
138.0
 40
139.0
 40
140.0
 40
141.0
 40
142.0
 40
143.0
 40
144.0
 40
144.0
 40
144.0
 40
144.0
 10
0.0
 20
62.92585431438336
 30
0.0
 10
0.1760199834529885
 20
62.92585398452785
 30
0.0
 10
0.5280598483821279
 20
62.92419201525021
 30
0.0
 10
1.056074273296787
 20
62.9168601455381
 30
0.0
 10
1.584001214885035
 20
62.90476863130755
 30
0.0
 10
2.111797903680582
 20
62.88792688165886
 30
0.0
 10
2.639420127920062
 20
62.86629272059849
 30
0.0
 10
3.166817388802571
 20
62.83971665283474
 30
0.0
 10
3.693942865102656
 20
62.80823687450035
 30
0.0
 10
4.220766086572695
 20
62.77202605970191
 30
0.0
 10
4.747227765070704
 20
62.73093096346091
 30
0.0
 10
5.273351247415434
 20
62.68561067014419
 30
0.0
 10
5.798822334196984
 20
62.63339735670852
 30
0.0
 10
6.324119069421016
 20
62.57939048537229
 30
0.0
 10
6.850216613504102
 20
62.53369261089458
 30
0.0
 10
7.375639732735038
 20
62.48108677291521
 30
0.0
 10
7.899807412923991
 20
62.41570861661535
 30
0.0
 10
8.41994223394093
 20
62.32500220219212
 30
0.0
 10
8.934411229645576
 20
62.20003780769842
 30
0.0
 10
9.422850869277426
 20
61.99798285997635
 30
0.0
 10
9.894899309090562
 20
61.76097795266573
 30
0.0
 10
10.37130574470416
 20
61.5331330675489
 30
0.0
 10
10.84667207105102
 20
61.30359772766802
 30
0.0
 10
11.32184052271319
 20
61.07166433724009
 30
0.0
 10
11.79884049681183
 20
60.85101364508813
 30
0.0
 10
12.26871280011542
 20
60.58762994751459
 30
0.0
 10
12.4205752703958
 20
60.0470089498655
 30
0.0
 10
12.50000389215273
 20
59.53366043783859
 30
0.0
 10
12.569544328684
 20
59.00784687838945
 30
0.0
 10
12.64101451825255
 20
58.48527543428717
 30
0.0
 10
12.71124781362244
 20
57.96173773034398
 30
0.0
 10
12.78109252605103
 20
57.43836288508328
 30
0.0
 10
12.85032141620988
 20
56.91484782327665
 30
0.0
 10
12.91899511711406
 20
56.39127602256025
 30
0.0
 10
12.98709731694362
 20
55.86762452969572
 30
0.0
 10
13.05463268961566
 20
55.34390137374814
 30
0.0
 10
13.12159797789877
 20
54.8201042133966
 30
0.0
 10
13.18800121373539
 20
54.29623699064189
 30
0.0
 10
13.25381306052844
 20
53.77228997842457
 30
0.0
 10
13.31914236653827
 20
53.24830184257168
 30
0.0
 10
13.38358260900691
 20
52.72413134640746
 30
0.0
 10
13.44865044258634
 20
52.20030946049755
 30
0.0
 10
13.50868566987896
 20
51.67485426847573
 30
0.0
 10
13.58481158977906
 20
51.15516917090738
 30
0.0
 10
13.52118664450788
 20
50.60739690810681
 30
0.0
 10
13.13295646220277
 20
50.22458554564334
 30
0.0
 10
12.79467343061907
 20
49.82449798492743
 30
0.0
 10
12.43764166874126
 20
49.43381257189424
 30
0.0
 10
12.08031653745536
 20
49.04543839931888
 30
0.0
 10
11.71760506774075
 20
48.66152508112565
 30
0.0
 10
11.35058093277914
 20
48.2818807667208
 30
0.0
 10
10.97909983477905
 20
47.90658330257825
 30
0.0
 10
10.60426509264812
 20
47.53455428125413
 30
0.0
 10
10.22296624610695
 20
47.1694331644064
 30
0.0
 10
9.84674534446728
 20
46.79807027124873
 30
0.0
 10
9.41981762296021
 20
46.48387651292722
 30
0.0
 10
8.940584380216364
 20
46.2564230212897
 30
0.0
 10
8.43036143741034
 20
46.11458838993574
 30
0.0
 10
7.907424703874568
 20
46.03746683942549
 30
0.0
 10
7.38131940469745
 20
45.99156015628198
 30
0.0
 10
6.855487141335317
 20
45.9432116712275
 30
0.0
 10
6.329246476628072
 20
45.89932382053824
 30
0.0
 10
5.802795163181599
 20
45.85813693523492
 30
0.0
 10
5.276098164000672
 20
45.82017363949956
 30
0.0
 10
4.749189317002219
 20
45.78529536560188
 30
0.0
 10
4.22207794676379
 20
45.75361595282811
 30
0.0
 10
3.694775879831553
 20
45.72528087218181
 30
0.0
 10
3.167303035398788
 20
45.70032875150279
 30
0.0
 10
2.639678697154551
 20
45.67881298099227
 30
0.0
 10
2.111920779902022
 20
45.66086009038931
 30
0.0
 10
1.584047416963926
 20
45.64669094078299
 30
0.0
 10
1.056084868880589
 20
45.63636466306249
 30
0.0
 10
0.5280597633780246
 20
45.6299783059161
 30
0.0
 10
0.1760199045927209
 20
45.6284866492195
 30
0.0
 10
0.0
 20
45.62848597876382
 30
0.0
  0
SPLINE
  5
1C0
330
1F
100
AcDbEntity
  8
0
370
    -3
100
AcDbSpline
210
0.0
220
0.0
230
1.0
 70
    24
 71
     2
 72
     6
 73
     3
 74
     0
 42
0.000000001
 43
0.0000000001
 40
6.77136283995501
 40
6.77136283995501
 40
6.77136283995501
 40
7.179860676427618
 40
7.179860676427618
 40
7.179860676427618
 10
1.5
 20
62.90621820284222
 30
0.0
 10
1.5
 20
63.11028383841759
 30
0.0
 10
1.5
 20
63.31434947399296
 30
0.0
  0
SPLINE
  5
1C1
330
1F
100
AcDbEntity
  8
0
370
    -3
100
AcDbSpline
210
0.0
220
0.0
230
1.0
 70
     8
 71
     3
 72
    15
 73
    11
 74
     0
 42
0.000000001
 43
0.0000000001
 40
-0.9381793405093792
 40
-0.9381793405093792
 40
-0.9381793405093792
 40
-0.9381793405093792
 40
-0.8818968892448916
 40
-0.7545979264285143
 40
-0.6272989636121369
 40
-0.5000000007957596
 40
-0.3727077505921837
 40
-0.2454155003883212
 40
-0.118123250184618
 40
0.0
 40
0.0
 40
0.0
 40
0.0
 10
12.87711008409954
 20
56.70906896980214
 30
0.0
 10
12.91371129631165
 20
56.71698907219963
 30
0.0
 10
13.03060162871137
 20
56.7532389861036
 30
0.0
 10
13.20459165422631
 20
56.86951950041773
 30
0.0
 10
13.34594250508016
 20
57.08211503913105
 30
0.0
 10
13.39514003481531
 20
57.33153060753367
 30
0.0
 10
13.34594599936941
 20
57.58094179502457
 30
0.0
 10
13.20460955008153
 20
57.79352998588323
 30
0.0
 10
12.99602458842136
 20
57.93294661667202
 30
0.0
 10
12.8333955148133
 20
57.96681892285241
 30
0.0
 10
12.75448134119253
 20
57.96834675355073
 30
0.0
  0
SPLINE
  5
1C2
330
1F
100
AcDbEntity
  8
0
370
    -3
100
AcDbSpline
210
0.0
220
0.0
230
1.0
 70
    24
 71
     3
 72
     8
 73
     4
 74
     0
 42
0.000000001
 43
0.0000000001
 40
0.0
 40
0.0
 40
0.0
 40
0.0
 40
0.9999999792069942
 40
0.9999999792069942
 40
0.9999999792069942
 40
0.9999999792069942
 10
12.75448134119253
 20
57.96834675355073
 30
0.0
 10
12.75101885534045
 20
57.96841327287221
 30
0.0
 10
12.7475563693917
 20
57.96847979224177
 30
0.0
 10
12.74409388323505
 20
57.96854631166148
 30
0.0
  0
SPLINE
  5
1C3
330
1F
100
AcDbEntity
  8
0
370
    -3
100
AcDbSpline
210
0.0
220
0.0
230
1.0
 70
     8
 71
     3
 72
     8
 73
     4
 74
     0
 42
0.000000001
 43
0.0000000001
 40
0.9999999792069942
 40
0.9999999792069942
 40
0.9999999792069942
 40
0.9999999792069942
 40
1.025669281411288
 40
1.025669281411288
 40
1.025669281411288
 40
1.025669281411288
 10
12.74409388323505
 20
57.96854631166148
 30
0.0
 10
12.7327321606484
 20
57.96876285501848
 30
0.0
 10
12.72137043583064
 20
57.96897939891589
 30
0.0
 10
12.71000870878169
 20
57.9691959433537
 30
0.0
  0
SPLINE
  5
1C4
330
1F
100
AcDbEntity
  8
0
370
    -3
100
AcDbSpline
210
0.0
220
0.0
230
1.0
 70
     8
 71
     3
 72
    13
 73
     9
 74
     0
 42
0.000000001
 43
0.0000000001
 40
0.4243463934131705
 40
0.4243463934131705
 40
0.4243463934131705
 40
0.4243463934131705
 40
0.462665347400207
 40
0.462665347400207
 40
0.462665347400207
 40
0.5883890606471561
 40
0.5883890606471561
 40
0.6326831411216731
 40
0.6326831411216731
 40
0.6326831411216731
 40
0.6326831411216731
 10
-0.4726857314304596
 20
44.16281746021893
 30
0.0
 10
-0.4642021057333636
 20
44.15341843583988
 30
0.0
 10
-0.4554369317288263
 20
44.14427509845048
 30
0.0
 10
-0.4464028818260033
 20
44.13540673143616
 30
0.0
 10
-0.4268637725062092
 20
44.1162259659495
 30
0.0
 10
-0.4059732849229647
 20
44.09825622439453
 30
0.0
 10
-0.3764586998090351
 20
44.07601176567547
 30
0.0
 10
-0.3210136478017489
 20
44.03985324295417
 30
0.0
 10
-0.3148170283602951
 20
44.03635992678854
 30
0.0
  0
SPLINE
  5
1C5
330
1F
100
AcDbEntity
  8
0
370
    -3
100
AcDbSpline
210
0.0
220
0.0
230
1.0
 70
     8
 71
     3
 72
     8
 73
     4
 74
     0
 42
0.000000001
 43
0.0000000001
 40
0.2055024851261562
 40
0.2055024851261562
 40
0.2055024851261562
 40
0.2055024851261562
 40
0.992177252570368
 40
0.992177252570368
 40
0.992177252570368
 40
0.992177252570368
 10
0.6569217387005608
 20
45.6320391537821
 30
0.0
 10
0.6502844234133534
 20
45.28383771131266
 30
0.0
 10
0.643647615676457
 20
44.93563836436454
 30
0.0
 10
0.637011315489616
 20
44.58744111293684
 30
0.0
  0
SPLINE
  5
1C6
330
1F
100
AcDbEntity
  8
0
370
    -3
100
AcDbSpline
210
0.0
220
0.0
230
1.0
 70
    24
 71
     3
 72
     8
 73
     4
 74
     0
 42
0.000000001
 43
0.0000000001
 40
0.992177252570368
 40
0.992177252570368
 40
0.992177252570368
 40
0.992177252570368
 40
1.992177231579859
 40
1.992177231579859
 40
1.992177231579859
 40
1.992177231579859
 10
0.637011315489616
 20
44.58744111293684
 30
0.0
 10
0.6369447960698835
 20
44.5839786267802
 30
0.0
 10
0.6368782767003438
 20
44.58051614083146
 30
0.0
 10
0.6368117573788368
 20
44.57705365497938
 30
0.0
  0
SPLINE
  5
1C7
330
1F
100
AcDbEntity
  8
0
370
    -3
100
AcDbSpline
210
0.0
220
0.0
230
1.0
 70
     8
 71
     3
 72
    15
 73
    11
 74
     0
 42
0.000000001
 43
0.0000000001
 40
1.992177231579859
 40
1.992177231579859
 40
1.992177231579859
 40
1.992177231579859
 40
2.110300481764479
 40
2.237592731968184
 40
2.364884982172047
 40
2.492177232375624
 40
2.619476195192002
 40
2.746775158008381
 40
2.874074120824759
 40
2.992177231579859
 40
2.992177231579859
 40
2.992177231579859
 40
2.992177231579859
 10
0.6368117573788368
 20
44.57705365497938
 30
0.0
 10
0.635283926680529
 20
44.49813948135861
 30
0.0
 10
0.6014116205001301
 20
44.33551040775053
 30
0.0
 10
0.4619949897113429
 20
44.12692544609038
 30
0.0
 10
0.2494067988527036
 20
43.9855889968025
 30
0.0
 10
-0.0000043886382173
 20
43.9363949613566
 30
0.0
 10
-0.2494199570408
 20
43.98559249109174
 30
0.0
 10
-0.4620154957541445
 20
44.1269433419456
 30
0.0
 10
-0.6014191745232154
 20
44.33553245740464
 30
0.0
 10
-0.6352841225581471
 20
44.49815294681558
 30
0.0
 10
-0.6368117488675011
 20
44.57705365515827
 30
0.0
  0
SPLINE
  5
1C8
330
1F
100
AcDbEntity
  8
0
370
    -3
100
AcDbSpline
210
0.0
220
0.0
230
1.0
 70
    24
 71
     3
 72
     8
 73
     4
 74
     0
 42
0.000000001
 43
0.0000000001
 40
2.992177231579859
 40
2.992177231579859
 40
2.992177231579859
 40
2.992177231579859
 40
3.992177210549992
 40
3.992177210549992
 40
3.992177210549992
 40
3.992177210549992
 10
-0.6368117488675011
 20
44.57705365515827
 30
0.0
 10
-0.63687827102612
 20
44.58051614095133
 30
0.0
 10
-0.6369447932327716
 20
44.58397862684013
 30
0.0
 10
-0.6370113154895876
 20
44.58744111293684
 30
0.0
  0
SPLINE
  5
1C9
330
1F
100
AcDbEntity
  8
0
370
    -3
100
AcDbSpline
210
0.0
220
0.0
230
1.0
 70
     8
 71
     3
 72
     8
 73
     4
 74
     0
 42
0.000000001
 43
0.0000000001
 40
3.992177210549992
 40
3.992177210549992
 40
3.992177210549992
 40
3.992177210549992
 40
4.778705974967544
 40
4.778705974967544
 40
4.778705974967544
 40
4.778705974967544
 10
-0.6370113154895876
 20
44.58744111293684
 30
0.0
 10
-0.6436463840112481
 20
44.93557374064112
 30
0.0
 10
-0.6502819598946132
 20
45.28370846308808
 30
0.0
 10
-0.6569180431398536
 20
45.63184528027858
 30
0.0
  0
ENDSEC
  0
SECTION
  2
OBJECTS
  0
DICTIONARY
  5
C
330
0
100
AcDbDictionary
281
     1
  3
ACAD_DETAILVIEWSTYLE
350
205
  3
ACAD_GROUP
350
D
  3
ACAD_LAYOUT
350
1A
  3
ACAD_MATERIAL
350
43
  3
ACAD_MLEADERSTYLE
350
6B
  3
ACAD_MLINESTYLE
350
17
  3
ACAD_PLOTSETTINGS
350
19
  3
ACAD_PLOTSTYLENAME
350
E
  3
ACAD_SCALELIST
350
47
  3
ACAD_SECTIONVIEWSTYLE
350
206
  3
ACAD_TABLESTYLE
350
69
  3
ACAD_VISUALSTYLE
350
2A
  3
ACDB_RECOMPOSE_DATA
350
202
  3
AcDbVariableDictionary
350
1CA
  0
SUN
  5
6D
330
29
100
AcDbSun
 90
        1
290
     0
 63
     7
421
 16777215
 40
1.0
291
     1
 91
  2455826
 92
 54000000
292
     0
 70
     2
 71
   256
280
     1
  0
DICTIONARY
  5
205
102
{ACAD_REACTORS
330
C
102
}
330
C
100
AcDbDictionary
281
     1
  0
DICTIONARY
  5
D
102
{ACAD_REACTORS
330
C
102
}
330
C
100
AcDbDictionary
281
     1
  0
DICTIONARY
  5
1A
102
{ACAD_REACTORS
330
C
102
}
330
C
100
AcDbDictionary
281
     1
  3
Layout1
350
1E
  3
Layout2
350
26
  3
Model
350
22
  0
DICTIONARY
  5
43
102
{ACAD_REACTORS
330
C
102
}
330
C
100
AcDbDictionary
281
     1
  3
ByBlock
350
45
  3
ByLayer
350
44
  3
Global
350
46
  0
DICTIONARY
  5
6B
102
{ACAD_REACTORS
330
C
102
}
330
C
100
AcDbDictionary
281
     1
  3
Standard
350
6C
  0
DICTIONARY
  5
17
102
{ACAD_REACTORS
330
C
102
}
330
C
100
AcDbDictionary
281
     1
  3
Standard
350
18
  0
DICTIONARY
  5
19
102
{ACAD_REACTORS
330
C
102
}
330
C
100
AcDbDictionary
281
     1
  0
ACDBDICTIONARYWDFLT
  5
E
102
{ACAD_REACTORS
330
C
102
}
330
C
100
AcDbDictionary
281
     1
  3
Normal
350
F
100
AcDbDictionaryWithDefault
340
F
  0
DICTIONARY
  5
47
102
{ACAD_REACTORS
330
C
102
}
330
C
100
AcDbDictionary
281
     1
  3
A0
350
48
  3
A1
350
49
  3
A2
350
4A
  3
A3
350
4B
  3
A4
350
4C
  3
A5
350
4D
  3
A6
350
4E
  3
A7
350
4F
  3
A8
350
50
  3
A9
350
51
  3
B0
350
52
  3
B1
350
53
  3
B2
350
54
  3
B3
350
55
  3
B4
350
56
  3
B5
350
57
  3
B6
350
58
  3
B7
350
59
  3
B8
350
5A
  3
B9
350
5B
  3
C0
350
5C
  3
C1
350
5D
  3
C2
350
5E
  3
C3
350
5F
  3
C4
350
60
  3
C5
350
61
  3
C6
350
62
  3
C7
350
63
  3
C8
350
64
  3
C9
350
65
  3
D0
350
66
  3
D1
350
67
  3
D2
350
68
  0
DICTIONARY
  5
206
102
{ACAD_REACTORS
330
C
102
}
330
C
100
AcDbDictionary
281
     1
  0
DICTIONARY
  5
69
102
{ACAD_REACTORS
330
C
102
}
330
C
100
AcDbDictionary
281
     1
  3
Standard
350
6A
  0
DICTIONARY
  5
2A
102
{ACAD_REACTORS
330
C
102
}
330
C
100
AcDbDictionary
281
     1
  3
2dWireframe
350
2F
  3
Basic
350
32
  3
Brighten
350
36
  3
ColorChange
350
3A
  3
Conceptual
350
34
  3
Dim
350
35
  3
EdgeColorOff
350
3D
  3
Facepattern
350
39
  3
Flat
350
2B
  3
FlatWithEdges
350
2C
  3
Gouraud
350
2D
  3
GouraudWithEdges
350
2E
  3
Hidden
350
31
  3
JitterOff
350
3B
  3
Linepattern
350
38
  3
OverhangOff
350
3C
  3
Realistic
350
33
  3
Shaded
350
42
  3
Shaded with edges
350
41
  3
Shades of Gray
350
3E
  3
Sketchy
350
3F
  3
Thicken
350
37
  3
Wireframe
350
30
  3
X-Ray
350
40
  0
XRECORD
  5
202
102
{ACAD_REACTORS
330
C
102
}
330
C
100
AcDbXrecord
280
     1
 90
        1
330
6A
  0
DICTIONARY
  5
1CA
102
{ACAD_REACTORS
330
C
102
}
330
C
100
AcDbDictionary
281
     1
  3
CANNOSCALE
350
1CB
  3
CMLEADERSTYLE
350
204
  3
CTABLESTYLE
350
203
  3
XCLIPFRAME
350
1CC
  0
LAYOUT
  5
1E
102
{ACAD_REACTORS
330
1A
102
}
330
1A
100
AcDbPlotSettings
  1

  2
none_device
  4

  6

 40
0.0
 41
0.0
 42
0.0
 43
0.0
 44
0.0
 45
0.0
 46
0.0
 47
0.0
 48
0.0
 49
0.0
140
0.0
141
0.0
142
1.0
143
1.0
 70
   688
 72
     0
 73
     0
 74
     5
  7

 75
    16
 76
     0
 77
     2
 78
   300
147
1.0
148
0.0
149
0.0
100
AcDbLayout
  1
Layout1
 70
     1
 71
     1
 10
0.0
 20
0.0
 11
12.0
 21
9.0
 12
0.0
 22
0.0
 32
0.0
 14
1.000000000000000E+20
 24
1.000000000000000E+20
 34
1.000000000000000E+20
 15
-1.000000000000000E+20
 25
-1.000000000000000E+20
 35
-1.000000000000000E+20
146
0.0
 13
0.0
 23
0.0
 33
0.0
 16
1.0
 26
0.0
 36
0.0
 17
0.0
 27
1.0
 37
0.0
 76
     0
330
1B
  0
LAYOUT
  5
26
102
{ACAD_REACTORS
330
1A
102
}
330
1A
100
AcDbPlotSettings
  1

  2
none_device
  4

  6

 40
0.0
 41
0.0
 42
0.0
 43
0.0
 44
0.0
 45
0.0
 46
0.0
 47
0.0
 48
0.0
 49
0.0
140
0.0
141
0.0
142
1.0
143
1.0
 70
   688
 72
     0
 73
     0
 74
     5
  7

 75
    16
 76
     0
 77
     2
 78
   300
147
1.0
148
0.0
149
0.0
100
AcDbLayout
  1
Layout2
 70
     1
 71
     2
 10
0.0
 20
0.0
 11
0.0
 21
0.0
 12
0.0
 22
0.0
 32
0.0
 14
0.0
 24
0.0
 34
0.0
 15
0.0
 25
0.0
 35
0.0
146
0.0
 13
0.0
 23
0.0
 33
0.0
 16
1.0
 26
0.0
 36
0.0
 17
0.0
 27
1.0
 37
0.0
 76
     0
330
23
  0
LAYOUT
  5
22
102
{ACAD_REACTORS
330
1A
102
}
330
1A
100
AcDbPlotSettings
  1

  2
none_device
  4
Letter_(8.50_x_11.00_Inches)
  6

 40
6.35
 41
6.35
 42
6.35000508
 43
6.35000508
 44
215.9
 45
279.4
 46
0.0
 47
0.0
 48
0.0
 49
0.0
140
0.0
141
0.0
142
1.0
143
1.0
 70
  1712
 72
     0
 73
     0
 74
     0
  7

 75
     0
 76
     0
 77
     2
 78
   300
147
1.0
148
0.0
149
0.0
100
AcDbLayout
  1
Model
 70
     1
 71
     0
 10
0.0
 20
0.0
 11
12.0
 21
9.0
 12
0.0
 22
0.0
 32
0.0
 14
1.000000000000000E+20
 24
1.000000000000000E+20
 34
1.000000000000000E+20
 15
-1.000000000000000E+20
 25
-1.000000000000000E+20
 35
-1.000000000000000E+20
146
0.0
 13
0.0
 23
0.0
 33
0.0
 16
1.0
 26
0.0
 36
0.0
 17
0.0
 27
1.0
 37
0.0
 76
     0
330
1F
331
29
  0
MATERIAL
  5
45
102
{ACAD_REACTORS
330
43
102
}
330
43
100
AcDbMaterial
  1
ByBlock
 72
     1
 94
      127
  0
MATERIAL
  5
44
102
{ACAD_REACTORS
330
43
102
}
330
43
100
AcDbMaterial
  1
ByLayer
 72
     1
 94
      127
  0
MATERIAL
  5
46
102
{ACAD_REACTORS
330
43
102
}
330
43
100
AcDbMaterial
  1
Global
 72
     1
 94
      127
  0
MLEADERSTYLE
  5
6C
102
{ACAD_REACTORS
330
6B
102
}
102
{ACAD_XDICTIONARY
360
200
102
}
330
6B
100
AcDbMLeaderStyle
170
     2
171
     1
172
     0
 90
        2
 40
0.0
 41
0.0
173
     1
 91
-1056964608
340
14
 92
       -2
290
     1
 42
0.09
291
     1
 43
0.36
  3
Standard
341
0
 44
0.18
300

342
11
174
     1
178
     6
175
     1
176
     0
 93
-1056964608
 45
0.18
292
     0
297
     0
 46
0.18
343
0
 94
-1056964608
 47
1.0
 49
1.0
140
1.0
293
     1
141
0.0
294
     1
177
     0
142
1.0
295
     0
296
     0
143
0.125
1001
ACAD_MLEADERVER
1070
     2
  0
MLINESTYLE
  5
18
102
{ACAD_REACTORS
330
17
102
}
330
17
100
AcDbMlineStyle
  2
Standard
 70
     0
  3

 62
   256
 51
90.0
 52
90.0
 71
     2
 49
0.5
 62
   256
  6
BYLAYER
 49
-0.5
 62
   256
  6
BYLAYER
  0
ACDBPLACEHOLDER
  5
F
102
{ACAD_REACTORS
330
E
102
}
330
E
  0
SCALE
  5
48
102
{ACAD_REACTORS
330
47
102
}
330
47
100
AcDbScale
 70
     0
300
1:1
140
1.0
141
1.0
290
     1
  0
SCALE
  5
49
102
{ACAD_REACTORS
330
47
102
}
330
47
100
AcDbScale
 70
     0
300
1:2
140
1.0
141
2.0
290
     0
  0
SCALE
  5
4A
102
{ACAD_REACTORS
330
47
102
}
330
47
100
AcDbScale
 70
     0
300
1:4
140
1.0
141
4.0
290
     0
  0
SCALE
  5
4B
102
{ACAD_REACTORS
330
47
102
}
330
47
100
AcDbScale
 70
     0
300
1:5
140
1.0
141
5.0
290
     0
  0
SCALE
  5
4C
102
{ACAD_REACTORS
330
47
102
}
330
47
100
AcDbScale
 70
     0
300
1:8
140
1.0
141
8.0
290
     0
  0
SCALE
  5
4D
102
{ACAD_REACTORS
330
47
102
}
330
47
100
AcDbScale
 70
     0
300
1:10
140
1.0
141
10.0
290
     0
  0
SCALE
  5
4E
102
{ACAD_REACTORS
330
47
102
}
330
47
100
AcDbScale
 70
     0
300
1:16
140
1.0
141
16.0
290
     0
  0
SCALE
  5
4F
102
{ACAD_REACTORS
330
47
102
}
330
47
100
AcDbScale
 70
     0
300
1:20
140
1.0
141
20.0
290
     0
  0
SCALE
  5
50
102
{ACAD_REACTORS
330
47
102
}
330
47
100
AcDbScale
 70
     0
300
1:30
140
1.0
141
30.0
290
     0
  0
SCALE
  5
51
102
{ACAD_REACTORS
330
47
102
}
330
47
100
AcDbScale
 70
     0
300
1:40
140
1.0
141
40.0
290
     0
  0
SCALE
  5
52
102
{ACAD_REACTORS
330
47
102
}
330
47
100
AcDbScale
 70
     0
300
1:50
140
1.0
141
50.0
290
     0
  0
SCALE
  5
53
102
{ACAD_REACTORS
330
47
102
}
330
47
100
AcDbScale
 70
     0
300
1:100
140
1.0
141
100.0
290
     0
  0
SCALE
  5
54
102
{ACAD_REACTORS
330
47
102
}
330
47
100
AcDbScale
 70
     0
300
2:1
140
2.0
141
1.0
290
     0
  0
SCALE
  5
55
102
{ACAD_REACTORS
330
47
102
}
330
47
100
AcDbScale
 70
     0
300
4:1
140
4.0
141
1.0
290
     0
  0
SCALE
  5
56
102
{ACAD_REACTORS
330
47
102
}
330
47
100
AcDbScale
 70
     0
300
8:1
140
8.0
141
1.0
290
     0
  0
SCALE
  5
57
102
{ACAD_REACTORS
330
47
102
}
330
47
100
AcDbScale
 70
     0
300
10:1
140
10.0
141
1.0
290
     0
  0
SCALE
  5
58
102
{ACAD_REACTORS
330
47
102
}
330
47
100
AcDbScale
 70
     0
300
100:1
140
100.0
141
1.0
290
     0
  0
SCALE
  5
59
102
{ACAD_REACTORS
330
47
102
}
330
47
100
AcDbScale
 70
     0
300
1/128" = 1'-0"
140
0.0078125
141
12.0
290
     0
  0
SCALE
  5
5A
102
{ACAD_REACTORS
330
47
102
}
330
47
100
AcDbScale
 70
     0
300
1/64" = 1'-0"
140
0.015625
141
12.0
290
     0
  0
SCALE
  5
5B
102
{ACAD_REACTORS
330
47
102
}
330
47
100
AcDbScale
 70
     0
300
1/32" = 1'-0"
140
0.03125
141
12.0
290
     0
  0
SCALE
  5
5C
102
{ACAD_REACTORS
330
47
102
}
330
47
100
AcDbScale
 70
     0
300
1/16" = 1'-0"
140
0.0625
141
12.0
290
     0
  0
SCALE
  5
5D
102
{ACAD_REACTORS
330
47
102
}
330
47
100
AcDbScale
 70
     0
300
3/32" = 1'-0"
140
0.09375
141
12.0
290
     0
  0
SCALE
  5
5E
102
{ACAD_REACTORS
330
47
102
}
330
47
100
AcDbScale
 70
     0
300
1/8" = 1'-0"
140
0.125
141
12.0
290
     0
  0
SCALE
  5
5F
102
{ACAD_REACTORS
330
47
102
}
330
47
100
AcDbScale
 70
     0
300
3/16" = 1'-0"
140
0.1875
141
12.0
290
     0
  0
SCALE
  5
60
102
{ACAD_REACTORS
330
47
102
}
330
47
100
AcDbScale
 70
     0
300
1/4" = 1'-0"
140
0.25
141
12.0
290
     0
  0
SCALE
  5
61
102
{ACAD_REACTORS
330
47
102
}
330
47
100
AcDbScale
 70
     0
300
3/8" = 1'-0"
140
0.375
141
12.0
290
     0
  0
SCALE
  5
62
102
{ACAD_REACTORS
330
47
102
}
330
47
100
AcDbScale
 70
     0
300
1/2" = 1'-0"
140
0.5
141
12.0
290
     0
  0
SCALE
  5
63
102
{ACAD_REACTORS
330
47
102
}
330
47
100
AcDbScale
 70
     0
300
3/4" = 1'-0"
140
0.75
141
12.0
290
     0
  0
SCALE
  5
64
102
{ACAD_REACTORS
330
47
102
}
330
47
100
AcDbScale
 70
     0
300
1" = 1'-0"
140
1.0
141
12.0
290
     0
  0
SCALE
  5
65
102
{ACAD_REACTORS
330
47
102
}
330
47
100
AcDbScale
 70
     0
300
1-1/2" = 1'-0"
140
1.5
141
12.0
290
     0
  0
SCALE
  5
66
102
{ACAD_REACTORS
330
47
102
}
330
47
100
AcDbScale
 70
     0
300
3" = 1'-0"
140
3.0
141
12.0
290
     0
  0
SCALE
  5
67
102
{ACAD_REACTORS
330
47
102
}
330
47
100
AcDbScale
 70
     0
300
6" = 1'-0"
140
6.0
141
12.0
290
     0
  0
SCALE
  5
68
102
{ACAD_REACTORS
330
47
102
}
330
47
100
AcDbScale
 70
     0
300
1'-0" = 1'-0"
140
12.0
141
12.0
290
     0
  0
TABLESTYLE
  5
6A
102
{ACAD_REACTORS
330
69
102
}
102
{ACAD_XDICTIONARY
360
1FD
102
}
330
69
100
AcDbTableStyle
  3
Standard
 70
     0
 71
     0
 40
0.06
 41
0.06
280
     0
281
     0
  7
Standard
140
0.18
170
     2
 62
     0
 63
   257
283
     0
 90
        4
 91
        0
  1

274
    -2
284
     1
 64
     0
275
    -2
285
     1
 65
     0
276
    -2
286
     1
 66
     0
277
    -2
287
     1
 67
     0
278
    -2
288
     1
 68
     0
279
    -2
289
     1
 69
     0
  7
Standard
140
0.25
170
     5
 62
     0
 63
   257
283
     0
 90
        4
 91
        0
  1

274
    -2
284
     1
 64
     0
275
    -2
285
     1
 65
     0
276
    -2
286
     1
 66
     0
277
    -2
287
     1
 67
     0
278
    -2
288
     1
 68
     0
279
    -2
289
     1
 69
     0
  7
Standard
140
0.18
170
     5
 62
     0
 63
   257
283
     0
 90
        4
 91
        0
  1

274
    -2
284
     1
 64
     0
275
    -2
285
     1
 65
     0
276
    -2
286
     1
 66
     0
277
    -2
287
     1
 67
     0
278
    -2
288
     1
 68
     0
279
    -2
289
     1
 69
     0
  0
VISUALSTYLE
  5
2F
102
{ACAD_REACTORS
330
2A
102
}
102
{ACAD_XDICTIONARY
360
1D5
102
}
330
2A
100
AcDbVisualStyle
  2
2dWireframe
 70
     4
 71
     0
 72
     2
 73
     0
 90
        0
 40
0.6
 41
30.0
 62
     5
 63
     7
421
 16777215
 74
     1
 91
        4
 64
     7
 65
   257
 75
     1
175
     1
 42
1.0
 92
        0
 66
   257
 43
1.0
 76
     1
 77
     6
 78
     2
 67
     7
 79
     5
170
     0
171
     0
290
     0
174
     0
 93
        1
 44
0.0
173
     0
291
     0
 45
0.0
  0
VISUALSTYLE
  5
32
102
{ACAD_REACTORS
330
2A
102
}
102
{ACAD_XDICTIONARY
360
1DB
102
}
330
2A
100
AcDbVisualStyle
  2
Basic
 70
     7
 71
     1
 72
     0
 73
     1
 90
        0
 40
0.6
 41
30.0
 62
     5
 63
     7
421
 16777215
 74
     0
 91
        4
 64
     7
 65
   257
 75
     1
175
     1
 42
1.0
 92
        8
 66
     7
 43
1.0
 76
     1
 77
     6
 78
     2
 67
     7
 79
     5
170
     0
171
     0
290
     0
174
     0
 93
        1
 44
0.0
173
     0
291
     1
 45
0.0
  0
VISUALSTYLE
  5
36
102
{ACAD_REACTORS
330
2A
102
}
102
{ACAD_XDICTIONARY
360
1E3
102
}
330
2A
100
AcDbVisualStyle
  2
Brighten
 70
    12
 71
     2
 72
     2
 73
     0
 90
        0
 40
0.6
 41
30.0
 62
     5
 63
     7
421
 16777215
 74
     1
 91
        4
 64
     7
 65
   257
 75
     1
175
     1
 42
1.0
 92
        8
 66
     7
 43
1.0
 76
     1
 77
     6
 78
     2
 67
     7
 79
     5
170
     0
171
     0
290
     0
174
     0
 93
        1
 44
50.0
173
     0
291
     1
 45
0.0
  0
VISUALSTYLE
  5
3A
102
{ACAD_REACTORS
330
2A
102
}
102
{ACAD_XDICTIONARY
360
1EB
102
}
330
2A
100
AcDbVisualStyle
  2
ColorChange
 70
    16
 71
     2
 72
     2
 73
     3
 90
        0
 40
0.6
 41
30.0
 62
     5
 63
     8
421
  8421504
 74
     1
 91
        4
 64
     7
 65
   257
 75
     1
175
     1
 42
1.0
 92
        8
 66
     8
424
  8421504
 43
1.0
 76
     1
 77
     6
 78
     2
 67
     7
 79
     5
170
     0
171
     0
290
     0
174
     0
 93
        1
 44
0.0
173
     0
291
     1
 45
0.0
  0
VISUALSTYLE
  5
34
102
{ACAD_REACTORS
330
2A
102
}
102
{ACAD_XDICTIONARY
360
1DF
102
}
330
2A
100
AcDbVisualStyle
  2
Conceptual
 70
     9
 71
     3
 72
     2
 73
     0
 90
        0
 40
0.6
 41
30.0
 62
     5
 63
     7
421
 16777215
 74
     2
 91
        2
 64
     7
 65
   257
 75
     1
175
     1
 42
179.0
 92
        8
 66
     7
 43
1.0
 76
     1
 77
     6
 78
     2
 67
     7
 79
     3
170
     0
171
     0
290
     0
174
     0
 93
        1
 44
0.0
173
     0
291
     0
 45
0.0
  0
VISUALSTYLE
  5
35
102
{ACAD_REACTORS
330
2A
102
}
102
{ACAD_XDICTIONARY
360
1E1
102
}
330
2A
100
AcDbVisualStyle
  2
Dim
 70
    11
 71
     2
 72
     2
 73
     0
 90
        0
 40
0.6
 41
30.0
 62
     5
 63
     7
421
 16777215
 74
     1
 91
        4
 64
     7
 65
   257
 75
     1
175
     1
 42
1.0
 92
        8
 66
     7
 43
1.0
 76
     1
 77
     6
 78
     2
 67
     7
 79
     5
170
     0
171
     0
290
     0
174
     0
 93
        1
 44
-50.0
173
     0
291
     1
 45
0.0
  0
VISUALSTYLE
  5
3D
102
{ACAD_REACTORS
330
2A
102
}
102
{ACAD_XDICTIONARY
360
1F1
102
}
330
2A
100
AcDbVisualStyle
  2
EdgeColorOff
 70
    22
 71
     2
 72
     2
 73
     0
 90
        0
 40
0.6
 41
30.0
 62
     5
 63
     7
421
 16777215
 74
     1
 91
        4
 64
     7
 65
   257
 75
     1
175
     1
 42
1.0
 92
        8
 66
     7
 43
1.0
 76
     1
 77
     6
 78
     2
 67
     7
 79
     5
170
     0
171
     0
290
     0
174
     0
 93
        1
 44
0.0
173
     0
291
     1
 45
0.0
  0
VISUALSTYLE
  5
39
102
{ACAD_REACTORS
330
2A
102
}
102
{ACAD_XDICTIONARY
360
1E9
102
}
330
2A
100
AcDbVisualStyle
  2
Facepattern
 70
    15
 71
     2
 72
     2
 73
     0
 90
        0
 40
0.6
 41
30.0
 62
     5
 63
     7
421
 16777215
 74
     1
 91
        4
 64
     7
 65
   257
 75
     1
175
     1
 42
1.0
 92
        8
 66
     7
 43
1.0
 76
     1
 77
     6
 78
     2
 67
     7
 79
     5
170
     0
171
     0
290
     0
174
     0
 93
        1
 44
0.0
173
     0
291
     1
 45
0.0
  0
VISUALSTYLE
  5
2B
102
{ACAD_REACTORS
330
2A
102
}
102
{ACAD_XDICTIONARY
360
1CD
102
}
330
2A
100
AcDbVisualStyle
  2
Flat
 70
     0
 71
     2
 72
     1
 73
     1
 90
        2
 40
0.6
 41
30.0
 62
     5
 63
     7
421
 16777215
 74
     0
 91
        0
 64
     7
 65
   257
 75
     1
175
     1
 42
1.0
 92
        8
 66
     7
 43
1.0
 76
     1
 77
     6
 78
     2
 67
     7
 79
     5
170
     0
171
     0
290
     0
174
     0
 93
       13
 44
0.0
173
     0
291
     1
 45
0.0
  0
VISUALSTYLE
  5
2C
102
{ACAD_REACTORS
330
2A
102
}
102
{ACAD_XDICTIONARY
360
1CF
102
}
330
2A
100
AcDbVisualStyle
  2
FlatWithEdges
 70
     1
 71
     2
 72
     1
 73
     1
 90
        2
 40
0.6
 41
30.0
 62
     5
 63
     7
421
 16777215
 74
     1
 91
        0
 64
     7
 65
   257
 75
     1
175
     1
 42
1.0
 92
        0
 66
   257
 43
1.0
 76
     1
 77
     6
 78
     2
 67
     7
 79
     5
170
     0
171
     0
290
     0
174
     0
 93
       13
 44
0.0
173
     0
291
     1
 45
0.0
  0
VISUALSTYLE
  5
2D
102
{ACAD_REACTORS
330
2A
102
}
102
{ACAD_XDICTIONARY
360
1D1
102
}
330
2A
100
AcDbVisualStyle
  2
Gouraud
 70
     2
 71
     2
 72
     2
 73
     1
 90
        2
 40
0.6
 41
30.0
 62
     5
 63
     7
421
 16777215
 74
     0
 91
        0
 64
     7
 65
   257
 75
     1
175
     1
 42
1.0
 92
        0
 66
     7
 43
1.0
 76
     1
 77
     6
 78
     2
 67
     7
 79
     5
170
     0
171
     0
290
     0
174
     0
 93
       13
 44
0.0
173
     0
291
     1
 45
0.0
  0
VISUALSTYLE
  5
2E
102
{ACAD_REACTORS
330
2A
102
}
102
{ACAD_XDICTIONARY
360
1D3
102
}
330
2A
100
AcDbVisualStyle
  2
GouraudWithEdges
 70
     3
 71
     2
 72
     2
 73
     1
 90
        2
 40
0.6
 41
30.0
 62
     5
 63
     7
421
 16777215
 74
     1
 91
        0
 64
     7
 65
   257
 75
     1
175
     1
 42
1.0
 92
        0
 66
   257
 43
1.0
 76
     1
 77
     6
 78
     2
 67
     7
 79
     5
170
     0
171
     0
290
     0
174
     0
 93
       13
 44
0.0
173
     0
291
     1
 45
0.0
  0
VISUALSTYLE
  5
31
102
{ACAD_REACTORS
330
2A
102
}
102
{ACAD_XDICTIONARY
360
1D9
102
}
330
2A
100
AcDbVisualStyle
  2
Hidden
 70
     6
 71
     1
 72
     2
 73
     2
 90
        0
 40
0.6
 41
30.0
 62
     5
 63
     7
421
 16777215
 74
     2
 91
        2
 64
     7
 65
   257
 75
     2
175
     1
 42
40.0
 92
        0
 66
   257
 43
1.0
 76
     1
 77
     6
 78
     2
 67
     7
 79
     3
170
     0
171
     0
290
     0
174
     0
 93
        1
 44
0.0
173
     0
291
     0
 45
0.0
  0
VISUALSTYLE
  5
3B
102
{ACAD_REACTORS
330
2A
102
}
102
{ACAD_XDICTIONARY
360
1ED
102
}
330
2A
100
AcDbVisualStyle
  2
JitterOff
 70
    20
 71
     2
 72
     2
 73
     0
 90
        0
 40
0.6
 41
30.0
 62
     5
 63
     7
421
 16777215
 74
     1
 91
        4
 64
     7
 65
   257
 75
     1
175
     1
 42
1.0
 92
       10
 66
     7
 43
1.0
 76
     1
 77
     6
 78
     2
 67
     7
 79
     5
170
     0
171
     0
290
     0
174
     0
 93
        1
 44
0.0
173
     0
291
     1
 45
0.0
  0
VISUALSTYLE
  5
38
102
{ACAD_REACTORS
330
2A
102
}
102
{ACAD_XDICTIONARY
360
1E7
102
}
330
2A
100
AcDbVisualStyle
  2
Linepattern
 70
    14
 71
     2
 72
     2
 73
     0
 90
        0
 40
0.6
 41
30.0
 62
     5
 63
     7
421
 16777215
 74
     1
 91
        4
 64
     7
 65
   257
 75
     7
175
     7
 42
1.0
 92
        8
 66
     7
 43
1.0
 76
     1
 77
     6
 78
     2
 67
     7
 79
     5
170
     0
171
     0
290
     0
174
     0
 93
        1
 44
0.0
173
     0
291
     1
 45
0.0
  0
VISUALSTYLE
  5
3C
102
{ACAD_REACTORS
330
2A
102
}
102
{ACAD_XDICTIONARY
360
1EF
102
}
330
2A
100
AcDbVisualStyle
  2
OverhangOff
 70
    21
 71
     2
 72
     2
 73
     0
 90
        0
 40
0.6
 41
30.0
 62
     5
 63
     7
421
 16777215
 74
     1
 91
        4
 64
     7
 65
   257
 75
     1
175
     1
 42
1.0
 92
        9
 66
     7
 43
1.0
 76
     1
 77
     6
 78
     2
 67
     7
 79
     5
170
     0
171
     0
290
     0
174
     0
 93
        1
 44
0.0
173
     0
291
     1
 45
0.0
  0
VISUALSTYLE
  5
33
102
{ACAD_REACTORS
330
2A
102
}
102
{ACAD_XDICTIONARY
360
1DD
102
}
330
2A
100
AcDbVisualStyle
  2
Realistic
 70
     8
 71
     2
 72
     3
 73
     0
 90
        2
 40
0.6
 41
30.0
 62
     5
 63
     7
421
 16777215
 74
     0
 91
        0
 64
     7
 65
   257
 75
     1
175
     1
 42
1.0
 92
        8
 66
   257
 43
1.0
 76
     1
 77
     6
 78
     2
 67
     7
 79
     3
170
     0
171
     0
290
     0
174
     0
 93
       13
 44
0.0
173
     0
291
     0
 45
0.0
  0
VISUALSTYLE
  5
42
102
{ACAD_REACTORS
330
2A
102
}
102
{ACAD_XDICTIONARY
360
1FB
102
}
330
2A
100
AcDbVisualStyle
  2
Shaded
 70
    27
 71
     2
 72
     2
 73
     1
 90
        2
 40
0.6
 41
30.0
 62
     5
 63
     7
421
 16777215
 74
     0
 91
        4
 64
     7
 65
   257
 75
     1
175
     1
 42
1.0
 92
        8
 66
   257
 43
1.0
 76
     1
 77
     6
 78
     2
 67
     8
425
  7895160
 79
     3
170
     0
171
     0
290
     0
174
     0
 93
        5
 44
0.0
173
     0
291
     0
 45
0.0
  0
VISUALSTYLE
  5
41
102
{ACAD_REACTORS
330
2A
102
}
102
{ACAD_XDICTIONARY
360
1F9
102
}
330
2A
100
AcDbVisualStyle
  2
Shaded with edges
 70
    26
 71
     2
 72
     2
 73
     1
 90
        2
 40
0.6
 41
30.0
 62
     5
 63
     7
421
 16777215
 74
     1
 91
       10
 64
     7
 65
   257
 75
     2
175
     1
 42
1.0
 92
        8
 66
   257
 43
1.0
 76
     1
 77
     6
 78
     2
 67
     7
 79
     3
170
     0
171
     0
290
     0
174
     0
 93
        5
 44
0.0
173
     0
291
     0
 45
0.0
  0
VISUALSTYLE
  5
3E
102
{ACAD_REACTORS
330
2A
102
}
102
{ACAD_XDICTIONARY
360
1F3
102
}
330
2A
100
AcDbVisualStyle
  2
Shades of Gray
 70
    23
 71
     2
 72
     2
 73
     3
 90
        0
 40
0.6
 41
30.0
 62
     5
 63
     7
421
 16777215
 74
     2
 91
        2
 64
     7
 65
     7
 75
     1
175
     1
 42
40.0
 92
        8
 66
     7
 43
1.0
 76
     1
 77
     6
 78
     2
 67
     7
 79
     3
170
     0
171
     0
290
     0
174
     0
 93
        1
 44
0.0
173
     0
291
     0
 45
0.0
  0
VISUALSTYLE
  5
3F
102
{ACAD_REACTORS
330
2A
102
}
102
{ACAD_XDICTIONARY
360
1F5
102
}
330
2A
100
AcDbVisualStyle
  2
Sketchy
 70
    24
 71
     1
 72
     2
 73
     2
 90
        0
 40
0.6
 41
30.0
 62
     5
 63
     7
421
 16777215
 74
     2
 91
        2
 64
     7
 65
     7
 75
     1
175
     1
 42
40.0
 92
       11
 66
     7
 43
1.0
 76
     1
 77
     6
 78
     2
 67
     7
 79
     6
170
     0
171
     0
290
     0
174
     0
 93
        1
 44
0.0
173
     0
291
     0
 45
0.0
  0
VISUALSTYLE
  5
37
102
{ACAD_REACTORS
330
2A
102
}
102
{ACAD_XDICTIONARY
360
1E5
102
}
330
2A
100
AcDbVisualStyle
  2
Thicken
 70
    13
 71
     2
 72
     2
 73
     0
 90
        0
 40
0.6
 41
30.0
 62
     5
 63
     7
421
 16777215
 74
     1
 91
        4
 64
     7
 65
   257
 75
     1
175
     1
 42
1.0
 92
       12
 66
     7
 43
1.0
 76
     1
 77
     6
 78
     2
 67
     7
 79
     5
170
     0
171
     0
290
     0
174
     0
 93
        1
 44
0.0
173
     0
291
     1
 45
0.0
  0
VISUALSTYLE
  5
30
102
{ACAD_REACTORS
330
2A
102
}
102
{ACAD_XDICTIONARY
360
1D7
102
}
330
2A
100
AcDbVisualStyle
  2
Wireframe
 70
     5
 71
     0
 72
     2
 73
     0
 90
        0
 40
0.6
 41
30.0
 62
     5
 63
     7
421
 16777215
 74
     1
 91
        4
 64
     7
 65
   257
 75
     1
175
     1
 42
1.0
 92
        0
 66
   257
 43
1.0
 76
     1
 77
     6
 78
     2
 67
     7
 79
     3
170
     0
171
     0
290
     0
174
     0
 93
        1
 44
0.0
173
     0
291
     0
 45
0.0
  0
VISUALSTYLE
  5
40
102
{ACAD_REACTORS
330
2A
102
}
102
{ACAD_XDICTIONARY
360
1F7
102
}
330
2A
100
AcDbVisualStyle
  2
X-Ray
 70
    25
 71
     2
 72
     2
 73
     1
 90
        1
 40
0.5
 41
30.0
 62
     5
 63
     7
421
 16777215
 74
     1
 91
        0
 64
     7
 65
   257
 75
     1
175
     1
 42
1.0
 92
        8
 66
     7
 43
1.0
 76
     1
 77
     6
 78
     2
 67
     7
 79
     3
170
     0
171
     0
290
     0
174
     0
 93
       13
 44
0.0
173
     0
291
     0
 45
0.0
  0
DICTIONARYVAR
  5
1CB
102
{ACAD_REACTORS
330
1CA
102
}
330
1CA
100
DictionaryVariables
280
     0
  1
1:1
  0
DICTIONARYVAR
  5
204
102
{ACAD_REACTORS
330
1CA
102
}
330
1CA
100
DictionaryVariables
280
     0
  1
Standard
  0
DICTIONARYVAR
  5
203
102
{ACAD_REACTORS
330
1CA
102
}
330
1CA
100
DictionaryVariables
280
     0
  1
Standard
  0
DICTIONARYVAR
  5
1CC
102
{ACAD_REACTORS
330
1CA
102
}
330
1CA
100
DictionaryVariables
280
     0
  1
2
  0
DICTIONARY
  5
200
330
6C
100
AcDbDictionary
280
     1
281
     1
  3
ACAD_XREC_ROUNDTRIP
360
201
  0
DICTIONARY
  5
1FD
330
6A
100
AcDbDictionary
280
     1
281
     1
  3
ACAD_ROUNDTRIP_2008_TABLESTYLE_CELLSTYLEMAP
360
1FE
  0
DICTIONARY
  5
1D5
330
2F
100
AcDbDictionary
280
     1
281
     1
  3
ACAD_XREC_ROUNDTRIP
360
1D6
  0
DICTIONARY
  5
1DB
330
32
100
AcDbDictionary
280
     1
281
     1
  3
ACAD_XREC_ROUNDTRIP
360
1DC
  0
DICTIONARY
  5
1E3
330
36
100
AcDbDictionary
280
     1
281
     1
  3
ACAD_XREC_ROUNDTRIP
360
1E4
  0
DICTIONARY
  5
1EB
330
3A
100
AcDbDictionary
280
     1
281
     1
  3
ACAD_XREC_ROUNDTRIP
360
1EC
  0
DICTIONARY
  5
1DF
330
34
100
AcDbDictionary
280
     1
281
     1
  3
ACAD_XREC_ROUNDTRIP
360
1E0
  0
DICTIONARY
  5
1E1
330
35
100
AcDbDictionary
280
     1
281
     1
  3
ACAD_XREC_ROUNDTRIP
360
1E2
  0
DICTIONARY
  5
1F1
330
3D
100
AcDbDictionary
280
     1
281
     1
  3
ACAD_XREC_ROUNDTRIP
360
1F2
  0
DICTIONARY
  5
1E9
330
39
100
AcDbDictionary
280
     1
281
     1
  3
ACAD_XREC_ROUNDTRIP
360
1EA
  0
DICTIONARY
  5
1CD
330
2B
100
AcDbDictionary
280
     1
281
     1
  3
ACAD_XREC_ROUNDTRIP
360
1CE
  0
DICTIONARY
  5
1CF
330
2C
100
AcDbDictionary
280
     1
281
     1
  3
ACAD_XREC_ROUNDTRIP
360
1D0
  0
DICTIONARY
  5
1D1
330
2D
100
AcDbDictionary
280
     1
281
     1
  3
ACAD_XREC_ROUNDTRIP
360
1D2
  0
DICTIONARY
  5
1D3
330
2E
100
AcDbDictionary
280
     1
281
     1
  3
ACAD_XREC_ROUNDTRIP
360
1D4
  0
DICTIONARY
  5
1D9
330
31
100
AcDbDictionary
280
     1
281
     1
  3
ACAD_XREC_ROUNDTRIP
360
1DA
  0
DICTIONARY
  5
1ED
330
3B
100
AcDbDictionary
280
     1
281
     1
  3
ACAD_XREC_ROUNDTRIP
360
1EE
  0
DICTIONARY
  5
1E7
330
38
100
AcDbDictionary
280
     1
281
     1
  3
ACAD_XREC_ROUNDTRIP
360
1E8
  0
DICTIONARY
  5
1EF
330
3C
100
AcDbDictionary
280
     1
281
     1
  3
ACAD_XREC_ROUNDTRIP
360
1F0
  0
DICTIONARY
  5
1DD
330
33
100
AcDbDictionary
280
     1
281
     1
  3
ACAD_XREC_ROUNDTRIP
360
1DE
  0
DICTIONARY
  5
1FB
330
42
100
AcDbDictionary
280
     1
281
     1
  3
ACAD_XREC_ROUNDTRIP
360
1FC
  0
DICTIONARY
  5
1F9
330
41
100
AcDbDictionary
280
     1
281
     1
  3
ACAD_XREC_ROUNDTRIP
360
1FA
  0
DICTIONARY
  5
1F3
330
3E
100
AcDbDictionary
280
     1
281
     1
  3
ACAD_XREC_ROUNDTRIP
360
1F4
  0
DICTIONARY
  5
1F5
330
3F
100
AcDbDictionary
280
     1
281
     1
  3
ACAD_XREC_ROUNDTRIP
360
1F6
  0
DICTIONARY
  5
1E5
330
37
100
AcDbDictionary
280
     1
281
     1
  3
ACAD_XREC_ROUNDTRIP
360
1E6
  0
DICTIONARY
  5
1D7
330
30
100
AcDbDictionary
280
     1
281
     1
  3
ACAD_XREC_ROUNDTRIP
360
1D8
  0
DICTIONARY
  5
1F7
330
40
100
AcDbDictionary
280
     1
281
     1
  3
ACAD_XREC_ROUNDTRIP
360
1F8
  0
XRECORD
  5
201
102
{ACAD_REACTORS
330
200
102
}
330
200
100
AcDbXrecord
280
     1
102
ACAD_ROUNDTRIP_2010_MLEADER_STYLE
  0
CELLSTYLEMAP
  5
1FE
102
{ACAD_REACTORS
330
1FD
102
}
330
1FD
100
AcDbCellStyleMap
 90
        3
300
CELLSTYLE
  1
TABLEFORMAT_BEGIN
 90
        5
170
     1
 91
        0
 92
    32768
 62
   257
 93
        1
300
CONTENTFORMAT
  1
CONTENTFORMAT_BEGIN
 90
        0
 91
        0
 92
        4
 93
        0
300

 40
0.0
140
1.0
 94
        5
 62
     0
340
11
144
0.25
309
CONTENTFORMAT_END
171
     1
301
MARGIN
  1
CELLMARGIN_BEGIN
 40
0.06
 40
0.06
 40
0.06
 40
0.06
 40
0.06
 40
0.06
309
CELLMARGIN_END
 94
        6
 95
        1
302
GRIDFORMAT
  1
GRIDFORMAT_BEGIN
 90
        0
 91
        1
 62
     0
 92
       -2
340
14
 93
        0
 40
0.045
309
GRIDFORMAT_END
 95
        2
302
GRIDFORMAT
  1
GRIDFORMAT_BEGIN
 90
        0
 91
        1
 62
     0
 92
       -2
340
14
 93
        0
 40
0.045
309
GRIDFORMAT_END
 95
        4
302
GRIDFORMAT
  1
GRIDFORMAT_BEGIN
 90
        0
 91
        1
 62
     0
 92
       -2
340
14
 93
        0
 40
0.045
309
GRIDFORMAT_END
 95
        8
302
GRIDFORMAT
  1
GRIDFORMAT_BEGIN
 90
        0
 91
        1
 62
     0
 92
       -2
340
14
 93
        0
 40
0.045
309
GRIDFORMAT_END
 95
       16
302
GRIDFORMAT
  1
GRIDFORMAT_BEGIN
 90
        0
 91
        1
 62
     0
 92
       -2
340
14
 93
        0
 40
0.045
309
GRIDFORMAT_END
 95
       32
302
GRIDFORMAT
  1
GRIDFORMAT_BEGIN
 90
        0
 91
        1
 62
     0
 92
       -2
340
14
 93
        0
 40
0.045
309
GRIDFORMAT_END
309
TABLEFORMAT_END
  1
CELLSTYLE_BEGIN
 90
        1
 91
        1
300
_TITLE
309
CELLSTYLE_END
300
CELLSTYLE
  1
TABLEFORMAT_BEGIN
 90
        5
170
     1
 91
        0
 92
        0
 62
   257
 93
        1
300
CONTENTFORMAT
  1
CONTENTFORMAT_BEGIN
 90
        0
 91
        0
 92
        4
 93
        0
300

 40
0.0
140
1.0
 94
        5
 62
     0
340
11
144
0.18
309
CONTENTFORMAT_END
171
     1
301
MARGIN
  1
CELLMARGIN_BEGIN
 40
0.06
 40
0.06
 40
0.06
 40
0.06
 40
0.06
 40
0.06
309
CELLMARGIN_END
 94
        6
 95
        1
302
GRIDFORMAT
  1
GRIDFORMAT_BEGIN
 90
        0
 91
        1
 62
     0
 92
       -2
340
14
 93
        0
 40
0.045
309
GRIDFORMAT_END
 95
        2
302
GRIDFORMAT
  1
GRIDFORMAT_BEGIN
 90
        0
 91
        1
 62
     0
 92
       -2
340
14
 93
        0
 40
0.045
309
GRIDFORMAT_END
 95
        4
302
GRIDFORMAT
  1
GRIDFORMAT_BEGIN
 90
        0
 91
        1
 62
     0
 92
       -2
340
14
 93
        0
 40
0.045
309
GRIDFORMAT_END
 95
        8
302
GRIDFORMAT
  1
GRIDFORMAT_BEGIN
 90
        0
 91
        1
 62
     0
 92
       -2
340
14
 93
        0
 40
0.045
309
GRIDFORMAT_END
 95
       16
302
GRIDFORMAT
  1
GRIDFORMAT_BEGIN
 90
        0
 91
        1
 62
     0
 92
       -2
340
14
 93
        0
 40
0.045
309
GRIDFORMAT_END
 95
       32
302
GRIDFORMAT
  1
GRIDFORMAT_BEGIN
 90
        0
 91
        1
 62
     0
 92
       -2
340
14
 93
        0
 40
0.045
309
GRIDFORMAT_END
309
TABLEFORMAT_END
  1
CELLSTYLE_BEGIN
 90
        2
 91
        1
300
_HEADER
309
CELLSTYLE_END
300
CELLSTYLE
  1
TABLEFORMAT_BEGIN
 90
        5
170
     1
 91
        0
 92
        0
 62
   257
 93
        1
300
CONTENTFORMAT
  1
CONTENTFORMAT_BEGIN
 90
        0
 91
        0
 92
        4
 93
        0
300

 40
0.0
140
1.0
 94
        2
 62
     0
340
11
144
0.18
309
CONTENTFORMAT_END
171
     1
301
MARGIN
  1
CELLMARGIN_BEGIN
 40
0.06
 40
0.06
 40
0.06
 40
0.06
 40
0.06
 40
0.06
309
CELLMARGIN_END
 94
        6
 95
        1
302
GRIDFORMAT
  1
GRIDFORMAT_BEGIN
 90
        0
 91
        1
 62
     0
 92
       -2
340
14
 93
        0
 40
0.045
309
GRIDFORMAT_END
 95
        2
302
GRIDFORMAT
  1
GRIDFORMAT_BEGIN
 90
        0
 91
        1
 62
     0
 92
       -2
340
14
 93
        0
 40
0.045
309
GRIDFORMAT_END
 95
        4
302
GRIDFORMAT
  1
GRIDFORMAT_BEGIN
 90
        0
 91
        1
 62
     0
 92
       -2
340
14
 93
        0
 40
0.045
309
GRIDFORMAT_END
 95
        8
302
GRIDFORMAT
  1
GRIDFORMAT_BEGIN
 90
        0
 91
        1
 62
     0
 92
       -2
340
14
 93
        0
 40
0.045
309
GRIDFORMAT_END
 95
       16
302
GRIDFORMAT
  1
GRIDFORMAT_BEGIN
 90
        0
 91
        1
 62
     0
 92
       -2
340
14
 93
        0
 40
0.045
309
GRIDFORMAT_END
 95
       32
302
GRIDFORMAT
  1
GRIDFORMAT_BEGIN
 90
        0
 91
        1
 62
     0
 92
       -2
340
14
 93
        0
 40
0.045
309
GRIDFORMAT_END
309
TABLEFORMAT_END
  1
CELLSTYLE_BEGIN
 90
        3
 91
        2
300
_DATA
309
CELLSTYLE_END
  0
XRECORD
  5
1D6
102
{ACAD_REACTORS
330
1D5
102
}
330
1D5
100
AcDbXrecord
280
     1
102
RTVSPropertyOp0
 70
     1
102
RTVSPropertyOp1
 70
     1
102
RTVSPropertyOp2
 70
     1
102
RTVSPropertyOp3
 70
     1
102
RTVSPropertyOp4
 70
     1
102
RTVSPropertyOp5
 70
     1
102
RTVSPropertyOp6
 70
     1
102
RTVSPropertyOp7
 70
     1
102
RTVSPropertyOp8
 70
     1
102
RTVSPropertyOp9
 70
     1
102
RTVSPropertyOp10
 70
     1
102
RTVSPropertyOp11
 70
     1
102
RTVSPropertyOp12
 70
     1
102
RTVSPropertyOp13
 70
     1
102
RTVSPropertyOp14
 70
     1
102
RTVSPropertyOp15
 70
     1
102
RTVSPropertyOp16
 70
     1
102
RTVSPropertyOp17
 70
     1
102
RTVSPropertyOp18
 70
     1
102
RTVSPropertyOp19
 70
     1
102
RTVSPropertyOp20
 70
     1
102
RTVSPropertyOp21
 70
     1
102
RTVSPropertyOp22
 70
     1
102
RTVSPropertyOp23
 70
     1
102
RTVSPropertyOp24
 70
     1
102
RTVSPropertyOp25
 70
     1
102
RTVSPropertyOp26
 70
     1
102
RTVSPropertyOp27
 70
     1
102
RTVSPropertyOp28
 70
     1
102
RTVSPropertyOp29
 70
     1
102
RTVSPropertyOp30
 70
     1
102
RTVSPropertyOp31
 70
     1
102
RTVSPropertyOp32
 70
     1
102
RTVSPropertyOp33
 70
     1
102
RTVSPropertyOp34
 70
     1
102
RTVSPropertyOp35
 70
     1
102
RTVSPropertyOp36
 70
     1
102
RTVSPropertyOp37
 70
     1
102
RTVSPropertyOp38
 70
     1
102
RTVSPropertyOp39
 70
     1
102
RTVSPropertyOp40
 70
     1
102
RTVSPropertyOp41
 70
     1
102
RTVSPropertyOp42
 70
     1
102
RTVSPropertyOp43
 70
     1
102
RTVSPropertyOp44
 70
     1
102
RTVSPropertyOp45
 70
     1
102
RTVSPropertyOp46
 70
     1
102
RTVSPropertyOp47
 70
     1
102
RTVSPropertyOp48
 70
     1
102
RTVSPropertyOp49
 70
     1
102
RTVSPropertyOp50
 70
     1
102
RTVSPropertyOp51
 70
     0
102
RTVSPropertyOp52
 70
     0
102
RTVSPropertyOp53
 70
     1
102
RTVSPropertyOp54
 70
     1
102
RTVSPropertyOp55
 70
     1
102
RTVSPropertyOp56
 70
     1
102
RTVSPropertyOp57
 70
     1
102
RTVSPost2010Prop28
280
     1
102
RTVSPost2010PropOp28
 70
     1
102
RTVSPost2010Prop29
280
     1
102
RTVSPost2010PropOp29
 70
     1
102
RTVSPost2010Prop30
280
     0
102
RTVSPost2010PropOp30
 70
     1
102
RTVSPost2010Prop31
280
     0
102
RTVSPost2010PropOp31
 70
     1
102
RTVSPost2010Prop32
280
     0
102
RTVSPost2010PropOp32
 70
     1
102
RTVSPost2010Prop33
280
     0
102
RTVSPost2010PropOp33
 70
     1
102
RTVSPost2010Prop34
280
     0
102
RTVSPost2010PropOp34
 70
     1
102
RTVSPost2010Prop35
280
     0
102
RTVSPost2010PropOp35
 70
     1
102
RTVSPost2010Prop36
280
     0
102
RTVSPost2010PropOp36
 70
     1
102
RTVSPost2010Prop37
 90
       50
102
RTVSPost2010PropOp37
 70
     1
102
RTVSPost2010Prop38
140
0.0
102
RTVSPost2010PropOp38
 70
     1
102
RTVSPost2010Prop39
140
1.0
102
RTVSPost2010PropOp39
 70
     1
102
RTVSPost2010Prop40
 90
        0
102
RTVSPost2010PropOp40
 70
     1
102
RTVSPost2010Prop41ColorIndex
 90
       18
102
RTVSPost2010Prop41ColorRGB
 90
        0
102
RTVSPost2010PropOp41
 70
     1
102
RTVSPost2010Prop42
 90
       50
102
RTVSPost2010PropOp42
 70
     1
102
RTVSPost2010Prop43
 90
        3
102
RTVSPost2010PropOp43
 70
     1
102
RTVSPost2010Prop44ColorIndex
 90
        5
102
RTVSPost2010Prop44ColorRGB
 90
      255
102
RTVSPost2010PropOp44
 70
     1
102
RTVSPost2010Prop45
280
     0
102
RTVSPost2010PropOp45
 70
     1
102
RTVSPost2010Prop46
 90
       50
102
RTVSPost2010PropOp46
 70
     1
102
RTVSPost2010Prop47
 90
       50
102
RTVSPost2010PropOp47
 70
     1
102
RTVSPost2010Prop48
 90
       50
102
RTVSPost2010PropOp48
 70
     1
102
RTVSPost2010Prop49
280
     0
102
RTVSPost2010PropOp49
 70
     1
102
RTVSPost2010Prop50
 90
       50
102
RTVSPost2010PropOp50
 70
     1
102
RTVSPost2010Prop51ColorIndex
 90
      256
102
RTVSPost2010Prop51ColorRGB
 90
-16777216
102
RTVSPost2010PropOp51
 70
     0
102
RTVSPost2010Prop52
140
1.0
102
RTVSPost2010PropOp52
 70
     0
102
RTVSPost2010Prop53
 90
        2
102
RTVSPost2010PropOp53
 70
     1
102
RTVSPost2010Prop54
  1
strokes_ogs.tif
102
RTVSPost2010PropOp54
 70
     1
102
RTVSPost2010Prop55
280
     0
102
RTVSPost2010PropOp55
 70
     1
102
RTVSPost2010Prop56
140
1.0
102
RTVSPost2010PropOp56
 70
     1
102
RTVSPost2010Prop57
140
1.0
102
RTVSPost2010PropOp57
 70
     1
  0
XRECORD
  5
1DC
102
{ACAD_REACTORS
330
1DB
102
}
330
1DB
100
AcDbXrecord
280
     1
102
RTVSPropertyOp0
 70
     1
102
RTVSPropertyOp1
 70
     1
102
RTVSPropertyOp2
 70
     1
102
RTVSPropertyOp3
 70
     1
102
RTVSPropertyOp4
 70
     1
102
RTVSPropertyOp5
 70
     1
102
RTVSPropertyOp6
 70
     1
102
RTVSPropertyOp7
 70
     1
102
RTVSPropertyOp8
 70
     1
102
RTVSPropertyOp9
 70
     1
102
RTVSPropertyOp10
 70
     1
102
RTVSPropertyOp11
 70
     1
102
RTVSPropertyOp12
 70
     1
102
RTVSPropertyOp13
 70
     1
102
RTVSPropertyOp14
 70
     1
102
RTVSPropertyOp15
 70
     1
102
RTVSPropertyOp16
 70
     1
102
RTVSPropertyOp17
 70
     1
102
RTVSPropertyOp18
 70
     1
102
RTVSPropertyOp19
 70
     1
102
RTVSPropertyOp20
 70
     1
102
RTVSPropertyOp21
 70
     1
102
RTVSPropertyOp22
 70
     1
102
RTVSPropertyOp23
 70
     1
102
RTVSPropertyOp24
 70
     1
102
RTVSPropertyOp25
 70
     1
102
RTVSPropertyOp26
 70
     1
102
RTVSPropertyOp27
 70
     1
102
RTVSPropertyOp28
 70
     1
102
RTVSPropertyOp29
 70
     1
102
RTVSPropertyOp30
 70
     1
102
RTVSPropertyOp31
 70
     1
102
RTVSPropertyOp32
 70
     1
102
RTVSPropertyOp33
 70
     1
102
RTVSPropertyOp34
 70
     1
102
RTVSPropertyOp35
 70
     1
102
RTVSPropertyOp36
 70
     1
102
RTVSPropertyOp37
 70
     1
102
RTVSPropertyOp38
 70
     1
102
RTVSPropertyOp39
 70
     1
102
RTVSPropertyOp40
 70
     1
102
RTVSPropertyOp41
 70
     1
102
RTVSPropertyOp42
 70
     1
102
RTVSPropertyOp43
 70
     1
102
RTVSPropertyOp44
 70
     1
102
RTVSPropertyOp45
 70
     1
102
RTVSPropertyOp46
 70
     1
102
RTVSPropertyOp47
 70
     1
102
RTVSPropertyOp48
 70
     1
102
RTVSPropertyOp49
 70
     1
102
RTVSPropertyOp50
 70
     1
102
RTVSPropertyOp51
 70
     0
102
RTVSPropertyOp52
 70
     0
102
RTVSPropertyOp53
 70
     1
102
RTVSPropertyOp54
 70
     1
102
RTVSPropertyOp55
 70
     1
102
RTVSPropertyOp56
 70
     1
102
RTVSPropertyOp57
 70
     1
102
RTVSPost2010Prop28
280
     0
102
RTVSPost2010PropOp28
 70
     1
102
RTVSPost2010Prop29
280
     1
102
RTVSPost2010PropOp29
 70
     1
102
RTVSPost2010Prop30
280
     1
102
RTVSPost2010PropOp30
 70
     1
102
RTVSPost2010Prop31
280
     0
102
RTVSPost2010PropOp31
 70
     1
102
RTVSPost2010Prop32
280
     0
102
RTVSPost2010PropOp32
 70
     1
102
RTVSPost2010Prop33
280
     0
102
RTVSPost2010PropOp33
 70
     1
102
RTVSPost2010Prop34
280
     0
102
RTVSPost2010PropOp34
 70
     1
102
RTVSPost2010Prop35
280
     0
102
RTVSPost2010PropOp35
 70
     1
102
RTVSPost2010Prop36
280
     0
102
RTVSPost2010PropOp36
 70
     1
102
RTVSPost2010Prop37
 90
       50
102
RTVSPost2010PropOp37
 70
     1
102
RTVSPost2010Prop38
140
0.0
102
RTVSPost2010PropOp38
 70
     1
102
RTVSPost2010Prop39
140
1.0
102
RTVSPost2010PropOp39
 70
     1
102
RTVSPost2010Prop40
 90
        0
102
RTVSPost2010PropOp40
 70
     1
102
RTVSPost2010Prop41ColorIndex
 90
       18
102
RTVSPost2010Prop41ColorRGB
 90
        0
102
RTVSPost2010PropOp41
 70
     1
102
RTVSPost2010Prop42
 90
       50
102
RTVSPost2010PropOp42
 70
     1
102
RTVSPost2010Prop43
 90
        3
102
RTVSPost2010PropOp43
 70
     1
102
RTVSPost2010Prop44ColorIndex
 90
        5
102
RTVSPost2010Prop44ColorRGB
 90
      255
102
RTVSPost2010PropOp44
 70
     1
102
RTVSPost2010Prop45
280
     0
102
RTVSPost2010PropOp45
 70
     1
102
RTVSPost2010Prop46
 90
       50
102
RTVSPost2010PropOp46
 70
     1
102
RTVSPost2010Prop47
 90
       50
102
RTVSPost2010PropOp47
 70
     1
102
RTVSPost2010Prop48
 90
       50
102
RTVSPost2010PropOp48
 70
     1
102
RTVSPost2010Prop49
280
     0
102
RTVSPost2010PropOp49
 70
     1
102
RTVSPost2010Prop50
 90
       50
102
RTVSPost2010PropOp50
 70
     1
102
RTVSPost2010Prop51ColorIndex
 90
      256
102
RTVSPost2010Prop51ColorRGB
 90
-16777216
102
RTVSPost2010PropOp51
 70
     0
102
RTVSPost2010Prop52
140
1.0
102
RTVSPost2010PropOp52
 70
     0
102
RTVSPost2010Prop53
 90
        2
102
RTVSPost2010PropOp53
 70
     1
102
RTVSPost2010Prop54
  1
strokes_ogs.tif
102
RTVSPost2010PropOp54
 70
     1
102
RTVSPost2010Prop55
280
     0
102
RTVSPost2010PropOp55
 70
     1
102
RTVSPost2010Prop56
140
1.0
102
RTVSPost2010PropOp56
 70
     1
102
RTVSPost2010Prop57
140
1.0
102
RTVSPost2010PropOp57
 70
     1
  0
XRECORD
  5
1E4
102
{ACAD_REACTORS
330
1E3
102
}
330
1E3
100
AcDbXrecord
280
     1
102
RTVSPropertyOp0
 70
     1
102
RTVSPropertyOp1
 70
     1
102
RTVSPropertyOp2
 70
     1
102
RTVSPropertyOp3
 70
     1
102
RTVSPropertyOp4
 70
     1
102
RTVSPropertyOp5
 70
     1
102
RTVSPropertyOp6
 70
     1
102
RTVSPropertyOp7
 70
     1
102
RTVSPropertyOp8
 70
     1
102
RTVSPropertyOp9
 70
     1
102
RTVSPropertyOp10
 70
     1
102
RTVSPropertyOp11
 70
     1
102
RTVSPropertyOp12
 70
     1
102
RTVSPropertyOp13
 70
     1
102
RTVSPropertyOp14
 70
     1
102
RTVSPropertyOp15
 70
     1
102
RTVSPropertyOp16
 70
     1
102
RTVSPropertyOp17
 70
     1
102
RTVSPropertyOp18
 70
     1
102
RTVSPropertyOp19
 70
     1
102
RTVSPropertyOp20
 70
     1
102
RTVSPropertyOp21
 70
     1
102
RTVSPropertyOp22
 70
     1
102
RTVSPropertyOp23
 70
     1
102
RTVSPropertyOp24
 70
     1
102
RTVSPropertyOp25
 70
     1
102
RTVSPropertyOp26
 70
     1
102
RTVSPropertyOp27
 70
     1
102
RTVSPropertyOp28
 70
     1
102
RTVSPropertyOp29
 70
     1
102
RTVSPropertyOp30
 70
     1
102
RTVSPropertyOp31
 70
     1
102
RTVSPropertyOp32
 70
     1
102
RTVSPropertyOp33
 70
     1
102
RTVSPropertyOp34
 70
     1
102
RTVSPropertyOp35
 70
     1
102
RTVSPropertyOp36
 70
     1
102
RTVSPropertyOp37
 70
     1
102
RTVSPropertyOp38
 70
     1
102
RTVSPropertyOp39
 70
     1
102
RTVSPropertyOp40
 70
     1
102
RTVSPropertyOp41
 70
     1
102
RTVSPropertyOp42
 70
     1
102
RTVSPropertyOp43
 70
     1
102
RTVSPropertyOp44
 70
     1
102
RTVSPropertyOp45
 70
     1
102
RTVSPropertyOp46
 70
     1
102
RTVSPropertyOp47
 70
     1
102
RTVSPropertyOp48
 70
     1
102
RTVSPropertyOp49
 70
     1
102
RTVSPropertyOp50
 70
     1
102
RTVSPropertyOp51
 70
     0
102
RTVSPropertyOp52
 70
     0
102
RTVSPropertyOp53
 70
     1
102
RTVSPropertyOp54
 70
     1
102
RTVSPropertyOp55
 70
     1
102
RTVSPropertyOp56
 70
     1
102
RTVSPropertyOp57
 70
     1
102
RTVSPost2010Prop28
280
     0
102
RTVSPost2010PropOp28
 70
     1
102
RTVSPost2010Prop29
280
     1
102
RTVSPost2010PropOp29
 70
     1
102
RTVSPost2010Prop30
280
     1
102
RTVSPost2010PropOp30
 70
     1
102
RTVSPost2010Prop31
280
     0
102
RTVSPost2010PropOp31
 70
     1
102
RTVSPost2010Prop32
280
     0
102
RTVSPost2010PropOp32
 70
     1
102
RTVSPost2010Prop33
280
     0
102
RTVSPost2010PropOp33
 70
     1
102
RTVSPost2010Prop34
280
     0
102
RTVSPost2010PropOp34
 70
     1
102
RTVSPost2010Prop35
280
     0
102
RTVSPost2010PropOp35
 70
     1
102
RTVSPost2010Prop36
280
     0
102
RTVSPost2010PropOp36
 70
     1
102
RTVSPost2010Prop37
 90
       50
102
RTVSPost2010PropOp37
 70
     1
102
RTVSPost2010Prop38
140
0.0
102
RTVSPost2010PropOp38
 70
     1
102
RTVSPost2010Prop39
140
1.0
102
RTVSPost2010PropOp39
 70
     1
102
RTVSPost2010Prop40
 90
        0
102
RTVSPost2010PropOp40
 70
     1
102
RTVSPost2010Prop41ColorIndex
 90
       18
102
RTVSPost2010Prop41ColorRGB
 90
        0
102
RTVSPost2010PropOp41
 70
     1
102
RTVSPost2010Prop42
 90
       50
102
RTVSPost2010PropOp42
 70
     1
102
RTVSPost2010Prop43
 90
        3
102
RTVSPost2010PropOp43
 70
     1
102
RTVSPost2010Prop44ColorIndex
 90
        5
102
RTVSPost2010Prop44ColorRGB
 90
      255
102
RTVSPost2010PropOp44
 70
     1
102
RTVSPost2010Prop45
280
     0
102
RTVSPost2010PropOp45
 70
     1
102
RTVSPost2010Prop46
 90
       50
102
RTVSPost2010PropOp46
 70
     1
102
RTVSPost2010Prop47
 90
       50
102
RTVSPost2010PropOp47
 70
     1
102
RTVSPost2010Prop48
 90
       50
102
RTVSPost2010PropOp48
 70
     1
102
RTVSPost2010Prop49
280
     0
102
RTVSPost2010PropOp49
 70
     1
102
RTVSPost2010Prop50
 90
       50
102
RTVSPost2010PropOp50
 70
     1
102
RTVSPost2010Prop51ColorIndex
 90
      256
102
RTVSPost2010Prop51ColorRGB
 90
-16777216
102
RTVSPost2010PropOp51
 70
     0
102
RTVSPost2010Prop52
140
1.0
102
RTVSPost2010PropOp52
 70
     0
102
RTVSPost2010Prop53
 90
        2
102
RTVSPost2010PropOp53
 70
     1
102
RTVSPost2010Prop54
  1
strokes_ogs.tif
102
RTVSPost2010PropOp54
 70
     1
102
RTVSPost2010Prop55
280
     0
102
RTVSPost2010PropOp55
 70
     1
102
RTVSPost2010Prop56
140
1.0
102
RTVSPost2010PropOp56
 70
     1
102
RTVSPost2010Prop57
140
1.0
102
RTVSPost2010PropOp57
 70
     1
  0
XRECORD
  5
1EC
102
{ACAD_REACTORS
330
1EB
102
}
330
1EB
100
AcDbXrecord
280
     1
102
RTVSPropertyOp0
 70
     1
102
RTVSPropertyOp1
 70
     1
102
RTVSPropertyOp2
 70
     1
102
RTVSPropertyOp3
 70
     1
102
RTVSPropertyOp4
 70
     1
102
RTVSPropertyOp5
 70
     1
102
RTVSPropertyOp6
 70
     1
102
RTVSPropertyOp7
 70
     1
102
RTVSPropertyOp8
 70
     1
102
RTVSPropertyOp9
 70
     1
102
RTVSPropertyOp10
 70
     1
102
RTVSPropertyOp11
 70
     1
102
RTVSPropertyOp12
 70
     1
102
RTVSPropertyOp13
 70
     1
102
RTVSPropertyOp14
 70
     1
102
RTVSPropertyOp15
 70
     1
102
RTVSPropertyOp16
 70
     1
102
RTVSPropertyOp17
 70
     1
102
RTVSPropertyOp18
 70
     1
102
RTVSPropertyOp19
 70
     1
102
RTVSPropertyOp20
 70
     1
102
RTVSPropertyOp21
 70
     1
102
RTVSPropertyOp22
 70
     1
102
RTVSPropertyOp23
 70
     1
102
RTVSPropertyOp24
 70
     1
102
RTVSPropertyOp25
 70
     1
102
RTVSPropertyOp26
 70
     1
102
RTVSPropertyOp27
 70
     1
102
RTVSPropertyOp28
 70
     1
102
RTVSPropertyOp29
 70
     1
102
RTVSPropertyOp30
 70
     1
102
RTVSPropertyOp31
 70
     1
102
RTVSPropertyOp32
 70
     1
102
RTVSPropertyOp33
 70
     1
102
RTVSPropertyOp34
 70
     1
102
RTVSPropertyOp35
 70
     1
102
RTVSPropertyOp36
 70
     1
102
RTVSPropertyOp37
 70
     1
102
RTVSPropertyOp38
 70
     1
102
RTVSPropertyOp39
 70
     1
102
RTVSPropertyOp40
 70
     1
102
RTVSPropertyOp41
 70
     1
102
RTVSPropertyOp42
 70
     1
102
RTVSPropertyOp43
 70
     1
102
RTVSPropertyOp44
 70
     1
102
RTVSPropertyOp45
 70
     1
102
RTVSPropertyOp46
 70
     1
102
RTVSPropertyOp47
 70
     1
102
RTVSPropertyOp48
 70
     1
102
RTVSPropertyOp49
 70
     1
102
RTVSPropertyOp50
 70
     1
102
RTVSPropertyOp51
 70
     0
102
RTVSPropertyOp52
 70
     0
102
RTVSPropertyOp53
 70
     1
102
RTVSPropertyOp54
 70
     1
102
RTVSPropertyOp55
 70
     1
102
RTVSPropertyOp56
 70
     1
102
RTVSPropertyOp57
 70
     1
102
RTVSPost2010Prop28
280
     0
102
RTVSPost2010PropOp28
 70
     1
102
RTVSPost2010Prop29
280
     1
102
RTVSPost2010PropOp29
 70
     1
102
RTVSPost2010Prop30
280
     1
102
RTVSPost2010PropOp30
 70
     1
102
RTVSPost2010Prop31
280
     0
102
RTVSPost2010PropOp31
 70
     1
102
RTVSPost2010Prop32
280
     0
102
RTVSPost2010PropOp32
 70
     1
102
RTVSPost2010Prop33
280
     0
102
RTVSPost2010PropOp33
 70
     1
102
RTVSPost2010Prop34
280
     0
102
RTVSPost2010PropOp34
 70
     1
102
RTVSPost2010Prop35
280
     0
102
RTVSPost2010PropOp35
 70
     1
102
RTVSPost2010Prop36
280
     0
102
RTVSPost2010PropOp36
 70
     1
102
RTVSPost2010Prop37
 90
       50
102
RTVSPost2010PropOp37
 70
     1
102
RTVSPost2010Prop38
140
0.0
102
RTVSPost2010PropOp38
 70
     1
102
RTVSPost2010Prop39
140
1.0
102
RTVSPost2010PropOp39
 70
     1
102
RTVSPost2010Prop40
 90
        0
102
RTVSPost2010PropOp40
 70
     1
102
RTVSPost2010Prop41ColorIndex
 90
       18
102
RTVSPost2010Prop41ColorRGB
 90
        0
102
RTVSPost2010PropOp41
 70
     1
102
RTVSPost2010Prop42
 90
       50
102
RTVSPost2010PropOp42
 70
     1
102
RTVSPost2010Prop43
 90
        3
102
RTVSPost2010PropOp43
 70
     1
102
RTVSPost2010Prop44ColorIndex
 90
        5
102
RTVSPost2010Prop44ColorRGB
 90
      255
102
RTVSPost2010PropOp44
 70
     1
102
RTVSPost2010Prop45
280
     0
102
RTVSPost2010PropOp45
 70
     1
102
RTVSPost2010Prop46
 90
       50
102
RTVSPost2010PropOp46
 70
     1
102
RTVSPost2010Prop47
 90
       50
102
RTVSPost2010PropOp47
 70
     1
102
RTVSPost2010Prop48
 90
       50
102
RTVSPost2010PropOp48
 70
     1
102
RTVSPost2010Prop49
280
     0
102
RTVSPost2010PropOp49
 70
     1
102
RTVSPost2010Prop50
 90
       50
102
RTVSPost2010PropOp50
 70
     1
102
RTVSPost2010Prop51ColorIndex
 90
      256
102
RTVSPost2010Prop51ColorRGB
 90
-16777216
102
RTVSPost2010PropOp51
 70
     0
102
RTVSPost2010Prop52
140
1.0
102
RTVSPost2010PropOp52
 70
     0
102
RTVSPost2010Prop53
 90
        2
102
RTVSPost2010PropOp53
 70
     1
102
RTVSPost2010Prop54
  1
strokes_ogs.tif
102
RTVSPost2010PropOp54
 70
     1
102
RTVSPost2010Prop55
280
     0
102
RTVSPost2010PropOp55
 70
     1
102
RTVSPost2010Prop56
140
1.0
102
RTVSPost2010PropOp56
 70
     1
102
RTVSPost2010Prop57
140
1.0
102
RTVSPost2010PropOp57
 70
     1
  0
XRECORD
  5
1E0
102
{ACAD_REACTORS
330
1DF
102
}
330
1DF
100
AcDbXrecord
280
     1
102
RTVSPropertyOp0
 70
     1
102
RTVSPropertyOp1
 70
     1
102
RTVSPropertyOp2
 70
     1
102
RTVSPropertyOp3
 70
     1
102
RTVSPropertyOp4
 70
     1
102
RTVSPropertyOp5
 70
     1
102
RTVSPropertyOp6
 70
     1
102
RTVSPropertyOp7
 70
     1
102
RTVSPropertyOp8
 70
     1
102
RTVSPropertyOp9
 70
     1
102
RTVSPropertyOp10
 70
     1
102
RTVSPropertyOp11
 70
     1
102
RTVSPropertyOp12
 70
     1
102
RTVSPropertyOp13
 70
     1
102
RTVSPropertyOp14
 70
     1
102
RTVSPropertyOp15
 70
     1
102
RTVSPropertyOp16
 70
     1
102
RTVSPropertyOp17
 70
     1
102
RTVSPropertyOp18
 70
     1
102
RTVSPropertyOp19
 70
     1
102
RTVSPropertyOp20
 70
     1
102
RTVSPropertyOp21
 70
     1
102
RTVSPropertyOp22
 70
     1
102
RTVSPropertyOp23
 70
     1
102
RTVSPropertyOp24
 70
     1
102
RTVSPropertyOp25
 70
     1
102
RTVSPropertyOp26
 70
     1
102
RTVSPropertyOp27
 70
     1
102
RTVSPropertyOp28
 70
     1
102
RTVSPropertyOp29
 70
     1
102
RTVSPropertyOp30
 70
     1
102
RTVSPropertyOp31
 70
     1
102
RTVSPropertyOp32
 70
     1
102
RTVSPropertyOp33
 70
     1
102
RTVSPropertyOp34
 70
     1
102
RTVSPropertyOp35
 70
     1
102
RTVSPropertyOp36
 70
     1
102
RTVSPropertyOp37
 70
     1
102
RTVSPropertyOp38
 70
     1
102
RTVSPropertyOp39
 70
     1
102
RTVSPropertyOp40
 70
     1
102
RTVSPropertyOp41
 70
     1
102
RTVSPropertyOp42
 70
     1
102
RTVSPropertyOp43
 70
     1
102
RTVSPropertyOp44
 70
     1
102
RTVSPropertyOp45
 70
     1
102
RTVSPropertyOp46
 70
     1
102
RTVSPropertyOp47
 70
     1
102
RTVSPropertyOp48
 70
     1
102
RTVSPropertyOp49
 70
     1
102
RTVSPropertyOp50
 70
     1
102
RTVSPropertyOp51
 70
     0
102
RTVSPropertyOp52
 70
     0
102
RTVSPropertyOp53
 70
     1
102
RTVSPropertyOp54
 70
     1
102
RTVSPropertyOp55
 70
     1
102
RTVSPropertyOp56
 70
     1
102
RTVSPropertyOp57
 70
     1
102
RTVSPost2010Prop28
280
     0
102
RTVSPost2010PropOp28
 70
     1
102
RTVSPost2010Prop29
280
     1
102
RTVSPost2010PropOp29
 70
     1
102
RTVSPost2010Prop30
280
     1
102
RTVSPost2010PropOp30
 70
     1
102
RTVSPost2010Prop31
280
     0
102
RTVSPost2010PropOp31
 70
     1
102
RTVSPost2010Prop32
280
     0
102
RTVSPost2010PropOp32
 70
     1
102
RTVSPost2010Prop33
280
     0
102
RTVSPost2010PropOp33
 70
     1
102
RTVSPost2010Prop34
280
     0
102
RTVSPost2010PropOp34
 70
     1
102
RTVSPost2010Prop35
280
     0
102
RTVSPost2010PropOp35
 70
     1
102
RTVSPost2010Prop36
280
     0
102
RTVSPost2010PropOp36
 70
     1
102
RTVSPost2010Prop37
 90
       50
102
RTVSPost2010PropOp37
 70
     1
102
RTVSPost2010Prop38
140
0.0
102
RTVSPost2010PropOp38
 70
     1
102
RTVSPost2010Prop39
140
1.0
102
RTVSPost2010PropOp39
 70
     1
102
RTVSPost2010Prop40
 90
        0
102
RTVSPost2010PropOp40
 70
     1
102
RTVSPost2010Prop41ColorIndex
 90
       18
102
RTVSPost2010Prop41ColorRGB
 90
        0
102
RTVSPost2010PropOp41
 70
     1
102
RTVSPost2010Prop42
 90
       50
102
RTVSPost2010PropOp42
 70
     1
102
RTVSPost2010Prop43
 90
        3
102
RTVSPost2010PropOp43
 70
     1
102
RTVSPost2010Prop44ColorIndex
 90
        5
102
RTVSPost2010Prop44ColorRGB
 90
      255
102
RTVSPost2010PropOp44
 70
     1
102
RTVSPost2010Prop45
280
     0
102
RTVSPost2010PropOp45
 70
     1
102
RTVSPost2010Prop46
 90
       50
102
RTVSPost2010PropOp46
 70
     1
102
RTVSPost2010Prop47
 90
       50
102
RTVSPost2010PropOp47
 70
     1
102
RTVSPost2010Prop48
 90
       50
102
RTVSPost2010PropOp48
 70
     1
102
RTVSPost2010Prop49
280
     0
102
RTVSPost2010PropOp49
 70
     1
102
RTVSPost2010Prop50
 90
       50
102
RTVSPost2010PropOp50
 70
     1
102
RTVSPost2010Prop51ColorIndex
 90
      256
102
RTVSPost2010Prop51ColorRGB
 90
-16777216
102
RTVSPost2010PropOp51
 70
     0
102
RTVSPost2010Prop52
140
1.0
102
RTVSPost2010PropOp52
 70
     0
102
RTVSPost2010Prop53
 90
        2
102
RTVSPost2010PropOp53
 70
     1
102
RTVSPost2010Prop54
  1
strokes_ogs.tif
102
RTVSPost2010PropOp54
 70
     1
102
RTVSPost2010Prop55
280
     0
102
RTVSPost2010PropOp55
 70
     1
102
RTVSPost2010Prop56
140
1.0
102
RTVSPost2010PropOp56
 70
     1
102
RTVSPost2010Prop57
140
1.0
102
RTVSPost2010PropOp57
 70
     1
  0
XRECORD
  5
1E2
102
{ACAD_REACTORS
330
1E1
102
}
330
1E1
100
AcDbXrecord
280
     1
102
RTVSPropertyOp0
 70
     1
102
RTVSPropertyOp1
 70
     1
102
RTVSPropertyOp2
 70
     1
102
RTVSPropertyOp3
 70
     1
102
RTVSPropertyOp4
 70
     1
102
RTVSPropertyOp5
 70
     1
102
RTVSPropertyOp6
 70
     1
102
RTVSPropertyOp7
 70
     1
102
RTVSPropertyOp8
 70
     1
102
RTVSPropertyOp9
 70
     1
102
RTVSPropertyOp10
 70
     1
102
RTVSPropertyOp11
 70
     1
102
RTVSPropertyOp12
 70
     1
102
RTVSPropertyOp13
 70
     1
102
RTVSPropertyOp14
 70
     1
102
RTVSPropertyOp15
 70
     1
102
RTVSPropertyOp16
 70
     1
102
RTVSPropertyOp17
 70
     1
102
RTVSPropertyOp18
 70
     1
102
RTVSPropertyOp19
 70
     1
102
RTVSPropertyOp20
 70
     1
102
RTVSPropertyOp21
 70
     1
102
RTVSPropertyOp22
 70
     1
102
RTVSPropertyOp23
 70
     1
102
RTVSPropertyOp24
 70
     1
102
RTVSPropertyOp25
 70
     1
102
RTVSPropertyOp26
 70
     1
102
RTVSPropertyOp27
 70
     1
102
RTVSPropertyOp28
 70
     1
102
RTVSPropertyOp29
 70
     1
102
RTVSPropertyOp30
 70
     1
102
RTVSPropertyOp31
 70
     1
102
RTVSPropertyOp32
 70
     1
102
RTVSPropertyOp33
 70
     1
102
RTVSPropertyOp34
 70
     1
102
RTVSPropertyOp35
 70
     1
102
RTVSPropertyOp36
 70
     1
102
RTVSPropertyOp37
 70
     1
102
RTVSPropertyOp38
 70
     1
102
RTVSPropertyOp39
 70
     1
102
RTVSPropertyOp40
 70
     1
102
RTVSPropertyOp41
 70
     1
102
RTVSPropertyOp42
 70
     1
102
RTVSPropertyOp43
 70
     1
102
RTVSPropertyOp44
 70
     1
102
RTVSPropertyOp45
 70
     1
102
RTVSPropertyOp46
 70
     1
102
RTVSPropertyOp47
 70
     1
102
RTVSPropertyOp48
 70
     1
102
RTVSPropertyOp49
 70
     1
102
RTVSPropertyOp50
 70
     1
102
RTVSPropertyOp51
 70
     0
102
RTVSPropertyOp52
 70
     0
102
RTVSPropertyOp53
 70
     1
102
RTVSPropertyOp54
 70
     1
102
RTVSPropertyOp55
 70
     1
102
RTVSPropertyOp56
 70
     1
102
RTVSPropertyOp57
 70
     1
102
RTVSPost2010Prop28
280
     0
102
RTVSPost2010PropOp28
 70
     1
102
RTVSPost2010Prop29
280
     1
102
RTVSPost2010PropOp29
 70
     1
102
RTVSPost2010Prop30
280
     1
102
RTVSPost2010PropOp30
 70
     1
102
RTVSPost2010Prop31
280
     0
102
RTVSPost2010PropOp31
 70
     1
102
RTVSPost2010Prop32
280
     0
102
RTVSPost2010PropOp32
 70
     1
102
RTVSPost2010Prop33
280
     0
102
RTVSPost2010PropOp33
 70
     1
102
RTVSPost2010Prop34
280
     0
102
RTVSPost2010PropOp34
 70
     1
102
RTVSPost2010Prop35
280
     0
102
RTVSPost2010PropOp35
 70
     1
102
RTVSPost2010Prop36
280
     0
102
RTVSPost2010PropOp36
 70
     1
102
RTVSPost2010Prop37
 90
       50
102
RTVSPost2010PropOp37
 70
     1
102
RTVSPost2010Prop38
140
0.0
102
RTVSPost2010PropOp38
 70
     1
102
RTVSPost2010Prop39
140
1.0
102
RTVSPost2010PropOp39
 70
     1
102
RTVSPost2010Prop40
 90
        0
102
RTVSPost2010PropOp40
 70
     1
102
RTVSPost2010Prop41ColorIndex
 90
       18
102
RTVSPost2010Prop41ColorRGB
 90
        0
102
RTVSPost2010PropOp41
 70
     1
102
RTVSPost2010Prop42
 90
       50
102
RTVSPost2010PropOp42
 70
     1
102
RTVSPost2010Prop43
 90
        3
102
RTVSPost2010PropOp43
 70
     1
102
RTVSPost2010Prop44ColorIndex
 90
        5
102
RTVSPost2010Prop44ColorRGB
 90
      255
102
RTVSPost2010PropOp44
 70
     1
102
RTVSPost2010Prop45
280
     0
102
RTVSPost2010PropOp45
 70
     1
102
RTVSPost2010Prop46
 90
       50
102
RTVSPost2010PropOp46
 70
     1
102
RTVSPost2010Prop47
 90
       50
102
RTVSPost2010PropOp47
 70
     1
102
RTVSPost2010Prop48
 90
       50
102
RTVSPost2010PropOp48
 70
     1
102
RTVSPost2010Prop49
280
     0
102
RTVSPost2010PropOp49
 70
     1
102
RTVSPost2010Prop50
 90
       50
102
RTVSPost2010PropOp50
 70
     1
102
RTVSPost2010Prop51ColorIndex
 90
      256
102
RTVSPost2010Prop51ColorRGB
 90
-16777216
102
RTVSPost2010PropOp51
 70
     0
102
RTVSPost2010Prop52
140
1.0
102
RTVSPost2010PropOp52
 70
     0
102
RTVSPost2010Prop53
 90
        2
102
RTVSPost2010PropOp53
 70
     1
102
RTVSPost2010Prop54
  1
strokes_ogs.tif
102
RTVSPost2010PropOp54
 70
     1
102
RTVSPost2010Prop55
280
     0
102
RTVSPost2010PropOp55
 70
     1
102
RTVSPost2010Prop56
140
1.0
102
RTVSPost2010PropOp56
 70
     1
102
RTVSPost2010Prop57
140
1.0
102
RTVSPost2010PropOp57
 70
     1
  0
XRECORD
  5
1F2
102
{ACAD_REACTORS
330
1F1
102
}
330
1F1
100
AcDbXrecord
280
     1
102
RTVSPropertyOp0
 70
     0
102
RTVSPropertyOp1
 70
     0
102
RTVSPropertyOp2
 70
     0
102
RTVSPropertyOp3
 70
     0
102
RTVSPropertyOp4
 70
     0
102
RTVSPropertyOp5
 70
     0
102
RTVSPropertyOp6
 70
     0
102
RTVSPropertyOp7
 70
     0
102
RTVSPropertyOp8
 70
     0
102
RTVSPropertyOp9
 70
     0
102
RTVSPropertyOp10
 70
     0
102
RTVSPropertyOp11
 70
     0
102
RTVSPropertyOp12
 70
     0
102
RTVSPropertyOp13
 70
     0
102
RTVSPropertyOp14
 70
     2
102
RTVSPropertyOp15
 70
     0
102
RTVSPropertyOp16
 70
     0
102
RTVSPropertyOp17
 70
     0
102
RTVSPropertyOp18
 70
     0
102
RTVSPropertyOp19
 70
     0
102
RTVSPropertyOp20
 70
     0
102
RTVSPropertyOp21
 70
     0
102
RTVSPropertyOp22
 70
     0
102
RTVSPropertyOp23
 70
     0
102
RTVSPropertyOp24
 70
     0
102
RTVSPropertyOp25
 70
     0
102
RTVSPropertyOp26
 70
     0
102
RTVSPropertyOp27
 70
     0
102
RTVSPropertyOp28
 70
     0
102
RTVSPropertyOp29
 70
     0
102
RTVSPropertyOp30
 70
     0
102
RTVSPropertyOp31
 70
     0
102
RTVSPropertyOp32
 70
     0
102
RTVSPropertyOp33
 70
     0
102
RTVSPropertyOp34
 70
     0
102
RTVSPropertyOp35
 70
     0
102
RTVSPropertyOp36
 70
     0
102
RTVSPropertyOp37
 70
     0
102
RTVSPropertyOp38
 70
     0
102
RTVSPropertyOp39
 70
     0
102
RTVSPropertyOp40
 70
     0
102
RTVSPropertyOp41
 70
     0
102
RTVSPropertyOp42
 70
     0
102
RTVSPropertyOp43
 70
     0
102
RTVSPropertyOp44
 70
     0
102
RTVSPropertyOp45
 70
     0
102
RTVSPropertyOp46
 70
     0
102
RTVSPropertyOp47
 70
     0
102
RTVSPropertyOp48
 70
     0
102
RTVSPropertyOp49
 70
     0
102
RTVSPropertyOp50
 70
     0
102
RTVSPropertyOp51
 70
     0
102
RTVSPropertyOp52
 70
     0
102
RTVSPropertyOp53
 70
     0
102
RTVSPropertyOp54
 70
     0
102
RTVSPropertyOp55
 70
     0
102
RTVSPropertyOp56
 70
     0
102
RTVSPropertyOp57
 70
     0
102
RTVSPost2010Prop28
280
     0
102
RTVSPost2010PropOp28
 70
     0
102
RTVSPost2010Prop29
280
     1
102
RTVSPost2010PropOp29
 70
     0
102
RTVSPost2010Prop30
280
     1
102
RTVSPost2010PropOp30
 70
     0
102
RTVSPost2010Prop31
280
     0
102
RTVSPost2010PropOp31
 70
     0
102
RTVSPost2010Prop32
280
     0
102
RTVSPost2010PropOp32
 70
     0
102
RTVSPost2010Prop33
280
     0
102
RTVSPost2010PropOp33
 70
     0
102
RTVSPost2010Prop34
280
     0
102
RTVSPost2010PropOp34
 70
     0
102
RTVSPost2010Prop35
280
     0
102
RTVSPost2010PropOp35
 70
     0
102
RTVSPost2010Prop36
280
     0
102
RTVSPost2010PropOp36
 70
     0
102
RTVSPost2010Prop37
 90
       50
102
RTVSPost2010PropOp37
 70
     0
102
RTVSPost2010Prop38
140
0.0
102
RTVSPost2010PropOp38
 70
     0
102
RTVSPost2010Prop39
140
1.0
102
RTVSPost2010PropOp39
 70
     0
102
RTVSPost2010Prop40
 90
        0
102
RTVSPost2010PropOp40
 70
     0
102
RTVSPost2010Prop41ColorIndex
 90
       18
102
RTVSPost2010Prop41ColorRGB
 90
        0
102
RTVSPost2010PropOp41
 70
     0
102
RTVSPost2010Prop42
 90
       50
102
RTVSPost2010PropOp42
 70
     0
102
RTVSPost2010Prop43
 90
        3
102
RTVSPost2010PropOp43
 70
     0
102
RTVSPost2010Prop44ColorIndex
 90
        5
102
RTVSPost2010Prop44ColorRGB
 90
      255
102
RTVSPost2010PropOp44
 70
     0
102
RTVSPost2010Prop45
280
     0
102
RTVSPost2010PropOp45
 70
     0
102
RTVSPost2010Prop46
 90
       50
102
RTVSPost2010PropOp46
 70
     0
102
RTVSPost2010Prop47
 90
       50
102
RTVSPost2010PropOp47
 70
     0
102
RTVSPost2010Prop48
 90
       50
102
RTVSPost2010PropOp48
 70
     0
102
RTVSPost2010Prop49
280
     0
102
RTVSPost2010PropOp49
 70
     0
102
RTVSPost2010Prop50
 90
       50
102
RTVSPost2010PropOp50
 70
     0
102
RTVSPost2010Prop51ColorIndex
 90
      256
102
RTVSPost2010Prop51ColorRGB
 90
-16777216
102
RTVSPost2010PropOp51
 70
     0
102
RTVSPost2010Prop52
140
1.0
102
RTVSPost2010PropOp52
 70
     0
102
RTVSPost2010Prop53
 90
        2
102
RTVSPost2010PropOp53
 70
     0
102
RTVSPost2010Prop54
  1
strokes_ogs.tif
102
RTVSPost2010PropOp54
 70
     0
102
RTVSPost2010Prop55
280
     0
102
RTVSPost2010PropOp55
 70
     0
102
RTVSPost2010Prop56
140
1.0
102
RTVSPost2010PropOp56
 70
     0
102
RTVSPost2010Prop57
140
1.0
102
RTVSPost2010PropOp57
 70
     0
  0
XRECORD
  5
1EA
102
{ACAD_REACTORS
330
1E9
102
}
330
1E9
100
AcDbXrecord
280
     1
102
RTVSPropertyOp0
 70
     1
102
RTVSPropertyOp1
 70
     1
102
RTVSPropertyOp2
 70
     1
102
RTVSPropertyOp3
 70
     1
102
RTVSPropertyOp4
 70
     1
102
RTVSPropertyOp5
 70
     1
102
RTVSPropertyOp6
 70
     1
102
RTVSPropertyOp7
 70
     1
102
RTVSPropertyOp8
 70
     1
102
RTVSPropertyOp9
 70
     1
102
RTVSPropertyOp10
 70
     1
102
RTVSPropertyOp11
 70
     1
102
RTVSPropertyOp12
 70
     1
102
RTVSPropertyOp13
 70
     1
102
RTVSPropertyOp14
 70
     1
102
RTVSPropertyOp15
 70
     1
102
RTVSPropertyOp16
 70
     1
102
RTVSPropertyOp17
 70
     1
102
RTVSPropertyOp18
 70
     1
102
RTVSPropertyOp19
 70
     1
102
RTVSPropertyOp20
 70
     1
102
RTVSPropertyOp21
 70
     1
102
RTVSPropertyOp22
 70
     1
102
RTVSPropertyOp23
 70
     1
102
RTVSPropertyOp24
 70
     1
102
RTVSPropertyOp25
 70
     1
102
RTVSPropertyOp26
 70
     1
102
RTVSPropertyOp27
 70
     1
102
RTVSPropertyOp28
 70
     1
102
RTVSPropertyOp29
 70
     1
102
RTVSPropertyOp30
 70
     1
102
RTVSPropertyOp31
 70
     1
102
RTVSPropertyOp32
 70
     1
102
RTVSPropertyOp33
 70
     1
102
RTVSPropertyOp34
 70
     1
102
RTVSPropertyOp35
 70
     1
102
RTVSPropertyOp36
 70
     1
102
RTVSPropertyOp37
 70
     1
102
RTVSPropertyOp38
 70
     1
102
RTVSPropertyOp39
 70
     1
102
RTVSPropertyOp40
 70
     1
102
RTVSPropertyOp41
 70
     1
102
RTVSPropertyOp42
 70
     1
102
RTVSPropertyOp43
 70
     1
102
RTVSPropertyOp44
 70
     1
102
RTVSPropertyOp45
 70
     1
102
RTVSPropertyOp46
 70
     1
102
RTVSPropertyOp47
 70
     1
102
RTVSPropertyOp48
 70
     1
102
RTVSPropertyOp49
 70
     1
102
RTVSPropertyOp50
 70
     1
102
RTVSPropertyOp51
 70
     0
102
RTVSPropertyOp52
 70
     0
102
RTVSPropertyOp53
 70
     1
102
RTVSPropertyOp54
 70
     1
102
RTVSPropertyOp55
 70
     1
102
RTVSPropertyOp56
 70
     1
102
RTVSPropertyOp57
 70
     1
102
RTVSPost2010Prop28
280
     0
102
RTVSPost2010PropOp28
 70
     1
102
RTVSPost2010Prop29
280
     1
102
RTVSPost2010PropOp29
 70
     1
102
RTVSPost2010Prop30
280
     1
102
RTVSPost2010PropOp30
 70
     1
102
RTVSPost2010Prop31
280
     0
102
RTVSPost2010PropOp31
 70
     1
102
RTVSPost2010Prop32
280
     0
102
RTVSPost2010PropOp32
 70
     1
102
RTVSPost2010Prop33
280
     0
102
RTVSPost2010PropOp33
 70
     1
102
RTVSPost2010Prop34
280
     0
102
RTVSPost2010PropOp34
 70
     1
102
RTVSPost2010Prop35
280
     0
102
RTVSPost2010PropOp35
 70
     1
102
RTVSPost2010Prop36
280
     0
102
RTVSPost2010PropOp36
 70
     1
102
RTVSPost2010Prop37
 90
       50
102
RTVSPost2010PropOp37
 70
     1
102
RTVSPost2010Prop38
140
0.0
102
RTVSPost2010PropOp38
 70
     1
102
RTVSPost2010Prop39
140
1.0
102
RTVSPost2010PropOp39
 70
     1
102
RTVSPost2010Prop40
 90
        0
102
RTVSPost2010PropOp40
 70
     1
102
RTVSPost2010Prop41ColorIndex
 90
       18
102
RTVSPost2010Prop41ColorRGB
 90
        0
102
RTVSPost2010PropOp41
 70
     1
102
RTVSPost2010Prop42
 90
       50
102
RTVSPost2010PropOp42
 70
     1
102
RTVSPost2010Prop43
 90
        3
102
RTVSPost2010PropOp43
 70
     1
102
RTVSPost2010Prop44ColorIndex
 90
        5
102
RTVSPost2010Prop44ColorRGB
 90
      255
102
RTVSPost2010PropOp44
 70
     1
102
RTVSPost2010Prop45
280
     0
102
RTVSPost2010PropOp45
 70
     1
102
RTVSPost2010Prop46
 90
       50
102
RTVSPost2010PropOp46
 70
     1
102
RTVSPost2010Prop47
 90
       50
102
RTVSPost2010PropOp47
 70
     1
102
RTVSPost2010Prop48
 90
       50
102
RTVSPost2010PropOp48
 70
     1
102
RTVSPost2010Prop49
280
     0
102
RTVSPost2010PropOp49
 70
     1
102
RTVSPost2010Prop50
 90
       50
102
RTVSPost2010PropOp50
 70
     1
102
RTVSPost2010Prop51ColorIndex
 90
      256
102
RTVSPost2010Prop51ColorRGB
 90
-16777216
102
RTVSPost2010PropOp51
 70
     0
102
RTVSPost2010Prop52
140
1.0
102
RTVSPost2010PropOp52
 70
     0
102
RTVSPost2010Prop53
 90
        2
102
RTVSPost2010PropOp53
 70
     1
102
RTVSPost2010Prop54
  1
strokes_ogs.tif
102
RTVSPost2010PropOp54
 70
     1
102
RTVSPost2010Prop55
280
     0
102
RTVSPost2010PropOp55
 70
     1
102
RTVSPost2010Prop56
140
1.0
102
RTVSPost2010PropOp56
 70
     1
102
RTVSPost2010Prop57
140
1.0
102
RTVSPost2010PropOp57
 70
     1
  0
XRECORD
  5
1CE
102
{ACAD_REACTORS
330
1CD
102
}
330
1CD
100
AcDbXrecord
280
     1
102
RTVSPropertyOp0
 70
     1
102
RTVSPropertyOp1
 70
     1
102
RTVSPropertyOp2
 70
     1
102
RTVSPropertyOp3
 70
     1
102
RTVSPropertyOp4
 70
     1
102
RTVSPropertyOp5
 70
     1
102
RTVSPropertyOp6
 70
     1
102
RTVSPropertyOp7
 70
     1
102
RTVSPropertyOp8
 70
     1
102
RTVSPropertyOp9
 70
     1
102
RTVSPropertyOp10
 70
     1
102
RTVSPropertyOp11
 70
     1
102
RTVSPropertyOp12
 70
     1
102
RTVSPropertyOp13
 70
     1
102
RTVSPropertyOp14
 70
     1
102
RTVSPropertyOp15
 70
     1
102
RTVSPropertyOp16
 70
     1
102
RTVSPropertyOp17
 70
     1
102
RTVSPropertyOp18
 70
     1
102
RTVSPropertyOp19
 70
     1
102
RTVSPropertyOp20
 70
     1
102
RTVSPropertyOp21
 70
     1
102
RTVSPropertyOp22
 70
     1
102
RTVSPropertyOp23
 70
     1
102
RTVSPropertyOp24
 70
     1
102
RTVSPropertyOp25
 70
     1
102
RTVSPropertyOp26
 70
     1
102
RTVSPropertyOp27
 70
     1
102
RTVSPropertyOp28
 70
     1
102
RTVSPropertyOp29
 70
     1
102
RTVSPropertyOp30
 70
     1
102
RTVSPropertyOp31
 70
     1
102
RTVSPropertyOp32
 70
     1
102
RTVSPropertyOp33
 70
     1
102
RTVSPropertyOp34
 70
     1
102
RTVSPropertyOp35
 70
     1
102
RTVSPropertyOp36
 70
     1
102
RTVSPropertyOp37
 70
     1
102
RTVSPropertyOp38
 70
     1
102
RTVSPropertyOp39
 70
     1
102
RTVSPropertyOp40
 70
     1
102
RTVSPropertyOp41
 70
     1
102
RTVSPropertyOp42
 70
     1
102
RTVSPropertyOp43
 70
     1
102
RTVSPropertyOp44
 70
     1
102
RTVSPropertyOp45
 70
     1
102
RTVSPropertyOp46
 70
     1
102
RTVSPropertyOp47
 70
     1
102
RTVSPropertyOp48
 70
     1
102
RTVSPropertyOp49
 70
     1
102
RTVSPropertyOp50
 70
     1
102
RTVSPropertyOp51
 70
     0
102
RTVSPropertyOp52
 70
     0
102
RTVSPropertyOp53
 70
     1
102
RTVSPropertyOp54
 70
     1
102
RTVSPropertyOp55
 70
     1
102
RTVSPropertyOp56
 70
     1
102
RTVSPropertyOp57
 70
     1
102
RTVSPost2010Prop28
280
     0
102
RTVSPost2010PropOp28
 70
     1
102
RTVSPost2010Prop29
280
     1
102
RTVSPost2010PropOp29
 70
     1
102
RTVSPost2010Prop30
280
     1
102
RTVSPost2010PropOp30
 70
     1
102
RTVSPost2010Prop31
280
     0
102
RTVSPost2010PropOp31
 70
     1
102
RTVSPost2010Prop32
280
     0
102
RTVSPost2010PropOp32
 70
     1
102
RTVSPost2010Prop33
280
     0
102
RTVSPost2010PropOp33
 70
     1
102
RTVSPost2010Prop34
280
     0
102
RTVSPost2010PropOp34
 70
     1
102
RTVSPost2010Prop35
280
     0
102
RTVSPost2010PropOp35
 70
     1
102
RTVSPost2010Prop36
280
     0
102
RTVSPost2010PropOp36
 70
     1
102
RTVSPost2010Prop37
 90
       50
102
RTVSPost2010PropOp37
 70
     1
102
RTVSPost2010Prop38
140
0.0
102
RTVSPost2010PropOp38
 70
     1
102
RTVSPost2010Prop39
140
1.0
102
RTVSPost2010PropOp39
 70
     1
102
RTVSPost2010Prop40
 90
        0
102
RTVSPost2010PropOp40
 70
     1
102
RTVSPost2010Prop41ColorIndex
 90
       18
102
RTVSPost2010Prop41ColorRGB
 90
        0
102
RTVSPost2010PropOp41
 70
     1
102
RTVSPost2010Prop42
 90
       50
102
RTVSPost2010PropOp42
 70
     1
102
RTVSPost2010Prop43
 90
        3
102
RTVSPost2010PropOp43
 70
     1
102
RTVSPost2010Prop44ColorIndex
 90
        5
102
RTVSPost2010Prop44ColorRGB
 90
      255
102
RTVSPost2010PropOp44
 70
     1
102
RTVSPost2010Prop45
280
     0
102
RTVSPost2010PropOp45
 70
     1
102
RTVSPost2010Prop46
 90
       50
102
RTVSPost2010PropOp46
 70
     1
102
RTVSPost2010Prop47
 90
       50
102
RTVSPost2010PropOp47
 70
     1
102
RTVSPost2010Prop48
 90
       50
102
RTVSPost2010PropOp48
 70
     1
102
RTVSPost2010Prop49
280
     0
102
RTVSPost2010PropOp49
 70
     1
102
RTVSPost2010Prop50
 90
       50
102
RTVSPost2010PropOp50
 70
     1
102
RTVSPost2010Prop51ColorIndex
 90
      256
102
RTVSPost2010Prop51ColorRGB
 90
-16777216
102
RTVSPost2010PropOp51
 70
     0
102
RTVSPost2010Prop52
140
1.0
102
RTVSPost2010PropOp52
 70
     0
102
RTVSPost2010Prop53
 90
        2
102
RTVSPost2010PropOp53
 70
     1
102
RTVSPost2010Prop54
  1
strokes_ogs.tif
102
RTVSPost2010PropOp54
 70
     1
102
RTVSPost2010Prop55
280
     0
102
RTVSPost2010PropOp55
 70
     1
102
RTVSPost2010Prop56
140
1.0
102
RTVSPost2010PropOp56
 70
     1
102
RTVSPost2010Prop57
140
1.0
102
RTVSPost2010PropOp57
 70
     1
  0
XRECORD
  5
1D0
102
{ACAD_REACTORS
330
1CF
102
}
330
1CF
100
AcDbXrecord
280
     1
102
RTVSPropertyOp0
 70
     1
102
RTVSPropertyOp1
 70
     1
102
RTVSPropertyOp2
 70
     1
102
RTVSPropertyOp3
 70
     1
102
RTVSPropertyOp4
 70
     1
102
RTVSPropertyOp5
 70
     1
102
RTVSPropertyOp6
 70
     1
102
RTVSPropertyOp7
 70
     1
102
RTVSPropertyOp8
 70
     1
102
RTVSPropertyOp9
 70
     1
102
RTVSPropertyOp10
 70
     1
102
RTVSPropertyOp11
 70
     1
102
RTVSPropertyOp12
 70
     1
102
RTVSPropertyOp13
 70
     1
102
RTVSPropertyOp14
 70
     1
102
RTVSPropertyOp15
 70
     1
102
RTVSPropertyOp16
 70
     1
102
RTVSPropertyOp17
 70
     1
102
RTVSPropertyOp18
 70
     1
102
RTVSPropertyOp19
 70
     1
102
RTVSPropertyOp20
 70
     1
102
RTVSPropertyOp21
 70
     1
102
RTVSPropertyOp22
 70
     1
102
RTVSPropertyOp23
 70
     1
102
RTVSPropertyOp24
 70
     1
102
RTVSPropertyOp25
 70
     1
102
RTVSPropertyOp26
 70
     1
102
RTVSPropertyOp27
 70
     1
102
RTVSPropertyOp28
 70
     1
102
RTVSPropertyOp29
 70
     1
102
RTVSPropertyOp30
 70
     1
102
RTVSPropertyOp31
 70
     1
102
RTVSPropertyOp32
 70
     1
102
RTVSPropertyOp33
 70
     1
102
RTVSPropertyOp34
 70
     1
102
RTVSPropertyOp35
 70
     1
102
RTVSPropertyOp36
 70
     1
102
RTVSPropertyOp37
 70
     1
102
RTVSPropertyOp38
 70
     1
102
RTVSPropertyOp39
 70
     1
102
RTVSPropertyOp40
 70
     1
102
RTVSPropertyOp41
 70
     1
102
RTVSPropertyOp42
 70
     1
102
RTVSPropertyOp43
 70
     1
102
RTVSPropertyOp44
 70
     1
102
RTVSPropertyOp45
 70
     1
102
RTVSPropertyOp46
 70
     1
102
RTVSPropertyOp47
 70
     1
102
RTVSPropertyOp48
 70
     1
102
RTVSPropertyOp49
 70
     1
102
RTVSPropertyOp50
 70
     1
102
RTVSPropertyOp51
 70
     0
102
RTVSPropertyOp52
 70
     0
102
RTVSPropertyOp53
 70
     1
102
RTVSPropertyOp54
 70
     1
102
RTVSPropertyOp55
 70
     1
102
RTVSPropertyOp56
 70
     1
102
RTVSPropertyOp57
 70
     1
102
RTVSPost2010Prop28
280
     0
102
RTVSPost2010PropOp28
 70
     1
102
RTVSPost2010Prop29
280
     1
102
RTVSPost2010PropOp29
 70
     1
102
RTVSPost2010Prop30
280
     1
102
RTVSPost2010PropOp30
 70
     1
102
RTVSPost2010Prop31
280
     0
102
RTVSPost2010PropOp31
 70
     1
102
RTVSPost2010Prop32
280
     0
102
RTVSPost2010PropOp32
 70
     1
102
RTVSPost2010Prop33
280
     0
102
RTVSPost2010PropOp33
 70
     1
102
RTVSPost2010Prop34
280
     0
102
RTVSPost2010PropOp34
 70
     1
102
RTVSPost2010Prop35
280
     0
102
RTVSPost2010PropOp35
 70
     1
102
RTVSPost2010Prop36
280
     0
102
RTVSPost2010PropOp36
 70
     1
102
RTVSPost2010Prop37
 90
       50
102
RTVSPost2010PropOp37
 70
     1
102
RTVSPost2010Prop38
140
0.0
102
RTVSPost2010PropOp38
 70
     1
102
RTVSPost2010Prop39
140
1.0
102
RTVSPost2010PropOp39
 70
     1
102
RTVSPost2010Prop40
 90
        0
102
RTVSPost2010PropOp40
 70
     1
102
RTVSPost2010Prop41ColorIndex
 90
       18
102
RTVSPost2010Prop41ColorRGB
 90
        0
102
RTVSPost2010PropOp41
 70
     1
102
RTVSPost2010Prop42
 90
       50
102
RTVSPost2010PropOp42
 70
     1
102
RTVSPost2010Prop43
 90
        3
102
RTVSPost2010PropOp43
 70
     1
102
RTVSPost2010Prop44ColorIndex
 90
        5
102
RTVSPost2010Prop44ColorRGB
 90
      255
102
RTVSPost2010PropOp44
 70
     1
102
RTVSPost2010Prop45
280
     0
102
RTVSPost2010PropOp45
 70
     1
102
RTVSPost2010Prop46
 90
       50
102
RTVSPost2010PropOp46
 70
     1
102
RTVSPost2010Prop47
 90
       50
102
RTVSPost2010PropOp47
 70
     1
102
RTVSPost2010Prop48
 90
       50
102
RTVSPost2010PropOp48
 70
     1
102
RTVSPost2010Prop49
280
     0
102
RTVSPost2010PropOp49
 70
     1
102
RTVSPost2010Prop50
 90
       50
102
RTVSPost2010PropOp50
 70
     1
102
RTVSPost2010Prop51ColorIndex
 90
      256
102
RTVSPost2010Prop51ColorRGB
 90
-16777216
102
RTVSPost2010PropOp51
 70
     0
102
RTVSPost2010Prop52
140
1.0
102
RTVSPost2010PropOp52
 70
     0
102
RTVSPost2010Prop53
 90
        2
102
RTVSPost2010PropOp53
 70
     1
102
RTVSPost2010Prop54
  1
strokes_ogs.tif
102
RTVSPost2010PropOp54
 70
     1
102
RTVSPost2010Prop55
280
     0
102
RTVSPost2010PropOp55
 70
     1
102
RTVSPost2010Prop56
140
1.0
102
RTVSPost2010PropOp56
 70
     1
102
RTVSPost2010Prop57
140
1.0
102
RTVSPost2010PropOp57
 70
     1
  0
XRECORD
  5
1D2
102
{ACAD_REACTORS
330
1D1
102
}
330
1D1
100
AcDbXrecord
280
     1
102
RTVSPropertyOp0
 70
     1
102
RTVSPropertyOp1
 70
     1
102
RTVSPropertyOp2
 70
     1
102
RTVSPropertyOp3
 70
     1
102
RTVSPropertyOp4
 70
     1
102
RTVSPropertyOp5
 70
     1
102
RTVSPropertyOp6
 70
     1
102
RTVSPropertyOp7
 70
     1
102
RTVSPropertyOp8
 70
     1
102
RTVSPropertyOp9
 70
     1
102
RTVSPropertyOp10
 70
     1
102
RTVSPropertyOp11
 70
     1
102
RTVSPropertyOp12
 70
     1
102
RTVSPropertyOp13
 70
     1
102
RTVSPropertyOp14
 70
     1
102
RTVSPropertyOp15
 70
     1
102
RTVSPropertyOp16
 70
     1
102
RTVSPropertyOp17
 70
     1
102
RTVSPropertyOp18
 70
     1
102
RTVSPropertyOp19
 70
     1
102
RTVSPropertyOp20
 70
     1
102
RTVSPropertyOp21
 70
     1
102
RTVSPropertyOp22
 70
     1
102
RTVSPropertyOp23
 70
     1
102
RTVSPropertyOp24
 70
     1
102
RTVSPropertyOp25
 70
     1
102
RTVSPropertyOp26
 70
     1
102
RTVSPropertyOp27
 70
     1
102
RTVSPropertyOp28
 70
     1
102
RTVSPropertyOp29
 70
     1
102
RTVSPropertyOp30
 70
     1
102
RTVSPropertyOp31
 70
     1
102
RTVSPropertyOp32
 70
     1
102
RTVSPropertyOp33
 70
     1
102
RTVSPropertyOp34
 70
     1
102
RTVSPropertyOp35
 70
     1
102
RTVSPropertyOp36
 70
     1
102
RTVSPropertyOp37
 70
     1
102
RTVSPropertyOp38
 70
     1
102
RTVSPropertyOp39
 70
     1
102
RTVSPropertyOp40
 70
     1
102
RTVSPropertyOp41
 70
     1
102
RTVSPropertyOp42
 70
     1
102
RTVSPropertyOp43
 70
     1
102
RTVSPropertyOp44
 70
     1
102
RTVSPropertyOp45
 70
     1
102
RTVSPropertyOp46
 70
     1
102
RTVSPropertyOp47
 70
     1
102
RTVSPropertyOp48
 70
     1
102
RTVSPropertyOp49
 70
     1
102
RTVSPropertyOp50
 70
     1
102
RTVSPropertyOp51
 70
     0
102
RTVSPropertyOp52
 70
     0
102
RTVSPropertyOp53
 70
     1
102
RTVSPropertyOp54
 70
     1
102
RTVSPropertyOp55
 70
     1
102
RTVSPropertyOp56
 70
     1
102
RTVSPropertyOp57
 70
     1
102
RTVSPost2010Prop28
280
     0
102
RTVSPost2010PropOp28
 70
     1
102
RTVSPost2010Prop29
280
     1
102
RTVSPost2010PropOp29
 70
     1
102
RTVSPost2010Prop30
280
     1
102
RTVSPost2010PropOp30
 70
     1
102
RTVSPost2010Prop31
280
     0
102
RTVSPost2010PropOp31
 70
     1
102
RTVSPost2010Prop32
280
     0
102
RTVSPost2010PropOp32
 70
     1
102
RTVSPost2010Prop33
280
     0
102
RTVSPost2010PropOp33
 70
     1
102
RTVSPost2010Prop34
280
     0
102
RTVSPost2010PropOp34
 70
     1
102
RTVSPost2010Prop35
280
     0
102
RTVSPost2010PropOp35
 70
     1
102
RTVSPost2010Prop36
280
     0
102
RTVSPost2010PropOp36
 70
     1
102
RTVSPost2010Prop37
 90
       50
102
RTVSPost2010PropOp37
 70
     1
102
RTVSPost2010Prop38
140
0.0
102
RTVSPost2010PropOp38
 70
     1
102
RTVSPost2010Prop39
140
1.0
102
RTVSPost2010PropOp39
 70
     1
102
RTVSPost2010Prop40
 90
        0
102
RTVSPost2010PropOp40
 70
     1
102
RTVSPost2010Prop41ColorIndex
 90
       18
102
RTVSPost2010Prop41ColorRGB
 90
        0
102
RTVSPost2010PropOp41
 70
     1
102
RTVSPost2010Prop42
 90
       50
102
RTVSPost2010PropOp42
 70
     1
102
RTVSPost2010Prop43
 90
        3
102
RTVSPost2010PropOp43
 70
     1
102
RTVSPost2010Prop44ColorIndex
 90
        5
102
RTVSPost2010Prop44ColorRGB
 90
      255
102
RTVSPost2010PropOp44
 70
     1
102
RTVSPost2010Prop45
280
     0
102
RTVSPost2010PropOp45
 70
     1
102
RTVSPost2010Prop46
 90
       50
102
RTVSPost2010PropOp46
 70
     1
102
RTVSPost2010Prop47
 90
       50
102
RTVSPost2010PropOp47
 70
     1
102
RTVSPost2010Prop48
 90
       50
102
RTVSPost2010PropOp48
 70
     1
102
RTVSPost2010Prop49
280
     0
102
RTVSPost2010PropOp49
 70
     1
102
RTVSPost2010Prop50
 90
       50
102
RTVSPost2010PropOp50
 70
     1
102
RTVSPost2010Prop51ColorIndex
 90
      256
102
RTVSPost2010Prop51ColorRGB
 90
-16777216
102
RTVSPost2010PropOp51
 70
     0
102
RTVSPost2010Prop52
140
1.0
102
RTVSPost2010PropOp52
 70
     0
102
RTVSPost2010Prop53
 90
        2
102
RTVSPost2010PropOp53
 70
     1
102
RTVSPost2010Prop54
  1
strokes_ogs.tif
102
RTVSPost2010PropOp54
 70
     1
102
RTVSPost2010Prop55
280
     0
102
RTVSPost2010PropOp55
 70
     1
102
RTVSPost2010Prop56
140
1.0
102
RTVSPost2010PropOp56
 70
     1
102
RTVSPost2010Prop57
140
1.0
102
RTVSPost2010PropOp57
 70
     1
  0
XRECORD
  5
1D4
102
{ACAD_REACTORS
330
1D3
102
}
330
1D3
100
AcDbXrecord
280
     1
102
RTVSPropertyOp0
 70
     1
102
RTVSPropertyOp1
 70
     1
102
RTVSPropertyOp2
 70
     1
102
RTVSPropertyOp3
 70
     1
102
RTVSPropertyOp4
 70
     1
102
RTVSPropertyOp5
 70
     1
102
RTVSPropertyOp6
 70
     1
102
RTVSPropertyOp7
 70
     1
102
RTVSPropertyOp8
 70
     1
102
RTVSPropertyOp9
 70
     1
102
RTVSPropertyOp10
 70
     1
102
RTVSPropertyOp11
 70
     1
102
RTVSPropertyOp12
 70
     1
102
RTVSPropertyOp13
 70
     1
102
RTVSPropertyOp14
 70
     1
102
RTVSPropertyOp15
 70
     1
102
RTVSPropertyOp16
 70
     1
102
RTVSPropertyOp17
 70
     1
102
RTVSPropertyOp18
 70
     1
102
RTVSPropertyOp19
 70
     1
102
RTVSPropertyOp20
 70
     1
102
RTVSPropertyOp21
 70
     1
102
RTVSPropertyOp22
 70
     1
102
RTVSPropertyOp23
 70
     1
102
RTVSPropertyOp24
 70
     1
102
RTVSPropertyOp25
 70
     1
102
RTVSPropertyOp26
 70
     1
102
RTVSPropertyOp27
 70
     1
102
RTVSPropertyOp28
 70
     1
102
RTVSPropertyOp29
 70
     1
102
RTVSPropertyOp30
 70
     1
102
RTVSPropertyOp31
 70
     1
102
RTVSPropertyOp32
 70
     1
102
RTVSPropertyOp33
 70
     1
102
RTVSPropertyOp34
 70
     1
102
RTVSPropertyOp35
 70
     1
102
RTVSPropertyOp36
 70
     1
102
RTVSPropertyOp37
 70
     1
102
RTVSPropertyOp38
 70
     1
102
RTVSPropertyOp39
 70
     1
102
RTVSPropertyOp40
 70
     1
102
RTVSPropertyOp41
 70
     1
102
RTVSPropertyOp42
 70
     1
102
RTVSPropertyOp43
 70
     1
102
RTVSPropertyOp44
 70
     1
102
RTVSPropertyOp45
 70
     1
102
RTVSPropertyOp46
 70
     1
102
RTVSPropertyOp47
 70
     1
102
RTVSPropertyOp48
 70
     1
102
RTVSPropertyOp49
 70
     1
102
RTVSPropertyOp50
 70
     1
102
RTVSPropertyOp51
 70
     0
102
RTVSPropertyOp52
 70
     0
102
RTVSPropertyOp53
 70
     1
102
RTVSPropertyOp54
 70
     1
102
RTVSPropertyOp55
 70
     1
102
RTVSPropertyOp56
 70
     1
102
RTVSPropertyOp57
 70
     1
102
RTVSPost2010Prop28
280
     0
102
RTVSPost2010PropOp28
 70
     1
102
RTVSPost2010Prop29
280
     1
102
RTVSPost2010PropOp29
 70
     1
102
RTVSPost2010Prop30
280
     1
102
RTVSPost2010PropOp30
 70
     1
102
RTVSPost2010Prop31
280
     0
102
RTVSPost2010PropOp31
 70
     1
102
RTVSPost2010Prop32
280
     0
102
RTVSPost2010PropOp32
 70
     1
102
RTVSPost2010Prop33
280
     0
102
RTVSPost2010PropOp33
 70
     1
102
RTVSPost2010Prop34
280
     0
102
RTVSPost2010PropOp34
 70
     1
102
RTVSPost2010Prop35
280
     0
102
RTVSPost2010PropOp35
 70
     1
102
RTVSPost2010Prop36
280
     0
102
RTVSPost2010PropOp36
 70
     1
102
RTVSPost2010Prop37
 90
       50
102
RTVSPost2010PropOp37
 70
     1
102
RTVSPost2010Prop38
140
0.0
102
RTVSPost2010PropOp38
 70
     1
102
RTVSPost2010Prop39
140
1.0
102
RTVSPost2010PropOp39
 70
     1
102
RTVSPost2010Prop40
 90
        0
102
RTVSPost2010PropOp40
 70
     1
102
RTVSPost2010Prop41ColorIndex
 90
       18
102
RTVSPost2010Prop41ColorRGB
 90
        0
102
RTVSPost2010PropOp41
 70
     1
102
RTVSPost2010Prop42
 90
       50
102
RTVSPost2010PropOp42
 70
     1
102
RTVSPost2010Prop43
 90
        3
102
RTVSPost2010PropOp43
 70
     1
102
RTVSPost2010Prop44ColorIndex
 90
        5
102
RTVSPost2010Prop44ColorRGB
 90
      255
102
RTVSPost2010PropOp44
 70
     1
102
RTVSPost2010Prop45
280
     0
102
RTVSPost2010PropOp45
 70
     1
102
RTVSPost2010Prop46
 90
       50
102
RTVSPost2010PropOp46
 70
     1
102
RTVSPost2010Prop47
 90
       50
102
RTVSPost2010PropOp47
 70
     1
102
RTVSPost2010Prop48
 90
       50
102
RTVSPost2010PropOp48
 70
     1
102
RTVSPost2010Prop49
280
     0
102
RTVSPost2010PropOp49
 70
     1
102
RTVSPost2010Prop50
 90
       50
102
RTVSPost2010PropOp50
 70
     1
102
RTVSPost2010Prop51ColorIndex
 90
      256
102
RTVSPost2010Prop51ColorRGB
 90
-16777216
102
RTVSPost2010PropOp51
 70
     0
102
RTVSPost2010Prop52
140
1.0
102
RTVSPost2010PropOp52
 70
     0
102
RTVSPost2010Prop53
 90
        2
102
RTVSPost2010PropOp53
 70
     1
102
RTVSPost2010Prop54
  1
strokes_ogs.tif
102
RTVSPost2010PropOp54
 70
     1
102
RTVSPost2010Prop55
280
     0
102
RTVSPost2010PropOp55
 70
     1
102
RTVSPost2010Prop56
140
1.0
102
RTVSPost2010PropOp56
 70
     1
102
RTVSPost2010Prop57
140
1.0
102
RTVSPost2010PropOp57
 70
     1
  0
XRECORD
  5
1DA
102
{ACAD_REACTORS
330
1D9
102
}
330
1D9
100
AcDbXrecord
280
     1
102
RTVSPropertyOp0
 70
     1
102
RTVSPropertyOp1
 70
     1
102
RTVSPropertyOp2
 70
     1
102
RTVSPropertyOp3
 70
     1
102
RTVSPropertyOp4
 70
     1
102
RTVSPropertyOp5
 70
     1
102
RTVSPropertyOp6
 70
     1
102
RTVSPropertyOp7
 70
     1
102
RTVSPropertyOp8
 70
     1
102
RTVSPropertyOp9
 70
     1
102
RTVSPropertyOp10
 70
     1
102
RTVSPropertyOp11
 70
     1
102
RTVSPropertyOp12
 70
     1
102
RTVSPropertyOp13
 70
     1
102
RTVSPropertyOp14
 70
     1
102
RTVSPropertyOp15
 70
     1
102
RTVSPropertyOp16
 70
     1
102
RTVSPropertyOp17
 70
     1
102
RTVSPropertyOp18
 70
     1
102
RTVSPropertyOp19
 70
     1
102
RTVSPropertyOp20
 70
     1
102
RTVSPropertyOp21
 70
     1
102
RTVSPropertyOp22
 70
     1
102
RTVSPropertyOp23
 70
     1
102
RTVSPropertyOp24
 70
     1
102
RTVSPropertyOp25
 70
     1
102
RTVSPropertyOp26
 70
     1
102
RTVSPropertyOp27
 70
     1
102
RTVSPropertyOp28
 70
     1
102
RTVSPropertyOp29
 70
     1
102
RTVSPropertyOp30
 70
     1
102
RTVSPropertyOp31
 70
     1
102
RTVSPropertyOp32
 70
     1
102
RTVSPropertyOp33
 70
     1
102
RTVSPropertyOp34
 70
     1
102
RTVSPropertyOp35
 70
     1
102
RTVSPropertyOp36
 70
     1
102
RTVSPropertyOp37
 70
     1
102
RTVSPropertyOp38
 70
     1
102
RTVSPropertyOp39
 70
     1
102
RTVSPropertyOp40
 70
     1
102
RTVSPropertyOp41
 70
     1
102
RTVSPropertyOp42
 70
     1
102
RTVSPropertyOp43
 70
     1
102
RTVSPropertyOp44
 70
     1
102
RTVSPropertyOp45
 70
     1
102
RTVSPropertyOp46
 70
     1
102
RTVSPropertyOp47
 70
     1
102
RTVSPropertyOp48
 70
     1
102
RTVSPropertyOp49
 70
     1
102
RTVSPropertyOp50
 70
     1
102
RTVSPropertyOp51
 70
     0
102
RTVSPropertyOp52
 70
     0
102
RTVSPropertyOp53
 70
     1
102
RTVSPropertyOp54
 70
     1
102
RTVSPropertyOp55
 70
     1
102
RTVSPropertyOp56
 70
     1
102
RTVSPropertyOp57
 70
     1
102
RTVSPost2010Prop28
280
     0
102
RTVSPost2010PropOp28
 70
     1
102
RTVSPost2010Prop29
280
     1
102
RTVSPost2010PropOp29
 70
     1
102
RTVSPost2010Prop30
280
     1
102
RTVSPost2010PropOp30
 70
     1
102
RTVSPost2010Prop31
280
     0
102
RTVSPost2010PropOp31
 70
     1
102
RTVSPost2010Prop32
280
     0
102
RTVSPost2010PropOp32
 70
     1
102
RTVSPost2010Prop33
280
     0
102
RTVSPost2010PropOp33
 70
     1
102
RTVSPost2010Prop34
280
     0
102
RTVSPost2010PropOp34
 70
     1
102
RTVSPost2010Prop35
280
     0
102
RTVSPost2010PropOp35
 70
     1
102
RTVSPost2010Prop36
280
     0
102
RTVSPost2010PropOp36
 70
     1
102
RTVSPost2010Prop37
 90
       50
102
RTVSPost2010PropOp37
 70
     1
102
RTVSPost2010Prop38
140
0.0
102
RTVSPost2010PropOp38
 70
     1
102
RTVSPost2010Prop39
140
1.0
102
RTVSPost2010PropOp39
 70
     1
102
RTVSPost2010Prop40
 90
        0
102
RTVSPost2010PropOp40
 70
     1
102
RTVSPost2010Prop41ColorIndex
 90
       18
102
RTVSPost2010Prop41ColorRGB
 90
        0
102
RTVSPost2010PropOp41
 70
     1
102
RTVSPost2010Prop42
 90
       50
102
RTVSPost2010PropOp42
 70
     1
102
RTVSPost2010Prop43
 90
        3
102
RTVSPost2010PropOp43
 70
     1
102
RTVSPost2010Prop44ColorIndex
 90
        5
102
RTVSPost2010Prop44ColorRGB
 90
      255
102
RTVSPost2010PropOp44
 70
     1
102
RTVSPost2010Prop45
280
     0
102
RTVSPost2010PropOp45
 70
     1
102
RTVSPost2010Prop46
 90
       50
102
RTVSPost2010PropOp46
 70
     1
102
RTVSPost2010Prop47
 90
       50
102
RTVSPost2010PropOp47
 70
     1
102
RTVSPost2010Prop48
 90
       50
102
RTVSPost2010PropOp48
 70
     1
102
RTVSPost2010Prop49
280
     0
102
RTVSPost2010PropOp49
 70
     1
102
RTVSPost2010Prop50
 90
       50
102
RTVSPost2010PropOp50
 70
     1
102
RTVSPost2010Prop51ColorIndex
 90
      256
102
RTVSPost2010Prop51ColorRGB
 90
-16777216
102
RTVSPost2010PropOp51
 70
     0
102
RTVSPost2010Prop52
140
1.0
102
RTVSPost2010PropOp52
 70
     0
102
RTVSPost2010Prop53
 90
        2
102
RTVSPost2010PropOp53
 70
     1
102
RTVSPost2010Prop54
  1
strokes_ogs.tif
102
RTVSPost2010PropOp54
 70
     1
102
RTVSPost2010Prop55
280
     0
102
RTVSPost2010PropOp55
 70
     1
102
RTVSPost2010Prop56
140
1.0
102
RTVSPost2010PropOp56
 70
     1
102
RTVSPost2010Prop57
140
1.0
102
RTVSPost2010PropOp57
 70
     1
  0
XRECORD
  5
1EE
102
{ACAD_REACTORS
330
1ED
102
}
330
1ED
100
AcDbXrecord
280
     1
102
RTVSPropertyOp0
 70
     0
102
RTVSPropertyOp1
 70
     0
102
RTVSPropertyOp2
 70
     0
102
RTVSPropertyOp3
 70
     0
102
RTVSPropertyOp4
 70
     0
102
RTVSPropertyOp5
 70
     0
102
RTVSPropertyOp6
 70
     0
102
RTVSPropertyOp7
 70
     0
102
RTVSPropertyOp8
 70
     0
102
RTVSPropertyOp9
 70
     0
102
RTVSPropertyOp10
 70
     0
102
RTVSPropertyOp11
 70
     0
102
RTVSPropertyOp12
 70
     0
102
RTVSPropertyOp13
 70
     0
102
RTVSPropertyOp14
 70
     2
102
RTVSPropertyOp15
 70
     0
102
RTVSPropertyOp16
 70
     0
102
RTVSPropertyOp17
 70
     0
102
RTVSPropertyOp18
 70
     0
102
RTVSPropertyOp19
 70
     0
102
RTVSPropertyOp20
 70
     0
102
RTVSPropertyOp21
 70
     0
102
RTVSPropertyOp22
 70
     0
102
RTVSPropertyOp23
 70
     0
102
RTVSPropertyOp24
 70
     0
102
RTVSPropertyOp25
 70
     0
102
RTVSPropertyOp26
 70
     0
102
RTVSPropertyOp27
 70
     0
102
RTVSPropertyOp28
 70
     0
102
RTVSPropertyOp29
 70
     0
102
RTVSPropertyOp30
 70
     0
102
RTVSPropertyOp31
 70
     0
102
RTVSPropertyOp32
 70
     0
102
RTVSPropertyOp33
 70
     0
102
RTVSPropertyOp34
 70
     0
102
RTVSPropertyOp35
 70
     0
102
RTVSPropertyOp36
 70
     0
102
RTVSPropertyOp37
 70
     0
102
RTVSPropertyOp38
 70
     0
102
RTVSPropertyOp39
 70
     0
102
RTVSPropertyOp40
 70
     0
102
RTVSPropertyOp41
 70
     0
102
RTVSPropertyOp42
 70
     0
102
RTVSPropertyOp43
 70
     0
102
RTVSPropertyOp44
 70
     0
102
RTVSPropertyOp45
 70
     0
102
RTVSPropertyOp46
 70
     0
102
RTVSPropertyOp47
 70
     0
102
RTVSPropertyOp48
 70
     0
102
RTVSPropertyOp49
 70
     0
102
RTVSPropertyOp50
 70
     0
102
RTVSPropertyOp51
 70
     0
102
RTVSPropertyOp52
 70
     0
102
RTVSPropertyOp53
 70
     0
102
RTVSPropertyOp54
 70
     0
102
RTVSPropertyOp55
 70
     0
102
RTVSPropertyOp56
 70
     0
102
RTVSPropertyOp57
 70
     0
102
RTVSPost2010Prop28
280
     0
102
RTVSPost2010PropOp28
 70
     0
102
RTVSPost2010Prop29
280
     1
102
RTVSPost2010PropOp29
 70
     0
102
RTVSPost2010Prop30
280
     1
102
RTVSPost2010PropOp30
 70
     0
102
RTVSPost2010Prop31
280
     0
102
RTVSPost2010PropOp31
 70
     0
102
RTVSPost2010Prop32
280
     0
102
RTVSPost2010PropOp32
 70
     0
102
RTVSPost2010Prop33
280
     0
102
RTVSPost2010PropOp33
 70
     0
102
RTVSPost2010Prop34
280
     0
102
RTVSPost2010PropOp34
 70
     0
102
RTVSPost2010Prop35
280
     0
102
RTVSPost2010PropOp35
 70
     0
102
RTVSPost2010Prop36
280
     0
102
RTVSPost2010PropOp36
 70
     0
102
RTVSPost2010Prop37
 90
       50
102
RTVSPost2010PropOp37
 70
     0
102
RTVSPost2010Prop38
140
0.0
102
RTVSPost2010PropOp38
 70
     0
102
RTVSPost2010Prop39
140
1.0
102
RTVSPost2010PropOp39
 70
     0
102
RTVSPost2010Prop40
 90
        0
102
RTVSPost2010PropOp40
 70
     0
102
RTVSPost2010Prop41ColorIndex
 90
       18
102
RTVSPost2010Prop41ColorRGB
 90
        0
102
RTVSPost2010PropOp41
 70
     0
102
RTVSPost2010Prop42
 90
       50
102
RTVSPost2010PropOp42
 70
     0
102
RTVSPost2010Prop43
 90
        3
102
RTVSPost2010PropOp43
 70
     0
102
RTVSPost2010Prop44ColorIndex
 90
        5
102
RTVSPost2010Prop44ColorRGB
 90
      255
102
RTVSPost2010PropOp44
 70
     0
102
RTVSPost2010Prop45
280
     0
102
RTVSPost2010PropOp45
 70
     0
102
RTVSPost2010Prop46
 90
       50
102
RTVSPost2010PropOp46
 70
     0
102
RTVSPost2010Prop47
 90
       50
102
RTVSPost2010PropOp47
 70
     0
102
RTVSPost2010Prop48
 90
       50
102
RTVSPost2010PropOp48
 70
     0
102
RTVSPost2010Prop49
280
     0
102
RTVSPost2010PropOp49
 70
     0
102
RTVSPost2010Prop50
 90
       50
102
RTVSPost2010PropOp50
 70
     0
102
RTVSPost2010Prop51ColorIndex
 90
      256
102
RTVSPost2010Prop51ColorRGB
 90
-16777216
102
RTVSPost2010PropOp51
 70
     0
102
RTVSPost2010Prop52
140
1.0
102
RTVSPost2010PropOp52
 70
     0
102
RTVSPost2010Prop53
 90
        2
102
RTVSPost2010PropOp53
 70
     0
102
RTVSPost2010Prop54
  1
strokes_ogs.tif
102
RTVSPost2010PropOp54
 70
     0
102
RTVSPost2010Prop55
280
     0
102
RTVSPost2010PropOp55
 70
     0
102
RTVSPost2010Prop56
140
1.0
102
RTVSPost2010PropOp56
 70
     0
102
RTVSPost2010Prop57
140
1.0
102
RTVSPost2010PropOp57
 70
     0
  0
XRECORD
  5
1E8
102
{ACAD_REACTORS
330
1E7
102
}
330
1E7
100
AcDbXrecord
280
     1
102
RTVSPropertyOp0
 70
     1
102
RTVSPropertyOp1
 70
     1
102
RTVSPropertyOp2
 70
     1
102
RTVSPropertyOp3
 70
     1
102
RTVSPropertyOp4
 70
     1
102
RTVSPropertyOp5
 70
     1
102
RTVSPropertyOp6
 70
     1
102
RTVSPropertyOp7
 70
     1
102
RTVSPropertyOp8
 70
     1
102
RTVSPropertyOp9
 70
     1
102
RTVSPropertyOp10
 70
     1
102
RTVSPropertyOp11
 70
     1
102
RTVSPropertyOp12
 70
     1
102
RTVSPropertyOp13
 70
     1
102
RTVSPropertyOp14
 70
     1
102
RTVSPropertyOp15
 70
     1
102
RTVSPropertyOp16
 70
     1
102
RTVSPropertyOp17
 70
     1
102
RTVSPropertyOp18
 70
     1
102
RTVSPropertyOp19
 70
     1
102
RTVSPropertyOp20
 70
     1
102
RTVSPropertyOp21
 70
     1
102
RTVSPropertyOp22
 70
     1
102
RTVSPropertyOp23
 70
     1
102
RTVSPropertyOp24
 70
     1
102
RTVSPropertyOp25
 70
     1
102
RTVSPropertyOp26
 70
     1
102
RTVSPropertyOp27
 70
     1
102
RTVSPropertyOp28
 70
     1
102
RTVSPropertyOp29
 70
     1
102
RTVSPropertyOp30
 70
     1
102
RTVSPropertyOp31
 70
     1
102
RTVSPropertyOp32
 70
     1
102
RTVSPropertyOp33
 70
     1
102
RTVSPropertyOp34
 70
     1
102
RTVSPropertyOp35
 70
     1
102
RTVSPropertyOp36
 70
     1
102
RTVSPropertyOp37
 70
     1
102
RTVSPropertyOp38
 70
     1
102
RTVSPropertyOp39
 70
     1
102
RTVSPropertyOp40
 70
     1
102
RTVSPropertyOp41
 70
     1
102
RTVSPropertyOp42
 70
     1
102
RTVSPropertyOp43
 70
     1
102
RTVSPropertyOp44
 70
     1
102
RTVSPropertyOp45
 70
     1
102
RTVSPropertyOp46
 70
     1
102
RTVSPropertyOp47
 70
     1
102
RTVSPropertyOp48
 70
     1
102
RTVSPropertyOp49
 70
     1
102
RTVSPropertyOp50
 70
     1
102
RTVSPropertyOp51
 70
     0
102
RTVSPropertyOp52
 70
     0
102
RTVSPropertyOp53
 70
     1
102
RTVSPropertyOp54
 70
     1
102
RTVSPropertyOp55
 70
     1
102
RTVSPropertyOp56
 70
     1
102
RTVSPropertyOp57
 70
     1
102
RTVSPost2010Prop28
280
     0
102
RTVSPost2010PropOp28
 70
     1
102
RTVSPost2010Prop29
280
     1
102
RTVSPost2010PropOp29
 70
     1
102
RTVSPost2010Prop30
280
     1
102
RTVSPost2010PropOp30
 70
     1
102
RTVSPost2010Prop31
280
     0
102
RTVSPost2010PropOp31
 70
     1
102
RTVSPost2010Prop32
280
     0
102
RTVSPost2010PropOp32
 70
     1
102
RTVSPost2010Prop33
280
     0
102
RTVSPost2010PropOp33
 70
     1
102
RTVSPost2010Prop34
280
     0
102
RTVSPost2010PropOp34
 70
     1
102
RTVSPost2010Prop35
280
     0
102
RTVSPost2010PropOp35
 70
     1
102
RTVSPost2010Prop36
280
     0
102
RTVSPost2010PropOp36
 70
     1
102
RTVSPost2010Prop37
 90
       50
102
RTVSPost2010PropOp37
 70
     1
102
RTVSPost2010Prop38
140
0.0
102
RTVSPost2010PropOp38
 70
     1
102
RTVSPost2010Prop39
140
1.0
102
RTVSPost2010PropOp39
 70
     1
102
RTVSPost2010Prop40
 90
        0
102
RTVSPost2010PropOp40
 70
     1
102
RTVSPost2010Prop41ColorIndex
 90
       18
102
RTVSPost2010Prop41ColorRGB
 90
        0
102
RTVSPost2010PropOp41
 70
     1
102
RTVSPost2010Prop42
 90
       50
102
RTVSPost2010PropOp42
 70
     1
102
RTVSPost2010Prop43
 90
        3
102
RTVSPost2010PropOp43
 70
     1
102
RTVSPost2010Prop44ColorIndex
 90
        5
102
RTVSPost2010Prop44ColorRGB
 90
      255
102
RTVSPost2010PropOp44
 70
     1
102
RTVSPost2010Prop45
280
     0
102
RTVSPost2010PropOp45
 70
     1
102
RTVSPost2010Prop46
 90
       50
102
RTVSPost2010PropOp46
 70
     1
102
RTVSPost2010Prop47
 90
       50
102
RTVSPost2010PropOp47
 70
     1
102
RTVSPost2010Prop48
 90
       50
102
RTVSPost2010PropOp48
 70
     1
102
RTVSPost2010Prop49
280
     0
102
RTVSPost2010PropOp49
 70
     1
102
RTVSPost2010Prop50
 90
       50
102
RTVSPost2010PropOp50
 70
     1
102
RTVSPost2010Prop51ColorIndex
 90
      256
102
RTVSPost2010Prop51ColorRGB
 90
-16777216
102
RTVSPost2010PropOp51
 70
     0
102
RTVSPost2010Prop52
140
1.0
102
RTVSPost2010PropOp52
 70
     0
102
RTVSPost2010Prop53
 90
        2
102
RTVSPost2010PropOp53
 70
     1
102
RTVSPost2010Prop54
  1
strokes_ogs.tif
102
RTVSPost2010PropOp54
 70
     1
102
RTVSPost2010Prop55
280
     0
102
RTVSPost2010PropOp55
 70
     1
102
RTVSPost2010Prop56
140
1.0
102
RTVSPost2010PropOp56
 70
     1
102
RTVSPost2010Prop57
140
1.0
102
RTVSPost2010PropOp57
 70
     1
  0
XRECORD
  5
1F0
102
{ACAD_REACTORS
330
1EF
102
}
330
1EF
100
AcDbXrecord
280
     1
102
RTVSPropertyOp0
 70
     0
102
RTVSPropertyOp1
 70
     0
102
RTVSPropertyOp2
 70
     0
102
RTVSPropertyOp3
 70
     0
102
RTVSPropertyOp4
 70
     0
102
RTVSPropertyOp5
 70
     0
102
RTVSPropertyOp6
 70
     0
102
RTVSPropertyOp7
 70
     0
102
RTVSPropertyOp8
 70
     0
102
RTVSPropertyOp9
 70
     0
102
RTVSPropertyOp10
 70
     0
102
RTVSPropertyOp11
 70
     0
102
RTVSPropertyOp12
 70
     0
102
RTVSPropertyOp13
 70
     0
102
RTVSPropertyOp14
 70
     2
102
RTVSPropertyOp15
 70
     0
102
RTVSPropertyOp16
 70
     0
102
RTVSPropertyOp17
 70
     0
102
RTVSPropertyOp18
 70
     0
102
RTVSPropertyOp19
 70
     0
102
RTVSPropertyOp20
 70
     0
102
RTVSPropertyOp21
 70
     0
102
RTVSPropertyOp22
 70
     0
102
RTVSPropertyOp23
 70
     0
102
RTVSPropertyOp24
 70
     0
102
RTVSPropertyOp25
 70
     0
102
RTVSPropertyOp26
 70
     0
102
RTVSPropertyOp27
 70
     0
102
RTVSPropertyOp28
 70
     0
102
RTVSPropertyOp29
 70
     0
102
RTVSPropertyOp30
 70
     0
102
RTVSPropertyOp31
 70
     0
102
RTVSPropertyOp32
 70
     0
102
RTVSPropertyOp33
 70
     0
102
RTVSPropertyOp34
 70
     0
102
RTVSPropertyOp35
 70
     0
102
RTVSPropertyOp36
 70
     0
102
RTVSPropertyOp37
 70
     0
102
RTVSPropertyOp38
 70
     0
102
RTVSPropertyOp39
 70
     0
102
RTVSPropertyOp40
 70
     0
102
RTVSPropertyOp41
 70
     0
102
RTVSPropertyOp42
 70
     0
102
RTVSPropertyOp43
 70
     0
102
RTVSPropertyOp44
 70
     0
102
RTVSPropertyOp45
 70
     0
102
RTVSPropertyOp46
 70
     0
102
RTVSPropertyOp47
 70
     0
102
RTVSPropertyOp48
 70
     0
102
RTVSPropertyOp49
 70
     0
102
RTVSPropertyOp50
 70
     0
102
RTVSPropertyOp51
 70
     0
102
RTVSPropertyOp52
 70
     0
102
RTVSPropertyOp53
 70
     0
102
RTVSPropertyOp54
 70
     0
102
RTVSPropertyOp55
 70
     0
102
RTVSPropertyOp56
 70
     0
102
RTVSPropertyOp57
 70
     0
102
RTVSPost2010Prop28
280
     0
102
RTVSPost2010PropOp28
 70
     0
102
RTVSPost2010Prop29
280
     1
102
RTVSPost2010PropOp29
 70
     0
102
RTVSPost2010Prop30
280
     1
102
RTVSPost2010PropOp30
 70
     0
102
RTVSPost2010Prop31
280
     0
102
RTVSPost2010PropOp31
 70
     0
102
RTVSPost2010Prop32
280
     0
102
RTVSPost2010PropOp32
 70
     0
102
RTVSPost2010Prop33
280
     0
102
RTVSPost2010PropOp33
 70
     0
102
RTVSPost2010Prop34
280
     0
102
RTVSPost2010PropOp34
 70
     0
102
RTVSPost2010Prop35
280
     0
102
RTVSPost2010PropOp35
 70
     0
102
RTVSPost2010Prop36
280
     0
102
RTVSPost2010PropOp36
 70
     0
102
RTVSPost2010Prop37
 90
       50
102
RTVSPost2010PropOp37
 70
     0
102
RTVSPost2010Prop38
140
0.0
102
RTVSPost2010PropOp38
 70
     0
102
RTVSPost2010Prop39
140
1.0
102
RTVSPost2010PropOp39
 70
     0
102
RTVSPost2010Prop40
 90
        0
102
RTVSPost2010PropOp40
 70
     0
102
RTVSPost2010Prop41ColorIndex
 90
       18
102
RTVSPost2010Prop41ColorRGB
 90
        0
102
RTVSPost2010PropOp41
 70
     0
102
RTVSPost2010Prop42
 90
       50
102
RTVSPost2010PropOp42
 70
     0
102
RTVSPost2010Prop43
 90
        3
102
RTVSPost2010PropOp43
 70
     0
102
RTVSPost2010Prop44ColorIndex
 90
        5
102
RTVSPost2010Prop44ColorRGB
 90
      255
102
RTVSPost2010PropOp44
 70
     0
102
RTVSPost2010Prop45
280
     0
102
RTVSPost2010PropOp45
 70
     0
102
RTVSPost2010Prop46
 90
       50
102
RTVSPost2010PropOp46
 70
     0
102
RTVSPost2010Prop47
 90
       50
102
RTVSPost2010PropOp47
 70
     0
102
RTVSPost2010Prop48
 90
       50
102
RTVSPost2010PropOp48
 70
     0
102
RTVSPost2010Prop49
280
     0
102
RTVSPost2010PropOp49
 70
     0
102
RTVSPost2010Prop50
 90
       50
102
RTVSPost2010PropOp50
 70
     0
102
RTVSPost2010Prop51ColorIndex
 90
      256
102
RTVSPost2010Prop51ColorRGB
 90
-16777216
102
RTVSPost2010PropOp51
 70
     0
102
RTVSPost2010Prop52
140
1.0
102
RTVSPost2010PropOp52
 70
     0
102
RTVSPost2010Prop53
 90
        2
102
RTVSPost2010PropOp53
 70
     0
102
RTVSPost2010Prop54
  1
strokes_ogs.tif
102
RTVSPost2010PropOp54
 70
     0
102
RTVSPost2010Prop55
280
     0
102
RTVSPost2010PropOp55
 70
     0
102
RTVSPost2010Prop56
140
1.0
102
RTVSPost2010PropOp56
 70
     0
102
RTVSPost2010Prop57
140
1.0
102
RTVSPost2010PropOp57
 70
     0
  0
XRECORD
  5
1DE
102
{ACAD_REACTORS
330
1DD
102
}
330
1DD
100
AcDbXrecord
280
     1
102
RTVSPropertyOp0
 70
     1
102
RTVSPropertyOp1
 70
     1
102
RTVSPropertyOp2
 70
     1
102
RTVSPropertyOp3
 70
     1
102
RTVSPropertyOp4
 70
     1
102
RTVSPropertyOp5
 70
     1
102
RTVSPropertyOp6
 70
     1
102
RTVSPropertyOp7
 70
     1
102
RTVSPropertyOp8
 70
     1
102
RTVSPropertyOp9
 70
     1
102
RTVSPropertyOp10
 70
     1
102
RTVSPropertyOp11
 70
     1
102
RTVSPropertyOp12
 70
     1
102
RTVSPropertyOp13
 70
     1
102
RTVSPropertyOp14
 70
     1
102
RTVSPropertyOp15
 70
     1
102
RTVSPropertyOp16
 70
     1
102
RTVSPropertyOp17
 70
     1
102
RTVSPropertyOp18
 70
     1
102
RTVSPropertyOp19
 70
     1
102
RTVSPropertyOp20
 70
     1
102
RTVSPropertyOp21
 70
     1
102
RTVSPropertyOp22
 70
     1
102
RTVSPropertyOp23
 70
     1
102
RTVSPropertyOp24
 70
     1
102
RTVSPropertyOp25
 70
     1
102
RTVSPropertyOp26
 70
     1
102
RTVSPropertyOp27
 70
     1
102
RTVSPropertyOp28
 70
     1
102
RTVSPropertyOp29
 70
     1
102
RTVSPropertyOp30
 70
     1
102
RTVSPropertyOp31
 70
     1
102
RTVSPropertyOp32
 70
     1
102
RTVSPropertyOp33
 70
     1
102
RTVSPropertyOp34
 70
     1
102
RTVSPropertyOp35
 70
     1
102
RTVSPropertyOp36
 70
     1
102
RTVSPropertyOp37
 70
     1
102
RTVSPropertyOp38
 70
     1
102
RTVSPropertyOp39
 70
     1
102
RTVSPropertyOp40
 70
     1
102
RTVSPropertyOp41
 70
     1
102
RTVSPropertyOp42
 70
     1
102
RTVSPropertyOp43
 70
     1
102
RTVSPropertyOp44
 70
     1
102
RTVSPropertyOp45
 70
     1
102
RTVSPropertyOp46
 70
     1
102
RTVSPropertyOp47
 70
     1
102
RTVSPropertyOp48
 70
     1
102
RTVSPropertyOp49
 70
     1
102
RTVSPropertyOp50
 70
     1
102
RTVSPropertyOp51
 70
     0
102
RTVSPropertyOp52
 70
     0
102
RTVSPropertyOp53
 70
     1
102
RTVSPropertyOp54
 70
     1
102
RTVSPropertyOp55
 70
     1
102
RTVSPropertyOp56
 70
     1
102
RTVSPropertyOp57
 70
     1
102
RTVSPost2010Prop28
280
     0
102
RTVSPost2010PropOp28
 70
     1
102
RTVSPost2010Prop29
280
     1
102
RTVSPost2010PropOp29
 70
     1
102
RTVSPost2010Prop30
280
     1
102
RTVSPost2010PropOp30
 70
     1
102
RTVSPost2010Prop31
280
     0
102
RTVSPost2010PropOp31
 70
     1
102
RTVSPost2010Prop32
280
     0
102
RTVSPost2010PropOp32
 70
     1
102
RTVSPost2010Prop33
280
     0
102
RTVSPost2010PropOp33
 70
     1
102
RTVSPost2010Prop34
280
     0
102
RTVSPost2010PropOp34
 70
     1
102
RTVSPost2010Prop35
280
     0
102
RTVSPost2010PropOp35
 70
     1
102
RTVSPost2010Prop36
280
     0
102
RTVSPost2010PropOp36
 70
     1
102
RTVSPost2010Prop37
 90
       50
102
RTVSPost2010PropOp37
 70
     1
102
RTVSPost2010Prop38
140
0.0
102
RTVSPost2010PropOp38
 70
     1
102
RTVSPost2010Prop39
140
1.0
102
RTVSPost2010PropOp39
 70
     1
102
RTVSPost2010Prop40
 90
        0
102
RTVSPost2010PropOp40
 70
     1
102
RTVSPost2010Prop41ColorIndex
 90
       18
102
RTVSPost2010Prop41ColorRGB
 90
        0
102
RTVSPost2010PropOp41
 70
     1
102
RTVSPost2010Prop42
 90
       50
102
RTVSPost2010PropOp42
 70
     1
102
RTVSPost2010Prop43
 90
        3
102
RTVSPost2010PropOp43
 70
     1
102
RTVSPost2010Prop44ColorIndex
 90
        5
102
RTVSPost2010Prop44ColorRGB
 90
      255
102
RTVSPost2010PropOp44
 70
     1
102
RTVSPost2010Prop45
280
     0
102
RTVSPost2010PropOp45
 70
     1
102
RTVSPost2010Prop46
 90
       50
102
RTVSPost2010PropOp46
 70
     1
102
RTVSPost2010Prop47
 90
       50
102
RTVSPost2010PropOp47
 70
     1
102
RTVSPost2010Prop48
 90
       50
102
RTVSPost2010PropOp48
 70
     1
102
RTVSPost2010Prop49
280
     0
102
RTVSPost2010PropOp49
 70
     1
102
RTVSPost2010Prop50
 90
       50
102
RTVSPost2010PropOp50
 70
     1
102
RTVSPost2010Prop51ColorIndex
 90
      256
102
RTVSPost2010Prop51ColorRGB
 90
-16777216
102
RTVSPost2010PropOp51
 70
     0
102
RTVSPost2010Prop52
140
1.0
102
RTVSPost2010PropOp52
 70
     0
102
RTVSPost2010Prop53
 90
        2
102
RTVSPost2010PropOp53
 70
     1
102
RTVSPost2010Prop54
  1
strokes_ogs.tif
102
RTVSPost2010PropOp54
 70
     1
102
RTVSPost2010Prop55
280
     0
102
RTVSPost2010PropOp55
 70
     1
102
RTVSPost2010Prop56
140
1.0
102
RTVSPost2010PropOp56
 70
     1
102
RTVSPost2010Prop57
140
1.0
102
RTVSPost2010PropOp57
 70
     1
  0
XRECORD
  5
1FC
102
{ACAD_REACTORS
330
1FB
102
}
330
1FB
100
AcDbXrecord
280
     1
102
RTVSPropertyOp0
 70
     1
102
RTVSPropertyOp1
 70
     1
102
RTVSPropertyOp2
 70
     1
102
RTVSPropertyOp3
 70
     1
102
RTVSPropertyOp4
 70
     1
102
RTVSPropertyOp5
 70
     1
102
RTVSPropertyOp6
 70
     1
102
RTVSPropertyOp7
 70
     1
102
RTVSPropertyOp8
 70
     1
102
RTVSPropertyOp9
 70
     1
102
RTVSPropertyOp10
 70
     1
102
RTVSPropertyOp11
 70
     1
102
RTVSPropertyOp12
 70
     1
102
RTVSPropertyOp13
 70
     1
102
RTVSPropertyOp14
 70
     1
102
RTVSPropertyOp15
 70
     1
102
RTVSPropertyOp16
 70
     1
102
RTVSPropertyOp17
 70
     1
102
RTVSPropertyOp18
 70
     1
102
RTVSPropertyOp19
 70
     1
102
RTVSPropertyOp20
 70
     1
102
RTVSPropertyOp21
 70
     1
102
RTVSPropertyOp22
 70
     1
102
RTVSPropertyOp23
 70
     1
102
RTVSPropertyOp24
 70
     1
102
RTVSPropertyOp25
 70
     1
102
RTVSPropertyOp26
 70
     1
102
RTVSPropertyOp27
 70
     1
102
RTVSPropertyOp28
 70
     1
102
RTVSPropertyOp29
 70
     1
102
RTVSPropertyOp30
 70
     1
102
RTVSPropertyOp31
 70
     1
102
RTVSPropertyOp32
 70
     1
102
RTVSPropertyOp33
 70
     1
102
RTVSPropertyOp34
 70
     1
102
RTVSPropertyOp35
 70
     1
102
RTVSPropertyOp36
 70
     1
102
RTVSPropertyOp37
 70
     1
102
RTVSPropertyOp38
 70
     1
102
RTVSPropertyOp39
 70
     1
102
RTVSPropertyOp40
 70
     1
102
RTVSPropertyOp41
 70
     1
102
RTVSPropertyOp42
 70
     1
102
RTVSPropertyOp43
 70
     1
102
RTVSPropertyOp44
 70
     1
102
RTVSPropertyOp45
 70
     1
102
RTVSPropertyOp46
 70
     1
102
RTVSPropertyOp47
 70
     1
102
RTVSPropertyOp48
 70
     1
102
RTVSPropertyOp49
 70
     1
102
RTVSPropertyOp50
 70
     1
102
RTVSPropertyOp51
 70
     0
102
RTVSPropertyOp52
 70
     0
102
RTVSPropertyOp53
 70
     1
102
RTVSPropertyOp54
 70
     1
102
RTVSPropertyOp55
 70
     1
102
RTVSPropertyOp56
 70
     1
102
RTVSPropertyOp57
 70
     1
102
RTVSPost2010Prop28
280
     0
102
RTVSPost2010PropOp28
 70
     1
102
RTVSPost2010Prop29
280
     1
102
RTVSPost2010PropOp29
 70
     1
102
RTVSPost2010Prop30
280
     1
102
RTVSPost2010PropOp30
 70
     1
102
RTVSPost2010Prop31
280
     0
102
RTVSPost2010PropOp31
 70
     1
102
RTVSPost2010Prop32
280
     0
102
RTVSPost2010PropOp32
 70
     1
102
RTVSPost2010Prop33
280
     0
102
RTVSPost2010PropOp33
 70
     1
102
RTVSPost2010Prop34
280
     0
102
RTVSPost2010PropOp34
 70
     1
102
RTVSPost2010Prop35
280
     0
102
RTVSPost2010PropOp35
 70
     1
102
RTVSPost2010Prop36
280
     0
102
RTVSPost2010PropOp36
 70
     1
102
RTVSPost2010Prop37
 90
       50
102
RTVSPost2010PropOp37
 70
     1
102
RTVSPost2010Prop38
140
0.0
102
RTVSPost2010PropOp38
 70
     1
102
RTVSPost2010Prop39
140
1.0
102
RTVSPost2010PropOp39
 70
     1
102
RTVSPost2010Prop40
 90
        0
102
RTVSPost2010PropOp40
 70
     1
102
RTVSPost2010Prop41ColorIndex
 90
       18
102
RTVSPost2010Prop41ColorRGB
 90
        0
102
RTVSPost2010PropOp41
 70
     1
102
RTVSPost2010Prop42
 90
       50
102
RTVSPost2010PropOp42
 70
     1
102
RTVSPost2010Prop43
 90
        3
102
RTVSPost2010PropOp43
 70
     1
102
RTVSPost2010Prop44ColorIndex
 90
        5
102
RTVSPost2010Prop44ColorRGB
 90
      255
102
RTVSPost2010PropOp44
 70
     1
102
RTVSPost2010Prop45
280
     0
102
RTVSPost2010PropOp45
 70
     1
102
RTVSPost2010Prop46
 90
       50
102
RTVSPost2010PropOp46
 70
     1
102
RTVSPost2010Prop47
 90
       50
102
RTVSPost2010PropOp47
 70
     1
102
RTVSPost2010Prop48
 90
       50
102
RTVSPost2010PropOp48
 70
     1
102
RTVSPost2010Prop49
280
     0
102
RTVSPost2010PropOp49
 70
     1
102
RTVSPost2010Prop50
 90
       50
102
RTVSPost2010PropOp50
 70
     1
102
RTVSPost2010Prop51ColorIndex
 90
      256
102
RTVSPost2010Prop51ColorRGB
 90
-16777216
102
RTVSPost2010PropOp51
 70
     0
102
RTVSPost2010Prop52
140
1.0
102
RTVSPost2010PropOp52
 70
     0
102
RTVSPost2010Prop53
 90
        2
102
RTVSPost2010PropOp53
 70
     1
102
RTVSPost2010Prop54
  1
strokes_ogs.tif
102
RTVSPost2010PropOp54
 70
     1
102
RTVSPost2010Prop55
280
     0
102
RTVSPost2010PropOp55
 70
     1
102
RTVSPost2010Prop56
140
1.0
102
RTVSPost2010PropOp56
 70
     1
102
RTVSPost2010Prop57
140
1.0
102
RTVSPost2010PropOp57
 70
     1
  0
XRECORD
  5
1FA
102
{ACAD_REACTORS
330
1F9
102
}
330
1F9
100
AcDbXrecord
280
     1
102
RTVSPropertyOp0
 70
     1
102
RTVSPropertyOp1
 70
     1
102
RTVSPropertyOp2
 70
     1
102
RTVSPropertyOp3
 70
     1
102
RTVSPropertyOp4
 70
     1
102
RTVSPropertyOp5
 70
     1
102
RTVSPropertyOp6
 70
     1
102
RTVSPropertyOp7
 70
     1
102
RTVSPropertyOp8
 70
     1
102
RTVSPropertyOp9
 70
     1
102
RTVSPropertyOp10
 70
     1
102
RTVSPropertyOp11
 70
     1
102
RTVSPropertyOp12
 70
     1
102
RTVSPropertyOp13
 70
     1
102
RTVSPropertyOp14
 70
     1
102
RTVSPropertyOp15
 70
     1
102
RTVSPropertyOp16
 70
     1
102
RTVSPropertyOp17
 70
     1
102
RTVSPropertyOp18
 70
     1
102
RTVSPropertyOp19
 70
     1
102
RTVSPropertyOp20
 70
     1
102
RTVSPropertyOp21
 70
     1
102
RTVSPropertyOp22
 70
     1
102
RTVSPropertyOp23
 70
     1
102
RTVSPropertyOp24
 70
     1
102
RTVSPropertyOp25
 70
     1
102
RTVSPropertyOp26
 70
     1
102
RTVSPropertyOp27
 70
     1
102
RTVSPropertyOp28
 70
     1
102
RTVSPropertyOp29
 70
     1
102
RTVSPropertyOp30
 70
     1
102
RTVSPropertyOp31
 70
     1
102
RTVSPropertyOp32
 70
     1
102
RTVSPropertyOp33
 70
     1
102
RTVSPropertyOp34
 70
     1
102
RTVSPropertyOp35
 70
     1
102
RTVSPropertyOp36
 70
     1
102
RTVSPropertyOp37
 70
     1
102
RTVSPropertyOp38
 70
     1
102
RTVSPropertyOp39
 70
     1
102
RTVSPropertyOp40
 70
     1
102
RTVSPropertyOp41
 70
     1
102
RTVSPropertyOp42
 70
     1
102
RTVSPropertyOp43
 70
     1
102
RTVSPropertyOp44
 70
     1
102
RTVSPropertyOp45
 70
     1
102
RTVSPropertyOp46
 70
     1
102
RTVSPropertyOp47
 70
     1
102
RTVSPropertyOp48
 70
     1
102
RTVSPropertyOp49
 70
     1
102
RTVSPropertyOp50
 70
     1
102
RTVSPropertyOp51
 70
     0
102
RTVSPropertyOp52
 70
     0
102
RTVSPropertyOp53
 70
     1
102
RTVSPropertyOp54
 70
     1
102
RTVSPropertyOp55
 70
     1
102
RTVSPropertyOp56
 70
     1
102
RTVSPropertyOp57
 70
     1
102
RTVSPost2010Prop28
280
     0
102
RTVSPost2010PropOp28
 70
     1
102
RTVSPost2010Prop29
280
     1
102
RTVSPost2010PropOp29
 70
     1
102
RTVSPost2010Prop30
280
     1
102
RTVSPost2010PropOp30
 70
     1
102
RTVSPost2010Prop31
280
     0
102
RTVSPost2010PropOp31
 70
     1
102
RTVSPost2010Prop32
280
     0
102
RTVSPost2010PropOp32
 70
     1
102
RTVSPost2010Prop33
280
     0
102
RTVSPost2010PropOp33
 70
     1
102
RTVSPost2010Prop34
280
     0
102
RTVSPost2010PropOp34
 70
     1
102
RTVSPost2010Prop35
280
     0
102
RTVSPost2010PropOp35
 70
     1
102
RTVSPost2010Prop36
280
     0
102
RTVSPost2010PropOp36
 70
     1
102
RTVSPost2010Prop37
 90
       50
102
RTVSPost2010PropOp37
 70
     1
102
RTVSPost2010Prop38
140
0.0
102
RTVSPost2010PropOp38
 70
     1
102
RTVSPost2010Prop39
140
1.0
102
RTVSPost2010PropOp39
 70
     1
102
RTVSPost2010Prop40
 90
        0
102
RTVSPost2010PropOp40
 70
     1
102
RTVSPost2010Prop41ColorIndex
 90
       18
102
RTVSPost2010Prop41ColorRGB
 90
        0
102
RTVSPost2010PropOp41
 70
     1
102
RTVSPost2010Prop42
 90
       50
102
RTVSPost2010PropOp42
 70
     1
102
RTVSPost2010Prop43
 90
        3
102
RTVSPost2010PropOp43
 70
     1
102
RTVSPost2010Prop44ColorIndex
 90
        5
102
RTVSPost2010Prop44ColorRGB
 90
      255
102
RTVSPost2010PropOp44
 70
     1
102
RTVSPost2010Prop45
280
     0
102
RTVSPost2010PropOp45
 70
     1
102
RTVSPost2010Prop46
 90
       50
102
RTVSPost2010PropOp46
 70
     1
102
RTVSPost2010Prop47
 90
       50
102
RTVSPost2010PropOp47
 70
     1
102
RTVSPost2010Prop48
 90
       50
102
RTVSPost2010PropOp48
 70
     1
102
RTVSPost2010Prop49
280
     0
102
RTVSPost2010PropOp49
 70
     1
102
RTVSPost2010Prop50
 90
       50
102
RTVSPost2010PropOp50
 70
     1
102
RTVSPost2010Prop51ColorIndex
 90
      256
102
RTVSPost2010Prop51ColorRGB
 90
-16777216
102
RTVSPost2010PropOp51
 70
     0
102
RTVSPost2010Prop52
140
1.0
102
RTVSPost2010PropOp52
 70
     0
102
RTVSPost2010Prop53
 90
        2
102
RTVSPost2010PropOp53
 70
     1
102
RTVSPost2010Prop54
  1
strokes_ogs.tif
102
RTVSPost2010PropOp54
 70
     1
102
RTVSPost2010Prop55
280
     0
102
RTVSPost2010PropOp55
 70
     1
102
RTVSPost2010Prop56
140
1.0
102
RTVSPost2010PropOp56
 70
     1
102
RTVSPost2010Prop57
140
1.0
102
RTVSPost2010PropOp57
 70
     1
  0
XRECORD
  5
1F4
102
{ACAD_REACTORS
330
1F3
102
}
330
1F3
100
AcDbXrecord
280
     1
102
RTVSPropertyOp0
 70
     1
102
RTVSPropertyOp1
 70
     1
102
RTVSPropertyOp2
 70
     1
102
RTVSPropertyOp3
 70
     1
102
RTVSPropertyOp4
 70
     1
102
RTVSPropertyOp5
 70
     1
102
RTVSPropertyOp6
 70
     1
102
RTVSPropertyOp7
 70
     1
102
RTVSPropertyOp8
 70
     1
102
RTVSPropertyOp9
 70
     1
102
RTVSPropertyOp10
 70
     1
102
RTVSPropertyOp11
 70
     1
102
RTVSPropertyOp12
 70
     1
102
RTVSPropertyOp13
 70
     1
102
RTVSPropertyOp14
 70
     1
102
RTVSPropertyOp15
 70
     1
102
RTVSPropertyOp16
 70
     1
102
RTVSPropertyOp17
 70
     1
102
RTVSPropertyOp18
 70
     1
102
RTVSPropertyOp19
 70
     1
102
RTVSPropertyOp20
 70
     1
102
RTVSPropertyOp21
 70
     1
102
RTVSPropertyOp22
 70
     1
102
RTVSPropertyOp23
 70
     1
102
RTVSPropertyOp24
 70
     1
102
RTVSPropertyOp25
 70
     1
102
RTVSPropertyOp26
 70
     1
102
RTVSPropertyOp27
 70
     1
102
RTVSPropertyOp28
 70
     1
102
RTVSPropertyOp29
 70
     1
102
RTVSPropertyOp30
 70
     1
102
RTVSPropertyOp31
 70
     1
102
RTVSPropertyOp32
 70
     1
102
RTVSPropertyOp33
 70
     1
102
RTVSPropertyOp34
 70
     1
102
RTVSPropertyOp35
 70
     1
102
RTVSPropertyOp36
 70
     1
102
RTVSPropertyOp37
 70
     1
102
RTVSPropertyOp38
 70
     1
102
RTVSPropertyOp39
 70
     1
102
RTVSPropertyOp40
 70
     1
102
RTVSPropertyOp41
 70
     1
102
RTVSPropertyOp42
 70
     1
102
RTVSPropertyOp43
 70
     1
102
RTVSPropertyOp44
 70
     1
102
RTVSPropertyOp45
 70
     1
102
RTVSPropertyOp46
 70
     1
102
RTVSPropertyOp47
 70
     1
102
RTVSPropertyOp48
 70
     1
102
RTVSPropertyOp49
 70
     1
102
RTVSPropertyOp50
 70
     1
102
RTVSPropertyOp51
 70
     0
102
RTVSPropertyOp52
 70
     0
102
RTVSPropertyOp53
 70
     1
102
RTVSPropertyOp54
 70
     1
102
RTVSPropertyOp55
 70
     1
102
RTVSPropertyOp56
 70
     1
102
RTVSPropertyOp57
 70
     1
102
RTVSPost2010Prop28
280
     0
102
RTVSPost2010PropOp28
 70
     1
102
RTVSPost2010Prop29
280
     1
102
RTVSPost2010PropOp29
 70
     1
102
RTVSPost2010Prop30
280
     1
102
RTVSPost2010PropOp30
 70
     1
102
RTVSPost2010Prop31
280
     0
102
RTVSPost2010PropOp31
 70
     1
102
RTVSPost2010Prop32
280
     0
102
RTVSPost2010PropOp32
 70
     1
102
RTVSPost2010Prop33
280
     0
102
RTVSPost2010PropOp33
 70
     1
102
RTVSPost2010Prop34
280
     0
102
RTVSPost2010PropOp34
 70
     1
102
RTVSPost2010Prop35
280
     0
102
RTVSPost2010PropOp35
 70
     1
102
RTVSPost2010Prop36
280
     0
102
RTVSPost2010PropOp36
 70
     1
102
RTVSPost2010Prop37
 90
       50
102
RTVSPost2010PropOp37
 70
     1
102
RTVSPost2010Prop38
140
0.0
102
RTVSPost2010PropOp38
 70
     1
102
RTVSPost2010Prop39
140
1.0
102
RTVSPost2010PropOp39
 70
     1
102
RTVSPost2010Prop40
 90
        0
102
RTVSPost2010PropOp40
 70
     1
102
RTVSPost2010Prop41ColorIndex
 90
       18
102
RTVSPost2010Prop41ColorRGB
 90
        0
102
RTVSPost2010PropOp41
 70
     1
102
RTVSPost2010Prop42
 90
       50
102
RTVSPost2010PropOp42
 70
     1
102
RTVSPost2010Prop43
 90
        3
102
RTVSPost2010PropOp43
 70
     1
102
RTVSPost2010Prop44ColorIndex
 90
        5
102
RTVSPost2010Prop44ColorRGB
 90
      255
102
RTVSPost2010PropOp44
 70
     1
102
RTVSPost2010Prop45
280
     0
102
RTVSPost2010PropOp45
 70
     1
102
RTVSPost2010Prop46
 90
       50
102
RTVSPost2010PropOp46
 70
     1
102
RTVSPost2010Prop47
 90
       50
102
RTVSPost2010PropOp47
 70
     1
102
RTVSPost2010Prop48
 90
       50
102
RTVSPost2010PropOp48
 70
     1
102
RTVSPost2010Prop49
280
     0
102
RTVSPost2010PropOp49
 70
     1
102
RTVSPost2010Prop50
 90
       50
102
RTVSPost2010PropOp50
 70
     1
102
RTVSPost2010Prop51ColorIndex
 90
      256
102
RTVSPost2010Prop51ColorRGB
 90
-16777216
102
RTVSPost2010PropOp51
 70
     0
102
RTVSPost2010Prop52
140
1.0
102
RTVSPost2010PropOp52
 70
     0
102
RTVSPost2010Prop53
 90
        2
102
RTVSPost2010PropOp53
 70
     1
102
RTVSPost2010Prop54
  1
strokes_ogs.tif
102
RTVSPost2010PropOp54
 70
     1
102
RTVSPost2010Prop55
280
     0
102
RTVSPost2010PropOp55
 70
     1
102
RTVSPost2010Prop56
140
1.0
102
RTVSPost2010PropOp56
 70
     1
102
RTVSPost2010Prop57
140
1.0
102
RTVSPost2010PropOp57
 70
     1
  0
XRECORD
  5
1F6
102
{ACAD_REACTORS
330
1F5
102
}
330
1F5
100
AcDbXrecord
280
     1
102
RTVSPropertyOp0
 70
     1
102
RTVSPropertyOp1
 70
     1
102
RTVSPropertyOp2
 70
     1
102
RTVSPropertyOp3
 70
     1
102
RTVSPropertyOp4
 70
     1
102
RTVSPropertyOp5
 70
     1
102
RTVSPropertyOp6
 70
     1
102
RTVSPropertyOp7
 70
     1
102
RTVSPropertyOp8
 70
     1
102
RTVSPropertyOp9
 70
     1
102
RTVSPropertyOp10
 70
     1
102
RTVSPropertyOp11
 70
     1
102
RTVSPropertyOp12
 70
     1
102
RTVSPropertyOp13
 70
     1
102
RTVSPropertyOp14
 70
     1
102
RTVSPropertyOp15
 70
     1
102
RTVSPropertyOp16
 70
     1
102
RTVSPropertyOp17
 70
     1
102
RTVSPropertyOp18
 70
     1
102
RTVSPropertyOp19
 70
     1
102
RTVSPropertyOp20
 70
     1
102
RTVSPropertyOp21
 70
     1
102
RTVSPropertyOp22
 70
     1
102
RTVSPropertyOp23
 70
     1
102
RTVSPropertyOp24
 70
     1
102
RTVSPropertyOp25
 70
     1
102
RTVSPropertyOp26
 70
     1
102
RTVSPropertyOp27
 70
     1
102
RTVSPropertyOp28
 70
     1
102
RTVSPropertyOp29
 70
     1
102
RTVSPropertyOp30
 70
     1
102
RTVSPropertyOp31
 70
     1
102
RTVSPropertyOp32
 70
     1
102
RTVSPropertyOp33
 70
     1
102
RTVSPropertyOp34
 70
     1
102
RTVSPropertyOp35
 70
     1
102
RTVSPropertyOp36
 70
     1
102
RTVSPropertyOp37
 70
     1
102
RTVSPropertyOp38
 70
     1
102
RTVSPropertyOp39
 70
     1
102
RTVSPropertyOp40
 70
     1
102
RTVSPropertyOp41
 70
     1
102
RTVSPropertyOp42
 70
     1
102
RTVSPropertyOp43
 70
     1
102
RTVSPropertyOp44
 70
     1
102
RTVSPropertyOp45
 70
     1
102
RTVSPropertyOp46
 70
     1
102
RTVSPropertyOp47
 70
     1
102
RTVSPropertyOp48
 70
     1
102
RTVSPropertyOp49
 70
     1
102
RTVSPropertyOp50
 70
     1
102
RTVSPropertyOp51
 70
     0
102
RTVSPropertyOp52
 70
     0
102
RTVSPropertyOp53
 70
     1
102
RTVSPropertyOp54
 70
     1
102
RTVSPropertyOp55
 70
     1
102
RTVSPropertyOp56
 70
     1
102
RTVSPropertyOp57
 70
     1
102
RTVSPost2010Prop28
280
     0
102
RTVSPost2010PropOp28
 70
     1
102
RTVSPost2010Prop29
280
     1
102
RTVSPost2010PropOp29
 70
     1
102
RTVSPost2010Prop30
280
     1
102
RTVSPost2010PropOp30
 70
     1
102
RTVSPost2010Prop31
280
     0
102
RTVSPost2010PropOp31
 70
     1
102
RTVSPost2010Prop32
280
     0
102
RTVSPost2010PropOp32
 70
     1
102
RTVSPost2010Prop33
280
     0
102
RTVSPost2010PropOp33
 70
     1
102
RTVSPost2010Prop34
280
     0
102
RTVSPost2010PropOp34
 70
     1
102
RTVSPost2010Prop35
280
     0
102
RTVSPost2010PropOp35
 70
     1
102
RTVSPost2010Prop36
280
     0
102
RTVSPost2010PropOp36
 70
     1
102
RTVSPost2010Prop37
 90
       50
102
RTVSPost2010PropOp37
 70
     1
102
RTVSPost2010Prop38
140
0.0
102
RTVSPost2010PropOp38
 70
     1
102
RTVSPost2010Prop39
140
1.0
102
RTVSPost2010PropOp39
 70
     1
102
RTVSPost2010Prop40
 90
        0
102
RTVSPost2010PropOp40
 70
     1
102
RTVSPost2010Prop41ColorIndex
 90
       18
102
RTVSPost2010Prop41ColorRGB
 90
        0
102
RTVSPost2010PropOp41
 70
     1
102
RTVSPost2010Prop42
 90
       50
102
RTVSPost2010PropOp42
 70
     1
102
RTVSPost2010Prop43
 90
        3
102
RTVSPost2010PropOp43
 70
     1
102
RTVSPost2010Prop44ColorIndex
 90
        5
102
RTVSPost2010Prop44ColorRGB
 90
      255
102
RTVSPost2010PropOp44
 70
     1
102
RTVSPost2010Prop45
280
     0
102
RTVSPost2010PropOp45
 70
     1
102
RTVSPost2010Prop46
 90
       50
102
RTVSPost2010PropOp46
 70
     1
102
RTVSPost2010Prop47
 90
       50
102
RTVSPost2010PropOp47
 70
     1
102
RTVSPost2010Prop48
 90
       50
102
RTVSPost2010PropOp48
 70
     1
102
RTVSPost2010Prop49
280
     0
102
RTVSPost2010PropOp49
 70
     1
102
RTVSPost2010Prop50
 90
       50
102
RTVSPost2010PropOp50
 70
     1
102
RTVSPost2010Prop51ColorIndex
 90
      256
102
RTVSPost2010Prop51ColorRGB
 90
-16777216
102
RTVSPost2010PropOp51
 70
     0
102
RTVSPost2010Prop52
140
1.0
102
RTVSPost2010PropOp52
 70
     0
102
RTVSPost2010Prop53
 90
        2
102
RTVSPost2010PropOp53
 70
     1
102
RTVSPost2010Prop54
  1
strokes_ogs.tif
102
RTVSPost2010PropOp54
 70
     1
102
RTVSPost2010Prop55
280
     0
102
RTVSPost2010PropOp55
 70
     1
102
RTVSPost2010Prop56
140
1.0
102
RTVSPost2010PropOp56
 70
     1
102
RTVSPost2010Prop57
140
1.0
102
RTVSPost2010PropOp57
 70
     1
  0
XRECORD
  5
1E6
102
{ACAD_REACTORS
330
1E5
102
}
330
1E5
100
AcDbXrecord
280
     1
102
RTVSPropertyOp0
 70
     1
102
RTVSPropertyOp1
 70
     1
102
RTVSPropertyOp2
 70
     1
102
RTVSPropertyOp3
 70
     1
102
RTVSPropertyOp4
 70
     1
102
RTVSPropertyOp5
 70
     1
102
RTVSPropertyOp6
 70
     1
102
RTVSPropertyOp7
 70
     1
102
RTVSPropertyOp8
 70
     1
102
RTVSPropertyOp9
 70
     1
102
RTVSPropertyOp10
 70
     1
102
RTVSPropertyOp11
 70
     1
102
RTVSPropertyOp12
 70
     1
102
RTVSPropertyOp13
 70
     1
102
RTVSPropertyOp14
 70
     1
102
RTVSPropertyOp15
 70
     1
102
RTVSPropertyOp16
 70
     1
102
RTVSPropertyOp17
 70
     1
102
RTVSPropertyOp18
 70
     1
102
RTVSPropertyOp19
 70
     1
102
RTVSPropertyOp20
 70
     1
102
RTVSPropertyOp21
 70
     1
102
RTVSPropertyOp22
 70
     1
102
RTVSPropertyOp23
 70
     1
102
RTVSPropertyOp24
 70
     1
102
RTVSPropertyOp25
 70
     1
102
RTVSPropertyOp26
 70
     1
102
RTVSPropertyOp27
 70
     1
102
RTVSPropertyOp28
 70
     1
102
RTVSPropertyOp29
 70
     1
102
RTVSPropertyOp30
 70
     1
102
RTVSPropertyOp31
 70
     1
102
RTVSPropertyOp32
 70
     1
102
RTVSPropertyOp33
 70
     1
102
RTVSPropertyOp34
 70
     1
102
RTVSPropertyOp35
 70
     1
102
RTVSPropertyOp36
 70
     1
102
RTVSPropertyOp37
 70
     1
102
RTVSPropertyOp38
 70
     1
102
RTVSPropertyOp39
 70
     1
102
RTVSPropertyOp40
 70
     1
102
RTVSPropertyOp41
 70
     1
102
RTVSPropertyOp42
 70
     1
102
RTVSPropertyOp43
 70
     1
102
RTVSPropertyOp44
 70
     1
102
RTVSPropertyOp45
 70
     1
102
RTVSPropertyOp46
 70
     1
102
RTVSPropertyOp47
 70
     1
102
RTVSPropertyOp48
 70
     1
102
RTVSPropertyOp49
 70
     1
102
RTVSPropertyOp50
 70
     1
102
RTVSPropertyOp51
 70
     0
102
RTVSPropertyOp52
 70
     0
102
RTVSPropertyOp53
 70
     1
102
RTVSPropertyOp54
 70
     1
102
RTVSPropertyOp55
 70
     1
102
RTVSPropertyOp56
 70
     1
102
RTVSPropertyOp57
 70
     1
102
RTVSPost2010Prop28
280
     0
102
RTVSPost2010PropOp28
 70
     1
102
RTVSPost2010Prop29
280
     1
102
RTVSPost2010PropOp29
 70
     1
102
RTVSPost2010Prop30
280
     1
102
RTVSPost2010PropOp30
 70
     1
102
RTVSPost2010Prop31
280
     0
102
RTVSPost2010PropOp31
 70
     1
102
RTVSPost2010Prop32
280
     0
102
RTVSPost2010PropOp32
 70
     1
102
RTVSPost2010Prop33
280
     0
102
RTVSPost2010PropOp33
 70
     1
102
RTVSPost2010Prop34
280
     0
102
RTVSPost2010PropOp34
 70
     1
102
RTVSPost2010Prop35
280
     0
102
RTVSPost2010PropOp35
 70
     1
102
RTVSPost2010Prop36
280
     0
102
RTVSPost2010PropOp36
 70
     1
102
RTVSPost2010Prop37
 90
       50
102
RTVSPost2010PropOp37
 70
     1
102
RTVSPost2010Prop38
140
0.0
102
RTVSPost2010PropOp38
 70
     1
102
RTVSPost2010Prop39
140
1.0
102
RTVSPost2010PropOp39
 70
     1
102
RTVSPost2010Prop40
 90
        0
102
RTVSPost2010PropOp40
 70
     1
102
RTVSPost2010Prop41ColorIndex
 90
       18
102
RTVSPost2010Prop41ColorRGB
 90
        0
102
RTVSPost2010PropOp41
 70
     1
102
RTVSPost2010Prop42
 90
       50
102
RTVSPost2010PropOp42
 70
     1
102
RTVSPost2010Prop43
 90
        3
102
RTVSPost2010PropOp43
 70
     1
102
RTVSPost2010Prop44ColorIndex
 90
        5
102
RTVSPost2010Prop44ColorRGB
 90
      255
102
RTVSPost2010PropOp44
 70
     1
102
RTVSPost2010Prop45
280
     0
102
RTVSPost2010PropOp45
 70
     1
102
RTVSPost2010Prop46
 90
       50
102
RTVSPost2010PropOp46
 70
     1
102
RTVSPost2010Prop47
 90
       50
102
RTVSPost2010PropOp47
 70
     1
102
RTVSPost2010Prop48
 90
       50
102
RTVSPost2010PropOp48
 70
     1
102
RTVSPost2010Prop49
280
     0
102
RTVSPost2010PropOp49
 70
     1
102
RTVSPost2010Prop50
 90
       50
102
RTVSPost2010PropOp50
 70
     1
102
RTVSPost2010Prop51ColorIndex
 90
      256
102
RTVSPost2010Prop51ColorRGB
 90
-16777216
102
RTVSPost2010PropOp51
 70
     0
102
RTVSPost2010Prop52
140
1.0
102
RTVSPost2010PropOp52
 70
     0
102
RTVSPost2010Prop53
 90
        2
102
RTVSPost2010PropOp53
 70
     1
102
RTVSPost2010Prop54
  1
strokes_ogs.tif
102
RTVSPost2010PropOp54
 70
     1
102
RTVSPost2010Prop55
280
     0
102
RTVSPost2010PropOp55
 70
     1
102
RTVSPost2010Prop56
140
1.0
102
RTVSPost2010PropOp56
 70
     1
102
RTVSPost2010Prop57
140
1.0
102
RTVSPost2010PropOp57
 70
     1
  0
XRECORD
  5
1D8
102
{ACAD_REACTORS
330
1D7
102
}
330
1D7
100
AcDbXrecord
280
     1
102
RTVSPropertyOp0
 70
     1
102
RTVSPropertyOp1
 70
     1
102
RTVSPropertyOp2
 70
     1
102
RTVSPropertyOp3
 70
     1
102
RTVSPropertyOp4
 70
     1
102
RTVSPropertyOp5
 70
     1
102
RTVSPropertyOp6
 70
     1
102
RTVSPropertyOp7
 70
     1
102
RTVSPropertyOp8
 70
     1
102
RTVSPropertyOp9
 70
     1
102
RTVSPropertyOp10
 70
     1
102
RTVSPropertyOp11
 70
     1
102
RTVSPropertyOp12
 70
     1
102
RTVSPropertyOp13
 70
     1
102
RTVSPropertyOp14
 70
     1
102
RTVSPropertyOp15
 70
     1
102
RTVSPropertyOp16
 70
     1
102
RTVSPropertyOp17
 70
     1
102
RTVSPropertyOp18
 70
     1
102
RTVSPropertyOp19
 70
     1
102
RTVSPropertyOp20
 70
     1
102
RTVSPropertyOp21
 70
     1
102
RTVSPropertyOp22
 70
     1
102
RTVSPropertyOp23
 70
     1
102
RTVSPropertyOp24
 70
     1
102
RTVSPropertyOp25
 70
     1
102
RTVSPropertyOp26
 70
     1
102
RTVSPropertyOp27
 70
     1
102
RTVSPropertyOp28
 70
     1
102
RTVSPropertyOp29
 70
     1
102
RTVSPropertyOp30
 70
     1
102
RTVSPropertyOp31
 70
     1
102
RTVSPropertyOp32
 70
     1
102
RTVSPropertyOp33
 70
     1
102
RTVSPropertyOp34
 70
     1
102
RTVSPropertyOp35
 70
     1
102
RTVSPropertyOp36
 70
     1
102
RTVSPropertyOp37
 70
     1
102
RTVSPropertyOp38
 70
     1
102
RTVSPropertyOp39
 70
     1
102
RTVSPropertyOp40
 70
     1
102
RTVSPropertyOp41
 70
     1
102
RTVSPropertyOp42
 70
     1
102
RTVSPropertyOp43
 70
     1
102
RTVSPropertyOp44
 70
     1
102
RTVSPropertyOp45
 70
     1
102
RTVSPropertyOp46
 70
     1
102
RTVSPropertyOp47
 70
     1
102
RTVSPropertyOp48
 70
     1
102
RTVSPropertyOp49
 70
     1
102
RTVSPropertyOp50
 70
     1
102
RTVSPropertyOp51
 70
     0
102
RTVSPropertyOp52
 70
     0
102
RTVSPropertyOp53
 70
     1
102
RTVSPropertyOp54
 70
     1
102
RTVSPropertyOp55
 70
     1
102
RTVSPropertyOp56
 70
     1
102
RTVSPropertyOp57
 70
     1
102
RTVSPost2010Prop28
280
     0
102
RTVSPost2010PropOp28
 70
     1
102
RTVSPost2010Prop29
280
     1
102
RTVSPost2010PropOp29
 70
     1
102
RTVSPost2010Prop30
280
     1
102
RTVSPost2010PropOp30
 70
     1
102
RTVSPost2010Prop31
280
     0
102
RTVSPost2010PropOp31
 70
     1
102
RTVSPost2010Prop32
280
     0
102
RTVSPost2010PropOp32
 70
     1
102
RTVSPost2010Prop33
280
     0
102
RTVSPost2010PropOp33
 70
     1
102
RTVSPost2010Prop34
280
     0
102
RTVSPost2010PropOp34
 70
     1
102
RTVSPost2010Prop35
280
     0
102
RTVSPost2010PropOp35
 70
     1
102
RTVSPost2010Prop36
280
     0
102
RTVSPost2010PropOp36
 70
     1
102
RTVSPost2010Prop37
 90
       50
102
RTVSPost2010PropOp37
 70
     1
102
RTVSPost2010Prop38
140
0.0
102
RTVSPost2010PropOp38
 70
     1
102
RTVSPost2010Prop39
140
1.0
102
RTVSPost2010PropOp39
 70
     1
102
RTVSPost2010Prop40
 90
        0
102
RTVSPost2010PropOp40
 70
     1
102
RTVSPost2010Prop41ColorIndex
 90
       18
102
RTVSPost2010Prop41ColorRGB
 90
        0
102
RTVSPost2010PropOp41
 70
     1
102
RTVSPost2010Prop42
 90
       50
102
RTVSPost2010PropOp42
 70
     1
102
RTVSPost2010Prop43
 90
        3
102
RTVSPost2010PropOp43
 70
     1
102
RTVSPost2010Prop44ColorIndex
 90
        5
102
RTVSPost2010Prop44ColorRGB
 90
      255
102
RTVSPost2010PropOp44
 70
     1
102
RTVSPost2010Prop45
280
     0
102
RTVSPost2010PropOp45
 70
     1
102
RTVSPost2010Prop46
 90
       50
102
RTVSPost2010PropOp46
 70
     1
102
RTVSPost2010Prop47
 90
       50
102
RTVSPost2010PropOp47
 70
     1
102
RTVSPost2010Prop48
 90
       50
102
RTVSPost2010PropOp48
 70
     1
102
RTVSPost2010Prop49
280
     0
102
RTVSPost2010PropOp49
 70
     1
102
RTVSPost2010Prop50
 90
       50
102
RTVSPost2010PropOp50
 70
     1
102
RTVSPost2010Prop51ColorIndex
 90
      256
102
RTVSPost2010Prop51ColorRGB
 90
-16777216
102
RTVSPost2010PropOp51
 70
     0
102
RTVSPost2010Prop52
140
1.0
102
RTVSPost2010PropOp52
 70
     0
102
RTVSPost2010Prop53
 90
        2
102
RTVSPost2010PropOp53
 70
     1
102
RTVSPost2010Prop54
  1
strokes_ogs.tif
102
RTVSPost2010PropOp54
 70
     1
102
RTVSPost2010Prop55
280
     0
102
RTVSPost2010PropOp55
 70
     1
102
RTVSPost2010Prop56
140
1.0
102
RTVSPost2010PropOp56
 70
     1
102
RTVSPost2010Prop57
140
1.0
102
RTVSPost2010PropOp57
 70
     1
  0
XRECORD
  5
1F8
102
{ACAD_REACTORS
330
1F7
102
}
330
1F7
100
AcDbXrecord
280
     1
102
RTVSPropertyOp0
 70
     1
102
RTVSPropertyOp1
 70
     1
102
RTVSPropertyOp2
 70
     1
102
RTVSPropertyOp3
 70
     1
102
RTVSPropertyOp4
 70
     1
102
RTVSPropertyOp5
 70
     1
102
RTVSPropertyOp6
 70
     1
102
RTVSPropertyOp7
 70
     1
102
RTVSPropertyOp8
 70
     1
102
RTVSPropertyOp9
 70
     1
102
RTVSPropertyOp10
 70
     1
102
RTVSPropertyOp11
 70
     1
102
RTVSPropertyOp12
 70
     1
102
RTVSPropertyOp13
 70
     1
102
RTVSPropertyOp14
 70
     1
102
RTVSPropertyOp15
 70
     1
102
RTVSPropertyOp16
 70
     1
102
RTVSPropertyOp17
 70
     1
102
RTVSPropertyOp18
 70
     1
102
RTVSPropertyOp19
 70
     1
102
RTVSPropertyOp20
 70
     1
102
RTVSPropertyOp21
 70
     1
102
RTVSPropertyOp22
 70
     1
102
RTVSPropertyOp23
 70
     1
102
RTVSPropertyOp24
 70
     1
102
RTVSPropertyOp25
 70
     1
102
RTVSPropertyOp26
 70
     1
102
RTVSPropertyOp27
 70
     1
102
RTVSPropertyOp28
 70
     1
102
RTVSPropertyOp29
 70
     1
102
RTVSPropertyOp30
 70
     1
102
RTVSPropertyOp31
 70
     1
102
RTVSPropertyOp32
 70
     1
102
RTVSPropertyOp33
 70
     1
102
RTVSPropertyOp34
 70
     1
102
RTVSPropertyOp35
 70
     1
102
RTVSPropertyOp36
 70
     1
102
RTVSPropertyOp37
 70
     1
102
RTVSPropertyOp38
 70
     1
102
RTVSPropertyOp39
 70
     1
102
RTVSPropertyOp40
 70
     1
102
RTVSPropertyOp41
 70
     1
102
RTVSPropertyOp42
 70
     1
102
RTVSPropertyOp43
 70
     1
102
RTVSPropertyOp44
 70
     1
102
RTVSPropertyOp45
 70
     1
102
RTVSPropertyOp46
 70
     1
102
RTVSPropertyOp47
 70
     1
102
RTVSPropertyOp48
 70
     1
102
RTVSPropertyOp49
 70
     1
102
RTVSPropertyOp50
 70
     1
102
RTVSPropertyOp51
 70
     0
102
RTVSPropertyOp52
 70
     0
102
RTVSPropertyOp53
 70
     1
102
RTVSPropertyOp54
 70
     1
102
RTVSPropertyOp55
 70
     1
102
RTVSPropertyOp56
 70
     1
102
RTVSPropertyOp57
 70
     1
102
RTVSPost2010Prop28
280
     0
102
RTVSPost2010PropOp28
 70
     1
102
RTVSPost2010Prop29
280
     1
102
RTVSPost2010PropOp29
 70
     1
102
RTVSPost2010Prop30
280
     1
102
RTVSPost2010PropOp30
 70
     1
102
RTVSPost2010Prop31
280
     0
102
RTVSPost2010PropOp31
 70
     1
102
RTVSPost2010Prop32
280
     0
102
RTVSPost2010PropOp32
 70
     1
102
RTVSPost2010Prop33
280
     0
102
RTVSPost2010PropOp33
 70
     1
102
RTVSPost2010Prop34
280
     0
102
RTVSPost2010PropOp34
 70
     1
102
RTVSPost2010Prop35
280
     0
102
RTVSPost2010PropOp35
 70
     1
102
RTVSPost2010Prop36
280
     0
102
RTVSPost2010PropOp36
 70
     1
102
RTVSPost2010Prop37
 90
       50
102
RTVSPost2010PropOp37
 70
     1
102
RTVSPost2010Prop38
140
0.0
102
RTVSPost2010PropOp38
 70
     1
102
RTVSPost2010Prop39
140
1.0
102
RTVSPost2010PropOp39
 70
     1
102
RTVSPost2010Prop40
 90
        0
102
RTVSPost2010PropOp40
 70
     1
102
RTVSPost2010Prop41ColorIndex
 90
       18
102
RTVSPost2010Prop41ColorRGB
 90
        0
102
RTVSPost2010PropOp41
 70
     1
102
RTVSPost2010Prop42
 90
       50
102
RTVSPost2010PropOp42
 70
     1
102
RTVSPost2010Prop43
 90
        3
102
RTVSPost2010PropOp43
 70
     1
102
RTVSPost2010Prop44ColorIndex
 90
        5
102
RTVSPost2010Prop44ColorRGB
 90
      255
102
RTVSPost2010PropOp44
 70
     1
102
RTVSPost2010Prop45
280
     0
102
RTVSPost2010PropOp45
 70
     1
102
RTVSPost2010Prop46
 90
       50
102
RTVSPost2010PropOp46
 70
     1
102
RTVSPost2010Prop47
 90
       50
102
RTVSPost2010PropOp47
 70
     1
102
RTVSPost2010Prop48
 90
       50
102
RTVSPost2010PropOp48
 70
     1
102
RTVSPost2010Prop49
280
     0
102
RTVSPost2010PropOp49
 70
     1
102
RTVSPost2010Prop50
 90
       50
102
RTVSPost2010PropOp50
 70
     1
102
RTVSPost2010Prop51ColorIndex
 90
      256
102
RTVSPost2010Prop51ColorRGB
 90
-16777216
102
RTVSPost2010PropOp51
 70
     0
102
RTVSPost2010Prop52
140
1.0
102
RTVSPost2010PropOp52
 70
     0
102
RTVSPost2010Prop53
 90
        2
102
RTVSPost2010PropOp53
 70
     1
102
RTVSPost2010Prop54
  1
strokes_ogs.tif
102
RTVSPost2010PropOp54
 70
     1
102
RTVSPost2010Prop55
280
     0
102
RTVSPost2010PropOp55
 70
     1
102
RTVSPost2010Prop56
140
1.0
102
RTVSPost2010PropOp56
 70
     1
102
RTVSPost2010Prop57
140
1.0
102
RTVSPost2010PropOp57
 70
     1
  0
ENDSEC
  0
EOF
