  0
SECTION
  2
HEADER
  9
$ACADVER
  1
AC1015
  9
$ACADMAINTVER
 70
     6
  9
$DWGCODEPAGE
  3
ANSI_1252
  9
$INSBASE
 10
0.0
 20
0.0
 30
0.0
  9
$EXTMIN
 10
-8.795771047642978
 20
0.0000263675344953
 30
0.0
  9
$EXTMAX
 10
8.660487
 20
43.41104818604688
 30
0.0
  9
$LIMMIN
 10
0.0
 20
0.0
  9
$LIMMAX
 10
12.0
 20
9.0
  9
$ORTHOMODE
 70
     0
  9
$REGENMODE
 70
     1
  9
$FILLMODE
 70
     1
  9
$QTEXTMODE
 70
     0
  9
$MIRRTEXT
 70
     1
  9
$LTSCALE
 40
0.0393700787401575
  9
$ATTMODE
 70
     1
  9
$TEXTSIZE
 40
0.2
  9
$TRACEWID
 40
0.05
  9
$TEXTSTYLE
  7
Standard
  9
$CLAYER
  8
DEFAULT
  9
$CELTYPE
  6
ByLayer
  9
$CECOLOR
 62
   256
  9
$CELTSCALE
 40
1.0
  9
$DISPSILH
 70
     0
  9
$DIMSCALE
 40
1.0
  9
$DIMASZ
 40
0.18
  9
$DIMEXO
 40
0.0625
  9
$DIMDLI
 40
0.38
  9
$DIMRND
 40
0.0
  9
$DIMDLE
 40
0.0
  9
$DIMEXE
 40
0.18
  9
$DIMTP
 40
0.0
  9
$DIMTM
 40
0.0
  9
$DIMTXT
 40
0.18
  9
$DIMCEN
 40
0.09
  9
$DIMTSZ
 40
0.0
  9
$DIMTOL
 70
     0
  9
$DIMLIM
 70
     0
  9
$DIMTIH
 70
     1
  9
$DIMTOH
 70
     1
  9
$DIMSE1
 70
     0
  9
$DIMSE2
 70
     0
  9
$DIMTAD
 70
     0
  9
$DIMZIN
 70
     0
  9
$DIMBLK
  1

  9
$DIMASO
 70
     1
  9
$DIMSHO
 70
     1
  9
$DIMPOST
  1

  9
$DIMAPOST
  1

  9
$DIMALT
 70
     0
  9
$DIMALTD
 70
     2
  9
$DIMALTF
 40
25.4
  9
$DIMLFAC
 40
1.0
  9
$DIMTOFL
 70
     0
  9
$DIMTVP
 40
0.0
  9
$DIMTIX
 70
     0
  9
$DIMSOXD
 70
     0
  9
$DIMSAH
 70
     0
  9
$DIMBLK1
  1

  9
$DIMBLK2
  1

  9
$DIMSTYLE
  2
Standard
  9
$DIMCLRD
 70
     0
  9
$DIMCLRE
 70
     0
  9
$DIMCLRT
 70
     0
  9
$DIMTFAC
 40
1.0
  9
$DIMGAP
 40
0.09
  9
$DIMJUST
 70
     0
  9
$DIMSD1
 70
     0
  9
$DIMSD2
 70
     0
  9
$DIMTOLJ
 70
     1
  9
$DIMTZIN
 70
     0
  9
$DIMALTZ
 70
     0
  9
$DIMALTTZ
 70
     0
  9
$DIMUPT
 70
     0
  9
$DIMDEC
 70
     4
  9
$DIMTDEC
 70
     4
  9
$DIMALTU
 70
     2
  9
$DIMALTTD
 70
     2
  9
$DIMTXSTY
  7
Standard
  9
$DIMAUNIT
 70
     0
  9
$DIMADEC
 70
     0
  9
$DIMALTRND
 40
0.0
  9
$DIMAZIN
 70
     0
  9
$DIMDSEP
 70
    46
  9
$DIMATFIT
 70
     3
  9
$DIMFRAC
 70
     0
  9
$DIMLDRBLK
  1

  9
$DIMLUNIT
 70
     2
  9
$DIMLWD
 70
    -2
  9
$DIMLWE
 70
    -2
  9
$DIMTMOVE
 70
     2
  9
$LUNITS
 70
     2
  9
$LUPREC
 70
     3
  9
$SKETCHINC
 40
0.1
  9
$FILLETRAD
 40
0.5
  9
$AUNITS
 70
     0
  9
$AUPREC
 70
     0
  9
$MENU
  1
.
  9
$ELEVATION
 40
0.0
  9
$PELEVATION
 40
0.0
  9
$THICKNESS
 40
0.0
  9
$LIMCHECK
 70
     0
  9
$CHAMFERA
 40
0.5
  9
$CHAMFERB
 40
0.5
  9
$CHAMFERC
 40
1.0
  9
$CHAMFERD
 40
0.0
  9
$SKPOLY
 70
     0
  9
$TDCREATE
 40
2455345.584627373
  9
$TDUCREATE
 40
2455345.751294039
  9
$TDUPDATE
 40
2455345.584627384
  9
$TDUUPDATE
 40
2455345.751294051
  9
$TDINDWG
 40
0.0000000116
  9
$TDUSRTIMER
 40
0.0000000116
  9
$USRTIMER
 70
     1
  9
$ANGBASE
 50
0.0
  9
$ANGDIR
 70
     0
  9
$PDMODE
 70
     0
  9
$PDSIZE
 40
0.0
  9
$PLINEWID
 40
0.0
  9
$SPLFRAME
 70
     0
  9
$SPLINETYPE
 70
     6
  9
$SPLINESEGS
 70
     8
  9
$HANDSEED
  5
4F
  9
$SURFTAB1
 70
     6
  9
$SURFTAB2
 70
     6
  9
$SURFTYPE
 70
     6
  9
$SURFU
 70
     6
  9
$SURFV
 70
     6
  9
$UCSBASE
  2

  9
$UCSNAME
  2

  9
$UCSORG
 10
0.0
 20
0.0
 30
0.0
  9
$UCSXDIR
 10
1.0
 20
0.0
 30
0.0
  9
$UCSYDIR
 10
0.0
 20
1.0
 30
0.0
  9
$UCSORTHOREF
  2

  9
$UCSORTHOVIEW
 70
     0
  9
$UCSORGTOP
 10
0.0
 20
0.0
 30
0.0
  9
$UCSORGBOTTOM
 10
0.0
 20
0.0
 30
0.0
  9
$UCSORGLEFT
 10
0.0
 20
0.0
 30
0.0
  9
$UCSORGRIGHT
 10
0.0
 20
0.0
 30
0.0
  9
$UCSORGFRONT
 10
0.0
 20
0.0
 30
0.0
  9
$UCSORGBACK
 10
0.0
 20
0.0
 30
0.0
  9
$PUCSBASE
  2

  9
$PUCSNAME
  2

  9
$PUCSORG
 10
0.0
 20
0.0
 30
0.0
  9
$PUCSXDIR
 10
1.0
 20
0.0
 30
0.0
  9
$PUCSYDIR
 10
0.0
 20
1.0
 30
0.0
  9
$PUCSORTHOREF
  2

  9
$PUCSORTHOVIEW
 70
     0
  9
$PUCSORGTOP
 10
0.0
 20
0.0
 30
0.0
  9
$PUCSORGBOTTOM
 10
0.0
 20
0.0
 30
0.0
  9
$PUCSORGLEFT
 10
0.0
 20
0.0
 30
0.0
  9
$PUCSORGRIGHT
 10
0.0
 20
0.0
 30
0.0
  9
$PUCSORGFRONT
 10
0.0
 20
0.0
 30
0.0
  9
$PUCSORGBACK
 10
0.0
 20
0.0
 30
0.0
  9
$USERI1
 70
     0
  9
$USERI2
 70
     0
  9
$USERI3
 70
     0
  9
$USERI4
 70
     0
  9
$USERI5
 70
     0
  9
$USERR1
 40
0.0
  9
$USERR2
 40
0.0
  9
$USERR3
 40
0.0
  9
$USERR4
 40
0.0
  9
$USERR5
 40
0.0
  9
$WORLDVIEW
 70
     1
  9
$SHADEDGE
 70
     3
  9
$SHADEDIF
 70
    70
  9
$TILEMODE
 70
     1
  9
$MAXACTVP
 70
    64
  9
$PINSBASE
 10
0.0
 20
0.0
 30
0.0
  9
$PLIMCHECK
 70
     0
  9
$PEXTMIN
 10
1.000000000000000E+20
 20
1.000000000000000E+20
 30
1.000000000000000E+20
  9
$PEXTMAX
 10
-1.000000000000000E+20
 20
-1.000000000000000E+20
 30
-1.000000000000000E+20
  9
$PLIMMIN
 10
0.0
 20
0.0
  9
$PLIMMAX
 10
12.0
 20
9.0
  9
$UNITMODE
 70
     0
  9
$VISRETAIN
 70
     1
  9
$PLINEGEN
 70
     0
  9
$PSLTSCALE
 70
     1
  9
$TREEDEPTH
 70
  3020
  9
$CMLSTYLE
  2
Standard
  9
$CMLJUST
 70
     0
  9
$CMLSCALE
 40
1.0
  9
$PROXYGRAPHICS
 70
     1
  9
$MEASUREMENT
 70
     0
  9
$CELWEIGHT
370
    -1
  9
$ENDCAPS
280
     0
  9
$JOINSTYLE
280
     0
  9
$LWDISPLAY
290
     0
  9
$INSUNITS
 70
     1
  9
$HYPERLINKBASE
  1

  9
$STYLESHEET
  1

  9
$XEDIT
290
     1
  9
$CEPSNTYPE
380
     0
  9
$PSTYLEMODE
290
     1
  9
$FINGERPRINTGUID
  2
{D25F16C5-777F-4B56-9F5B-0DB5B20EEF6C}
  9
$VERSIONGUID
  2
{FAEB1C32-E019-11D5-929B-00C0DF256EC4}
  9
$EXTNAMES
290
     1
  9
$PSVPSCALE
 40
0.0
  9
$OLESTARTUP
290
     0
  0
ENDSEC
  0
SECTION
  2
CLASSES
  0
CLASS
  1
ACDBDICTIONARYWDFLT
  2
AcDbDictionaryWithDefault
  3
ObjectDBX Classes
 90
        0
280
     0
281
     0
  0
CLASS
  1
VISUALSTYLE
  2
AcDbVisualStyle
  3
ObjectDBX Classes
 90
     4095
280
     0
281
     0
  0
CLASS
  1
ACDBPLACEHOLDER
  2
AcDbPlaceHolder
  3
ObjectDBX Classes
 90
        0
280
     0
281
     0
  0
CLASS
  1
LAYOUT
  2
AcDbLayout
  3
ObjectDBX Classes
 90
        0
280
     0
281
     0
  0
ENDSEC
  0
SECTION
  2
TABLES
  0
TABLE
  2
VPORT
  5
8
330
0
100
AcDbSymbolTable
 70
     1
  0
VPORT
  5
29
330
8
100
AcDbSymbolTableRecord
100
AcDbViewportTableRecord
  2
*Active
 70
     0
 10
0.0
 20
0.0
 11
1.0
 21
1.0
 12
-0.0676420238214881
 22
21.70553727679069
 13
0.0
 23
0.0
 14
0.5
 24
0.5
 15
0.5
 25
0.5
 16
0.0
 26
0.0
 36
1.0
 17
0.0
 27
0.0
 37
0.0
 40
44.27924225488264
 41
0.4021158064562961
 42
50.0
 43
0.0
 44
0.0
 50
0.0
 51
0.0
 71
     0
 72
   100
 73
     1
 74
     3
 75
     0
 76
     0
 77
     0
 78
     0
281
     0
 65
     1
110
0.0
120
0.0
130
0.0
111
1.0
121
0.0
131
0.0
112
0.0
122
1.0
132
0.0
 79
     0
146
0.0
  0
ENDTAB
  0
TABLE
  2
LTYPE
  5
5
330
0
100
AcDbSymbolTable
 70
     1
  0
LTYPE
  5
14
330
5
100
AcDbSymbolTableRecord
100
AcDbLinetypeTableRecord
  2
ByBlock
 70
     0
  3

 72
    65
 73
     0
 40
0.0
  0
LTYPE
  5
15
330
5
100
AcDbSymbolTableRecord
100
AcDbLinetypeTableRecord
  2
ByLayer
 70
     0
  3

 72
    65
 73
     0
 40
0.0
  0
LTYPE
  5
16
330
5
100
AcDbSymbolTableRecord
100
AcDbLinetypeTableRecord
  2
Continuous
 70
     0
  3
Solid line
 72
    65
 73
     0
 40
0.0
  0
ENDTAB
  0
TABLE
  2
LAYER
  5
2
330
0
100
AcDbSymbolTable
 70
     2
  0
LAYER
  5
10
330
2
100
AcDbSymbolTableRecord
100
AcDbLayerTableRecord
  2
0
 70
     0
 62
     7
  6
Continuous
370
    -3
390
F
  0
LAYER
  5
3B
330
2
100
AcDbSymbolTableRecord
100
AcDbLayerTableRecord
  2
DEFAULT
 70
     0
 62
     7
  6
Continuous
370
    -3
390
F
  0
ENDTAB
  0
TABLE
  2
STYLE
  5
3
330
0
100
AcDbSymbolTable
 70
     1
  0
STYLE
  5
11
330
3
100
AcDbSymbolTableRecord
100
AcDbTextStyleTableRecord
  2
Standard
 70
     0
 40
0.0
 41
1.0
 50
0.0
 71
     0
 42
0.2
  3
txt
  4

  0
ENDTAB
  0
TABLE
  2
VIEW
  5
6
330
0
100
AcDbSymbolTable
 70
     0
  0
ENDTAB
  0
TABLE
  2
UCS
  5
7
330
0
100
AcDbSymbolTable
 70
     0
  0
ENDTAB
  0
TABLE
  2
APPID
  5
9
330
0
100
AcDbSymbolTable
 70
     1
  0
APPID
  5
12
330
9
100
AcDbSymbolTableRecord
100
AcDbRegAppTableRecord
  2
ACAD
 70
     0
  0
ENDTAB
  0
TABLE
  2
DIMSTYLE
  5
A
330
0
100
AcDbSymbolTable
 70
     1
100
AcDbDimStyleTable
  0
DIMSTYLE
105
27
330
A
100
AcDbSymbolTableRecord
100
AcDbDimStyleTableRecord
  2
Standard
 70
     0
340
11
  0
ENDTAB
  0
TABLE
  2
BLOCK_RECORD
  5
1
330
0
100
AcDbSymbolTable
 70
     1
  0
BLOCK_RECORD
  5
1F
330
1
100
AcDbSymbolTableRecord
100
AcDbBlockTableRecord
  2
*Model_Space
340
22
  0
BLOCK_RECORD
  5
1B
330
1
100
AcDbSymbolTableRecord
100
AcDbBlockTableRecord
  2
*Paper_Space
340
1E
  0
BLOCK_RECORD
  5
23
330
1
100
AcDbSymbolTableRecord
100
AcDbBlockTableRecord
  2
*Paper_Space0
340
26
  0
ENDTAB
  0
ENDSEC
  0
SECTION
  2
BLOCKS
  0
BLOCK
  5
20
330
1F
100
AcDbEntity
  8
0
100
AcDbBlockBegin
  2
*Model_Space
 70
     0
 10
0.0
 20
0.0
 30
0.0
  3
*Model_Space
  1

  0
ENDBLK
  5
21
330
1F
100
AcDbEntity
  8
0
100
AcDbBlockEnd
  0
BLOCK
  5
1C
330
1B
100
AcDbEntity
 67
     1
  8
0
100
AcDbBlockBegin
  2
*Paper_Space
 70
     0
 10
0.0
 20
0.0
 30
0.0
  3
*Paper_Space
  1

  0
ENDBLK
  5
1D
330
1B
100
AcDbEntity
 67
     1
  8
0
100
AcDbBlockEnd
  0
BLOCK
  5
24
330
23
100
AcDbEntity
  8
0
100
AcDbBlockBegin
  2
*Paper_Space0
 70
     0
 10
0.0
 20
0.0
 30
0.0
  3
*Paper_Space0
  1

  0
ENDBLK
  5
25
330
23
100
AcDbEntity
  8
0
100
AcDbBlockEnd
  0
ENDSEC
  0
SECTION
  2
ENTITIES
  0
SPLINE
  5
3C
330
1F
100
AcDbEntity
  8
DEFAULT
100
AcDbSpline
210
0.0
220
0.0
230
1.0
 70
    12
 71
     3
 72
    17
 73
    13
 74
     0
 42
0.0000000001
 43
0.0000000001
 40
-0.0537027871467228
 40
-0.0537027871467228
 40
-0.0537027871467228
 40
-0.0537027871467228
 40
0.0
 40
0.0
 40
0.0
 40
1.0
 40
1.0
 40
1.0
 40
2.0
 40
2.0
 40
2.0
 40
3.014760586572205
 40
3.014760586572205
 40
3.014760586572205
 40
3.014760586572205
 10
7.197953999999998
 20
16.63269036753449
 30
0.0
 41
1.0
 10
7.202566432707581
 20
16.61533445312849
 30
0.0
 41
0.9936215332245503
 10
7.204739627692924
 20
16.59750808154294
 30
0.0
 41
0.9936215332245503
 10
7.204432000000001
 20
16.57955236753449
 30
0.0
 41
1.0
 10
7.154598666666668
 20
13.67086403420116
 30
0.0
 41
1.0
 10
7.104765333333334
 20
10.76217570086783
 30
0.0
 41
1.0
 10
7.054932000000001
 20
7.853487367534494
 30
0.0
 41
1.0
 10
7.052494118356202
 20
7.711192292711154
 30
0.0
 41
1.0
 10
7.038649909278668
 20
7.568868053396934
 30
0.0
 41
1.0
 10
7.016704000000001
 20
7.428254367534492
 30
0.0
 41
1.0
 10
6.646595106808924
 20
5.056861367534492
 30
0.0
 41
1.0
 10
6.276486213617847
 20
2.685468367534492
 30
0.0
 41
1.0
 10
5.90637732042677
 20
0.3140753675344921
 30
0.0
 41
1.0
  0
SPLINE
  5
3D
330
1F
100
AcDbEntity
  8
DEFAULT
100
AcDbSpline
210
0.0
220
0.0
230
1.0
 70
    12
 71
     3
 72
    86
 73
    82
 74
     0
 42
0.0000000001
 43
0.0000000001
 40
0.0
 40
0.0
 40
0.0
 40
0.0
 40
1.0
 40
1.0
 40
1.0
 40
2.0
 40
2.0
 40
2.0
 40
3.0
 40
3.0
 40
3.0
 40
4.0
 40
4.0
 40
4.0
 40
5.0
 40
5.0
 40
5.0
 40
6.0
 40
6.0
 40
6.0
 40
7.0
 40
7.0
 40
7.0
 40
8.0
 40
8.0
 40
8.0
 40
9.0
 40
9.0
 40
9.0
 40
10.0
 40
10.0
 40
10.0
 40
11.0
 40
11.0
 40
11.0
 40
12.0
 40
12.0
 40
12.0
 40
13.0
 40
13.0
 40
13.0
 40
14.0
 40
14.0
 40
14.0
 40
15.0
 40
15.0
 40
15.0
 40
16.0
 40
16.0
 40
16.0
 40
17.0
 40
17.0
 40
17.0
 40
18.0
 40
18.0
 40
18.0
 40
19.0
 40
19.0
 40
19.0
 40
20.0
 40
20.0
 40
20.0
 40
21.0
 40
21.0
 40
21.0
 40
22.0
 40
22.0
 40
22.0
 40
22.18101510475
 40
22.18101510475
 40
22.18101510475
 40
23.18101510475
 40
23.18101510475
 40
23.18101510475
 40
24.18101510475
 40
24.18101510475
 40
24.18101510475
 40
25.18101510475
 40
25.18101510475
 40
25.18101510475
 40
26.18101510475
 40
26.18101510475
 40
26.18101510475
 40
26.18101510475
 10
6.033011999999999
 20
0.0000293675344948
 30
0.0
 41
1.0
 10
6.039545333333333
 20
0.0004650342011605
 30
0.0
 41
1.0
 10
6.046078666666666
 20
0.0009007008678262
 30
0.0
 41
1.0
 10
6.052612
 20
0.0013363675344919
 30
0.0
 41
1.0
 10
6.058649666666667
 20
0.0024920342011587
 30
0.0
 41
1.0
 10
6.064687333333333
 20
0.0036477008678256
 30
0.0
 41
1.0
 10
6.070724999999999
 20
0.0048033675344924
 30
0.0
 41
1.0
 10
6.076442666666666
 20
0.0066507008678252
 30
0.0
 41
1.0
 10
6.082160333333333
 20
0.008498034201158
 30
0.0
 41
1.0
 10
6.087878
 20
0.0103453675344908
 30
0.0
 41
1.0
 10
6.093209000000001
 20
0.0128157008678257
 30
0.0
 41
1.0
 10
6.098540000000001
 20
0.0152860342011606
 30
0.0
 41
1.0
 10
6.103871000000002
 20
0.0177563675344955
 30
0.0
 41
1.0
 10
6.108754000000001
 20
0.0207283675344953
 30
0.0
 41
1.0
 10
6.113637000000001
 20
0.023700367534495
 30
0.0
 41
1.0
 10
6.11852
 20
0.0266723675344948
 30
0.0
 41
1.0
 10
6.122965333333333
 20
0.0300650342011602
 30
0.0
 41
1.0
 10
6.127410666666666
 20
0.0334577008678256
 30
0.0
 41
1.0
 10
6.131855999999999
 20
0.036850367534491
 30
0.0
 41
1.0
 10
6.135825999999999
 20
0.0405557008678248
 30
0.0
 41
1.0
 10
6.139796
 20
0.0442610342011585
 30
0.0
 41
1.0
 10
6.143765999999999
 20
0.0479663675344923
 30
0.0
 41
1.0
 10
6.147175
 20
0.0517987008678251
 30
0.0
 41
1.0
 10
6.150583999999999
 20
0.055631034201158
 30
0.0
 41
1.0
 10
6.153993
 20
0.0594633675344908
 30
0.0
 41
1.0
 10
6.156904
 20
0.0633713675344911
 30
0.0
 41
1.0
 10
6.159814999999999
 20
0.0672793675344914
 30
0.0
 41
1.0
 10
6.162725999999999
 20
0.0711873675344918
 30
0.0
 41
1.0
 10
6.165162333333332
 20
0.0750827008678266
 30
0.0
 41
1.0
 10
6.167598666666666
 20
0.0789780342011614
 30
0.0
 41
1.0
 10
6.170034999999999
 20
0.0828733675344963
 30
0.0
 41
1.0
 10
6.171948999999999
 20
0.0865003675344955
 30
0.0
 41
1.0
 10
6.173863
 20
0.0901273675344948
 30
0.0
 41
1.0
 10
6.175777
 20
0.093754367534494
 30
0.0
 41
1.0
 10
6.177222666666666
 20
0.0969593675344929
 30
0.0
 41
1.0
 10
6.178668333333333
 20
0.1001643675344917
 30
0.0
 41
1.0
 10
6.180114
 20
0.1033693675344906
 30
0.0
 41
1.0
 10
6.181252999999999
 20
0.1062733675344915
 30
0.0
 41
1.0
 10
6.182391999999999
 20
0.1091773675344924
 30
0.0
 41
1.0
 10
6.183530999999999
 20
0.1120813675344933
 30
0.0
 41
1.0
 10
6.184487999999999
 20
0.1148443675344926
 30
0.0
 41
1.0
 10
6.185445000000001
 20
0.1176073675344918
 30
0.0
 41
1.0
 10
6.186402000000001
 20
0.1203703675344911
 30
0.0
 41
1.0
 10
6.187217333333334
 20
0.1229950342011581
 30
0.0
 41
1.0
 10
6.188032666666667
 20
0.1256197008678251
 30
0.0
 41
1.0
 10
6.188848
 20
0.1282443675344921
 30
0.0
 41
1.0
 10
6.189564000000001
 20
0.1307713675344927
 30
0.0
 41
1.0
 10
6.190280000000001
 20
0.1332983675344933
 30
0.0
 41
1.0
 10
6.190996000000002
 20
0.135825367534494
 30
0.0
 41
1.0
 10
6.191681666666668
 20
0.1384417008678274
 30
0.0
 41
1.0
 10
6.192367333333333
 20
0.1410580342011608
 30
0.0
 41
1.0
 10
6.193052999999999
 20
0.1436743675344942
 30
0.0
 41
1.0
 10
6.193724666666665
 20
0.1464180342011615
 30
0.0
 41
1.0
 10
6.194396333333333
 20
0.1491617008678289
 30
0.0
 41
1.0
 10
6.195067999999999
 20
0.1519053675344963
 30
0.0
 41
1.0
 10
6.195729333333333
 20
0.154771367534496
 30
0.0
 41
1.0
 10
6.196390666666666
 20
0.1576373675344958
 30
0.0
 41
1.0
 10
6.197051999999999
 20
0.1605033675344955
 30
0.0
 41
1.0
 10
6.197728333333333
 20
0.1635913675344961
 30
0.0
 41
1.0
 10
6.198404666666666
 20
0.1666793675344966
 30
0.0
 41
1.0
 10
6.199081
 20
0.1697673675344972
 30
0.0
 41
1.0
 10
6.199779666666667
 20
0.1731077008678288
 30
0.0
 41
1.0
 10
6.200478333333334
 20
0.1764480342011604
 30
0.0
 41
1.0
 10
6.201177000000001
 20
0.1797883675344919
 30
0.0
 41
1.0
 10
6.201897000000002
 20
0.1833740342011604
 30
0.0
 41
1.0
 10
6.202617000000001
 20
0.1869597008678288
 30
0.0
 41
1.0
 10
6.203337000000002
 20
0.1905453675344972
 30
0.0
 41
1.0
 10
6.214287551481871
 20
0.2498836887966064
 30
0.0
 41
0.9999362082405074
 10
6.224416197606029
 20
0.3093678167271221
 30
0.0
 41
0.9999362082405074
 10
6.233720999999999
 20
0.3689863675344969
 30
0.0
 41
1.0
 10
6.598446333333333
 20
2.705886700867829
 30
0.0
 41
1.0
 10
6.963171666666667
 20
5.042787034201161
 30
0.0
 41
1.0
 10
7.327897
 20
7.379687367534493
 30
0.0
 41
1.0
 10
7.352052061263093
 20
7.534455807120285
 30
0.0
 41
1.0
 10
7.367141701946408
 20
7.691120285721325
 30
0.0
 41
1.0
 10
7.369824999999999
 20
7.847739367534493
 30
0.0
 41
1.0
 10
7.419658333333332
 20
10.75641770086783
 30
0.0
 41
1.0
 10
7.469491666666666
 20
13.66509603420116
 30
0.0
 41
1.0
 10
7.519324999999998
 20
16.57377436753449
 30
0.0
 41
1.0
 10
7.527318490415201
 20
16.73890721159171
 30
0.0
 41
1.0
 10
7.428690092534042
 20
16.94380930648738
 30
0.0
 41
1.0
 10
7.241388000000001
 20
16.94716036753449
 30
0.0
 41
1.0
  0
SPLINE
  5
3E
330
1F
100
AcDbEntity
  8
DEFAULT
100
AcDbSpline
210
0.0
220
0.0
230
1.0
 70
    12
 71
     3
 72
    35
 73
    31
 74
     0
 42
0.0000000001
 43
0.0000000001
 40
0.0
 40
0.0
 40
0.0
 40
0.0
 40
1.0
 40
1.0
 40
1.0
 40
2.0
 40
2.0
 40
2.0
 40
3.0
 40
3.0
 40
3.0
 40
4.0
 40
4.0
 40
4.0
 40
5.0
 40
5.0
 40
5.0
 40
6.0
 40
6.0
 40
6.0
 40
6.242651080060871
 40
6.242651080060871
 40
6.242651080060871
 40
6.485302160121742
 40
6.485302160121742
 40
6.485302160121742
 40
7.485302160121742
 40
7.485302160121742
 40
7.485302160121742
 40
8.48530216012174
 40
8.48530216012174
 40
8.48530216012174
 40
8.48530216012174
 10
-7.735707
 20
16.63998236753449
 30
0.0
 41
1.0
 10
-7.695284250361044
 20
16.60783176697627
 30
0.0
 41
1.0
 10
-7.66777862274895
 20
16.56232297383352
 30
0.0
 41
1.0
 10
-7.647093
 20
16.51560436753449
 30
0.0
 41
1.0
 10
-6.422452333333333
 20
13.60495903420116
 30
0.0
 41
1.0
 10
-5.197811666666666
 20
10.69431370086783
 30
0.0
 41
1.0
 10
-3.973171000000001
 20
7.783668367534495
 30
0.0
 41
1.0
 10
-3.922586195435482
 20
7.658705724690086
 30
0.0
 41
1.0
 10
-3.89059792850514
 20
7.526145937498921
 30
0.0
 41
1.0
 10
-3.879535499999999
 20
7.391736367534492
 30
0.0
 41
1.0
 10
-3.697172666666666
 20
5.054834367534492
 30
0.0
 41
1.0
 10
-3.514809833333332
 20
2.717932367534492
 30
0.0
 41
1.0
 10
-3.332446999999998
 20
0.3810303675344925
 30
0.0
 41
1.0
 10
-3.331224567979341
 20
0.3573905170957816
 30
0.0
 41
1.0
 10
-3.334354474397119
 20
0.3291445224048729
 30
0.0
 41
1.0
 10
-3.354983000000001
 20
0.3141153675344945
 30
0.0
 41
1.0
 10
-4.250535
 20
0.3141023675344953
 30
0.0
 41
1.0
 10
-5.141071545818265
 20
0.3140760322977342
 30
0.0
 41
1.0
 10
-6.036623545912557
 20
0.3140763656675035
 30
0.0
 41
1.0
 10
-6.126742944583234
 20
0.3140763992145036
 30
0.0
 41
0.8109624277359192
 10
-6.191308438149902
 20
0.251205077793222
 30
0.0
 41
0.8109624277359192
 10
-6.193704114144935
 20
0.1611175273032
 30
0.0
 41
1.0
 10
-6.196099790139968
 20
0.071029976813178
 30
0.0
 41
0.8109624277359192
 10
-6.13496703024127
 20
0.0048159927619702
 30
0.0
 41
0.8109624277359192
 10
-6.044974999999999
 20
0.0000263675344954
 30
0.0
 41
1.0
 10
-5.148951999999999
 20
0.0000267008678278
 30
0.0
 41
1.0
 10
-4.252928999999998
 20
0.0000270342011603
 30
0.0
 41
1.0
 10
-3.356905999999999
 20
0.0000273675344928
 30
0.0
 41
1.0
 10
-3.204598497741461
 20
-0.0019033741471115
 30
0.0
 41
1.0
 10
-3.068628588029549
 20
0.1159637218651767
 30
0.0
 41
1.0
 10
-3.032395000000001
 20
0.2608753675344956
 30
0.0
 41
1.0
  0
SPLINE
  5
3F
330
1F
100
AcDbEntity
  8
DEFAULT
100
AcDbSpline
210
0.0
220
0.0
230
1.0
 70
    12
 71
     2
 72
    10
 73
     7
 74
     0
 42
0.0000000001
 43
0.0000000001
 40
0.2471724482677669
 40
0.2471724482677669
 40
0.2471724482677669
 40
0.4943448965355347
 40
0.4943448965355347
 40
0.7415173448033026
 40
0.7415173448033026
 40
1.741517344803303
 40
1.741517344803303
 40
1.741517344803303
 10
-8.63664
 20
16.94740010303802
 30
0.0
 41
1.0
 10
-8.793994867751763
 20
16.94740010303802
 30
0.0
 41
0.7071067811865455
 10
-8.793994867751763
 20
16.79004523528626
 30
0.0
 41
1.0
 10
-8.793994867751762
 20
16.63269036753449
 30
0.0
 41
0.7071067811865455
 10
-8.636639999999998
 20
16.63269036753449
 30
0.0
 41
1.0
 10
-8.181531
 20
16.63269036753449
 30
0.0
 41
1.0
 10
-7.726421999999999
 20
16.63269036753449
 30
0.0
 41
1.0
  0
SPLINE
  5
40
330
1F
100
AcDbEntity
  8
DEFAULT
100
AcDbSpline
210
0.0
220
0.0
230
1.0
 70
     8
 71
     3
 72
    14
 73
    10
 74
     0
 42
0.0000000001
 43
0.0000000001
 40
0.0
 40
0.0
 40
0.0
 40
0.0
 40
1.0
 40
1.0
 40
1.0
 40
2.0
 40
2.0
 40
2.0
 40
3.0
 40
3.0
 40
3.0
 40
3.0
 10
-3.599065
 20
7.639088367534494
 30
0.0
 10
-3.620459078188222
 20
7.732048036844445
 30
0.0
 10
-3.648141029336502
 20
7.823748328336762
 30
0.0
 10
-3.685316499999999
 20
7.911695867534493
 30
0.0
 10
-4.909133499999999
 20
10.82036853420116
 30
0.0
 10
-6.1329505
 20
13.72904120086783
 30
0.0
 10
-7.3567675
 20
16.63771386753449
 30
0.0
 10
-7.421219715042286
 20
16.77989926204168
 30
0.0
 10
-7.531325435819147
 20
16.93723574532403
 30
0.0
 10
-7.702344999999999
 20
16.9471583675345
 30
0.0
  0
SPLINE
  5
41
330
1F
100
AcDbEntity
  8
DEFAULT
100
AcDbSpline
210
0.0
220
0.0
230
1.0
 70
    12
 71
     3
 72
    95
 73
    91
 74
     0
 42
0.0000000001
 43
0.0000000001
 40
-4.0
 40
-4.0
 40
-4.0
 40
-4.0
 40
-3.0
 40
-3.0
 40
-3.0
 40
-2.0
 40
-2.0
 40
-2.0
 40
-1.0
 40
-1.0
 40
-1.0
 40
0.0
 40
0.0
 40
0.0
 40
1.0
 40
1.0
 40
1.0
 40
2.0
 40
2.0
 40
2.0
 40
3.0
 40
3.0
 40
3.0
 40
4.0
 40
4.0
 40
4.0
 40
4.244588309217244
 40
4.244588309217244
 40
4.244588309217244
 40
4.489176618434488
 40
4.489176618434488
 40
4.489176618434488
 40
5.489176618434488
 40
5.489176618434488
 40
5.489176618434488
 40
6.489176618434488
 40
6.489176618434488
 40
6.489176618434488
 40
7.489176618434488
 40
7.489176618434488
 40
7.489176618434488
 40
8.489176618434488
 40
8.489176618434488
 40
8.489176618434488
 40
9.489176618434488
 40
9.489176618434488
 40
9.489176618434488
 40
10.48917661843449
 40
10.48917661843449
 40
10.48917661843449
 40
11.48917661843449
 40
11.48917661843449
 40
11.48917661843449
 40
12.48917661843449
 40
12.48917661843449
 40
12.48917661843449
 40
13.48917661843449
 40
13.48917661843449
 40
13.48917661843449
 40
14.48917661843449
 40
14.48917661843449
 40
14.48917661843449
 40
15.48917661843449
 40
15.48917661843449
 40
15.48917661843449
 40
16.48917661843449
 40
16.48917661843449
 40
16.48917661843449
 40
17.48917661843449
 40
17.48917661843449
 40
17.48917661843449
 40
18.48917661843449
 40
18.48917661843449
 40
18.48917661843449
 40
19.48917661843449
 40
19.48917661843449
 40
19.48917661843449
 40
20.78761599102878
 40
20.78761599102878
 40
20.78761599102878
 40
21.79108427833959
 40
21.79108427833959
 40
21.79108427833959
 40
22.79108427833959
 40
22.79108427833959
 40
22.79108427833959
 40
23.79108427833959
 40
23.79108427833959
 40
23.79108427833959
 40
24.79108427833959
 40
24.79108427833959
 40
24.79108427833959
 40
24.79108427833959
 10
7.237812000000002
 20
16.63269036753449
 30
0.0
 41
1.0
 10
4.979175666666667
 20
16.63269036753449
 30
0.0
 41
1.0
 10
2.720539333333333
 20
16.63269036753449
 30
0.0
 41
1.0
 10
0.4619029999999995
 20
16.63269036753449
 30
0.0
 41
1.0
 10
0.3919431855332485
 20
16.63269036753449
 30
0.0
 41
1.0
 10
0.3123284725419838
 20
16.5828562396956
 30
0.0
 41
1.0
 10
0.2861440000000002
 20
16.51798136753449
 30
0.0
 41
1.0
 10
-0.887844
 20
13.60929870086783
 30
0.0
 41
1.0
 10
-2.061832
 20
10.70061603420116
 30
0.0
 41
1.0
 10
-3.23582
 20
7.791933367534493
 30
0.0
 41
1.0
 10
-3.281944566796386
 20
7.677654748035693
 30
0.0
 41
1.0
 10
-3.302351563786506
 20
7.539059069485433
 30
0.0
 41
1.0
 10
-3.292764999999999
 20
7.416211367534493
 30
0.0
 41
1.0
 10
-3.110402333333333
 20
5.079312034201161
 30
0.0
 41
1.0
 10
-2.928039666666667
 20
2.742412700867828
 30
0.0
 41
1.0
 10
-2.745677000000001
 20
0.4055133675344961
 30
0.0
 41
1.0
 10
-2.742659883954742
 20
0.3668503198634446
 30
0.0
 41
1.0
 10
-2.712523591079101
 20
0.3140753675344924
 30
0.0
 41
1.0
 10
-2.673627
 20
0.3140753675344924
 30
0.0
 41
1.0
 10
-2.6735975
 20
0.3140753675344924
 30
0.0
 41
1.0
 10
-2.673568
 20
0.3140753675344924
 30
0.0
 41
1.0
 10
-2.673538499999999
 20
0.3140753675344924
 30
0.0
 41
1.0
 10
0.2272403333333344
 20
0.3140753675344924
 30
0.0
 41
1.0
 10
3.128019166666668
 20
0.3140753675344924
 30
0.0
 41
1.0
 10
6.028798000000002
 20
0.3140753675344924
 30
0.0
 41
1.0
 10
6.119820729595991
 20
0.3140753675344925
 30
0.0
 41
0.807889783213836
 10
6.184613864719249
 20
0.2501458208130926
 30
0.0
 41
0.807889783213836
 10
6.185835135665422
 20
0.1591312846093607
 30
0.0
 41
1.0
 10
6.187056406611599
 20
0.0681167484056289
 30
0.0
 41
0.807889783213836
 10
6.124001957502017
 20
0.0024716895619384
 30
0.0
 41
0.807889783213836
 10
6.033011999999999
 20
0.0000293675344948
 30
0.0
 41
1.0
 10
3.130309833333333
 20
0.000028367534495
 30
0.0
 41
1.0
 10
0.2276076666666663
 20
0.0000273675344951
 30
0.0
 41
1.0
 10
-2.6750945
 20
0.0000263675344953
 30
0.0
 41
1.0
 10
-2.683155000000001
 20
0.0003060342011617
 30
0.0
 41
1.0
 10
-2.691215500000001
 20
0.000585700867828
 30
0.0
 41
1.0
 10
-2.699276000000001
 20
0.0008653675344944
 30
0.0
 41
1.0
 10
-2.711285
 20
0.0023220342011616
 30
0.0
 41
1.0
 10
-2.723293999999999
 20
0.0037787008678288
 30
0.0
 41
1.0
 10
-2.735302999999998
 20
0.005235367534496
 30
0.0
 41
1.0
 10
-2.747205999999998
 20
0.0079430342011619
 30
0.0
 41
1.0
 10
-2.759108999999999
 20
0.0106507008678277
 30
0.0
 41
1.0
 10
-2.771011999999999
 20
0.0133583675344936
 30
0.0
 41
1.0
 10
-2.782699333333332
 20
0.0173110342011592
 30
0.0
 41
1.0
 10
-2.794386666666666
 20
0.0212637008678247
 30
0.0
 41
1.0
 10
-2.806073999999999
 20
0.0252163675344902
 30
0.0
 41
1.0
 10
-2.817386999999999
 20
0.0303647008678258
 30
0.0
 41
1.0
 10
-2.828699999999999
 20
0.0355130342011614
 30
0.0
 41
1.0
 10
-2.840012999999999
 20
0.040661367534497
 30
0.0
 41
1.0
 10
-2.850829
 20
0.0469393675344964
 30
0.0
 41
1.0
 10
-2.861645000000001
 20
0.0532173675344959
 30
0.0
 41
1.0
 10
-2.872461000000001
 20
0.0594953675344953
 30
0.0
 41
1.0
 10
-2.882691000000001
 20
0.0668563675344936
 30
0.0
 41
1.0
 10
-2.892921000000001
 20
0.0742173675344919
 30
0.0
 41
1.0
 10
-2.903151000000001
 20
0.0815783675344902
 30
0.0
 41
1.0
 10
-2.912689666666668
 20
0.0899547008678259
 30
0.0
 41
1.0
 10
-2.922228333333334
 20
0.0983310342011615
 30
0.0
 41
1.0
 10
-2.931767000000001
 20
0.1067073675344971
 30
0.0
 41
1.0
 10
-2.940541000000001
 20
0.1160223675344956
 30
0.0
 41
1.0
 10
-2.949315000000001
 20
0.1253373675344941
 30
0.0
 41
1.0
 10
-2.958089000000001
 20
0.1346523675344925
 30
0.0
 41
1.0
 10
-2.966015666666667
 20
0.1448223675344924
 30
0.0
 41
1.0
 10
-2.973942333333333
 20
0.1549923675344923
 30
0.0
 41
1.0
 10
-2.981869
 20
0.1651623675344921
 30
0.0
 41
1.0
 10
-2.988861333333332
 20
0.1760847008678254
 30
0.0
 41
1.0
 10
-2.995853666666665
 20
0.1870070342011586
 30
0.0
 41
1.0
 10
-3.002845999999998
 20
0.1979293675344919
 30
0.0
 41
1.0
 10
-3.008864999999999
 20
0.2095357008678248
 30
0.0
 41
1.0
 10
-3.014884
 20
0.2211420342011578
 30
0.0
 41
1.0
 10
-3.020903000000001
 20
0.2327483675344907
 30
0.0
 41
1.0
 10
-3.025875333333334
 20
0.2449177008678257
 30
0.0
 41
1.0
 10
-3.030847666666668
 20
0.2570870342011606
 30
0.0
 41
1.0
 10
-3.035820000000001
 20
0.2692563675344956
 30
0.0
 41
1.0
 10
-3.039659333333334
 20
0.2817910342011605
 30
0.0
 41
1.0
 10
-3.043498666666667
 20
0.2943257008678253
 30
0.0
 41
1.0
 10
-3.047338
 20
0.3068603675344903
 30
0.0
 41
1.0
 10
-3.050820847210495
 20
0.3234786602512025
 30
0.0
 41
1.0
 10
-3.054303694420991
 20
0.3400969529679146
 30
0.0
 41
1.0
 10
-3.057786541631487
 20
0.3567152456846268
 30
0.0
 41
1.0
 10
-3.240781694420992
 20
2.701720452967916
 30
0.0
 41
1.0
 10
-3.423776847210495
 20
5.046725660251204
 30
0.0
 41
1.0
 10
-3.606771999999999
 20
7.391730867534492
 30
0.0
 41
1.0
 10
-3.619789002614679
 20
7.567249052039853
 30
0.0
 41
1.0
 10
-3.593391475663655
 20
7.745811497029744
 30
0.0
 41
1.0
 10
-3.527983499999999
 20
7.909338367534493
 30
0.0
 41
1.0
 10
-2.353986833333332
 20
10.81804236753449
 30
0.0
 41
1.0
 10
-1.179990166666666
 20
13.7267463675345
 30
0.0
 41
1.0
 10
-0.0059934999999989
 20
16.6354503675345
 30
0.0
 41
1.0
 10
0.0727045909926429
 20
16.81773911573536
 30
0.0
 41
1.0
 10
0.2642153322242698
 20
16.94310799921755
 30
0.0
 41
1.0
 10
0.4621090000000017
 20
16.94716136753449
 30
0.0
 41
1.0
  0
SPLINE
  5
42
330
1F
100
AcDbEntity
  8
DEFAULT
100
AcDbSpline
210
0.0
220
0.0
230
1.0
 70
    11
 71
     2
 72
    16
 73
    13
 74
     0
 42
0.0000000001
 43
0.0000000001
 40
0.0
 40
0.0
 40
0.0
 40
2.104842676743489
 40
2.104842676743489
 40
3.104842676743489
 40
3.104842676743489
 40
4.104842676743489
 40
4.104842676743489
 40
5.104842676743489
 40
5.104842676743489
 40
6.104842676743489
 40
6.104842676743489
 40
7.104842676743489
 40
7.104842676743489
 40
7.104842676743489
 10
8.660436
 20
16.94739836753449
 30
0.0
 10
-0.0000109999999864
 20
16.94739923648115
 30
0.0
 10
-8.660457999999974
 20
16.9474001054278
 30
0.0
 10
-8.660457999999988
 20
17.02615623648115
 30
0.0
 10
-8.660458
 20
17.10491236753449
 30
0.0
 10
-8.6454415
 20
17.11991236753449
 30
0.0
 10
-8.630424999999999
 20
17.13491236753449
 30
0.0
 10
0.0000142500000004
 20
17.13490536753449
 30
0.0
 10
8.6304535
 20
17.13489836753449
 30
0.0
 10
8.645470249999999
 20
17.11989836753449
 30
0.0
 10
8.660487
 20
17.10489836753449
 30
0.0
 10
8.6604615
 20
17.02614836753449
 30
0.0
 10
8.660436
 20
16.94739836753449
 30
0.0
  0
SPLINE
  5
43
330
1F
100
AcDbEntity
  8
DEFAULT
100
AcDbSpline
210
0.0
220
0.0
230
1.0
 70
    12
 71
     3
 72
    22
 73
    18
 74
     0
 42
0.0000000001
 43
0.0000000001
 40
-0.1079231668951432
 40
-0.1079231668951432
 40
-0.1079231668951432
 40
-0.1079231668951432
 40
0.0
 40
0.0
 40
0.0
 40
1.0
 40
1.0
 40
1.0
 40
2.0
 40
3.0
 40
4.0
 40
4.0
 40
4.0
 40
5.0
 40
5.0
 40
5.0
 40
5.095509717219044
 40
5.095509717219044
 40
5.095509717219044
 40
5.095509717219044
 10
7.495822945046227
 20
38.96562178929513
 30
0.0
 41
1.0
 10
7.515664040870402
 20
38.99656726016923
 30
0.0
 41
0.9579843190511529
 10
7.523442567326325
 20
39.03249476742062
 30
0.0
 41
0.9579843190511529
 10
7.518178064156519
 20
39.0688757550034
 30
0.0
 41
1.0
 10
7.49947808953571
 20
39.19810419737192
 30
0.0
 41
1.0
 10
7.439300523864683
 20
39.31713905963208
 30
0.0
 41
1.0
 10
7.371068203522427
 20
39.42694600209079
 30
0.0
 41
1.0
 10
6.866766610371746
 20
40.19460632098184
 30
0.0
 41
1.0
 10
5.624921080795413
 20
41.5785927112813
 30
0.0
 41
1.0
 10
3.20709651289629
 20
42.97480412176199
 30
0.0
 41
1.0
 10
1.38750016163689
 20
43.35810382717671
 30
0.0
 41
1.0
 10
0.4705547983643542
 20
43.41104818604688
 30
0.0
 41
1.0
 10
0.3372634012621866
 20
43.41496074912978
 30
0.0
 41
1.0
 10
0.198883029315389
 20
43.40821774784511
 30
0.0
 41
1.0
 10
0.075231533698355
 20
43.35384620623137
 30
0.0
 41
1.0
 10
0.0454362269424796
 20
43.34074473298928
 30
0.0
 41
0.9570074348503819
 10
0.0221910984881863
 20
43.31796156137219
 30
0.0
 41
0.9570074348503819
 10
0.0084942514339226
 20
43.28843521235031
 30
0.0
 41
1.0
  0
SPLINE
  5
44
330
1F
100
AcDbEntity
  8
DEFAULT
100
AcDbSpline
210
0.0
220
0.0
230
1.0
 70
    12
 71
     3
 72
    22
 73
    18
 74
     0
 42
0.0000000001
 43
0.0000000001
 40
-0.1079231668951432
 40
-0.1079231668951432
 40
-0.1079231668951432
 40
-0.1079231668951432
 40
0.0
 40
0.0
 40
0.0
 40
1.0
 40
1.0
 40
1.0
 40
2.0
 40
3.0
 40
4.0
 40
4.0
 40
4.0
 40
5.0
 40
5.0
 40
5.0
 40
5.095509717219044
 40
5.095509717219044
 40
5.095509717219044
 40
5.095509717219044
 10
0.0084879380537719
 20
25.96777406397386
 30
0.0
 41
1.0
 10
0.0253669540507259
 20
25.93511843551415
 30
0.0
 41
0.9579843190511529
 10
0.0525918247971159
 20
25.91041828037362
 30
0.0
 41
0.9579843190511529
 10
0.0867309358434802
 20
25.89678698006558
 30
0.0
 41
1.0
 10
0.2079960371365087
 20
25.84836741195307
 30
0.0
 41
1.0
 10
0.3411720346253089
 20
25.840965281432
 30
0.0
 41
1.0
 10
0.4703837964775731
 20
25.8451527329782
 30
0.0
 41
1.0
 10
1.387347930689828
 20
25.89806056437013
 30
0.0
 41
1.0
 10
3.206838067969247
 20
26.28153714540965
 30
0.0
 41
1.0
 10
5.624904902448792
 20
27.67732893786407
 30
0.0
 41
1.0
 10
6.866650360230733
 20
29.06149574998082
 30
0.0
 41
1.0
 10
7.370974201635647
 20
29.82912154902211
 30
0.0
 41
1.0
 10
7.441008279210426
 20
29.94259900347706
 30
0.0
 41
1.0
 10
7.504358854773554
 20
30.06581142161046
 30
0.0
 41
1.0
 10
7.519097466301647
 20
30.20008252883762
 30
0.0
 41
1.0
 10
7.52264891102493
 20
30.2324367580228
 30
0.0
 41
0.9570074348503819
 10
7.514540669852903
 20
30.263959215587
 30
0.0
 41
0.9570074348503819
 10
7.495818525046078
 20
30.29058420759868
 30
0.0
 41
1.0
  0
SPLINE
  5
45
330
1F
100
AcDbEntity
  8
DEFAULT
100
AcDbSpline
210
0.0
220
0.0
230
1.0
 70
    12
 71
     3
 72
    22
 73
    18
 74
     0
 42
0.0000000001
 43
0.0000000001
 40
-0.1079231668951432
 40
-0.1079231668951432
 40
-0.1079231668951432
 40
-0.1079231668951432
 40
0.0
 40
0.0
 40
0.0
 40
1.0
 40
1.0
 40
1.0
 40
2.0
 40
3.0
 40
4.0
 40
4.0
 40
4.0
 40
5.0
 40
5.0
 40
5.0
 40
5.095509717219044
 40
5.095509717219044
 40
5.095509717219044
 40
5.095509717219044
 10
-7.5043108831
 20
38.95092024933449
 30
0.0
 41
1.0
 10
-7.54103099492113
 20
38.9526304069201
 30
0.0
 41
0.9579843190511529
 10
-7.576034392123443
 20
38.94140305480925
 30
0.0
 41
0.9579843190511529
 10
-7.604909
 20
38.9186533675345
 30
0.0
 41
1.0
 10
-7.70747412667222
 20
38.8378444932785
 30
0.0
 41
1.0
 10
-7.780472558489993
 20
38.7262117615394
 30
0.0
 41
1.0
 10
-7.841452
 20
38.61221736753449
 30
0.0
 41
1.0
 10
-8.254114541061574
 20
37.79164921725151
 30
0.0
 41
1.0
 10
-8.83175914876466
 20
36.02418624591254
 30
0.0
 41
1.0
 10
-8.832001415345081
 20
33.23218304297742
 30
0.0
 41
1.0
 10
-8.25415052186762
 20
31.46471652544594
 30
0.0
 41
1.0
 10
-7.841529
 20
30.64414636753449
 30
0.0
 41
1.0
 10
-7.778271680472611
 20
30.52675634999665
 30
0.0
 41
1.0
 10
-7.703241884088941
 20
30.41028693314792
 30
0.0
 41
1.0
 10
-7.594329
 20
30.3303873675345
 30
0.0
 41
1.0
 10
-7.56808513796741
 20
30.31113461159141
 30
0.0
 41
0.9570074348503819
 10
-7.536731768341089
 20
30.3023953256443
 30
0.0
 41
0.9570074348503819
 10
-7.504312776479999
 20
30.30529668265449
 30
0.0
 41
1.0
  0
SPLINE
  5
46
330
1F
100
AcDbEntity
  8
DEFAULT
100
AcDbSpline
210
0.0
220
0.0
230
1.0
 70
    24
 71
     2
 72
     6
 73
     3
 74
     0
 42
0.0000000001
 43
0.0000000001
 40
0.0
 40
0.0
 40
0.0
 40
1.0
 40
1.0
 40
1.0
 10
7.519324999999998
 20
16.57378536753449
 30
0.0
 10
7.519324999999998
 20
16.57377336753449
 30
0.0
 10
7.519324999999998
 20
16.57376136753449
 30
0.0
  0
CIRCLE
  5
47
330
1F
100
AcDbEntity
  8
DEFAULT
100
AcDbCircle
 10
0.0
 20
34.62810536753449
 30
0.0
 40
8.660472999999996
  0
SPLINE
  5
48
330
1F
100
AcDbEntity
  8
DEFAULT
100
AcDbSpline
210
0.0
220
0.0
230
1.0
 70
     8
 71
     2
 72
    10
 73
     7
 74
     0
 42
0.0000000001
 43
0.0000000001
 40
0.0
 40
0.0
 40
0.0
 40
1.0
 40
1.0
 40
2.0
 40
2.0
 40
3.0
 40
3.0
 40
3.0
 10
-3.354707000000001
 20
0.3141553675344965
 30
0.0
 10
-3.354786500000001
 20
0.3141393675344943
 30
0.0
 10
-3.354866000000001
 20
0.314123367534492
 30
0.0
 10
-3.355028000000001
 20
0.3141013675344943
 30
0.0
 10
-3.35519
 20
0.3140793675344966
 30
0.0
 10
-3.3552195
 20
0.3140773675344945
 30
0.0
 10
-3.355249000000001
 20
0.3140753675344924
 30
0.0
  0
SPLINE
  5
49
330
1F
100
AcDbEntity
  8
DEFAULT
100
AcDbSpline
210
0.0
220
0.0
230
1.0
 70
    24
 71
     2
 72
     6
 73
     3
 74
     0
 42
0.0000000001
 43
0.0000000001
 40
0.0
 40
0.0
 40
0.0
 40
1.0
 40
1.0
 40
1.0
 10
-7.027735999999999
 20
16.82142136753449
 30
0.0
 10
-7.249643
 20
16.82142136753449
 30
0.0
 10
-7.471550000000001
 20
16.82142136753449
 30
0.0
  0
SPLINE
  5
4A
330
1F
100
AcDbEntity
  8
DEFAULT
100
AcDbSpline
210
0.0
220
0.0
230
1.0
 70
    24
 71
     2
 72
     6
 73
     3
 74
     0
 42
0.0000000001
 43
0.0000000001
 40
0.0
 40
0.0
 40
0.0
 40
1.0
 40
1.0
 40
1.0
 10
-7.027735999999999
 20
16.82142136753449
 30
0.0
 10
-7.027735999999999
 20
16.88441336753449
 30
0.0
 10
-7.027735999999999
 20
16.94740536753449
 30
0.0
  0
SPLINE
  5
4B
330
1F
100
AcDbEntity
  8
DEFAULT
100
AcDbSpline
210
0.0
220
0.0
230
1.0
 70
    24
 71
     2
 72
     6
 73
     3
 74
     0
 42
0.0000000001
 43
0.0000000001
 40
0.0
 40
0.0
 40
0.0
 40
1.0
 40
1.0
 40
1.0
 10
7.519324999999998
 20
16.57376136753449
 30
0.0
 10
7.519273499999999
 20
16.57280536753449
 30
0.0
 10
7.519221999999999
 20
16.57184936753449
 30
0.0
  0
ENDSEC
  0
SECTION
  2
OBJECTS
  0
DICTIONARY
  5
C
330
0
100
AcDbDictionary
281
     1
  3
ACAD_GROUP
350
D
  3
ACAD_LAYOUT
350
1A
  3
ACAD_MLEADERSTYLE
350
4E
  3
ACAD_MLINESTYLE
350
17
  3
ACAD_PLOTSETTINGS
350
19
  3
ACAD_PLOTSTYLENAME
350
E
  3
ACAD_VISUALSTYLE
350
2A
  3
AcDbVariableDictionary
350
4C
  0
DICTIONARY
  5
D
102
{ACAD_REACTORS
330
C
102
}
330
C
100
AcDbDictionary
281
     1
  0
DICTIONARY
  5
1A
102
{ACAD_REACTORS
330
C
102
}
330
C
100
AcDbDictionary
281
     1
  3
Layout1
350
1E
  3
Layout2
350
26
  3
Model
350
22
  0
DICTIONARY
  5
4E
102
{ACAD_REACTORS
330
C
102
}
330
C
100
AcDbDictionary
281
     1
  0
DICTIONARY
  5
17
102
{ACAD_REACTORS
330
C
102
}
330
C
100
AcDbDictionary
281
     1
  3
Standard
350
18
  0
DICTIONARY
  5
19
102
{ACAD_REACTORS
330
C
102
}
330
C
100
AcDbDictionary
281
     1
  0
ACDBDICTIONARYWDFLT
  5
E
102
{ACAD_REACTORS
330
C
102
}
330
C
100
AcDbDictionary
281
     1
  3
Normal
350
F
100
AcDbDictionaryWithDefault
340
F
  0
DICTIONARY
  5
2A
102
{ACAD_REACTORS
330
C
102
}
330
C
100
AcDbDictionary
281
     1
  3
2dWireframe
350
2F
  3
3D Hidden
350
31
  3
3dWireframe
350
30
  3
Basic
350
32
  3
Brighten
350
36
  3
ColorChange
350
3A
  3
Conceptual
350
34
  3
Dim
350
35
  3
Facepattern
350
39
  3
Flat
350
2B
  3
FlatWithEdges
350
2C
  3
Gouraud
350
2D
  3
GouraudWithEdges
350
2E
  3
Linepattern
350
38
  3
Realistic
350
33
  3
Thicken
350
37
  0
DICTIONARY
  5
4C
102
{ACAD_REACTORS
330
C
102
}
330
C
100
AcDbDictionary
281
     1
  0
LAYOUT
  5
1E
102
{ACAD_REACTORS
330
1A
102
}
330
1A
100
AcDbPlotSettings
  1

  2
none_device
  4

  6

 40
0.0
 41
0.0
 42
0.0
 43
0.0
 44
0.0
 45
0.0
 46
0.0
 47
0.0
 48
0.0
 49
0.0
140
0.0
141
0.0
142
1.0
143
1.0
 70
   688
 72
     0
 73
     0
 74
     5
  7

 75
    16
147
1.0
148
0.0
149
0.0
100
AcDbLayout
  1
Layout1
 70
     1
 71
     1
 10
0.0
 20
0.0
 11
12.0
 21
9.0
 12
0.0
 22
0.0
 32
0.0
 14
1.000000000000000E+20
 24
1.000000000000000E+20
 34
1.000000000000000E+20
 15
-1.000000000000000E+20
 25
-1.000000000000000E+20
 35
-1.000000000000000E+20
146
0.0
 13
0.0
 23
0.0
 33
0.0
 16
1.0
 26
0.0
 36
0.0
 17
0.0
 27
1.0
 37
0.0
 76
     0
330
1B
  0
LAYOUT
  5
26
102
{ACAD_REACTORS
330
1A
102
}
330
1A
100
AcDbPlotSettings
  1

  2
none_device
  4

  6

 40
0.0
 41
0.0
 42
0.0
 43
0.0
 44
0.0
 45
0.0
 46
0.0
 47
0.0
 48
0.0
 49
0.0
140
0.0
141
0.0
142
1.0
143
1.0
 70
   688
 72
     0
 73
     0
 74
     5
  7

 75
    16
147
1.0
148
0.0
149
0.0
100
AcDbLayout
  1
Layout2
 70
     1
 71
     2
 10
0.0
 20
0.0
 11
0.0
 21
0.0
 12
0.0
 22
0.0
 32
0.0
 14
0.0
 24
0.0
 34
0.0
 15
0.0
 25
0.0
 35
0.0
146
0.0
 13
0.0
 23
0.0
 33
0.0
 16
1.0
 26
0.0
 36
0.0
 17
0.0
 27
1.0
 37
0.0
 76
     0
330
23
  0
LAYOUT
  5
22
102
{ACAD_REACTORS
330
1A
102
}
330
1A
100
AcDbPlotSettings
  1

  2
none_device
  4

  6

 40
0.0
 41
0.0
 42
0.0
 43
0.0
 44
0.0
 45
0.0
 46
0.0
 47
0.0
 48
0.0
 49
0.0
140
0.0
141
0.0
142
1.0
143
1.0
 70
  1712
 72
     0
 73
     0
 74
     0
  7

 75
     0
147
1.0
148
0.0
149
0.0
100
AcDbLayout
  1
Model
 70
     1
 71
     0
 10
0.0
 20
0.0
 11
12.0
 21
9.0
 12
0.0
 22
0.0
 32
0.0
 14
-8.795771047642978
 24
0.0000263675344953
 34
0.0
 15
8.660487
 25
43.41104818604688
 35
0.0
146
0.0
 13
0.0
 23
0.0
 33
0.0
 16
1.0
 26
0.0
 36
0.0
 17
0.0
 27
1.0
 37
0.0
 76
     0
330
1F
331
29
  0
MLINESTYLE
  5
18
102
{ACAD_REACTORS
330
17
102
}
330
17
100
AcDbMlineStyle
  2
Standard
 70
     0
  3

 62
   256
 51
90.0
 52
90.0
 71
     2
 49
0.5
 62
   256
  6
BYLAYER
 49
-0.5
 62
   256
  6
BYLAYER
  0
ACDBPLACEHOLDER
  5
F
102
{ACAD_REACTORS
330
E
102
}
330
E
  0
VISUALSTYLE
  5
2F
102
{ACAD_REACTORS
330
2A
102
}
330
2A
100
AcDbVisualStyle
  2
2dWireframe
 70
     4
 71
     0
 72
     2
 73
     0
 90
        0
 40
-0.6
 41
-30.0
 62
     5
 63
     7
 74
     1
 91
        4
 64
     7
 65
   257
 75
     1
175
     1
 42
1.0
 92
        0
 66
   257
 43
1.0
 76
     1
 77
     6
 78
     2
 67
     7
 79
     5
170
     0
171
     0
290
     0
174
     0
 93
        1
 44
0.0
173
     0
291
     0
 45
0.0
1001
ACAD
1000
AcDbSavedByObjectVersion
1070
     0
  0
VISUALSTYLE
  5
31
102
{ACAD_REACTORS
330
2A
102
}
330
2A
100
AcDbVisualStyle
  2
3D Hidden
 70
     6
 71
     1
 72
     2
 73
     2
 90
        0
 40
-0.6
 41
-30.0
 62
     5
 63
     7
 74
     2
 91
        2
 64
     7
 65
   257
 75
     2
175
     1
 42
40.0
 92
        0
 66
   257
 43
1.0
 76
     1
 77
     6
 78
     2
 67
     7
 79
     3
170
     0
171
     0
290
     0
174
     0
 93
        1
 44
0.0
173
     0
291
     0
 45
0.0
1001
ACAD
1000
AcDbSavedByObjectVersion
1070
     0
  0
VISUALSTYLE
  5
30
102
{ACAD_REACTORS
330
2A
102
}
330
2A
100
AcDbVisualStyle
  2
3dWireframe
 70
     5
 71
     0
 72
     2
 73
     0
 90
        0
 40
-0.6
 41
-30.0
 62
     5
 63
     7
 74
     1
 91
        4
 64
     7
 65
   257
 75
     1
175
     1
 42
1.0
 92
        0
 66
   257
 43
1.0
 76
     1
 77
     6
 78
     2
 67
     7
 79
     5
170
     0
171
     0
290
     0
174
     0
 93
        1
 44
0.0
173
     0
291
     0
 45
0.0
1001
ACAD
1000
AcDbSavedByObjectVersion
1070
     0
  0
VISUALSTYLE
  5
32
102
{ACAD_REACTORS
330
2A
102
}
330
2A
100
AcDbVisualStyle
  2
Basic
 70
     7
 71
     1
 72
     0
 73
     1
 90
        0
 40
-0.6
 41
-30.0
 62
     5
 63
     7
 74
     0
 91
        4
 64
     7
 65
   257
 75
     1
175
     1
 42
1.0
 92
        8
 66
     7
 43
1.0
 76
     1
 77
     6
 78
     2
 67
     7
 79
     5
170
     0
171
     0
290
     0
174
     0
 93
        1
 44
0.0
173
     0
291
     1
 45
0.0
1001
ACAD
1000
AcDbSavedByObjectVersion
1070
     0
  0
VISUALSTYLE
  5
36
102
{ACAD_REACTORS
330
2A
102
}
330
2A
100
AcDbVisualStyle
  2
Brighten
 70
    12
 71
     2
 72
     2
 73
     0
 90
        0
 40
-0.6
 41
-30.0
 62
     5
 63
     7
 74
     1
 91
        4
 64
     7
 65
   257
 75
     1
175
     1
 42
1.0
 92
        8
 66
     7
 43
1.0
 76
     1
 77
     6
 78
     2
 67
     7
 79
     5
170
     0
171
     0
290
     0
174
     0
 93
        1
 44
50.0
173
     0
291
     1
 45
0.0
1001
ACAD
1000
AcDbSavedByObjectVersion
1070
     0
  0
VISUALSTYLE
  5
3A
102
{ACAD_REACTORS
330
2A
102
}
330
2A
100
AcDbVisualStyle
  2
ColorChange
 70
    16
 71
     2
 72
     2
 73
     3
 90
        0
 40
-0.6
 41
-30.0
 62
     5
 63
     8
 74
     1
 91
        4
 64
     7
 65
   257
 75
     1
175
     1
 42
1.0
 92
        8
 66
     8
 43
1.0
 76
     1
 77
     6
 78
     2
 67
     7
 79
     5
170
     0
171
     0
290
     0
174
     0
 93
        1
 44
0.0
173
     0
291
     1
 45
0.0
1001
ACAD
1000
AcDbSavedByObjectVersion
1070
     0
  0
VISUALSTYLE
  5
34
102
{ACAD_REACTORS
330
2A
102
}
330
2A
100
AcDbVisualStyle
  2
Conceptual
 70
     9
 71
     3
 72
     2
 73
     0
 90
        0
 40
-0.6
 41
-30.0
 62
     5
 63
     7
 74
     2
 91
        2
 64
     7
 65
   257
 75
     1
175
     1
 42
40.0
 92
        8
 66
     7
 43
1.0
 76
     1
 77
     6
 78
     2
 67
     7
 79
     3
170
     0
171
     0
290
     0
174
     0
 93
        1
 44
0.0
173
     0
291
     0
 45
0.0
1001
ACAD
1000
AcDbSavedByObjectVersion
1070
     0
  0
VISUALSTYLE
  5
35
102
{ACAD_REACTORS
330
2A
102
}
330
2A
100
AcDbVisualStyle
  2
Dim
 70
    11
 71
     2
 72
     2
 73
     0
 90
        0
 40
-0.6
 41
-30.0
 62
     5
 63
     7
 74
     1
 91
        4
 64
     7
 65
   257
 75
     1
175
     1
 42
1.0
 92
        8
 66
     7
 43
1.0
 76
     1
 77
     6
 78
     2
 67
     7
 79
     5
170
     0
171
     0
290
     0
174
     0
 93
        1
 44
-50.0
173
     0
291
     1
 45
0.0
1001
ACAD
1000
AcDbSavedByObjectVersion
1070
     0
  0
VISUALSTYLE
  5
39
102
{ACAD_REACTORS
330
2A
102
}
330
2A
100
AcDbVisualStyle
  2
Facepattern
 70
    15
 71
     2
 72
     2
 73
     0
 90
        0
 40
-0.6
 41
-30.0
 62
     5
 63
     7
 74
     1
 91
        4
 64
     7
 65
   257
 75
     1
175
     1
 42
1.0
 92
        8
 66
     7
 43
1.0
 76
     1
 77
     6
 78
     2
 67
     7
 79
     5
170
     0
171
     0
290
     0
174
     0
 93
        1
 44
0.0
173
     0
291
     1
 45
0.0
1001
ACAD
1000
AcDbSavedByObjectVersion
1070
     0
  0
VISUALSTYLE
  5
2B
102
{ACAD_REACTORS
330
2A
102
}
330
2A
100
AcDbVisualStyle
  2
Flat
 70
     0
 71
     2
 72
     1
 73
     1
 90
        2
 40
-0.6
 41
30.0
 62
     5
 63
     7
 74
     0
 91
        4
 64
     7
 65
   257
 75
     1
175
     1
 42
1.0
 92
        8
 66
     7
 43
1.0
 76
     1
 77
     6
 78
     2
 67
     7
 79
     5
170
     0
171
     0
290
     0
174
     0
 93
       13
 44
0.0
173
     0
291
     1
 45
0.0
1001
ACAD
1000
AcDbSavedByObjectVersion
1070
     0
  0
VISUALSTYLE
  5
2C
102
{ACAD_REACTORS
330
2A
102
}
330
2A
100
AcDbVisualStyle
  2
FlatWithEdges
 70
     1
 71
     2
 72
     1
 73
     1
 90
        2
 40
-0.6
 41
30.0
 62
     5
 63
     7
 74
     1
 91
        4
 64
     7
 65
   257
 75
     1
175
     1
 42
1.0
 92
        0
 66
   257
 43
1.0
 76
     1
 77
     6
 78
     2
 67
     7
 79
     5
170
     0
171
     0
290
     0
174
     0
 93
       13
 44
0.0
173
     0
291
     1
 45
0.0
1001
ACAD
1000
AcDbSavedByObjectVersion
1070
     0
  0
VISUALSTYLE
  5
2D
102
{ACAD_REACTORS
330
2A
102
}
330
2A
100
AcDbVisualStyle
  2
Gouraud
 70
     2
 71
     2
 72
     2
 73
     1
 90
        2
 40
-0.6
 41
30.0
 62
     5
 63
     7
 74
     0
 91
        4
 64
     7
 65
   257
 75
     1
175
     1
 42
1.0
 92
        0
 66
     7
 43
1.0
 76
     1
 77
     6
 78
     2
 67
     7
 79
     5
170
     0
171
     0
290
     0
174
     0
 93
       13
 44
0.0
173
     0
291
     1
 45
0.0
1001
ACAD
1000
AcDbSavedByObjectVersion
1070
     0
  0
VISUALSTYLE
  5
2E
102
{ACAD_REACTORS
330
2A
102
}
330
2A
100
AcDbVisualStyle
  2
GouraudWithEdges
 70
     3
 71
     2
 72
     2
 73
     1
 90
        2
 40
-0.6
 41
30.0
 62
     5
 63
     7
 74
     1
 91
        4
 64
     7
 65
   257
 75
     1
175
     1
 42
1.0
 92
        0
 66
   257
 43
1.0
 76
     1
 77
     6
 78
     2
 67
     7
 79
     5
170
     0
171
     0
290
     0
174
     0
 93
       13
 44
0.0
173
     0
291
     1
 45
0.0
1001
ACAD
1000
AcDbSavedByObjectVersion
1070
     0
  0
VISUALSTYLE
  5
38
102
{ACAD_REACTORS
330
2A
102
}
330
2A
100
AcDbVisualStyle
  2
Linepattern
 70
    14
 71
     2
 72
     2
 73
     0
 90
        0
 40
-0.6
 41
-30.0
 62
     5
 63
     7
 74
     1
 91
        4
 64
     7
 65
   257
 75
     7
175
     7
 42
1.0
 92
        8
 66
     7
 43
1.0
 76
     1
 77
     6
 78
     2
 67
     7
 79
     5
170
     0
171
     0
290
     0
174
     0
 93
        1
 44
0.0
173
     0
291
     1
 45
0.0
1001
ACAD
1000
AcDbSavedByObjectVersion
1070
     0
  0
VISUALSTYLE
  5
33
102
{ACAD_REACTORS
330
2A
102
}
330
2A
100
AcDbVisualStyle
  2
Realistic
 70
     8
 71
     2
 72
     2
 73
     0
 90
        0
 40
-0.6
 41
-30.0
 62
     5
 63
     7
 74
     1
 91
        0
 64
     7
 65
   257
 75
     1
175
     1
 42
1.0
 92
        8
 66
     8
 43
1.0
 76
     1
 77
     6
 78
     2
 67
     7
 79
     5
170
     0
171
     0
290
     0
174
     0
 93
       13
 44
0.0
173
     0
291
     0
 45
0.0
1001
ACAD
1000
AcDbSavedByObjectVersion
1070
     0
  0
VISUALSTYLE
  5
37
102
{ACAD_REACTORS
330
2A
102
}
330
2A
100
AcDbVisualStyle
  2
Thicken
 70
    13
 71
     2
 72
     2
 73
     0
 90
        0
 40
-0.6
 41
-30.0
 62
     5
 63
     7
 74
     1
 91
        4
 64
     7
 65
   257
 75
     1
175
     1
 42
1.0
 92
       12
 66
     7
 43
1.0
 76
     1
 77
     6
 78
     2
 67
     7
 79
     5
170
     0
171
     0
290
     0
174
     0
 93
        1
 44
0.0
173
     0
291
     1
 45
0.0
1001
ACAD
1000
AcDbSavedByObjectVersion
1070
     0
  0
ENDSEC
  0
EOF
