  0
SECTION
  2
HEADER
  9
$ACADVER
  1
AC1015
  9
$ACADMAINTVER
 70
     6
  9
$DWGCODEPAGE
  3
ANSI_1252
  9
$INSBASE
 10
0.0
 20
0.0
 30
0.0
  9
$EXTMIN
 10
-18.63745943471178
 20
-0.0000589960331819
 30
0.0
  9
$EXTMAX
 10
18.5029885
 20
62.17564386721323
 30
0.0
  9
$LIMMIN
 10
0.0
 20
0.0
  9
$LIMMAX
 10
12.0
 20
9.0
  9
$ORTHOMODE
 70
     0
  9
$REGENMODE
 70
     1
  9
$FILLMODE
 70
     1
  9
$QTEXTMODE
 70
     0
  9
$MIRRTEXT
 70
     1
  9
$LTSCALE
 40
0.0393700787401575
  9
$ATTMODE
 70
     1
  9
$TEXTSIZE
 40
0.2
  9
$TRACEWID
 40
0.05
  9
$TEXTSTYLE
  7
Standard
  9
$CLAYER
  8
DEFAULT
  9
$CELTYPE
  6
ByLayer
  9
$CECOLOR
 62
   256
  9
$CELTSCALE
 40
1.0
  9
$DISPSILH
 70
     0
  9
$DIMSCALE
 40
1.0
  9
$DIMASZ
 40
0.18
  9
$DIMEXO
 40
0.0625
  9
$DIMDLI
 40
0.38
  9
$DIMRND
 40
0.0
  9
$DIMDLE
 40
0.0
  9
$DIMEXE
 40
0.18
  9
$DIMTP
 40
0.0
  9
$DIMTM
 40
0.0
  9
$DIMTXT
 40
0.18
  9
$DIMCEN
 40
0.09
  9
$DIMTSZ
 40
0.0
  9
$DIMTOL
 70
     0
  9
$DIMLIM
 70
     0
  9
$DIMTIH
 70
     1
  9
$DIMTOH
 70
     1
  9
$DIMSE1
 70
     0
  9
$DIMSE2
 70
     0
  9
$DIMTAD
 70
     0
  9
$DIMZIN
 70
     0
  9
$DIMBLK
  1

  9
$DIMASO
 70
     1
  9
$DIMSHO
 70
     1
  9
$DIMPOST
  1

  9
$DIMAPOST
  1

  9
$DIMALT
 70
     0
  9
$DIMALTD
 70
     2
  9
$DIMALTF
 40
25.4
  9
$DIMLFAC
 40
1.0
  9
$DIMTOFL
 70
     0
  9
$DIMTVP
 40
0.0
  9
$DIMTIX
 70
     0
  9
$DIMSOXD
 70
     0
  9
$DIMSAH
 70
     0
  9
$DIMBLK1
  1

  9
$DIMBLK2
  1

  9
$DIMSTYLE
  2
Standard
  9
$DIMCLRD
 70
     0
  9
$DIMCLRE
 70
     0
  9
$DIMCLRT
 70
     0
  9
$DIMTFAC
 40
1.0
  9
$DIMGAP
 40
0.09
  9
$DIMJUST
 70
     0
  9
$DIMSD1
 70
     0
  9
$DIMSD2
 70
     0
  9
$DIMTOLJ
 70
     1
  9
$DIMTZIN
 70
     0
  9
$DIMALTZ
 70
     0
  9
$DIMALTTZ
 70
     0
  9
$DIMUPT
 70
     0
  9
$DIMDEC
 70
     4
  9
$DIMTDEC
 70
     4
  9
$DIMALTU
 70
     2
  9
$DIMALTTD
 70
     2
  9
$DIMTXSTY
  7
Standard
  9
$DIMAUNIT
 70
     0
  9
$DIMADEC
 70
     0
  9
$DIMALTRND
 40
0.0
  9
$DIMAZIN
 70
     0
  9
$DIMDSEP
 70
    46
  9
$DIMATFIT
 70
     3
  9
$DIMFRAC
 70
     0
  9
$DIMLDRBLK
  1

  9
$DIMLUNIT
 70
     2
  9
$DIMLWD
 70
    -2
  9
$DIMLWE
 70
    -2
  9
$DIMTMOVE
 70
     2
  9
$LUNITS
 70
     2
  9
$LUPREC
 70
     3
  9
$SKETCHINC
 40
0.1
  9
$FILLETRAD
 40
0.5
  9
$AUNITS
 70
     0
  9
$AUPREC
 70
     0
  9
$MENU
  1
.
  9
$ELEVATION
 40
0.0
  9
$PELEVATION
 40
0.0
  9
$THICKNESS
 40
0.0
  9
$LIMCHECK
 70
     0
  9
$CHAMFERA
 40
0.5
  9
$CHAMFERB
 40
0.5
  9
$CHAMFERC
 40
1.0
  9
$CHAMFERD
 40
0.0
  9
$SKPOLY
 70
     0
  9
$TDCREATE
 40
2455348.403489792
  9
$TDUCREATE
 40
2455348.570156458
  9
$TDUPDATE
 40
2455348.403489803
  9
$TDUUPDATE
 40
2455348.57015647
  9
$TDINDWG
 40
0.0000000116
  9
$TDUSRTIMER
 40
0.0000000116
  9
$USRTIMER
 70
     1
  9
$ANGBASE
 50
0.0
  9
$ANGDIR
 70
     0
  9
$PDMODE
 70
     0
  9
$PDSIZE
 40
0.0
  9
$PLINEWID
 40
0.0
  9
$SPLFRAME
 70
     0
  9
$SPLINETYPE
 70
     6
  9
$SPLINESEGS
 70
     8
  9
$HANDSEED
  5
4E
  9
$SURFTAB1
 70
     6
  9
$SURFTAB2
 70
     6
  9
$SURFTYPE
 70
     6
  9
$SURFU
 70
     6
  9
$SURFV
 70
     6
  9
$UCSBASE
  2

  9
$UCSNAME
  2

  9
$UCSORG
 10
0.0
 20
0.0
 30
0.0
  9
$UCSXDIR
 10
1.0
 20
0.0
 30
0.0
  9
$UCSYDIR
 10
0.0
 20
1.0
 30
0.0
  9
$UCSORTHOREF
  2

  9
$UCSORTHOVIEW
 70
     0
  9
$UCSORGTOP
 10
0.0
 20
0.0
 30
0.0
  9
$UCSORGBOTTOM
 10
0.0
 20
0.0
 30
0.0
  9
$UCSORGLEFT
 10
0.0
 20
0.0
 30
0.0
  9
$UCSORGRIGHT
 10
0.0
 20
0.0
 30
0.0
  9
$UCSORGFRONT
 10
0.0
 20
0.0
 30
0.0
  9
$UCSORGBACK
 10
0.0
 20
0.0
 30
0.0
  9
$PUCSBASE
  2

  9
$PUCSNAME
  2

  9
$PUCSORG
 10
0.0
 20
0.0
 30
0.0
  9
$PUCSXDIR
 10
1.0
 20
0.0
 30
0.0
  9
$PUCSYDIR
 10
0.0
 20
1.0
 30
0.0
  9
$PUCSORTHOREF
  2

  9
$PUCSORTHOVIEW
 70
     0
  9
$PUCSORGTOP
 10
0.0
 20
0.0
 30
0.0
  9
$PUCSORGBOTTOM
 10
0.0
 20
0.0
 30
0.0
  9
$PUCSORGLEFT
 10
0.0
 20
0.0
 30
0.0
  9
$PUCSORGRIGHT
 10
0.0
 20
0.0
 30
0.0
  9
$PUCSORGFRONT
 10
0.0
 20
0.0
 30
0.0
  9
$PUCSORGBACK
 10
0.0
 20
0.0
 30
0.0
  9
$USERI1
 70
     0
  9
$USERI2
 70
     0
  9
$USERI3
 70
     0
  9
$USERI4
 70
     0
  9
$USERI5
 70
     0
  9
$USERR1
 40
0.0
  9
$USERR2
 40
0.0
  9
$USERR3
 40
0.0
  9
$USERR4
 40
0.0
  9
$USERR5
 40
0.0
  9
$WORLDVIEW
 70
     1
  9
$SHADEDGE
 70
     3
  9
$SHADEDIF
 70
    70
  9
$TILEMODE
 70
     1
  9
$MAXACTVP
 70
    64
  9
$PINSBASE
 10
0.0
 20
0.0
 30
0.0
  9
$PLIMCHECK
 70
     0
  9
$PEXTMIN
 10
1.000000000000000E+20
 20
1.000000000000000E+20
 30
1.000000000000000E+20
  9
$PEXTMAX
 10
-1.000000000000000E+20
 20
-1.000000000000000E+20
 30
-1.000000000000000E+20
  9
$PLIMMIN
 10
0.0
 20
0.0
  9
$PLIMMAX
 10
12.0
 20
9.0
  9
$UNITMODE
 70
     0
  9
$VISRETAIN
 70
     1
  9
$PLINEGEN
 70
     0
  9
$PSLTSCALE
 70
     1
  9
$TREEDEPTH
 70
  3020
  9
$CMLSTYLE
  2
Standard
  9
$CMLJUST
 70
     0
  9
$CMLSCALE
 40
1.0
  9
$PROXYGRAPHICS
 70
     1
  9
$MEASUREMENT
 70
     0
  9
$CELWEIGHT
370
    -1
  9
$ENDCAPS
280
     0
  9
$JOINSTYLE
280
     0
  9
$LWDISPLAY
290
     0
  9
$INSUNITS
 70
     1
  9
$HYPERLINKBASE
  1

  9
$STYLESHEET
  1

  9
$XEDIT
290
     1
  9
$CEPSNTYPE
380
     0
  9
$PSTYLEMODE
290
     1
  9
$FINGERPRINTGUID
  2
{B3908B35-2845-452C-ACDA-6A76319A29FA}
  9
$VERSIONGUID
  2
{FAEB1C32-E019-11D5-929B-00C0DF256EC4}
  9
$EXTNAMES
290
     1
  9
$PSVPSCALE
 40
0.0
  9
$OLESTARTUP
290
     0
  0
ENDSEC
  0
SECTION
  2
CLASSES
  0
CLASS
  1
ACDBDICTIONARYWDFLT
  2
AcDbDictionaryWithDefault
  3
ObjectDBX Classes
 90
        0
280
     0
281
     0
  0
CLASS
  1
VISUALSTYLE
  2
AcDbVisualStyle
  3
ObjectDBX Classes
 90
     4095
280
     0
281
     0
  0
CLASS
  1
ACDBPLACEHOLDER
  2
AcDbPlaceHolder
  3
ObjectDBX Classes
 90
        0
280
     0
281
     0
  0
CLASS
  1
LAYOUT
  2
AcDbLayout
  3
ObjectDBX Classes
 90
        0
280
     0
281
     0
  0
ENDSEC
  0
SECTION
  2
TABLES
  0
TABLE
  2
VPORT
  5
8
330
0
100
AcDbSymbolTable
 70
     1
  0
VPORT
  5
29
330
8
100
AcDbSymbolTableRecord
100
AcDbViewportTableRecord
  2
*Active
 70
     0
 10
0.0
 20
0.0
 11
1.0
 21
1.0
 12
-0.0672354673558928
 22
31.08779243559002
 13
0.0
 23
0.0
 14
0.5
 24
0.5
 15
0.5
 25
0.5
 16
0.0
 26
0.0
 36
1.0
 17
0.0
 27
0.0
 37
0.0
 40
63.41921692051135
 41
0.5973466518971418
 42
50.0
 43
0.0
 44
0.0
 50
0.0
 51
0.0
 71
     0
 72
   100
 73
     1
 74
     3
 75
     0
 76
     0
 77
     0
 78
     0
281
     0
 65
     1
110
0.0
120
0.0
130
0.0
111
1.0
121
0.0
131
0.0
112
0.0
122
1.0
132
0.0
 79
     0
146
0.0
  0
ENDTAB
  0
TABLE
  2
LTYPE
  5
5
330
0
100
AcDbSymbolTable
 70
     1
  0
LTYPE
  5
14
330
5
100
AcDbSymbolTableRecord
100
AcDbLinetypeTableRecord
  2
ByBlock
 70
     0
  3

 72
    65
 73
     0
 40
0.0
  0
LTYPE
  5
15
330
5
100
AcDbSymbolTableRecord
100
AcDbLinetypeTableRecord
  2
ByLayer
 70
     0
  3

 72
    65
 73
     0
 40
0.0
  0
LTYPE
  5
16
330
5
100
AcDbSymbolTableRecord
100
AcDbLinetypeTableRecord
  2
Continuous
 70
     0
  3
Solid line
 72
    65
 73
     0
 40
0.0
  0
ENDTAB
  0
TABLE
  2
LAYER
  5
2
330
0
100
AcDbSymbolTable
 70
     2
  0
LAYER
  5
10
330
2
100
AcDbSymbolTableRecord
100
AcDbLayerTableRecord
  2
0
 70
     0
 62
     7
  6
Continuous
370
    -3
390
F
  0
LAYER
  5
3B
330
2
100
AcDbSymbolTableRecord
100
AcDbLayerTableRecord
  2
DEFAULT
 70
     0
 62
     7
  6
Continuous
370
    -3
390
F
  0
ENDTAB
  0
TABLE
  2
STYLE
  5
3
330
0
100
AcDbSymbolTable
 70
     1
  0
STYLE
  5
11
330
3
100
AcDbSymbolTableRecord
100
AcDbTextStyleTableRecord
  2
Standard
 70
     0
 40
0.0
 41
1.0
 50
0.0
 71
     0
 42
0.2
  3
txt
  4

  0
ENDTAB
  0
TABLE
  2
VIEW
  5
6
330
0
100
AcDbSymbolTable
 70
     0
  0
ENDTAB
  0
TABLE
  2
UCS
  5
7
330
0
100
AcDbSymbolTable
 70
     0
  0
ENDTAB
  0
TABLE
  2
APPID
  5
9
330
0
100
AcDbSymbolTable
 70
     1
  0
APPID
  5
12
330
9
100
AcDbSymbolTableRecord
100
AcDbRegAppTableRecord
  2
ACAD
 70
     0
  0
ENDTAB
  0
TABLE
  2
DIMSTYLE
  5
A
330
0
100
AcDbSymbolTable
 70
     1
100
AcDbDimStyleTable
  0
DIMSTYLE
105
27
330
A
100
AcDbSymbolTableRecord
100
AcDbDimStyleTableRecord
  2
Standard
 70
     0
340
11
  0
ENDTAB
  0
TABLE
  2
BLOCK_RECORD
  5
1
330
0
100
AcDbSymbolTable
 70
     1
  0
BLOCK_RECORD
  5
1F
330
1
100
AcDbSymbolTableRecord
100
AcDbBlockTableRecord
  2
*Model_Space
340
22
  0
BLOCK_RECORD
  5
1B
330
1
100
AcDbSymbolTableRecord
100
AcDbBlockTableRecord
  2
*Paper_Space
340
1E
  0
BLOCK_RECORD
  5
23
330
1
100
AcDbSymbolTableRecord
100
AcDbBlockTableRecord
  2
*Paper_Space0
340
26
  0
ENDTAB
  0
ENDSEC
  0
SECTION
  2
BLOCKS
  0
BLOCK
  5
20
330
1F
100
AcDbEntity
  8
0
100
AcDbBlockBegin
  2
*Model_Space
 70
     0
 10
0.0
 20
0.0
 30
0.0
  3
*Model_Space
  1

  0
ENDBLK
  5
21
330
1F
100
AcDbEntity
  8
0
100
AcDbBlockEnd
  0
BLOCK
  5
1C
330
1B
100
AcDbEntity
 67
     1
  8
0
100
AcDbBlockBegin
  2
*Paper_Space
 70
     0
 10
0.0
 20
0.0
 30
0.0
  3
*Paper_Space
  1

  0
ENDBLK
  5
1D
330
1B
100
AcDbEntity
 67
     1
  8
0
100
AcDbBlockEnd
  0
BLOCK
  5
24
330
23
100
AcDbEntity
  8
0
100
AcDbBlockBegin
  2
*Paper_Space0
 70
     0
 10
0.0
 20
0.0
 30
0.0
  3
*Paper_Space0
  1

  0
ENDBLK
  5
25
330
23
100
AcDbEntity
  8
0
100
AcDbBlockEnd
  0
ENDSEC
  0
SECTION
  2
ENTITIES
  0
SPLINE
  5
3C
330
1F
100
AcDbEntity
  8
DEFAULT
100
AcDbSpline
210
0.0
220
0.0
230
1.0
 70
     8
 71
     3
 72
    26
 73
    22
 74
     0
 42
0.0000000001
 43
0.0000000001
 40
0.0
 40
0.0
 40
0.0
 40
0.0
 40
1.0
 40
2.0
 40
3.0
 40
4.0
 40
5.0
 40
5.0
 40
5.0
 40
6.0
 40
7.0
 40
8.0
 40
9.0
 40
10.0
 40
10.0
 40
10.0
 40
11.0
 40
12.0
 40
13.0
 40
14.0
 40
15.0
 40
15.0
 40
15.0
 40
15.0
 10
15.02509953243038
 20
54.46621204808584
 30
0.0
 10
15.02234165384645
 20
54.50109433004137
 30
0.0
 10
15.01402106086644
 20
54.57074437522752
 30
0.0
 10
14.9859003818019
 20
54.67215413067481
 30
0.0
 10
14.94752135305756
 20
54.76993770609212
 30
0.0
 10
14.89953344816686
 20
54.86357207740564
 30
0.0
 10
14.85988323467313
 20
54.92142529879836
 30
0.0
 10
14.83897391039063
 20
54.94948961271263
 30
0.0
 10
14.24149075263258
 20
55.73561944046993
 30
0.0
 10
12.92139552969961
 20
57.21277506801289
 30
0.0
 10
10.61547124493753
 20
59.08711662894735
 30
0.0
 10
8.041998759515808
 20
60.57292598677964
 30
0.0
 10
5.265817736277416
 20
61.63276732905533
 30
0.0
 10
3.326519243773514
 20
62.03744155485474
 30
0.0
 10
2.346973157592875
 20
62.16181994112824
 30
0.0
 10
2.312272323109648
 20
62.16631945455897
 30
0.0
 10
2.242354382174343
 20
62.17059711193737
 30
0.0
 10
2.137347228749274
 20
62.16641378056462
 30
0.0
 10
2.033510507680146
 20
62.15048095702811
 30
0.0
 10
1.931816947313785
 20
62.12397811913047
 30
0.0
 10
1.867205297178108
 20
62.09677125597409
 30
0.0
 10
1.835775084698671
 20
62.08148198710418
 30
0.0
  0
SPLINE
  5
3D
330
1F
100
AcDbEntity
  8
DEFAULT
100
AcDbSpline
210
0.0
220
0.0
230
1.0
 70
     8
 71
     3
 72
    26
 73
    22
 74
     0
 42
0.0000000001
 43
0.0000000001
 40
0.0
 40
0.0
 40
0.0
 40
0.0
 40
1.0
 40
2.0
 40
3.0
 40
4.0
 40
5.0
 40
5.0
 40
5.0
 40
6.0
 40
7.0
 40
8.0
 40
9.0
 40
10.0
 40
10.0
 40
10.0
 40
11.0
 40
12.0
 40
13.0
 40
14.0
 40
15.0
 40
15.0
 40
15.0
 40
15.0
 10
1.834945467569618
 20
25.26376268634064
 30
0.0
 10
1.866533349177045
 20
25.24870993827711
 30
0.0
 10
1.931012354172995
 20
25.22109076057928
 30
0.0
 10
2.032896118114174
 20
25.19473910529719
 30
0.0
 10
2.136768692870616
 20
25.17908453145371
 30
0.0
 10
2.241852389540855
 20
25.17382609050669
 30
0.0
 10
2.311779855704584
 20
25.17923757196138
 30
0.0
 10
2.346538926635365
 20
25.18331342100885
 30
0.0
 10
3.326088907024903
 20
25.30768410008202
 30
0.0
 10
5.265390817286733
 20
25.71234228478497
 30
0.0
 10
8.041580366806
 20
26.77216051412517
 30
0.0
 10
10.61506525858026
 20
28.25794838352452
 30
0.0
 10
12.9210052965912
 20
30.1322710040154
 30
0.0
 10
14.24111270264224
 20
31.60941565114494
 30
0.0
 10
14.83860058792713
 20
32.39553825281824
 30
0.0
 10
14.85984769810443
 20
32.42334030029787
 30
0.0
 10
14.89851122853046
 20
32.48175218463894
 30
0.0
 10
14.94739193400174
 20
32.57478271277051
 30
0.0
 10
14.98551206459967
 20
32.67267436283031
 30
0.0
 10
15.01340671389111
 20
32.77399498845769
 30
0.0
 10
15.02215070430824
 20
32.84355375043381
 30
0.0
 10
15.02462491530133
 20
32.8784177473223
 30
0.0
  0
SPLINE
  5
3E
330
1F
100
AcDbEntity
  8
DEFAULT
100
AcDbSpline
210
0.0
220
0.0
230
1.0
 70
     8
 71
     3
 72
    26
 73
    22
 74
     0
 42
0.0000000001
 43
0.0000000001
 40
0.0
 40
0.0
 40
0.0
 40
0.0
 40
1.0
 40
2.0
 40
3.0
 40
4.0
 40
5.0
 40
5.0
 40
5.0
 40
6.0
 40
7.0
 40
8.0
 40
9.0
 40
10.0
 40
10.0
 40
10.0
 40
11.0
 40
12.0
 40
13.0
 40
14.0
 40
15.0
 40
15.0
 40
15.0
 40
15.0
 10
-16.8600405
 20
51.28799586721323
 30
0.0
 10
-16.8888705030235
 20
51.26816633332123
 30
0.0
 10
-16.94502891503943
 20
51.22613546583291
 30
0.0
 10
-17.01879199991608
 20
51.15107736566772
 30
0.0
 10
-17.08428554592818
 20
51.06894836409388
 30
0.0
 10
-17.14138133770772
 20
50.98057243372739
 30
0.0
 10
-17.17165859037771
 20
50.91730773087998
 30
0.0
 10
-17.185508337026
 20
50.88516756791824
 30
0.0
 10
-17.56757515965748
 20
49.97466706108776
 30
0.0
 10
-18.18678184698635
 20
48.09285324884186
 30
0.0
 10
-18.65704711174353
 20
45.15869345856719
 30
0.0
 10
-18.65705951809607
 20
42.18709623133557
 30
0.0
 10
-18.18681853286861
 20
39.252932268569
 30
0.0
 10
-17.56762744641576
 20
37.37111339564004
 30
0.0
 10
-17.18556924552
 20
36.46061240769324
 30
0.0
 10
-17.17211552121407
 20
36.42831084678288
 30
0.0
 10
-17.1408611107048
 20
36.36562130506341
 30
0.0
 10
-17.08473466275102
 20
36.27677410830458
 30
0.0
 10
-17.01901807227981
 20
36.1948152817813
 30
0.0
 10
-16.9452191612049
 20
36.11999749405156
 30
0.0
 10
-16.88935150148635
 20
36.07764559523182
 30
0.0
 10
-16.8603955
 20
36.05807086721324
 30
0.0
  0
SPLINE
  5
3F
330
1F
100
AcDbEntity
  8
DEFAULT
100
AcDbSpline
210
0.0
220
0.0
230
1.0
 70
    12
 71
     3
 72
    66
 73
    62
 74
     0
 42
0.0000000001
 43
0.0000000001
 40
-8.08689327970757
 40
-8.08689327970757
 40
-8.08689327970757
 40
-8.08689327970757
 40
-8.0
 40
-8.0
 40
-8.0
 40
-7.0
 40
-7.0
 40
-7.0
 40
-6.0
 40
-6.0
 40
-6.0
 40
-5.0
 40
-5.0
 40
-5.0
 40
-4.0
 40
-4.0
 40
-4.0
 40
-3.0
 40
-3.0
 40
-3.0
 40
-2.0
 40
-2.0
 40
-2.0
 40
-1.0
 40
-1.0
 40
-1.0
 40
0.0
 40
0.0
 40
0.0
 40
1.0
 40
1.0
 40
1.0
 40
1.999811809428684
 40
1.999811809428684
 40
1.999811809428684
 40
2.999843174523903
 40
2.999843174523903
 40
2.999843174523903
 40
3.999874539619122
 40
3.999874539619122
 40
3.999874539619122
 40
4.999905904714343
 40
4.999905904714343
 40
4.999905904714343
 40
5.999937269809561
 40
5.999937269809561
 40
5.999937269809561
 40
6.99996863490478
 40
6.99996863490478
 40
6.99996863490478
 40
8.0
 40
8.0
 40
8.0
 40
9.0
 40
9.0
 40
9.0
 40
10.0
 40
11.0
 40
12.0
 40
13.0
 40
14.0
 40
14.0
 40
14.0
 40
14.0
 10
-5.8505745
 20
0.4373710039668192
 30
0.0
 41
1.0
 10
-5.876658894956776
 20
0.4518513938806465
 30
0.0
 41
0.9430342481758641
 10
-5.894657534312839
 20
0.475644803338895
 30
0.0
 41
0.9430342481758641
 10
-5.901494500000002
 20
0.5046850039668188
 30
0.0
 41
1.0
 10
-6.261674500000002
 20
2.034559503966819
 30
0.0
 41
1.0
 10
-6.621854500000001
 20
3.564434003966819
 30
0.0
 41
1.0
 10
-6.982034500000001
 20
5.094308503966819
 30
0.0
 41
1.0
 10
-6.982725887348113
 20
5.101067188042696
 30
0.0
 41
1.0
 10
-6.983417274696225
 20
5.107825872118573
 30
0.0
 41
1.0
 10
-6.984108662044338
 20
5.114584556194449
 30
0.0
 41
1.0
 10
-6.983809031251742
 20
5.12131440348294
 30
0.0
 41
1.0
 10
-6.983509400459146
 20
5.128044250771431
 30
0.0
 41
1.0
 10
-6.983209769666551
 20
5.134774098059922
 30
0.0
 41
1.0
 10
-6.982048803952125
 20
5.141408818590211
 30
0.0
 41
1.0
 10
-6.980887838237699
 20
5.1480435391205
 30
0.0
 41
1.0
 10
-6.979726872523274
 20
5.154678259650789
 30
0.0
 41
1.0
 10
-6.977769906193694
 20
5.161122792477712
 30
0.0
 41
1.0
 10
-6.975812939864116
 20
5.167567325304634
 30
0.0
 41
1.0
 10
-6.973855973534536
 20
5.174011858131557
 30
0.0
 41
1.0
 10
-6.970990865824082
 20
5.180108380281339
 30
0.0
 41
1.0
 10
-6.968125758113629
 20
5.186204902431119
 30
0.0
 41
1.0
 10
-6.965260650403175
 20
5.1923014245809
 30
0.0
 41
1.0
 10
-6.961600936939955
 20
5.197950124957573
 30
0.0
 41
1.0
 10
-6.957941223476735
 20
5.203598825334246
 30
0.0
 41
1.0
 10
-6.954281510013513
 20
5.209247525710919
 30
0.0
 41
1.0
 10
-6.949601840009009
 20
5.214245851796218
 30
0.0
 41
1.0
 10
-6.944922170004504
 20
5.219244177881519
 30
0.0
 41
1.0
 10
-6.9402425
 20
5.22424250396682
 30
0.0
 41
1.0
 10
-3.9417575
 20
7.645207170633486
 30
0.0
 41
1.0
 10
-0.9432725000000003
 20
10.06617183730015
 30
0.0
 41
1.0
 10
2.0552125
 20
12.48713650396682
 30
0.0
 41
1.0
 10
2.066343853270936
 20
12.49474513175669
 30
0.0
 41
1.0
 10
2.077475206541872
 20
12.50235375954657
 30
0.0
 41
1.0
 10
2.088606559812808
 20
12.50996238733644
 30
0.0
 41
1.0
 10
2.100531847833818
 20
12.5162726494452
 30
0.0
 41
1.0
 10
2.112457135854827
 20
12.52258291155395
 30
0.0
 41
1.0
 10
2.124382423875836
 20
12.52889317366271
 30
0.0
 41
1.0
 10
2.136850383475728
 20
12.53405151437838
 30
0.0
 41
1.0
 10
2.14931834307562
 20
12.53920985509404
 30
0.0
 41
1.0
 10
2.161786302675512
 20
12.5443681958097
 30
0.0
 41
1.0
 10
2.174639408289554
 20
12.54847385184253
 30
0.0
 41
1.0
 10
2.187492513903595
 20
12.55257950787536
 30
0.0
 41
1.0
 10
2.200345619517636
 20
12.55668516390819
 30
0.0
 41
1.0
 10
2.213485505096904
 20
12.55975682909046
 30
0.0
 41
1.0
 10
2.226625390676172
 20
12.56282849427272
 30
0.0
 41
1.0
 10
2.23976527625544
 20
12.56590015945498
 30
0.0
 41
1.0
 10
2.253112956370311
 20
12.56788105655914
 30
0.0
 41
1.0
 10
2.266460636485181
 20
12.5698619536633
 30
0.0
 41
1.0
 10
2.279808316600052
 20
12.57184285076746
 30
0.0
 41
1.0
 10
2.293287877733368
 20
12.57260223516725
 30
0.0
 41
1.0
 10
2.306767438866683
 20
12.57336161956703
 30
0.0
 41
1.0
 10
2.320246999999998
 20
12.57412100396682
 30
0.0
 41
1.0
 10
6.435520175614999
 20
12.57412099751016
 30
0.0
 41
1.0
 10
10.55079335123
 20
12.57412099105349
 30
0.0
 41
1.0
 10
14.666066526845
 20
12.57412098459682
 30
0.0
 41
1.0
 10
14.68635635478077
 20
12.57413957663526
 30
0.0
 41
1.0
 10
14.72708073322263
 20
12.5826845222267
 30
0.0
 41
1.0
 10
14.77715664009524
 20
12.61933000392983
 30
0.0
 41
1.0
 10
14.81218707074553
 20
12.66992720778302
 30
0.0
 41
1.0
 10
14.8339938754623
 20
12.72722273045788
 30
0.0
 41
1.0
 10
14.8395330524958
 20
12.76774205733456
 30
0.0
 41
1.0
 10
14.83983013421
 20
12.78805205075682
 30
0.0
 41
1.0
  0
SPLINE
  5
40
330
1F
100
AcDbEntity
  8
DEFAULT
100
AcDbSpline
210
0.0
220
0.0
230
1.0
 70
    12
 71
     3
 72
    66
 73
    62
 74
     0
 42
0.0000000001
 43
0.0000000001
 40
-5.0
 40
-5.0
 40
-5.0
 40
-5.0
 40
-4.0
 40
-3.0
 40
-2.0
 40
-1.0
 40
0.0
 40
0.0
 40
0.0
 40
1.0
 40
1.0
 40
1.0
 40
1.997612491618067
 40
1.997612491618067
 40
1.997612491618067
 40
2.998010409681723
 40
2.998010409681723
 40
2.998010409681723
 40
3.998408327745378
 40
3.998408327745378
 40
3.998408327745378
 40
4.998806245809034
 40
4.998806245809034
 40
4.998806245809034
 40
5.99920416387269
 40
5.99920416387269
 40
5.99920416387269
 40
6.999602081936346
 40
6.999602081936346
 40
6.999602081936346
 40
8.000000000000002
 40
8.000000000000002
 40
8.000000000000002
 40
9.026886595045738
 40
9.026886595045738
 40
9.026886595045738
 40
11.02688659504574
 40
11.02688659504574
 40
11.02688659504574
 40
12.02688659504574
 40
12.02688659504574
 40
12.02688659504574
 40
13.02688659504574
 40
13.02688659504574
 40
13.02688659504574
 40
14.02688659504574
 40
14.02688659504574
 40
14.02688659504574
 40
15.02688659504574
 40
15.02688659504574
 40
15.02688659504574
 40
16.02688659504574
 40
16.02688659504574
 40
16.02688659504574
 40
16.09582868481226
 40
16.09582868481226
 40
16.09582868481226
 40
17.09582868481226
 40
17.09582868481226
 40
17.09582868481226
 40
17.77574499147026
 40
17.77574499147026
 40
17.77574499147026
 40
17.77574499147026
 10
14.6673685
 20
13.00983300396682
 30
0.0
 41
1.0
 10
14.7025250211315
 20
13.00973673571879
 30
0.0
 41
1.0
 10
14.7725095938435
 20
12.99982586311913
 30
0.0
 41
1.0
 10
14.87086817722502
 20
12.95904090641577
 30
0.0
 41
1.0
 10
14.95024977077595
 20
12.88783548379456
 30
0.0
 41
1.0
 10
15.00493967347561
 20
12.79632449799879
 30
0.0
 41
1.0
 10
15.02661519263155
 20
12.69112380564263
 30
0.0
 41
1.0
 10
15.0269145
 20
12.65603300396682
 30
0.0
 41
1.0
 10
15.04756283333333
 20
10.23522200396682
 30
0.0
 41
1.0
 10
15.06821116666667
 20
7.814411003966818
 30
0.0
 41
1.0
 10
15.0888595
 20
5.393600003966818
 30
0.0
 41
1.0
 10
15.08755482597215
 20
5.371724956123297
 30
0.0
 41
1.0
 10
15.08625015194429
 20
5.349849908279777
 30
0.0
 41
1.0
 10
15.08494547791644
 20
5.327974860436256
 30
0.0
 41
1.0
 10
15.08147209254383
 20
5.306268875818566
 30
0.0
 41
1.0
 10
15.07799870717121
 20
5.284562891200876
 30
0.0
 41
1.0
 10
15.0745253217986
 20
5.262856906583187
 30
0.0
 41
1.0
 10
15.06949430991319
 20
5.241453370457771
 30
0.0
 41
1.0
 10
15.06446329802778
 20
5.220049834332355
 30
0.0
 41
1.0
 10
15.05943228614238
 20
5.198646298206939
 30
0.0
 41
1.0
 10
15.05324618503725
 20
5.177547650617811
 30
0.0
 41
1.0
 10
15.04706008393213
 20
5.156449003028682
 30
0.0
 41
1.0
 10
15.040873982827
 20
5.135350355439553
 30
0.0
 41
1.0
 10
15.0337945979732
 20
5.11453315607157
 30
0.0
 41
1.0
 10
15.02671521311941
 20
5.093715956703587
 30
0.0
 41
1.0
 10
15.01963582826561
 20
5.072898757335604
 30
0.0
 41
1.0
 10
15.0115902082328
 20
5.052436051607914
 30
0.0
 41
1.0
 10
15.0035445882
 20
5.031973345880224
 30
0.0
 41
1.0
 10
14.99549896816719
 20
5.011510640152532
 30
0.0
 41
1.0
 10
14.98664947877813
 20
4.991382094757295
 30
0.0
 41
1.0
 10
14.97779998938906
 20
4.971253549362057
 30
0.0
 41
1.0
 10
14.9689505
 20
4.95112500396682
 30
0.0
 41
1.0
 10
14.22916572282869
 20
3.3802221104679
 30
0.0
 41
1.0
 10
13.48938094565737
 20
1.809319216968981
 30
0.0
 41
1.0
 10
12.74959616848606
 20
0.2384163234700613
 30
0.0
 41
1.0
 10
12.73666891123936
 20
0.2124028849099839
 30
0.0
 41
1.0
 10
12.72374165399265
 20
0.1863894463499065
 30
0.0
 41
1.0
 10
12.71081439674595
 20
0.1603760077898291
 30
0.0
 41
1.0
 10
12.7039932490966
 20
0.1475555053734526
 30
0.0
 41
1.0
 10
12.69717210144725
 20
0.1347350029570762
 30
0.0
 41
1.0
 10
12.6903509537979
 20
0.1219145005406997
 30
0.0
 41
1.0
 10
12.68228512118814
 20
0.1098574486371973
 30
0.0
 41
1.0
 10
12.67421928857837
 20
0.0978003967336949
 30
0.0
 41
1.0
 10
12.66615345596861
 20
0.0857433448301925
 30
0.0
 41
1.0
 10
12.65606905048159
 20
0.0753273395433506
 30
0.0
 41
1.0
 10
12.64598464499456
 20
0.0649113342565086
 30
0.0
 41
1.0
 10
12.63590023950754
 20
0.0544953289696667
 30
0.0
 41
1.0
 10
12.62404947537139
 20
0.0461454844964081
 30
0.0
 41
1.0
 10
12.61219871123525
 20
0.0377956400231496
 30
0.0
 41
1.0
 10
12.6003479470991
 20
0.029445795549891
 30
0.0
 41
1.0
 10
12.5871621313994
 20
0.0234121983555336
 30
0.0
 41
1.0
 10
12.5739763156997
 20
0.0173786011611762
 30
0.0
 41
1.0
 10
12.5607905
 20
0.0113450039668188
 30
0.0
 41
1.0
 10
12.53965272766972
 20
0.0016727313724247
 30
0.0
 41
0.9774141939036621
 10
12.51673477387588
 20
-0.0022164420783428
 30
0.0
 41
0.9774141939036621
 10
12.4935895
 20
-0.0000589960331814
 30
0.0
 41
1.0
 10
6.378513833333336
 20
-0.0000589960331815
 30
0.0
 41
1.0
 10
0.2634381666666681
 20
-0.0000589960331817
 30
0.0
 41
1.0
 10
-5.851637499999999
 20
-0.0000589960331818
 30
0.0
 41
1.0
 10
-6.099348887186014
 20
-0.0000589960331818
 30
0.0
 41
0.8409360772037848
 10
-6.28795735692138
 20
0.1605267333629997
 30
0.0
 41
0.8409360772037848
 10
-6.327460500000001
 20
0.4050680039668184
 30
0.0
 41
1.0
  0
SPLINE
  5
41
330
1F
100
AcDbEntity
  8
DEFAULT
100
AcDbSpline
210
0.0
220
0.0
230
1.0
 70
     8
 71
     2
 72
    36
 73
    33
 74
     0
 42
0.0000000001
 43
0.0000000001
 40
-7.0
 40
-7.0
 40
-7.0
 40
-5.99992307177718
 40
-5.99992307177718
 40
-4.999846143554359
 40
-4.999846143554359
 40
-3.99976921533154
 40
-3.99976921533154
 40
-2.999692287108719
 40
-2.999692287108719
 40
-1.999615358885899
 40
-1.999615358885899
 40
-0.9995384306630788
 40
-0.9995384306630788
 40
0.0
 40
0.0
 40
1.0
 40
1.0
 40
2.0
 40
2.0
 40
3.0
 40
3.0
 40
4.0
 40
4.0
 40
5.0
 40
5.0
 40
6.0
 40
6.0
 40
7.0
 40
7.0
 40
8.0
 40
8.0
 40
9.0
 40
9.0
 40
9.0
 10
2.3202365
 20
13.00984400396682
 30
0.0
 10
2.278840012913934
 20
13.00770861803155
 30
0.0
 10
2.237443525827867
 20
13.00557323209628
 30
0.0
 10
2.196465159400486
 20
12.99936697102507
 30
0.0
 10
2.155486792973105
 20
12.99316070995387
 30
0.0
 10
2.115174743020869
 20
12.98353353185392
 30
0.0
 10
2.074862693068634
 20
12.97390635375397
 30
0.0
 10
2.035599382682996
 20
12.96064098243453
 30
0.0
 10
1.996336072297357
 20
12.9473756111151
 30
0.0
 10
1.95841639549337
 20
12.9306531594986
 30
0.0
 10
1.920496718689383
 20
12.91393070788211
 30
0.0
 10
1.884261878754137
 20
12.89382090696004
 30
0.0
 10
1.848027038818892
 20
12.87371110603797
 30
0.0
 10
1.814310019409445
 20
12.8496393050024
 30
0.0
 10
1.780592999999998
 20
12.82556750396682
 30
0.0
 10
-2.717046250000002
 20
9.194189253966819
 30
0.0
 10
-7.214685500000002
 20
5.562811003966819
 30
0.0
 10
-7.24690791205038
 20
5.531369945332036
 30
0.0
 10
-7.279130324100759
 20
5.499928886697252
 30
0.0
 10
-7.306057433192053
 20
5.463840416826224
 30
0.0
 10
-7.332984542283347
 20
5.427751946955198
 30
0.0
 10
-7.353593836425211
 20
5.387700509363945
 30
0.0
 10
-7.374203130567075
 20
5.347649071772694
 30
0.0
 10
-7.388640981219426
 20
5.305006228013285
 30
0.0
 10
-7.403078831871777
 20
5.262363384253876
 30
0.0
 10
-7.411236833112191
 20
5.218083565190639
 30
0.0
 10
-7.419394834352606
 20
5.173803746127404
 30
0.0
 10
-7.420064547040591
 20
5.128777008321244
 30
0.0
 10
-7.420734259728576
 20
5.083750270515083
 30
0.0
 10
-7.414356879864288
 20
5.039178137240951
 30
0.0
 10
-7.4079795
 20
4.99460600396682
 30
0.0
 10
-6.86772
 20
2.699837003966819
 30
0.0
 10
-6.327460500000001
 20
0.4050680039668184
 30
0.0
  0
SPLINE
  5
42
330
1F
100
AcDbEntity
  8
DEFAULT
100
AcDbSpline
210
0.0
220
0.0
230
1.0
 70
     8
 71
     3
 72
    14
 73
    10
 74
     0
 42
0.0000000001
 43
0.0000000001
 40
0.0
 40
0.0
 40
0.0
 40
0.0
 40
1.0
 40
1.0
 40
1.0
 40
2.0
 40
2.0
 40
2.0
 40
3.024119324570012
 40
3.024119324570012
 40
3.024119324570012
 40
3.024119324570012
 10
14.5909255
 20
12.57348100396682
 30
0.0
 10
14.61133883333333
 20
10.18024833730015
 30
0.0
 10
14.63175216666667
 20
7.787015670633484
 30
0.0
 10
14.6521655
 20
5.393783003966818
 30
0.0
 10
14.65292800578934
 20
5.304387816332676
 30
0.0
 10
14.61121618675945
 20
5.21837786567112
 30
0.0
 10
14.5731325
 20
5.137497003966819
 30
0.0
 10
13.83542965105181
 20
3.570788337300152
 30
0.0
 10
13.09772680210361
 20
2.004079670633485
 30
0.0
 10
12.36002395315542
 20
0.4373710039668186
 30
0.0
  0
SPLINE
  5
43
330
1F
100
AcDbEntity
  8
DEFAULT
100
AcDbSpline
210
0.0
220
0.0
230
1.0
 70
    12
 71
     2
 72
    26
 73
    23
 74
     0
 42
0.0000000001
 43
0.0000000001
 40
0.0
 40
0.0
 40
0.0
 40
1.0
 40
1.0
 40
1.342425047934466
 40
1.342425047934466
 40
1.684850095868931
 40
1.684850095868931
 40
2.684850095868931
 40
2.684850095868931
 40
3.684850095868931
 40
3.684850095868931
 40
4.684850095868931
 40
4.684850095868931
 40
5.684850095868931
 40
5.684850095868931
 40
6.684850095868931
 40
6.684850095868931
 40
7.684850095868931
 40
7.684850095868931
 40
8.684850095868931
 40
8.684850095868931
 40
9.684850095868931
 40
9.684850095868931
 40
9.684850095868931
 10
-6.713952500000001
 20
0.437371003966819
 30
0.0
 41
1.0
 10
-9.606037
 20
0.437371003966819
 30
0.0
 41
1.0
 10
-12.4981215
 20
0.437371003966819
 30
0.0
 41
1.0
 10
-12.7157043976206
 20
0.4373710039668191
 30
0.0
 41
0.7089487864810737
 10
-12.71683947618394
 20
0.2197910670846934
 30
0.0
 41
1.0
 10
-12.71797455474729
 20
0.0022111302025678
 30
0.0
 41
0.7089487864810737
 10
-12.5004035
 20
-0.0000589960331819
 30
0.0
 41
1.0
 10
-9.570019
 20
-0.0000589960331818
 30
0.0
 41
1.0
 10
-6.6396345
 20
-0.0000589960331818
 30
0.0
 41
1.0
 10
-6.60555445980719
 20
0.0033166387453878
 30
0.0
 41
1.0
 10
-6.571474419614381
 20
0.0066922735239574
 30
0.0
 41
1.0
 10
-6.538555680286874
 20
0.0160978556057166
 30
0.0
 41
1.0
 10
-6.505636940959366
 20
0.0255034376874758
 30
0.0
 41
1.0
 10
-6.475059707626118
 20
0.0408539427406513
 30
0.0
 41
1.0
 10
-6.444482474292868
 20
0.0562044477938267
 30
0.0
 41
1.0
 10
-6.417409172520051
 20
0.0771588319604601
 30
0.0
 41
1.0
 10
-6.390335870747234
 20
0.0981132161270936
 30
0.0
 41
1.0
 10
-6.367483140293176
 20
0.1235862248042062
 30
0.0
 41
1.0
 10
-6.34463040983912
 20
0.1490592334813187
 30
0.0
 41
1.0
 10
-6.327040392236232
 20
0.1784362260887195
 30
0.0
 41
1.0
 10
-6.309450374633345
 20
0.2078132186961203
 30
0.0
 41
1.0
 10
-6.296775437316673
 20
0.2396336113314695
 30
0.0
 41
1.0
 10
-6.284100500000001
 20
0.2714540039668187
 30
0.0
 41
1.0
  0
SPLINE
  5
44
330
1F
100
AcDbEntity
  8
DEFAULT
100
AcDbSpline
210
0.0
220
0.0
230
1.0
 70
    24
 71
     2
 72
     6
 73
     3
 74
     0
 42
0.0000000001
 43
0.0000000001
 40
0.0
 40
0.0
 40
0.0
 40
1.0
 40
1.0
 40
1.0
 10
12.4913195
 20
0.437371003966819
 30
0.0
 10
3.3203725
 20
0.437371003966819
 30
0.0
 10
-5.8505745
 20
0.437371003966819
 30
0.0
  0
SPLINE
  5
45
330
1F
100
AcDbEntity
  8
DEFAULT
100
AcDbSpline
210
0.0
220
0.0
230
1.0
 70
    12
 71
     3
 72
    21
 73
    17
 74
     0
 42
0.0000000001
 43
0.0000000001
 40
-0.1598390205539442
 40
-0.1598390205539442
 40
-0.1598390205539442
 40
-0.1598390205539442
 40
0.0
 40
0.0
 40
0.0
 40
1.0
 40
1.0
 40
1.0
 40
2.0
 40
3.0
 40
4.0
 40
5.0
 40
6.0
 40
6.0
 40
6.0
 40
7.0
 40
7.0
 40
7.0
 40
7.0
 10
-16.99527149068657
 20
12.5744371681997
 30
0.0
 41
1.0
 10
-16.94804716026186
 20
12.54957964421221
 30
0.0
 41
0.9967325843742197
 10
-16.90351231618759
 20
12.52017417624907
 30
0.0
 41
0.9967325843742197
 10
-16.8621035
 20
12.48650900396682
 30
0.0
 41
1.0
 10
-13.8843515
 20
10.06561067063349
 30
0.0
 41
1.0
 10
-10.9065995
 20
7.644712337300152
 30
0.0
 41
1.0
 10
-7.9288475
 20
5.22381400396682
 30
0.0
 41
1.0
 10
-7.915025188992363
 20
5.212387355138879
 30
0.0
 41
1.0
 10
-7.890039278870863
 20
5.186564579306002
 30
0.0
 41
1.0
 10
-7.85716571006074
 20
5.1439584342639
 30
0.0
 41
1.0
 10
-7.828605695953974
 20
5.098336190410174
 30
0.0
 41
1.0
 10
-7.804741900041764
 20
5.05009420083213
 30
0.0
 41
1.0
 10
-7.790951597108791
 20
5.011958525091564
 30
0.0
 41
1.0
 10
-7.786842499999999
 20
4.994505003966819
 30
0.0
 41
1.0
 10
-7.426677499999999
 20
3.464692670633486
 30
0.0
 41
1.0
 10
-7.066512499999999
 20
1.934880337300152
 30
0.0
 41
1.0
 10
-6.7063475
 20
0.4050680039668184
 30
0.0
 41
1.0
  0
SPLINE
  5
46
330
1F
100
AcDbEntity
  8
DEFAULT
100
AcDbSpline
210
0.0
220
0.0
230
1.0
 70
     8
 71
     3
 72
    29
 73
    25
 74
     0
 42
0.0000000001
 43
0.0000000001
 40
-5.0
 40
-5.0
 40
-5.0
 40
-5.0
 40
-3.999614310210395
 40
-2.99922862042079
 40
-1.998842930631185
 40
-0.9984572408415797
 40
0.0
 40
0.0
 40
0.0
 40
1.0
 40
1.0
 40
1.0
 40
1.99952454713108
 40
2.99964341034831
 40
3.99976227356554
 40
4.99988113678277
 40
6.0
 40
6.0
 40
6.0
 40
7.0
 40
8.0
 40
9.0
 40
10.0
 40
11.0
 40
11.0
 40
11.0
 40
11.0
 10
-7.4098805
 20
5.23568900396682
 30
0.0
 10
-7.421475546114491
 20
5.260574250557527
 30
0.0
 10
-7.44578550888151
 20
5.309913936290905
 30
0.0
 10
-7.48926288200887
 20
5.379990329751412
 30
0.0
 10
-7.537135198912675
 20
5.447186096197958
 30
0.0
 10
-7.59215900202593
 20
5.50860508524217
 30
0.0
 10
-7.632228142183449
 20
5.54618278661078
 30
0.0
 10
-7.653366500000001
 20
5.563671503966819
 30
0.0
 10
-10.6310585
 20
7.984521503966818
 30
0.0
 10
-13.6087505
 20
10.40537150396682
 30
0.0
 10
-16.5864425
 20
12.82622150396682
 30
0.0
 10
-16.60964949940001
 20
12.84472284862294
 30
0.0
 10
-16.65677263025
 20
12.88092615806731
 30
0.0
 10
-16.73177410212902
 20
12.92913356121888
 30
0.0
 10
-16.8107290407291
 20
12.97071737418053
 30
0.0
 10
-16.89490007813374
 20
13.00085051824076
 30
0.0
 10
-16.95395836693319
 20
13.00966284180215
 30
0.0
 10
-16.983713541611
 20
13.00984423938682
 30
0.0
 10
-17.02700261392253
 20
13.0102457363721
 30
0.0
 10
-17.11300526276986
 20
12.97920348107872
 30
0.0
 10
-17.18604744688956
 20
12.86456717825297
 30
0.0
 10
-17.18978353081378
 20
12.73094001085943
 30
0.0
 10
-17.12178589023583
 20
12.61341007645069
 30
0.0
 10
-17.03868704381692
 20
12.57630061887954
 30
0.0
 10
-16.99527149068657
 20
12.5744371681997
 30
0.0
  0
SPLINE
  5
47
330
1F
100
AcDbEntity
  8
DEFAULT
100
AcDbSpline
210
0.0
220
0.0
230
1.0
 70
     8
 71
     3
 72
    15
 73
    11
 74
     0
 42
0.0000000001
 43
0.0000000001
 40
0.0
 40
0.0
 40
0.0
 40
0.0
 40
1.0
 40
2.0
 40
3.0
 40
4.0
 40
5.0
 40
5.0
 40
5.0
 40
6.0
 40
6.0
 40
6.0
 40
6.0
 10
-18.4473495
 20
13.00804800396682
 30
0.0
 10
-18.4907901748619
 20
13.0023148936656
 30
0.0
 10
-18.5736400348306
 20
12.96430865802197
 30
0.0
 10
-18.6439287892849
 20
12.84576436942209
 30
0.0
 10
-18.63453202784187
 20
12.7096443803674
 30
0.0
 10
-18.55041277513256
 20
12.60055495682207
 30
0.0
 10
-18.46274725594312
 20
12.57457117325906
 30
0.0
 10
-18.4190555
 20
12.57412100396682
 30
0.0
 10
-17.9461975
 20
12.57412100396682
 30
0.0
 10
-17.4733395
 20
12.57412100396682
 30
0.0
 10
-17.0004815
 20
12.57412100396682
 30
0.0
  0
SPLINE
  5
48
330
1F
100
AcDbEntity
  8
DEFAULT
100
AcDbSpline
210
0.0
220
0.0
230
1.0
 70
    24
 71
     2
 72
     6
 73
     3
 74
     0
 42
0.0000000001
 43
0.0000000001
 40
0.0
 40
0.0
 40
0.0
 40
1.0
 40
1.0
 40
1.0
 10
-16.6644835
 20
12.88474800396682
 30
0.0
 10
-7.398828
 20
12.88474800396682
 30
0.0
 10
1.866827499999999
 20
12.88474800396682
 30
0.0
  0
SPLINE
  5
49
330
1F
100
AcDbEntity
  8
DEFAULT
100
AcDbSpline
210
0.0
220
0.0
230
1.0
 70
    11
 71
     2
 72
    16
 73
    13
 74
     0
 42
0.0000000001
 43
0.0000000001
 40
39.94597505429562
 40
39.94597505429562
 40
39.94597505429562
 40
76.95180810866592
 40
76.95180810866592
 40
77.95180810866592
 40
77.95180810866592
 40
78.95180810866592
 40
78.95180810866592
 40
115.8977831629615
 40
115.8977831629615
 40
116.8977831629615
 40
116.8977831629615
 40
117.8977831629615
 40
117.8977831629615
 40
117.8977831629615
 10
-18.5029775
 20
13.00973000396682
 30
0.0
 10
-0.0000254999999996
 20
13.01073300396682
 30
0.0
 10
18.5029265
 20
13.01173600396682
 30
0.0
 10
18.5029575
 20
13.09048600396682
 30
0.0
 10
18.5029885
 20
13.16923600396682
 30
0.0
 10
18.487988
 20
13.18423500396682
 30
0.0
 10
18.4729875
 20
13.19923400396682
 30
0.0
 10
-0.0000000000000018
 20
13.19823250396682
 30
0.0
 10
-18.4729875
 20
13.19723100396682
 30
0.0
 10
-18.487987
 20
13.18223050396682
 30
0.0
 10
-18.5029865
 20
13.16723000396682
 30
0.0
 10
-18.502982
 20
13.08848000396682
 30
0.0
 10
-18.5029775
 20
13.00973000396682
 30
0.0
  0
CIRCLE
  5
4A
330
1F
100
AcDbEntity
  8
DEFAULT
100
AcDbCircle
 10
0.0000014999999998
 20
43.67265686721324
 30
0.0
 40
18.50298699999999
  0
ENDSEC
  0
SECTION
  2
OBJECTS
  0
DICTIONARY
  5
C
330
0
100
AcDbDictionary
281
     1
  3
ACAD_GROUP
350
D
  3
ACAD_LAYOUT
350
1A
  3
ACAD_MLEADERSTYLE
350
4D
  3
ACAD_MLINESTYLE
350
17
  3
ACAD_PLOTSETTINGS
350
19
  3
ACAD_PLOTSTYLENAME
350
E
  3
ACAD_VISUALSTYLE
350
2A
  3
AcDbVariableDictionary
350
4B
  0
DICTIONARY
  5
D
102
{ACAD_REACTORS
330
C
102
}
330
C
100
AcDbDictionary
281
     1
  0
DICTIONARY
  5
1A
102
{ACAD_REACTORS
330
C
102
}
330
C
100
AcDbDictionary
281
     1
  3
Layout1
350
1E
  3
Layout2
350
26
  3
Model
350
22
  0
DICTIONARY
  5
4D
102
{ACAD_REACTORS
330
C
102
}
330
C
100
AcDbDictionary
281
     1
  0
DICTIONARY
  5
17
102
{ACAD_REACTORS
330
C
102
}
330
C
100
AcDbDictionary
281
     1
  3
Standard
350
18
  0
DICTIONARY
  5
19
102
{ACAD_REACTORS
330
C
102
}
330
C
100
AcDbDictionary
281
     1
  0
ACDBDICTIONARYWDFLT
  5
E
102
{ACAD_REACTORS
330
C
102
}
330
C
100
AcDbDictionary
281
     1
  3
Normal
350
F
100
AcDbDictionaryWithDefault
340
F
  0
DICTIONARY
  5
2A
102
{ACAD_REACTORS
330
C
102
}
330
C
100
AcDbDictionary
281
     1
  3
2dWireframe
350
2F
  3
3D Hidden
350
31
  3
3dWireframe
350
30
  3
Basic
350
32
  3
Brighten
350
36
  3
ColorChange
350
3A
  3
Conceptual
350
34
  3
Dim
350
35
  3
Facepattern
350
39
  3
Flat
350
2B
  3
FlatWithEdges
350
2C
  3
Gouraud
350
2D
  3
GouraudWithEdges
350
2E
  3
Linepattern
350
38
  3
Realistic
350
33
  3
Thicken
350
37
  0
DICTIONARY
  5
4B
102
{ACAD_REACTORS
330
C
102
}
330
C
100
AcDbDictionary
281
     1
  0
LAYOUT
  5
1E
102
{ACAD_REACTORS
330
1A
102
}
330
1A
100
AcDbPlotSettings
  1

  2
none_device
  4

  6

 40
0.0
 41
0.0
 42
0.0
 43
0.0
 44
0.0
 45
0.0
 46
0.0
 47
0.0
 48
0.0
 49
0.0
140
0.0
141
0.0
142
1.0
143
1.0
 70
   688
 72
     0
 73
     0
 74
     5
  7

 75
    16
147
1.0
148
0.0
149
0.0
100
AcDbLayout
  1
Layout1
 70
     1
 71
     1
 10
0.0
 20
0.0
 11
12.0
 21
9.0
 12
0.0
 22
0.0
 32
0.0
 14
1.000000000000000E+20
 24
1.000000000000000E+20
 34
1.000000000000000E+20
 15
-1.000000000000000E+20
 25
-1.000000000000000E+20
 35
-1.000000000000000E+20
146
0.0
 13
0.0
 23
0.0
 33
0.0
 16
1.0
 26
0.0
 36
0.0
 17
0.0
 27
1.0
 37
0.0
 76
     0
330
1B
  0
LAYOUT
  5
26
102
{ACAD_REACTORS
330
1A
102
}
330
1A
100
AcDbPlotSettings
  1

  2
none_device
  4

  6

 40
0.0
 41
0.0
 42
0.0
 43
0.0
 44
0.0
 45
0.0
 46
0.0
 47
0.0
 48
0.0
 49
0.0
140
0.0
141
0.0
142
1.0
143
1.0
 70
   688
 72
     0
 73
     0
 74
     5
  7

 75
    16
147
1.0
148
0.0
149
0.0
100
AcDbLayout
  1
Layout2
 70
     1
 71
     2
 10
0.0
 20
0.0
 11
0.0
 21
0.0
 12
0.0
 22
0.0
 32
0.0
 14
0.0
 24
0.0
 34
0.0
 15
0.0
 25
0.0
 35
0.0
146
0.0
 13
0.0
 23
0.0
 33
0.0
 16
1.0
 26
0.0
 36
0.0
 17
0.0
 27
1.0
 37
0.0
 76
     0
330
23
  0
LAYOUT
  5
22
102
{ACAD_REACTORS
330
1A
102
}
330
1A
100
AcDbPlotSettings
  1

  2
none_device
  4

  6

 40
0.0
 41
0.0
 42
0.0
 43
0.0
 44
0.0
 45
0.0
 46
0.0
 47
0.0
 48
0.0
 49
0.0
140
0.0
141
0.0
142
1.0
143
1.0
 70
  1712
 72
     0
 73
     0
 74
     0
  7

 75
     0
147
1.0
148
0.0
149
0.0
100
AcDbLayout
  1
Model
 70
     1
 71
     0
 10
0.0
 20
0.0
 11
12.0
 21
9.0
 12
0.0
 22
0.0
 32
0.0
 14
-18.63745943471178
 24
-0.0000589960331819
 34
0.0
 15
18.5029885
 25
62.17564386721323
 35
0.0
146
0.0
 13
0.0
 23
0.0
 33
0.0
 16
1.0
 26
0.0
 36
0.0
 17
0.0
 27
1.0
 37
0.0
 76
     0
330
1F
331
29
  0
MLINESTYLE
  5
18
102
{ACAD_REACTORS
330
17
102
}
330
17
100
AcDbMlineStyle
  2
Standard
 70
     0
  3

 62
   256
 51
90.0
 52
90.0
 71
     2
 49
0.5
 62
   256
  6
BYLAYER
 49
-0.5
 62
   256
  6
BYLAYER
  0
ACDBPLACEHOLDER
  5
F
102
{ACAD_REACTORS
330
E
102
}
330
E
  0
VISUALSTYLE
  5
2F
102
{ACAD_REACTORS
330
2A
102
}
330
2A
100
AcDbVisualStyle
  2
2dWireframe
 70
     4
 71
     0
 72
     2
 73
     0
 90
        0
 40
-0.6
 41
-30.0
 62
     5
 63
     7
 74
     1
 91
        4
 64
     7
 65
   257
 75
     1
175
     1
 42
1.0
 92
        0
 66
   257
 43
1.0
 76
     1
 77
     6
 78
     2
 67
     7
 79
     5
170
     0
171
     0
290
     0
174
     0
 93
        1
 44
0.0
173
     0
291
     0
 45
0.0
1001
ACAD
1000
AcDbSavedByObjectVersion
1070
     0
  0
VISUALSTYLE
  5
31
102
{ACAD_REACTORS
330
2A
102
}
330
2A
100
AcDbVisualStyle
  2
3D Hidden
 70
     6
 71
     1
 72
     2
 73
     2
 90
        0
 40
-0.6
 41
-30.0
 62
     5
 63
     7
 74
     2
 91
        2
 64
     7
 65
   257
 75
     2
175
     1
 42
40.0
 92
        0
 66
   257
 43
1.0
 76
     1
 77
     6
 78
     2
 67
     7
 79
     3
170
     0
171
     0
290
     0
174
     0
 93
        1
 44
0.0
173
     0
291
     0
 45
0.0
1001
ACAD
1000
AcDbSavedByObjectVersion
1070
     0
  0
VISUALSTYLE
  5
30
102
{ACAD_REACTORS
330
2A
102
}
330
2A
100
AcDbVisualStyle
  2
3dWireframe
 70
     5
 71
     0
 72
     2
 73
     0
 90
        0
 40
-0.6
 41
-30.0
 62
     5
 63
     7
 74
     1
 91
        4
 64
     7
 65
   257
 75
     1
175
     1
 42
1.0
 92
        0
 66
   257
 43
1.0
 76
     1
 77
     6
 78
     2
 67
     7
 79
     5
170
     0
171
     0
290
     0
174
     0
 93
        1
 44
0.0
173
     0
291
     0
 45
0.0
1001
ACAD
1000
AcDbSavedByObjectVersion
1070
     0
  0
VISUALSTYLE
  5
32
102
{ACAD_REACTORS
330
2A
102
}
330
2A
100
AcDbVisualStyle
  2
Basic
 70
     7
 71
     1
 72
     0
 73
     1
 90
        0
 40
-0.6
 41
-30.0
 62
     5
 63
     7
 74
     0
 91
        4
 64
     7
 65
   257
 75
     1
175
     1
 42
1.0
 92
        8
 66
     7
 43
1.0
 76
     1
 77
     6
 78
     2
 67
     7
 79
     5
170
     0
171
     0
290
     0
174
     0
 93
        1
 44
0.0
173
     0
291
     1
 45
0.0
1001
ACAD
1000
AcDbSavedByObjectVersion
1070
     0
  0
VISUALSTYLE
  5
36
102
{ACAD_REACTORS
330
2A
102
}
330
2A
100
AcDbVisualStyle
  2
Brighten
 70
    12
 71
     2
 72
     2
 73
     0
 90
        0
 40
-0.6
 41
-30.0
 62
     5
 63
     7
 74
     1
 91
        4
 64
     7
 65
   257
 75
     1
175
     1
 42
1.0
 92
        8
 66
     7
 43
1.0
 76
     1
 77
     6
 78
     2
 67
     7
 79
     5
170
     0
171
     0
290
     0
174
     0
 93
        1
 44
50.0
173
     0
291
     1
 45
0.0
1001
ACAD
1000
AcDbSavedByObjectVersion
1070
     0
  0
VISUALSTYLE
  5
3A
102
{ACAD_REACTORS
330
2A
102
}
330
2A
100
AcDbVisualStyle
  2
ColorChange
 70
    16
 71
     2
 72
     2
 73
     3
 90
        0
 40
-0.6
 41
-30.0
 62
     5
 63
     8
 74
     1
 91
        4
 64
     7
 65
   257
 75
     1
175
     1
 42
1.0
 92
        8
 66
     8
 43
1.0
 76
     1
 77
     6
 78
     2
 67
     7
 79
     5
170
     0
171
     0
290
     0
174
     0
 93
        1
 44
0.0
173
     0
291
     1
 45
0.0
1001
ACAD
1000
AcDbSavedByObjectVersion
1070
     0
  0
VISUALSTYLE
  5
34
102
{ACAD_REACTORS
330
2A
102
}
330
2A
100
AcDbVisualStyle
  2
Conceptual
 70
     9
 71
     3
 72
     2
 73
     0
 90
        0
 40
-0.6
 41
-30.0
 62
     5
 63
     7
 74
     2
 91
        2
 64
     7
 65
   257
 75
     1
175
     1
 42
40.0
 92
        8
 66
     7
 43
1.0
 76
     1
 77
     6
 78
     2
 67
     7
 79
     3
170
     0
171
     0
290
     0
174
     0
 93
        1
 44
0.0
173
     0
291
     0
 45
0.0
1001
ACAD
1000
AcDbSavedByObjectVersion
1070
     0
  0
VISUALSTYLE
  5
35
102
{ACAD_REACTORS
330
2A
102
}
330
2A
100
AcDbVisualStyle
  2
Dim
 70
    11
 71
     2
 72
     2
 73
     0
 90
        0
 40
-0.6
 41
-30.0
 62
     5
 63
     7
 74
     1
 91
        4
 64
     7
 65
   257
 75
     1
175
     1
 42
1.0
 92
        8
 66
     7
 43
1.0
 76
     1
 77
     6
 78
     2
 67
     7
 79
     5
170
     0
171
     0
290
     0
174
     0
 93
        1
 44
-50.0
173
     0
291
     1
 45
0.0
1001
ACAD
1000
AcDbSavedByObjectVersion
1070
     0
  0
VISUALSTYLE
  5
39
102
{ACAD_REACTORS
330
2A
102
}
330
2A
100
AcDbVisualStyle
  2
Facepattern
 70
    15
 71
     2
 72
     2
 73
     0
 90
        0
 40
-0.6
 41
-30.0
 62
     5
 63
     7
 74
     1
 91
        4
 64
     7
 65
   257
 75
     1
175
     1
 42
1.0
 92
        8
 66
     7
 43
1.0
 76
     1
 77
     6
 78
     2
 67
     7
 79
     5
170
     0
171
     0
290
     0
174
     0
 93
        1
 44
0.0
173
     0
291
     1
 45
0.0
1001
ACAD
1000
AcDbSavedByObjectVersion
1070
     0
  0
VISUALSTYLE
  5
2B
102
{ACAD_REACTORS
330
2A
102
}
330
2A
100
AcDbVisualStyle
  2
Flat
 70
     0
 71
     2
 72
     1
 73
     1
 90
        2
 40
-0.6
 41
30.0
 62
     5
 63
     7
 74
     0
 91
        4
 64
     7
 65
   257
 75
     1
175
     1
 42
1.0
 92
        8
 66
     7
 43
1.0
 76
     1
 77
     6
 78
     2
 67
     7
 79
     5
170
     0
171
     0
290
     0
174
     0
 93
       13
 44
0.0
173
     0
291
     1
 45
0.0
1001
ACAD
1000
AcDbSavedByObjectVersion
1070
     0
  0
VISUALSTYLE
  5
2C
102
{ACAD_REACTORS
330
2A
102
}
330
2A
100
AcDbVisualStyle
  2
FlatWithEdges
 70
     1
 71
     2
 72
     1
 73
     1
 90
        2
 40
-0.6
 41
30.0
 62
     5
 63
     7
 74
     1
 91
        4
 64
     7
 65
   257
 75
     1
175
     1
 42
1.0
 92
        0
 66
   257
 43
1.0
 76
     1
 77
     6
 78
     2
 67
     7
 79
     5
170
     0
171
     0
290
     0
174
     0
 93
       13
 44
0.0
173
     0
291
     1
 45
0.0
1001
ACAD
1000
AcDbSavedByObjectVersion
1070
     0
  0
VISUALSTYLE
  5
2D
102
{ACAD_REACTORS
330
2A
102
}
330
2A
100
AcDbVisualStyle
  2
Gouraud
 70
     2
 71
     2
 72
     2
 73
     1
 90
        2
 40
-0.6
 41
30.0
 62
     5
 63
     7
 74
     0
 91
        4
 64
     7
 65
   257
 75
     1
175
     1
 42
1.0
 92
        0
 66
     7
 43
1.0
 76
     1
 77
     6
 78
     2
 67
     7
 79
     5
170
     0
171
     0
290
     0
174
     0
 93
       13
 44
0.0
173
     0
291
     1
 45
0.0
1001
ACAD
1000
AcDbSavedByObjectVersion
1070
     0
  0
VISUALSTYLE
  5
2E
102
{ACAD_REACTORS
330
2A
102
}
330
2A
100
AcDbVisualStyle
  2
GouraudWithEdges
 70
     3
 71
     2
 72
     2
 73
     1
 90
        2
 40
-0.6
 41
30.0
 62
     5
 63
     7
 74
     1
 91
        4
 64
     7
 65
   257
 75
     1
175
     1
 42
1.0
 92
        0
 66
   257
 43
1.0
 76
     1
 77
     6
 78
     2
 67
     7
 79
     5
170
     0
171
     0
290
     0
174
     0
 93
       13
 44
0.0
173
     0
291
     1
 45
0.0
1001
ACAD
1000
AcDbSavedByObjectVersion
1070
     0
  0
VISUALSTYLE
  5
38
102
{ACAD_REACTORS
330
2A
102
}
330
2A
100
AcDbVisualStyle
  2
Linepattern
 70
    14
 71
     2
 72
     2
 73
     0
 90
        0
 40
-0.6
 41
-30.0
 62
     5
 63
     7
 74
     1
 91
        4
 64
     7
 65
   257
 75
     7
175
     7
 42
1.0
 92
        8
 66
     7
 43
1.0
 76
     1
 77
     6
 78
     2
 67
     7
 79
     5
170
     0
171
     0
290
     0
174
     0
 93
        1
 44
0.0
173
     0
291
     1
 45
0.0
1001
ACAD
1000
AcDbSavedByObjectVersion
1070
     0
  0
VISUALSTYLE
  5
33
102
{ACAD_REACTORS
330
2A
102
}
330
2A
100
AcDbVisualStyle
  2
Realistic
 70
     8
 71
     2
 72
     2
 73
     0
 90
        0
 40
-0.6
 41
-30.0
 62
     5
 63
     7
 74
     1
 91
        0
 64
     7
 65
   257
 75
     1
175
     1
 42
1.0
 92
        8
 66
     8
 43
1.0
 76
     1
 77
     6
 78
     2
 67
     7
 79
     5
170
     0
171
     0
290
     0
174
     0
 93
       13
 44
0.0
173
     0
291
     0
 45
0.0
1001
ACAD
1000
AcDbSavedByObjectVersion
1070
     0
  0
VISUALSTYLE
  5
37
102
{ACAD_REACTORS
330
2A
102
}
330
2A
100
AcDbVisualStyle
  2
Thicken
 70
    13
 71
     2
 72
     2
 73
     0
 90
        0
 40
-0.6
 41
-30.0
 62
     5
 63
     7
 74
     1
 91
        4
 64
     7
 65
   257
 75
     1
175
     1
 42
1.0
 92
       12
 66
     7
 43
1.0
 76
     1
 77
     6
 78
     2
 67
     7
 79
     5
170
     0
171
     0
290
     0
174
     0
 93
        1
 44
0.0
173
     0
291
     1
 45
0.0
1001
ACAD
1000
AcDbSavedByObjectVersion
1070
     0
  0
ENDSEC
  0
EOF
