  0
SECTION
  2
HEADER
  9
$ACADVER
  1
AC1018
  9
$ACADMAINTVER
 70
     0
  9
$DWGCODEPAGE
  3
ANSI_1252
  9
$INSBASE
 10
0.0
 20
0.0
 30
0.0
  9
$EXTMIN
 10
-0.000031139330899
 20
0.0002200576020439
 30
0.0
  9
$EXTMAX
 10
37.14116159875273
 20
62.25357570237452
 30
0.0
  9
$LIMMIN
 10
0.0
 20
0.0
  9
$LIMMAX
 10
12.0
 20
9.0
  9
$ORTHOMODE
 70
     0
  9
$REGENMODE
 70
     1
  9
$FILLMODE
 70
     1
  9
$QTEXTMODE
 70
     0
  9
$MIRRTEXT
 70
     1
  9
$LTSCALE
 40
0.0393700787401575
  9
$ATTMODE
 70
     1
  9
$TEXTSIZE
 40
0.2
  9
$TRACEWID
 40
0.05
  9
$TEXTSTYLE
  7
Standard
  9
$CLAYER
  8
0
  9
$CELTYPE
  6
ByLayer
  9
$CECOLOR
 62
   256
  9
$CELTSCALE
 40
1.0
  9
$DISPSILH
 70
     0
  9
$DIMSCALE
 40
1.0
  9
$DIMASZ
 40
0.18
  9
$DIMEXO
 40
0.0625
  9
$DIMDLI
 40
0.38
  9
$DIMRND
 40
0.0
  9
$DIMDLE
 40
0.0
  9
$DIMEXE
 40
0.18
  9
$DIMTP
 40
0.0
  9
$DIMTM
 40
0.0
  9
$DIMTXT
 40
0.18
  9
$DIMCEN
 40
0.09
  9
$DIMTSZ
 40
0.0
  9
$DIMTOL
 70
     0
  9
$DIMLIM
 70
     0
  9
$DIMTIH
 70
     1
  9
$DIMTOH
 70
     1
  9
$DIMSE1
 70
     0
  9
$DIMSE2
 70
     0
  9
$DIMTAD
 70
     0
  9
$DIMZIN
 70
     0
  9
$DIMBLK
  1

  9
$DIMASO
 70
     1
  9
$DIMSHO
 70
     1
  9
$DIMPOST
  1

  9
$DIMAPOST
  1

  9
$DIMALT
 70
     0
  9
$DIMALTD
 70
     2
  9
$DIMALTF
 40
25.4
  9
$DIMLFAC
 40
1.0
  9
$DIMTOFL
 70
     0
  9
$DIMTVP
 40
0.0
  9
$DIMTIX
 70
     0
  9
$DIMSOXD
 70
     0
  9
$DIMSAH
 70
     0
  9
$DIMBLK1
  1

  9
$DIMBLK2
  1

  9
$DIMSTYLE
  2
Standard
  9
$DIMCLRD
 70
     0
  9
$DIMCLRE
 70
     0
  9
$DIMCLRT
 70
     0
  9
$DIMTFAC
 40
1.0
  9
$DIMGAP
 40
0.09
  9
$DIMJUST
 70
     0
  9
$DIMSD1
 70
     0
  9
$DIMSD2
 70
     0
  9
$DIMTOLJ
 70
     1
  9
$DIMTZIN
 70
     0
  9
$DIMALTZ
 70
     0
  9
$DIMALTTZ
 70
     0
  9
$DIMUPT
 70
     0
  9
$DIMDEC
 70
     4
  9
$DIMTDEC
 70
     4
  9
$DIMALTU
 70
     2
  9
$DIMALTTD
 70
     2
  9
$DIMTXSTY
  7
Standard
  9
$DIMAUNIT
 70
     0
  9
$DIMADEC
 70
     0
  9
$DIMALTRND
 40
0.0
  9
$DIMAZIN
 70
     0
  9
$DIMDSEP
 70
    46
  9
$DIMATFIT
 70
     3
  9
$DIMFRAC
 70
     0
  9
$DIMLDRBLK
  1

  9
$DIMLUNIT
 70
     2
  9
$DIMLWD
 70
    -2
  9
$DIMLWE
 70
    -2
  9
$DIMTMOVE
 70
     2
  9
$LUNITS
 70
     2
  9
$LUPREC
 70
     3
  9
$SKETCHINC
 40
0.1
  9
$FILLETRAD
 40
0.5
  9
$AUNITS
 70
     0
  9
$AUPREC
 70
     0
  9
$MENU
  1
.
  9
$ELEVATION
 40
0.0
  9
$PELEVATION
 40
0.0
  9
$THICKNESS
 40
0.0
  9
$LIMCHECK
 70
     0
  9
$CHAMFERA
 40
0.5
  9
$CHAMFERB
 40
0.5
  9
$CHAMFERC
 40
1.0
  9
$CHAMFERD
 40
0.0
  9
$SKPOLY
 70
     0
  9
$TDCREATE
 40
2455490.584919965
  9
$TDUCREATE
 40
2455490.751586632
  9
$TDUPDATE
 40
2455490.584919977
  9
$TDUUPDATE
 40
2455490.751586644
  9
$TDINDWG
 40
0.0000000116
  9
$TDUSRTIMER
 40
0.0000000116
  9
$USRTIMER
 70
     1
  9
$ANGBASE
 50
0.0
  9
$ANGDIR
 70
     0
  9
$PDMODE
 70
     0
  9
$PDSIZE
 40
0.0
  9
$PLINEWID
 40
0.0
  9
$SPLFRAME
 70
     0
  9
$SPLINETYPE
 70
     6
  9
$SPLINESEGS
 70
     8
  9
$HANDSEED
  5
321
  9
$SURFTAB1
 70
     6
  9
$SURFTAB2
 70
     6
  9
$SURFTYPE
 70
     6
  9
$SURFU
 70
     6
  9
$SURFV
 70
     6
  9
$UCSBASE
  2

  9
$UCSNAME
  2

  9
$UCSORG
 10
0.0
 20
0.0
 30
0.0
  9
$UCSXDIR
 10
1.0
 20
0.0
 30
0.0
  9
$UCSYDIR
 10
0.0
 20
1.0
 30
0.0
  9
$UCSORTHOREF
  2

  9
$UCSORTHOVIEW
 70
     0
  9
$UCSORGTOP
 10
0.0
 20
0.0
 30
0.0
  9
$UCSORGBOTTOM
 10
0.0
 20
0.0
 30
0.0
  9
$UCSORGLEFT
 10
0.0
 20
0.0
 30
0.0
  9
$UCSORGRIGHT
 10
0.0
 20
0.0
 30
0.0
  9
$UCSORGFRONT
 10
0.0
 20
0.0
 30
0.0
  9
$UCSORGBACK
 10
0.0
 20
0.0
 30
0.0
  9
$PUCSBASE
  2

  9
$PUCSNAME
  2

  9
$PUCSORG
 10
0.0
 20
0.0
 30
0.0
  9
$PUCSXDIR
 10
1.0
 20
0.0
 30
0.0
  9
$PUCSYDIR
 10
0.0
 20
1.0
 30
0.0
  9
$PUCSORTHOREF
  2

  9
$PUCSORTHOVIEW
 70
     0
  9
$PUCSORGTOP
 10
0.0
 20
0.0
 30
0.0
  9
$PUCSORGBOTTOM
 10
0.0
 20
0.0
 30
0.0
  9
$PUCSORGLEFT
 10
0.0
 20
0.0
 30
0.0
  9
$PUCSORGRIGHT
 10
0.0
 20
0.0
 30
0.0
  9
$PUCSORGFRONT
 10
0.0
 20
0.0
 30
0.0
  9
$PUCSORGBACK
 10
0.0
 20
0.0
 30
0.0
  9
$USERI1
 70
     0
  9
$USERI2
 70
     0
  9
$USERI3
 70
     0
  9
$USERI4
 70
     0
  9
$USERI5
 70
     0
  9
$USERR1
 40
0.0
  9
$USERR2
 40
0.0
  9
$USERR3
 40
0.0
  9
$USERR4
 40
0.0
  9
$USERR5
 40
0.0
  9
$WORLDVIEW
 70
     1
  9
$SHADEDGE
 70
     3
  9
$SHADEDIF
 70
    70
  9
$TILEMODE
 70
     1
  9
$MAXACTVP
 70
    64
  9
$PINSBASE
 10
0.0
 20
0.0
 30
0.0
  9
$PLIMCHECK
 70
     0
  9
$PEXTMIN
 10
1.000000000000000E+20
 20
1.000000000000000E+20
 30
1.000000000000000E+20
  9
$PEXTMAX
 10
-1.000000000000000E+20
 20
-1.000000000000000E+20
 30
-1.000000000000000E+20
  9
$PLIMMIN
 10
0.0
 20
0.0
  9
$PLIMMAX
 10
12.0
 20
9.0
  9
$UNITMODE
 70
     0
  9
$VISRETAIN
 70
     1
  9
$PLINEGEN
 70
     0
  9
$PSLTSCALE
 70
     1
  9
$TREEDEPTH
 70
  3020
  9
$CMLSTYLE
  2
Standard
  9
$CMLJUST
 70
     0
  9
$CMLSCALE
 40
1.0
  9
$PROXYGRAPHICS
 70
     1
  9
$MEASUREMENT
 70
     0
  9
$CELWEIGHT
370
    -1
  9
$ENDCAPS
280
     0
  9
$JOINSTYLE
280
     0
  9
$LWDISPLAY
290
     0
  9
$INSUNITS
 70
     1
  9
$HYPERLINKBASE
  1

  9
$STYLESHEET
  1

  9
$XEDIT
290
     1
  9
$CEPSNTYPE
380
     0
  9
$PSTYLEMODE
290
     1
  9
$FINGERPRINTGUID
  2
{A146B101-3CE0-4A8B-8322-4872C58E42E8}
  9
$VERSIONGUID
  2
{FAEB1C32-E019-11D5-929B-00C0DF256EC4}
  9
$EXTNAMES
290
     1
  9
$PSVPSCALE
 40
0.0
  9
$OLESTARTUP
290
     0
  9
$SORTENTS
280
   127
  9
$INDEXCTL
280
     0
  9
$HIDETEXT
280
     1
  9
$XCLIPFRAME
290
     0
  9
$HALOGAP
280
     0
  9
$OBSCOLOR
 70
   257
  9
$OBSLTYPE
280
     0
  9
$INTERSECTIONDISPLAY
280
     0
  9
$INTERSECTIONCOLOR
 70
   257
  9
$DIMASSOC
280
     2
  9
$PROJECTNAME
  1

  0
ENDSEC
  0
SECTION
  2
CLASSES
  0
CLASS
  1
ACDBDICTIONARYWDFLT
  2
AcDbDictionaryWithDefault
  3
ObjectDBX Classes
 90
        0
 91
        4
280
     0
281
     0
  0
CLASS
  1
VISUALSTYLE
  2
AcDbVisualStyle
  3
ObjectDBX Classes
 90
     4095
 91
        4
280
     0
281
     0
  0
ENDSEC
  0
SECTION
  2
TABLES
  0
TABLE
  2
VPORT
  5
8
330
0
100
AcDbSymbolTable
 70
     1
  0
VPORT
  5
29
330
8
100
AcDbSymbolTableRecord
100
AcDbViewportTableRecord
  2
*Active
 70
     0
 10
0.0
 20
0.0
 11
1.0
 21
1.0
 12
18.57056522971092
 22
31.12689787998828
 13
0.0
 23
0.0
 14
0.5
 24
0.5
 15
0.5
 25
0.5
 16
0.0
 26
0.0
 36
1.0
 17
0.0
 27
0.0
 37
0.0
 40
63.49842275766792
 41
0.5966135054633388
 42
50.0
 43
0.0
 44
0.0
 50
0.0
 51
0.0
 71
     0
 72
   100
 73
     1
 74
     3
 75
     0
 76
     0
 77
     0
 78
     0
281
     0
 65
     1
110
0.0
120
0.0
130
0.0
111
1.0
121
0.0
131
0.0
112
0.0
122
1.0
132
0.0
 79
     0
146
0.0
  0
ENDTAB
  0
TABLE
  2
LTYPE
  5
5
330
0
100
AcDbSymbolTable
 70
     1
  0
LTYPE
  5
14
330
5
100
AcDbSymbolTableRecord
100
AcDbLinetypeTableRecord
  2
ByBlock
 70
     0
  3

 72
    65
 73
     0
 40
0.0
  0
LTYPE
  5
15
330
5
100
AcDbSymbolTableRecord
100
AcDbLinetypeTableRecord
  2
ByLayer
 70
     0
  3

 72
    65
 73
     0
 40
0.0
  0
LTYPE
  5
16
330
5
100
AcDbSymbolTableRecord
100
AcDbLinetypeTableRecord
  2
Continuous
 70
     0
  3
Solid line
 72
    65
 73
     0
 40
0.0
  0
ENDTAB
  0
TABLE
  2
LAYER
  5
2
330
0
100
AcDbSymbolTable
 70
     2
  0
LAYER
  5
10
330
2
100
AcDbSymbolTableRecord
100
AcDbLayerTableRecord
  2
0
 70
     0
 62
     7
  6
Continuous
370
    -3
390
F
  0
LAYER
  5
3B
330
2
100
AcDbSymbolTableRecord
100
AcDbLayerTableRecord
  2
MAKE2D VISIBLE LINES
 70
     0
 62
     7
  6
Continuous
370
    -3
390
F
  0
ENDTAB
  0
TABLE
  2
STYLE
  5
3
330
0
100
AcDbSymbolTable
 70
     1
  0
STYLE
  5
11
330
3
100
AcDbSymbolTableRecord
100
AcDbTextStyleTableRecord
  2
Standard
 70
     0
 40
0.0
 41
1.0
 50
0.0
 71
     0
 42
0.2
  3
txt
  4

  0
ENDTAB
  0
TABLE
  2
VIEW
  5
6
330
0
100
AcDbSymbolTable
 70
     0
  0
ENDTAB
  0
TABLE
  2
UCS
  5
7
330
0
100
AcDbSymbolTable
 70
     0
  0
ENDTAB
  0
TABLE
  2
APPID
  5
9
330
0
100
AcDbSymbolTable
 70
     1
  0
APPID
  5
12
330
9
100
AcDbSymbolTableRecord
100
AcDbRegAppTableRecord
  2
ACAD
 70
     0
  0
ENDTAB
  0
TABLE
  2
DIMSTYLE
  5
A
330
0
100
AcDbSymbolTable
 70
     1
100
AcDbDimStyleTable
  0
DIMSTYLE
105
27
330
A
100
AcDbSymbolTableRecord
100
AcDbDimStyleTableRecord
  2
Standard
 70
     0
340
11
  0
ENDTAB
  0
TABLE
  2
BLOCK_RECORD
  5
1
330
0
100
AcDbSymbolTable
 70
     1
  0
BLOCK_RECORD
  5
1F
330
1
100
AcDbSymbolTableRecord
100
AcDbBlockTableRecord
  2
*Model_Space
340
22
  0
BLOCK_RECORD
  5
1B
330
1
100
AcDbSymbolTableRecord
100
AcDbBlockTableRecord
  2
*Paper_Space
340
1E
  0
BLOCK_RECORD
  5
23
330
1
100
AcDbSymbolTableRecord
100
AcDbBlockTableRecord
  2
*Paper_Space0
340
26
  0
ENDTAB
  0
ENDSEC
  0
SECTION
  2
BLOCKS
  0
BLOCK
  5
20
330
1F
100
AcDbEntity
  8
0
100
AcDbBlockBegin
  2
*Model_Space
 70
     0
 10
0.0
 20
0.0
 30
0.0
  3
*Model_Space
  1

  0
ENDBLK
  5
21
330
1F
100
AcDbEntity
  8
0
100
AcDbBlockEnd
  0
BLOCK
  5
1C
330
1B
100
AcDbEntity
 67
     1
  8
0
100
AcDbBlockBegin
  2
*Paper_Space
 70
     0
 10
0.0
 20
0.0
 30
0.0
  3
*Paper_Space
  1

  0
ENDBLK
  5
1D
330
1B
100
AcDbEntity
 67
     1
  8
0
100
AcDbBlockEnd
  0
BLOCK
  5
24
330
23
100
AcDbEntity
  8
0
100
AcDbBlockBegin
  2
*Paper_Space0
 70
     0
 10
0.0
 20
0.0
 30
0.0
  3
*Paper_Space0
  1

  0
ENDBLK
  5
25
330
23
100
AcDbEntity
  8
0
100
AcDbBlockEnd
  0
ENDSEC
  0
SECTION
  2
ENTITIES
  0
LINE
  5
3C
330
1F
100
AcDbEntity
  8
MAKE2D VISIBLE LINES
100
AcDbLine
 10
12.28037229173366
 20
0.2669164283456134
 30
0.0
 11
12.27848168557734
 21
0.2600510813147994
 31
0.0
  0
LINE
  5
3D
330
1F
100
AcDbEntity
  8
MAKE2D VISIBLE LINES
100
AcDbLine
 10
12.27848168557734
 20
0.2600510813147994
 30
0.0
 11
12.27645756573576
 21
0.2532307346176287
 31
0.0
  0
LINE
  5
3E
330
1F
100
AcDbEntity
  8
MAKE2D VISIBLE LINES
100
AcDbLine
 10
12.27645756573576
 20
0.2532307346176287
 30
0.0
 11
12.27430080323438
 21
0.2464572664255888
 31
0.0
  0
LINE
  5
3F
330
1F
100
AcDbEntity
  8
MAKE2D VISIBLE LINES
100
AcDbLine
 10
12.27430080323438
 20
0.2464572664255888
 30
0.0
 11
12.27201226909865
 21
0.239732554910167
 31
0.0
  0
LINE
  5
40
330
1F
100
AcDbEntity
  8
MAKE2D VISIBLE LINES
100
AcDbLine
 10
12.27201226909865
 20
0.239732554910167
 30
0.0
 11
12.26959283435402
 21
0.233058478242851
 31
0.0
  0
LINE
  5
41
330
1F
100
AcDbEntity
  8
MAKE2D VISIBLE LINES
100
AcDbLine
 10
12.26959283435402
 20
0.233058478242851
 30
0.0
 11
12.26704337002595
 21
0.226436914595128
 31
0.0
  0
LINE
  5
42
330
1F
100
AcDbEntity
  8
MAKE2D VISIBLE LINES
100
AcDbLine
 10
12.26704337002595
 20
0.226436914595128
 30
0.0
 11
12.26436474713988
 21
0.2198697421384855
 31
0.0
  0
LINE
  5
43
330
1F
100
AcDbEntity
  8
MAKE2D VISIBLE LINES
100
AcDbLine
 10
12.26436474713988
 20
0.2198697421384855
 30
0.0
 11
12.26155783672127
 21
0.2133588390444111
 31
0.0
  0
LINE
  5
44
330
1F
100
AcDbEntity
  8
MAKE2D VISIBLE LINES
100
AcDbLine
 10
12.26155783672127
 20
0.2133588390444111
 30
0.0
 11
12.25862350979558
 21
0.2069060834843921
 31
0.0
  0
LINE
  5
45
330
1F
100
AcDbEntity
  8
MAKE2D VISIBLE LINES
100
AcDbLine
 10
12.25862350979558
 20
0.2069060834843921
 30
0.0
 11
12.25556263738825
 21
0.200513353629916
 31
0.0
  0
LINE
  5
46
330
1F
100
AcDbEntity
  8
MAKE2D VISIBLE LINES
100
AcDbLine
 10
12.25556263738825
 20
0.200513353629916
 30
0.0
 11
12.25237609052473
 21
0.1941825276524703
 31
0.0
  0
LINE
  5
47
330
1F
100
AcDbEntity
  8
MAKE2D VISIBLE LINES
100
AcDbLine
 10
12.25237609052473
 20
0.1941825276524703
 30
0.0
 11
12.24906474023049
 21
0.1879154837235424
 31
0.0
  0
LINE
  5
48
330
1F
100
AcDbEntity
  8
MAKE2D VISIBLE LINES
100
AcDbLine
 10
12.24906474023049
 20
0.1879154837235424
 30
0.0
 11
12.24562945753097
 21
0.1817141000146197
 31
0.0
  0
LINE
  5
49
330
1F
100
AcDbEntity
  8
MAKE2D VISIBLE LINES
100
AcDbLine
 10
12.24562945753097
 20
0.1817141000146197
 30
0.0
 11
12.24207111345163
 21
0.1755802546971899
 31
0.0
  0
LINE
  5
4A
330
1F
100
AcDbEntity
  8
MAKE2D VISIBLE LINES
100
AcDbLine
 10
12.24207111345163
 20
0.1755802546971899
 30
0.0
 11
12.23839057901791
 21
0.1695158259427401
 31
0.0
  0
LINE
  5
4B
330
1F
100
AcDbEntity
  8
MAKE2D VISIBLE LINES
100
AcDbLine
 10
12.23839057901791
 20
0.1695158259427401
 30
0.0
 11
12.23458872525527
 21
0.163522691922758
 31
0.0
  0
LINE
  5
4C
330
1F
100
AcDbEntity
  8
MAKE2D VISIBLE LINES
100
AcDbLine
 10
12.23458872525527
 20
0.163522691922758
 30
0.0
 11
12.2306196752063
 21
0.1575336839086451
 31
0.0
  0
LINE
  5
4D
330
1F
100
AcDbEntity
  8
MAKE2D VISIBLE LINES
100
AcDbLine
 10
12.2306196752063
 20
0.1575336839086451
 30
0.0
 11
12.22652910608304
 21
0.1516227913759939
 31
0.0
  0
LINE
  5
4E
330
1F
100
AcDbEntity
  8
MAKE2D VISIBLE LINES
100
AcDbLine
 10
12.22652910608304
 20
0.1516227913759939
 30
0.0
 11
12.22231880009975
 21
0.1457932236985903
 31
0.0
  0
LINE
  5
4F
330
1F
100
AcDbEntity
  8
MAKE2D VISIBLE LINES
100
AcDbLine
 10
12.22231880009975
 20
0.1457932236985903
 30
0.0
 11
12.21799053947066
 21
0.1400481902502204
 31
0.0
  0
LINE
  5
50
330
1F
100
AcDbEntity
  8
MAKE2D VISIBLE LINES
100
AcDbLine
 10
12.21799053947066
 20
0.1400481902502204
 30
0.0
 11
12.21354610641
 21
0.1343909004046704
 31
0.0
  0
LINE
  5
51
330
1F
100
AcDbEntity
  8
MAKE2D VISIBLE LINES
100
AcDbLine
 10
12.21354610641
 20
0.1343909004046704
 30
0.0
 11
12.20898728313202
 21
0.1288245635357261
 31
0.0
  0
LINE
  5
52
330
1F
100
AcDbEntity
  8
MAKE2D VISIBLE LINES
100
AcDbLine
 10
12.20898728313202
 20
0.1288245635357261
 30
0.0
 11
12.20431585185096
 21
0.1233523890171739
 31
0.0
  0
LINE
  5
53
330
1F
100
AcDbEntity
  8
MAKE2D VISIBLE LINES
100
AcDbLine
 10
12.20431585185096
 20
0.1233523890171739
 30
0.0
 11
12.19953359478104
 21
0.1179775862227996
 31
0.0
  0
LINE
  5
54
330
1F
100
AcDbEntity
  8
MAKE2D VISIBLE LINES
100
AcDbLine
 10
12.19953359478104
 20
0.1179775862227996
 30
0.0
 11
12.19464229413653
 21
0.1127033645263893
 31
0.0
  0
LINE
  5
55
330
1F
100
AcDbEntity
  8
MAKE2D VISIBLE LINES
100
AcDbLine
 10
12.19464229413653
 20
0.1127033645263893
 30
0.0
 11
12.18964373213164
 21
0.1075329333017292
 31
0.0
  0
LINE
  5
56
330
1F
100
AcDbEntity
  8
MAKE2D VISIBLE LINES
100
AcDbLine
 10
12.18964373213164
 20
0.1075329333017292
 30
0.0
 11
12.18453969098062
 21
0.1024695019226053
 31
0.0
  0
LINE
  5
57
330
1F
100
AcDbEntity
  8
MAKE2D VISIBLE LINES
100
AcDbLine
 10
12.18453969098062
 20
0.1024695019226053
 30
0.0
 11
12.17933195289772
 21
0.0975162797628037
 31
0.0
  0
LINE
  5
58
330
1F
100
AcDbEntity
  8
MAKE2D VISIBLE LINES
100
AcDbLine
 10
12.17933195289772
 20
0.0975162797628037
 30
0.0
 11
12.17402230009716
 21
0.0926764761961103
 31
0.0
  0
LINE
  5
59
330
1F
100
AcDbEntity
  8
MAKE2D VISIBLE LINES
100
AcDbLine
 10
12.17402230009716
 20
0.0926764761961103
 30
0.0
 11
12.16861251479319
 21
0.0879533005963114
 31
0.0
  0
LINE
  5
5A
330
1F
100
AcDbEntity
  8
MAKE2D VISIBLE LINES
100
AcDbLine
 10
12.16861251479319
 20
0.0879533005963114
 30
0.0
 11
12.16310437920005
 21
0.083349962337193
 31
0.0
  0
LINE
  5
5B
330
1F
100
AcDbEntity
  8
MAKE2D VISIBLE LINES
100
AcDbLine
 10
12.16310437920005
 20
0.083349962337193
 30
0.0
 11
12.15749967553197
 21
0.0788696707925411
 31
0.0
  0
LINE
  5
5C
330
1F
100
AcDbEntity
  8
MAKE2D VISIBLE LINES
100
AcDbLine
 10
12.15749967553197
 20
0.0788696707925411
 30
0.0
 11
12.15200481700755
 21
0.0746678590410765
 31
0.0
  0
LINE
  5
5D
330
1F
100
AcDbEntity
  8
MAKE2D VISIBLE LINES
100
AcDbLine
 10
12.15200481700755
 20
0.0746678590410765
 30
0.0
 11
12.14642462048527
 21
0.0705832639643258
 31
0.0
  0
LINE
  5
5E
330
1F
100
AcDbEntity
  8
MAKE2D VISIBLE LINES
100
AcDbLine
 10
12.14642462048527
 20
0.0705832639643258
 30
0.0
 11
12.14076190780594
 21
0.0666156721024838
 31
0.0
  0
LINE
  5
5F
330
1F
100
AcDbEntity
  8
MAKE2D VISIBLE LINES
100
AcDbLine
 10
12.14076190780594
 20
0.0666156721024838
 30
0.0
 11
12.13501950081037
 21
0.0627648699957453
 31
0.0
  0
LINE
  5
60
330
1F
100
AcDbEntity
  8
MAKE2D VISIBLE LINES
100
AcDbLine
 10
12.13501950081037
 20
0.0627648699957453
 30
0.0
 11
12.12920022133936
 21
0.0590306441843051
 31
0.0
  0
LINE
  5
61
330
1F
100
AcDbEntity
  8
MAKE2D VISIBLE LINES
100
AcDbLine
 10
12.12920022133936
 20
0.0590306441843051
 30
0.0
 11
12.12330689123374
 21
0.0554127812083578
 31
0.0
  0
LINE
  5
62
330
1F
100
AcDbEntity
  8
MAKE2D VISIBLE LINES
100
AcDbLine
 10
12.12330689123374
 20
0.0554127812083578
 30
0.0
 11
12.1173423323343
 21
0.0519110676080982
 31
0.0
  0
LINE
  5
63
330
1F
100
AcDbEntity
  8
MAKE2D VISIBLE LINES
100
AcDbLine
 10
12.1173423323343
 20
0.0519110676080982
 30
0.0
 11
12.11130936648187
 21
0.0485252899237211
 31
0.0
  0
LINE
  5
64
330
1F
100
AcDbEntity
  8
MAKE2D VISIBLE LINES
100
AcDbLine
 10
12.11130936648187
 20
0.0485252899237211
 30
0.0
 11
12.10521081551725
 21
0.0452552346954213
 31
0.0
  0
LINE
  5
65
330
1F
100
AcDbEntity
  8
MAKE2D VISIBLE LINES
100
AcDbLine
 10
12.10521081551725
 20
0.0452552346954213
 30
0.0
 11
12.09904950128126
 21
0.0421006884633934
 31
0.0
  0
LINE
  5
66
330
1F
100
AcDbEntity
  8
MAKE2D VISIBLE LINES
100
AcDbLine
 10
12.09904950128126
 20
0.0421006884633934
 30
0.0
 11
12.0928282456147
 21
0.0390614377678322
 31
0.0
  0
LINE
  5
67
330
1F
100
AcDbEntity
  8
MAKE2D VISIBLE LINES
100
AcDbLine
 10
12.0928282456147
 20
0.0390614377678322
 30
0.0
 11
12.08654987035839
 21
0.0361372691489325
 31
0.0
  0
LINE
  5
68
330
1F
100
AcDbEntity
  8
MAKE2D VISIBLE LINES
100
AcDbLine
 10
12.08654987035839
 20
0.0361372691489325
 30
0.0
 11
12.08021719735314
 21
0.033327969146889
 31
0.0
  0
LINE
  5
69
330
1F
100
AcDbEntity
  8
MAKE2D VISIBLE LINES
100
AcDbLine
 10
12.08021719735314
 20
0.033327969146889
 30
0.0
 11
12.07383304843975
 21
0.0306333243018965
 31
0.0
  0
LINE
  5
6A
330
1F
100
AcDbEntity
  8
MAKE2D VISIBLE LINES
100
AcDbLine
 10
12.07383304843975
 20
0.0306333243018965
 30
0.0
 11
12.06740024545904
 21
0.0280531211541497
 31
0.0
  0
LINE
  5
6B
330
1F
100
AcDbEntity
  8
MAKE2D VISIBLE LINES
100
AcDbLine
 10
12.06740024545904
 20
0.0280531211541497
 30
0.0
 11
12.06092161025182
 21
0.0255871462438434
 31
0.0
  0
LINE
  5
6C
330
1F
100
AcDbEntity
  8
MAKE2D VISIBLE LINES
100
AcDbLine
 10
12.06092161025182
 20
0.0255871462438434
 30
0.0
 11
12.05397631761457
 21
0.0230871027665546
 31
0.0
  0
LINE
  5
6D
330
1F
100
AcDbEntity
  8
MAKE2D VISIBLE LINES
100
AcDbLine
 10
12.05397631761457
 20
0.0230871027665546
 30
0.0
 11
12.04698492132119
 21
0.0207173810114729
 31
0.0
  0
LINE
  5
6E
330
1F
100
AcDbEntity
  8
MAKE2D VISIBLE LINES
100
AcDbLine
 10
12.04698492132119
 20
0.0207173810114729
 30
0.0
 11
12.03995007588492
 21
0.0184790513177797
 31
0.0
  0
LINE
  5
6F
330
1F
100
AcDbEntity
  8
MAKE2D VISIBLE LINES
100
AcDbLine
 10
12.03995007588492
 20
0.0184790513177797
 30
0.0
 11
12.03287443581898
 21
0.0163731840246567
 31
0.0
  0
LINE
  5
70
330
1F
100
AcDbEntity
  8
MAKE2D VISIBLE LINES
100
AcDbLine
 10
12.03287443581898
 20
0.0163731840246567
 30
0.0
 11
12.02576065563661
 21
0.0144008494712853
 31
0.0
  0
LINE
  5
71
330
1F
100
AcDbEntity
  8
MAKE2D VISIBLE LINES
100
AcDbLine
 10
12.02576065563661
 20
0.0144008494712853
 30
0.0
 11
12.01861138985101
 21
0.0125631179968469
 31
0.0
  0
LINE
  5
72
330
1F
100
AcDbEntity
  8
MAKE2D VISIBLE LINES
100
AcDbLine
 10
12.01861138985101
 20
0.0125631179968469
 30
0.0
 11
12.01142929297543
 21
0.0108610599405232
 31
0.0
  0
LINE
  5
73
330
1F
100
AcDbEntity
  8
MAKE2D VISIBLE LINES
100
AcDbLine
 10
12.01142929297543
 20
0.0108610599405232
 30
0.0
 11
12.00421701952309
 21
0.0092957456414955
 31
0.0
  0
LINE
  5
74
330
1F
100
AcDbEntity
  8
MAKE2D VISIBLE LINES
100
AcDbLine
 10
12.00421701952309
 20
0.0092957456414955
 30
0.0
 11
11.99697722400722
 21
0.0078682454389455
 31
0.0
  0
LINE
  5
75
330
1F
100
AcDbEntity
  8
MAKE2D VISIBLE LINES
100
AcDbLine
 10
11.99697722400722
 20
0.0078682454389455
 30
0.0
 11
11.98971256094104
 21
0.0065796296720546
 31
0.0
  0
LINE
  5
76
330
1F
100
AcDbEntity
  8
MAKE2D VISIBLE LINES
100
AcDbLine
 10
11.98971256094104
 20
0.0065796296720546
 30
0.0
 11
11.98242568483777
 21
0.0054309686800042
 31
0.0
  0
LINE
  5
77
330
1F
100
AcDbEntity
  8
MAKE2D VISIBLE LINES
100
AcDbLine
 10
11.98242568483777
 20
0.0054309686800042
 30
0.0
 11
11.97511925021066
 21
0.004423332801976
 31
0.0
  0
LINE
  5
78
330
1F
100
AcDbEntity
  8
MAKE2D VISIBLE LINES
100
AcDbLine
 10
11.97511925021066
 20
0.004423332801976
 30
0.0
 11
11.96779591157291
 21
0.0035577923771514
 31
0.0
  0
LINE
  5
79
330
1F
100
AcDbEntity
  8
MAKE2D VISIBLE LINES
100
AcDbLine
 10
11.96779591157291
 20
0.0035577923771514
 30
0.0
 11
11.96045832343777
 21
0.0028354177447119
 31
0.0
  0
LINE
  5
7A
330
1F
100
AcDbEntity
  8
MAKE2D VISIBLE LINES
100
AcDbLine
 10
11.96045832343777
 20
0.0028354177447119
 30
0.0
 11
11.95310914031845
 21
0.0022572792438389
 31
0.0
  0
LINE
  5
7B
330
1F
100
AcDbEntity
  8
MAKE2D VISIBLE LINES
100
AcDbLine
 10
11.95310914031845
 20
0.0022572792438389
 30
0.0
 11
11.94575101672818
 21
0.0018244472137141
 31
0.0
  0
LINE
  5
7C
330
1F
100
AcDbEntity
  8
MAKE2D VISIBLE LINES
100
AcDbLine
 10
11.94575101672818
 20
0.0018244472137141
 30
0.0
 11
11.93160062694957
 21
0.0013583928489324
 31
0.0
  0
LINE
  5
7D
330
1F
100
AcDbEntity
  8
MAKE2D VISIBLE LINES
100
AcDbLine
 10
11.93160062694957
 20
0.0013583928489324
 30
0.0
 11
6.04966629873559
 21
0.0002252880977931
 31
0.0
  0
LINE
  5
7E
330
1F
100
AcDbEntity
  8
MAKE2D VISIBLE LINES
100
AcDbLine
 10
12.80322168408119
 20
0.0006601766680471
 30
0.0
 11
31.15450265717587
 21
0.0002200576020439
 31
0.0
  0
ARC
  5
7F
330
1F
100
AcDbEntity
  8
MAKE2D VISIBLE LINES
100
AcDbCircle
 10
31.11037919539928
 20
0.2500773397762494
 30
0.0
 40
0.253723355910784
100
AcDbArc
 50
280.0148737446543
 51
347.5790342561232
  0
LINE
  5
80
330
1F
100
AcDbEntity
  8
MAKE2D VISIBLE LINES
100
AcDbLine
 10
33.52666646880073
 20
17.91656665524121
 30
0.0
 11
33.53501871087815
 21
17.91589790378519
 31
0.0
  0
LINE
  5
81
330
1F
100
AcDbEntity
  8
MAKE2D VISIBLE LINES
100
AcDbLine
 10
33.53501871087815
 20
17.91589790378519
 30
0.0
 11
33.54334604989523
 21
17.91501133394685
 31
0.0
  0
LINE
  5
82
330
1F
100
AcDbEntity
  8
MAKE2D VISIBLE LINES
100
AcDbLine
 10
33.54334604989523
 20
17.91501133394685
 30
0.0
 11
33.55164416453864
 21
17.91390949581789
 31
0.0
  0
LINE
  5
83
330
1F
100
AcDbEntity
  8
MAKE2D VISIBLE LINES
100
AcDbLine
 10
33.55164416453864
 20
17.91390949581789
 30
0.0
 11
33.55990873349505
 21
17.91259493949002
 31
0.0
  0
LINE
  5
84
330
1F
100
AcDbEntity
  8
MAKE2D VISIBLE LINES
100
AcDbLine
 10
33.55990873349505
 20
17.91259493949002
 30
0.0
 11
33.56813543545108
 21
17.91107021505494
 31
0.0
  0
LINE
  5
85
330
1F
100
AcDbEntity
  8
MAKE2D VISIBLE LINES
100
AcDbLine
 10
33.56813543545108
 20
17.91107021505494
 30
0.0
 11
33.57631994909341
 21
17.90933787260436
 31
0.0
  0
LINE
  5
86
330
1F
100
AcDbEntity
  8
MAKE2D VISIBLE LINES
100
AcDbLine
 10
33.57631994909341
 20
17.90933787260436
 30
0.0
 11
33.58445795310867
 21
17.90740046222998
 31
0.0
  0
LINE
  5
87
330
1F
100
AcDbEntity
  8
MAKE2D VISIBLE LINES
100
AcDbLine
 10
33.58445795310867
 20
17.90740046222998
 30
0.0
 11
33.59254512618352
 21
17.9052605340235
 31
0.0
  0
LINE
  5
88
330
1F
100
AcDbEntity
  8
MAKE2D VISIBLE LINES
100
AcDbLine
 10
33.59254512618352
 20
17.9052605340235
 30
0.0
 11
33.6005771470046
 21
17.90292063807665
 31
0.0
  0
LINE
  5
89
330
1F
100
AcDbEntity
  8
MAKE2D VISIBLE LINES
100
AcDbLine
 10
33.6005771470046
 20
17.90292063807665
 30
0.0
 11
33.60854969425858
 21
17.90038332448111
 31
0.0
  0
LINE
  5
8A
330
1F
100
AcDbEntity
  8
MAKE2D VISIBLE LINES
100
AcDbLine
 10
33.60854969425858
 20
17.90038332448111
 30
0.0
 11
33.61645844663211
 21
17.8976511433286
 31
0.0
  0
LINE
  5
8B
330
1F
100
AcDbEntity
  8
MAKE2D VISIBLE LINES
100
AcDbLine
 10
33.61645844663211
 20
17.8976511433286
 30
0.0
 11
33.62429908281182
 21
17.89472664471081
 31
0.0
  0
LINE
  5
8C
330
1F
100
AcDbEntity
  8
MAKE2D VISIBLE LINES
100
AcDbLine
 10
33.62429908281182
 20
17.89472664471081
 30
0.0
 11
33.63206728148437
 21
17.89161237871946
 31
0.0
  0
LINE
  5
8D
330
1F
100
AcDbEntity
  8
MAKE2D VISIBLE LINES
100
AcDbLine
 10
33.63206728148437
 20
17.89161237871946
 30
0.0
 11
33.63975872133643
 21
17.88831089544626
 31
0.0
  0
LINE
  5
8E
330
1F
100
AcDbEntity
  8
MAKE2D VISIBLE LINES
100
AcDbLine
 10
33.63975872133643
 20
17.88831089544626
 30
0.0
 11
33.64736908105463
 21
17.88482474498289
 31
0.0
  0
LINE
  5
8F
330
1F
100
AcDbEntity
  8
MAKE2D VISIBLE LINES
100
AcDbLine
 10
33.64736908105463
 20
17.88482474498289
 30
0.0
 11
33.65489403932564
 21
17.88115647742108
 31
0.0
  0
LINE
  5
90
330
1F
100
AcDbEntity
  8
MAKE2D VISIBLE LINES
100
AcDbLine
 10
33.65489403932564
 20
17.88115647742108
 30
0.0
 11
33.6623292748361
 21
17.87730864285253
 31
0.0
  0
LINE
  5
91
330
1F
100
AcDbEntity
  8
MAKE2D VISIBLE LINES
100
AcDbLine
 10
33.6623292748361
 20
17.87730864285253
 30
0.0
 11
33.66967046627266
 21
17.87328379136894
 31
0.0
  0
LINE
  5
92
330
1F
100
AcDbEntity
  8
MAKE2D VISIBLE LINES
100
AcDbLine
 10
33.66967046627266
 20
17.87328379136894
 30
0.0
 11
33.67691329232196
 21
17.86908447306202
 31
0.0
  0
LINE
  5
93
330
1F
100
AcDbEntity
  8
MAKE2D VISIBLE LINES
100
AcDbLine
 10
33.67691329232196
 20
17.86908447306202
 30
0.0
 11
33.68405343167068
 21
17.86471323802347
 31
0.0
  0
LINE
  5
94
330
1F
100
AcDbEntity
  8
MAKE2D VISIBLE LINES
100
AcDbLine
 10
33.68405343167068
 20
17.86471323802347
 30
0.0
 11
33.69108656300545
 21
17.86017263634499
 31
0.0
  0
LINE
  5
95
330
1F
100
AcDbEntity
  8
MAKE2D VISIBLE LINES
100
AcDbLine
 10
33.69108656300545
 20
17.86017263634499
 30
0.0
 11
33.69800836501294
 21
17.8554652181183
 31
0.0
  0
LINE
  5
96
330
1F
100
AcDbEntity
  8
MAKE2D VISIBLE LINES
100
AcDbLine
 10
33.69800836501294
 20
17.8554652181183
 30
0.0
 11
33.70481451637978
 21
17.85059353343511
 31
0.0
  0
LINE
  5
97
330
1F
100
AcDbEntity
  8
MAKE2D VISIBLE LINES
100
AcDbLine
 10
33.70481451637978
 20
17.85059353343511
 30
0.0
 11
33.71150069579264
 21
17.84556013238711
 31
0.0
  0
LINE
  5
98
330
1F
100
AcDbEntity
  8
MAKE2D VISIBLE LINES
100
AcDbLine
 10
33.71150069579264
 20
17.84556013238711
 30
0.0
 11
33.71806258193816
 21
17.840367565066
 31
0.0
  0
LINE
  5
99
330
1F
100
AcDbEntity
  8
MAKE2D VISIBLE LINES
100
AcDbLine
 10
33.71806258193816
 20
17.840367565066
 30
0.0
 11
33.72449585350299
 21
17.83501838156351
 31
0.0
  0
LINE
  5
9A
330
1F
100
AcDbEntity
  8
MAKE2D VISIBLE LINES
100
AcDbLine
 10
33.72449585350299
 20
17.83501838156351
 30
0.0
 11
33.73079618917379
 21
17.82951513197132
 31
0.0
  0
LINE
  5
9B
330
1F
100
AcDbEntity
  8
MAKE2D VISIBLE LINES
100
AcDbLine
 10
33.73079618917379
 20
17.82951513197132
 30
0.0
 11
33.7369592676372
 21
17.82386036638115
 31
0.0
  0
LINE
  5
9C
330
1F
100
AcDbEntity
  8
MAKE2D VISIBLE LINES
100
AcDbLine
 10
33.7369592676372
 20
17.82386036638115
 30
0.0
 11
33.74298076757989
 21
17.81805663488471
 31
0.0
  0
LINE
  5
9D
330
1F
100
AcDbEntity
  8
MAKE2D VISIBLE LINES
100
AcDbLine
 10
33.74298076757989
 20
17.81805663488471
 30
0.0
 11
33.7488563676885
 21
17.81210648757369
 31
0.0
  0
LINE
  5
9E
330
1F
100
AcDbEntity
  8
MAKE2D VISIBLE LINES
100
AcDbLine
 10
33.7488563676885
 20
17.81210648757369
 30
0.0
 11
33.75458174664968
 21
17.8060124745398
 31
0.0
  0
LINE
  5
9F
330
1F
100
AcDbEntity
  8
MAKE2D VISIBLE LINES
100
AcDbLine
 10
33.75458174664968
 20
17.8060124745398
 30
0.0
 11
33.76015258315008
 21
17.79977714587475
 31
0.0
  0
LINE
  5
A0
330
1F
100
AcDbEntity
  8
MAKE2D VISIBLE LINES
100
AcDbLine
 10
33.76015258315008
 20
17.79977714587475
 30
0.0
 11
33.76563233236587
 21
17.79332231657802
 31
0.0
  0
LINE
  5
A1
330
1F
100
AcDbEntity
  8
MAKE2D VISIBLE LINES
100
AcDbLine
 10
33.76563233236587
 20
17.79332231657802
 30
0.0
 11
33.77094842187068
 21
17.78673055092242
 31
0.0
  0
LINE
  5
A2
330
1F
100
AcDbEntity
  8
MAKE2D VISIBLE LINES
100
AcDbLine
 10
33.77094842187068
 20
17.78673055092242
 30
0.0
 11
33.7761000841776
 21
17.78000719688965
 31
0.0
  0
LINE
  5
A3
330
1F
100
AcDbEntity
  8
MAKE2D VISIBLE LINES
100
AcDbLine
 10
33.7761000841776
 20
17.78000719688965
 30
0.0
 11
33.78108655179969
 21
17.77315760246141
 31
0.0
  0
LINE
  5
A4
330
1F
100
AcDbEntity
  8
MAKE2D VISIBLE LINES
100
AcDbLine
 10
33.78108655179969
 20
17.77315760246141
 30
0.0
 11
33.78590705725
 21
17.76618711561937
 31
0.0
  0
LINE
  5
A5
330
1F
100
AcDbEntity
  8
MAKE2D VISIBLE LINES
100
AcDbLine
 10
33.78590705725
 20
17.76618711561937
 30
0.0
 11
33.79056083304161
 21
17.75910108434526
 31
0.0
  0
LINE
  5
A6
330
1F
100
AcDbEntity
  8
MAKE2D VISIBLE LINES
100
AcDbLine
 10
33.79056083304161
 20
17.75910108434526
 30
0.0
 11
33.79504711168758
 21
17.75190485662075
 31
0.0
  0
LINE
  5
A7
330
1F
100
AcDbEntity
  8
MAKE2D VISIBLE LINES
100
AcDbLine
 10
33.79504711168758
 20
17.75190485662075
 30
0.0
 11
33.79936512570097
 21
17.74460378042755
 31
0.0
  0
LINE
  5
A8
330
1F
100
AcDbEntity
  8
MAKE2D VISIBLE LINES
100
AcDbLine
 10
33.79936512570097
 20
17.74460378042755
 30
0.0
 11
33.80351410759486
 21
17.73720320374734
 31
0.0
  0
LINE
  5
A9
330
1F
100
AcDbEntity
  8
MAKE2D VISIBLE LINES
100
AcDbLine
 10
33.80351410759486
 20
17.73720320374734
 30
0.0
 11
33.8074932898823
 21
17.72970847456183
 31
0.0
  0
LINE
  5
AA
330
1F
100
AcDbEntity
  8
MAKE2D VISIBLE LINES
100
AcDbLine
 10
33.8074932898823
 20
17.72970847456183
 30
0.0
 11
33.81130190507636
 21
17.72212494085271
 31
0.0
  0
LINE
  5
AB
330
1F
100
AcDbEntity
  8
MAKE2D VISIBLE LINES
100
AcDbLine
 10
33.81130190507636
 20
17.72212494085271
 30
0.0
 11
33.81493918569011
 21
17.71445795060168
 31
0.0
  0
LINE
  5
AC
330
1F
100
AcDbEntity
  8
MAKE2D VISIBLE LINES
100
AcDbLine
 10
33.81493918569011
 20
17.71445795060168
 30
0.0
 11
33.81840436423661
 21
17.70671285179042
 31
0.0
  0
LINE
  5
AD
330
1F
100
AcDbEntity
  8
MAKE2D VISIBLE LINES
100
AcDbLine
 10
33.81840436423661
 20
17.70671285179042
 30
0.0
 11
33.82169667322893
 21
17.69889499240065
 31
0.0
  0
LINE
  5
AE
330
1F
100
AcDbEntity
  8
MAKE2D VISIBLE LINES
100
AcDbLine
 10
33.82169667322893
 20
17.69889499240065
 30
0.0
 11
33.82481534518013
 21
17.69100972041403
 31
0.0
  0
LINE
  5
AF
330
1F
100
AcDbEntity
  8
MAKE2D VISIBLE LINES
100
AcDbLine
 10
33.82481534518013
 20
17.69100972041403
 30
0.0
 11
33.82775961260327
 21
17.68306238381229
 31
0.0
  0
LINE
  5
B0
330
1F
100
AcDbEntity
  8
MAKE2D VISIBLE LINES
100
AcDbLine
 10
33.82775961260327
 20
17.68306238381229
 30
0.0
 11
33.83063268203822
 21
17.67474759297849
 31
0.0
  0
LINE
  5
B1
330
1F
100
AcDbEntity
  8
MAKE2D VISIBLE LINES
100
AcDbLine
 10
33.83063268203822
 20
17.67474759297849
 30
0.0
 11
33.83331894435501
 21
17.66637519637241
 31
0.0
  0
LINE
  5
B2
330
1F
100
AcDbEntity
  8
MAKE2D VISIBLE LINES
100
AcDbLine
 10
33.83331894435501
 20
17.66637519637241
 30
0.0
 11
33.83582056299095
 21
17.6579487725024
 31
0.0
  0
LINE
  5
B3
330
1F
100
AcDbEntity
  8
MAKE2D VISIBLE LINES
100
AcDbLine
 10
33.83582056299095
 20
17.6579487725024
 30
0.0
 11
33.83813970138335
 21
17.64947189987683
 31
0.0
  0
LINE
  5
B4
330
1F
100
AcDbEntity
  8
MAKE2D VISIBLE LINES
100
AcDbLine
 10
33.83813970138335
 20
17.64947189987683
 30
0.0
 11
33.84027852296956
 21
17.64094815700407
 31
0.0
  0
LINE
  5
B5
330
1F
100
AcDbEntity
  8
MAKE2D VISIBLE LINES
100
AcDbLine
 10
33.84027852296956
 20
17.64094815700407
 30
0.0
 11
33.8422391911869
 21
17.63238112239246
 31
0.0
  0
LINE
  5
B6
330
1F
100
AcDbEntity
  8
MAKE2D VISIBLE LINES
100
AcDbLine
 10
33.8422391911869
 20
17.63238112239246
 30
0.0
 11
33.84402386947268
 21
17.62377437455038
 31
0.0
  0
LINE
  5
B7
330
1F
100
AcDbEntity
  8
MAKE2D VISIBLE LINES
100
AcDbLine
 10
33.84402386947268
 20
17.62377437455038
 30
0.0
 11
33.84563472126422
 21
17.61513149198618
 31
0.0
  0
LINE
  5
B8
330
1F
100
AcDbEntity
  8
MAKE2D VISIBLE LINES
100
AcDbLine
 10
33.84563472126422
 20
17.61513149198618
 30
0.0
 11
33.84707390999885
 21
17.60645605320823
 31
0.0
  0
LINE
  5
B9
330
1F
100
AcDbEntity
  8
MAKE2D VISIBLE LINES
100
AcDbLine
 10
33.84707390999885
 20
17.60645605320823
 30
0.0
 11
33.8483435991139
 21
17.5977516367249
 31
0.0
  0
LINE
  5
BA
330
1F
100
AcDbEntity
  8
MAKE2D VISIBLE LINES
100
AcDbLine
 10
33.8483435991139
 20
17.5977516367249
 30
0.0
 11
33.84944595204669
 21
17.58902182104454
 31
0.0
  0
LINE
  5
BB
330
1F
100
AcDbEntity
  8
MAKE2D VISIBLE LINES
100
AcDbLine
 10
33.84944595204669
 20
17.58902182104454
 30
0.0
 11
33.85038313223454
 21
17.58027018467551
 31
0.0
  0
LINE
  5
BC
330
1F
100
AcDbEntity
  8
MAKE2D VISIBLE LINES
100
AcDbLine
 10
33.85038313223454
 20
17.58027018467551
 30
0.0
 11
33.85115730311477
 21
17.57150030612617
 31
0.0
  0
LINE
  5
BD
330
1F
100
AcDbEntity
  8
MAKE2D VISIBLE LINES
100
AcDbLine
 10
33.85115730311477
 20
17.57150030612617
 30
0.0
 11
33.8517706281247
 21
17.56271576390489
 31
0.0
  0
LINE
  5
BE
330
1F
100
AcDbEntity
  8
MAKE2D VISIBLE LINES
100
AcDbLine
 10
33.8517706281247
 20
17.56271576390489
 30
0.0
 11
33.85222527070165
 21
17.55392013652003
 31
0.0
  0
LINE
  5
BF
330
1F
100
AcDbEntity
  8
MAKE2D VISIBLE LINES
100
AcDbLine
 10
33.85222527070165
 20
17.55392013652003
 30
0.0
 11
33.85252339428297
 21
17.54511700247996
 31
0.0
  0
LINE
  5
C0
330
1F
100
AcDbEntity
  8
MAKE2D VISIBLE LINES
100
AcDbLine
 10
33.85252339428297
 20
17.54511700247996
 30
0.0
 11
33.84707168478467
 21
7.792597269062232
 31
0.0
  0
LINE
  5
C1
330
1F
100
AcDbEntity
  8
MAKE2D VISIBLE LINES
100
AcDbLine
 10
33.84707168478467
 20
7.792597269062232
 30
0.0
 11
33.84643547152447
 21
7.711272138826873
 31
0.0
  0
LINE
  5
C2
330
1F
100
AcDbEntity
  8
MAKE2D VISIBLE LINES
100
AcDbLine
 10
33.84643547152447
 20
7.711272138826873
 30
0.0
 11
33.8455683518124
 21
7.690129196029542
 31
0.0
  0
LINE
  5
C3
330
1F
100
AcDbEntity
  8
MAKE2D VISIBLE LINES
100
AcDbLine
 10
33.8455683518124
 20
7.690129196029542
 30
0.0
 11
33.84404055549527
 21
7.669020070437516
 31
0.0
  0
LINE
  5
C4
330
1F
100
AcDbEntity
  8
MAKE2D VISIBLE LINES
100
AcDbLine
 10
33.84404055549527
 20
7.669020070437516
 30
0.0
 11
33.84197881702028
 21
7.647947136692245
 31
0.0
  0
LINE
  5
C5
330
1F
100
AcDbEntity
  8
MAKE2D VISIBLE LINES
100
AcDbLine
 10
33.84197881702028
 20
7.647947136692245
 30
0.0
 11
33.83950987083462
 21
7.626912769435178
 31
0.0
  0
LINE
  5
C6
330
1F
100
AcDbEntity
  8
MAKE2D VISIBLE LINES
100
AcDbLine
 10
33.83950987083462
 20
7.626912769435178
 30
0.0
 11
33.83343547855671
 21
7.583275040644155
 31
0.0
  0
LINE
  5
C7
330
1F
100
AcDbEntity
  8
MAKE2D VISIBLE LINES
100
AcDbLine
 10
33.83343547855671
 20
7.583275040644155
 30
0.0
 11
33.82618458002031
 21
7.539831381363618
 31
0.0
  0
LINE
  5
C8
330
1F
100
AcDbEntity
  8
MAKE2D VISIBLE LINES
100
AcDbLine
 10
33.82618458002031
 20
7.539831381363618
 30
0.0
 11
33.81779518812047
 21
7.496598575805907
 31
0.0
  0
LINE
  5
C9
330
1F
100
AcDbEntity
  8
MAKE2D VISIBLE LINES
100
AcDbLine
 10
33.81779518812047
 20
7.496598575805907
 30
0.0
 11
33.80830531575225
 21
7.453593408183361
 31
0.0
  0
LINE
  5
CA
330
1F
100
AcDbEntity
  8
MAKE2D VISIBLE LINES
100
AcDbLine
 10
33.80830531575225
 20
7.453593408183361
 30
0.0
 11
33.79714301564074
 21
7.408460444159153
 31
0.0
  0
LINE
  5
CB
330
1F
100
AcDbEntity
  8
MAKE2D VISIBLE LINES
100
AcDbLine
 10
33.79714301564074
 20
7.408460444159153
 30
0.0
 11
33.78488413751734
 21
7.363604691329113
 31
0.0
  0
LINE
  5
CC
330
1F
100
AcDbEntity
  8
MAKE2D VISIBLE LINES
100
AcDbLine
 10
33.78488413751734
 20
7.363604691329113
 30
0.0
 11
33.77161598867281
 21
7.319031006421895
 31
0.0
  0
LINE
  5
CD
330
1F
100
AcDbEntity
  8
MAKE2D VISIBLE LINES
100
AcDbLine
 10
33.77161598867281
 20
7.319031006421895
 30
0.0
 11
31.42527404393107
 21
0.38970607839454
 31
0.0
  0
LINE
  5
CE
330
1F
100
AcDbEntity
  8
MAKE2D VISIBLE LINES
100
AcDbLine
 10
31.42527404393107
 20
0.38970607839454
 30
0.0
 11
31.35839264124419
 21
0.1954230450315147
 31
0.0
  0
LINE
  5
CF
330
1F
100
AcDbEntity
  8
MAKE2D VISIBLE LINES
100
AcDbLine
 10
12.7695467690852
 20
0.4394286938612532
 30
0.0
 11
18.22040073116945
 21
0.4377249257824867
 31
0.0
  0
LINE
  5
D0
330
1F
100
AcDbEntity
  8
MAKE2D VISIBLE LINES
100
AcDbLine
 10
18.22040073116945
 20
0.4377249257824867
 30
0.0
 11
30.9797085871508
 21
0.4379741060431847
 31
0.0
  0
LINE
  5
D1
330
1F
100
AcDbEntity
  8
MAKE2D VISIBLE LINES
100
AcDbLine
 10
30.9797085871508
 20
0.4379741060431847
 30
0.0
 11
33.34832824114727
 21
7.431804001730574
 31
0.0
  0
LINE
  5
D2
330
1F
100
AcDbEntity
  8
MAKE2D VISIBLE LINES
100
AcDbLine
 10
37.14111251661178
 20
18.06971467564716
 30
0.0
 11
37.14111251661159
 21
17.91701551504909
 31
0.0
  0
LINE
  5
D3
330
1F
100
AcDbEntity
  8
MAKE2D VISIBLE LINES
100
AcDbLine
 10
37.14111251661159
 20
17.91701551504909
 30
0.0
 11
0.1351377134119487
 21
17.91701082215519
 31
0.0
  0
LINE
  5
D4
330
1F
100
AcDbEntity
  8
MAKE2D VISIBLE LINES
100
AcDbLine
 10
0.1351377134119487
 20
17.91701082215519
 30
0.0
 11
0.1351377134117868
 21
18.06971467564716
 31
0.0
  0
LINE
  5
D5
330
1F
100
AcDbEntity
  8
MAKE2D VISIBLE LINES
100
AcDbLine
 10
1.800631014719422
 20
17.91722645471439
 30
0.0
 11
1.806538032570044
 21
17.91681491911978
 31
0.0
  0
LINE
  5
D6
330
1F
100
AcDbEntity
  8
MAKE2D VISIBLE LINES
100
AcDbLine
 10
1.806538032570044
 20
17.91681491911978
 30
0.0
 11
1.812433079452404
 21
17.91628654645437
 31
0.0
  0
LINE
  5
D7
330
1F
100
AcDbEntity
  8
MAKE2D VISIBLE LINES
100
AcDbLine
 10
1.812433079452404
 20
17.91628654645437
 30
0.0
 11
1.818314920897823
 21
17.91564369742821
 31
0.0
  0
LINE
  5
D8
330
1F
100
AcDbEntity
  8
MAKE2D VISIBLE LINES
100
AcDbLine
 10
1.818314920897823
 20
17.91564369742821
 30
0.0
 11
1.824182322437623
 21
17.91488873275136
 31
0.0
  0
LINE
  5
D9
330
1F
100
AcDbEntity
  8
MAKE2D VISIBLE LINES
100
AcDbLine
 10
1.824182322437623
 20
17.91488873275136
 30
0.0
 11
1.830034049603123
 21
17.91402401313389
 31
0.0
  0
LINE
  5
DA
330
1F
100
AcDbEntity
  8
MAKE2D VISIBLE LINES
100
AcDbLine
 10
1.830034049603123
 20
17.91402401313389
 30
0.0
 11
1.835868867925646
 21
17.91305189928585
 31
0.0
  0
LINE
  5
DB
330
1F
100
AcDbEntity
  8
MAKE2D VISIBLE LINES
100
AcDbLine
 10
1.835868867925646
 20
17.91305189928585
 30
0.0
 11
1.841685542936511
 21
17.9119747519173
 31
0.0
  0
LINE
  5
DC
330
1F
100
AcDbEntity
  8
MAKE2D VISIBLE LINES
100
AcDbLine
 10
1.841685542936511
 20
17.9119747519173
 30
0.0
 11
1.847482840167041
 21
17.9107949317383
 31
0.0
  0
LINE
  5
DD
330
1F
100
AcDbEntity
  8
MAKE2D VISIBLE LINES
100
AcDbLine
 10
1.847482840167041
 20
17.9107949317383
 30
0.0
 11
1.859014363412375
 21
17.90813671578919
 31
0.0
  0
LINE
  5
DE
330
1F
100
AcDbEntity
  8
MAKE2D VISIBLE LINES
100
AcDbLine
 10
1.859014363412375
 20
17.90813671578919
 30
0.0
 11
1.870453561912216
 21
17.90509613711899
 31
0.0
  0
LINE
  5
DF
330
1F
100
AcDbEntity
  8
MAKE2D VISIBLE LINES
100
AcDbLine
 10
1.870453561912216
 20
17.90509613711899
 30
0.0
 11
1.881790559917131
 21
17.90169208140817
 31
0.0
  0
LINE
  5
E0
330
1F
100
AcDbEntity
  8
MAKE2D VISIBLE LINES
100
AcDbLine
 10
1.881790559917131
 20
17.90169208140817
 30
0.0
 11
1.893015481677687
 21
17.89794343433721
 31
0.0
  0
LINE
  5
E1
330
1F
100
AcDbEntity
  8
MAKE2D VISIBLE LINES
100
AcDbLine
 10
1.893015481677687
 20
17.89794343433721
 30
0.0
 11
1.905984928406495
 21
17.89314908257762
 31
0.0
  0
LINE
  5
E2
330
1F
100
AcDbEntity
  8
MAKE2D VISIBLE LINES
100
AcDbLine
 10
1.905984928406495
 20
17.89314908257762
 30
0.0
 11
1.91878903185084
 21
17.88793610353254
 31
0.0
  0
LINE
  5
E3
330
1F
100
AcDbEntity
  8
MAKE2D VISIBLE LINES
100
AcDbLine
 10
1.91878903185084
 20
17.88793610353254
 30
0.0
 11
1.931429103019682
 21
17.88233096513981
 31
0.0
  0
LINE
  5
E4
330
1F
100
AcDbEntity
  8
MAKE2D VISIBLE LINES
100
AcDbLine
 10
1.931429103019682
 20
17.88233096513981
 30
0.0
 11
1.943906452921982
 21
17.87636013533726
 31
0.0
  0
LINE
  5
E5
330
1F
100
AcDbEntity
  8
MAKE2D VISIBLE LINES
100
AcDbLine
 10
1.943906452921982
 20
17.87636013533726
 30
0.0
 11
1.956222392566701
 21
17.87005008206273
 31
0.0
  0
LINE
  5
E6
330
1F
100
AcDbEntity
  8
MAKE2D VISIBLE LINES
100
AcDbLine
 10
1.956222392566701
 20
17.87005008206273
 30
0.0
 11
1.968378232962799
 21
17.86342727325405
 31
0.0
  0
LINE
  5
E7
330
1F
100
AcDbEntity
  8
MAKE2D VISIBLE LINES
100
AcDbLine
 10
1.968378232962799
 20
17.86342727325405
 30
0.0
 11
1.980375285119238
 21
17.85651817684904
 31
0.0
  0
LINE
  5
E8
330
1F
100
AcDbEntity
  8
MAKE2D VISIBLE LINES
100
AcDbLine
 10
1.980375285119238
 20
17.85651817684904
 30
0.0
 11
1.992214860044978
 21
17.84934926078554
 31
0.0
  0
LINE
  5
E9
330
1F
100
AcDbEntity
  8
MAKE2D VISIBLE LINES
100
AcDbLine
 10
1.992214860044978
 20
17.84934926078554
 30
0.0
 11
2.00646387514125
 21
17.8402740097145
 31
0.0
  0
LINE
  5
EA
330
1F
100
AcDbEntity
  8
MAKE2D VISIBLE LINES
100
AcDbLine
 10
2.00646387514125
 20
17.8402740097145
 30
0.0
 11
2.020484742120283
 21
17.83086553393768
 31
0.0
  0
LINE
  5
EB
330
1F
100
AcDbEntity
  8
MAKE2D VISIBLE LINES
100
AcDbLine
 10
2.020484742120283
 20
17.83086553393768
 30
0.0
 11
2.034282267314867
 21
17.82113870144912
 31
0.0
  0
LINE
  5
EC
330
1F
100
AcDbEntity
  8
MAKE2D VISIBLE LINES
100
AcDbLine
 10
2.034282267314867
 20
17.82113870144912
 30
0.0
 11
2.047861257057792
 21
17.81110838024289
 31
0.0
  0
LINE
  5
ED
330
1F
100
AcDbEntity
  8
MAKE2D VISIBLE LINES
100
AcDbLine
 10
2.047861257057792
 20
17.81110838024289
 30
0.0
 11
2.061226517681845
 21
17.80078943831304
 31
0.0
  0
LINE
  5
EE
330
1F
100
AcDbEntity
  8
MAKE2D VISIBLE LINES
100
AcDbLine
 10
2.061226517681845
 20
17.80078943831304
 30
0.0
 11
2.074382855519816
 21
17.79019674365362
 31
0.0
  0
LINE
  5
EF
330
1F
100
AcDbEntity
  8
MAKE2D VISIBLE LINES
100
AcDbLine
 10
2.074382855519816
 20
17.79019674365362
 30
0.0
 11
2.087335076904495
 21
17.7793451642587
 31
0.0
  0
LINE
  5
F0
330
1F
100
AcDbEntity
  8
MAKE2D VISIBLE LINES
100
AcDbLine
 10
2.087335076904495
 20
17.7793451642587
 30
0.0
 11
2.10008798816867
 21
17.76824956812232
 31
0.0
  0
LINE
  5
F1
330
1F
100
AcDbEntity
  8
MAKE2D VISIBLE LINES
100
AcDbLine
 10
2.10008798816867
 20
17.76824956812232
 30
0.0
 11
2.125015105666665
 21
17.74538579760143
 31
0.0
  0
LINE
  5
F2
330
1F
100
AcDbEntity
  8
MAKE2D VISIBLE LINES
100
AcDbLine
 10
2.125015105666665
 20
17.74538579760143
 30
0.0
 11
2.149202658676113
 21
17.72172437604338
 31
0.0
  0
LINE
  5
F3
330
1F
100
AcDbEntity
  8
MAKE2D VISIBLE LINES
100
AcDbLine
 10
2.149202658676113
 20
17.72172437604338
 30
0.0
 11
2.172689097859329
 21
17.69738424740063
 31
0.0
  0
LINE
  5
F4
330
1F
100
AcDbEntity
  8
MAKE2D VISIBLE LINES
100
AcDbLine
 10
2.172689097859329
 20
17.69738424740063
 30
0.0
 11
10.96046840212105
 21
7.896716819796407
 31
0.0
  0
LINE
  5
F5
330
1F
100
AcDbEntity
  8
MAKE2D VISIBLE LINES
100
AcDbLine
 10
10.96046840212105
 20
7.896716819796407
 30
0.0
 11
10.9973985216757
 21
7.854023392854637
 31
0.0
  0
LINE
  5
F6
330
1F
100
AcDbEntity
  8
MAKE2D VISIBLE LINES
100
AcDbLine
 10
10.9973985216757
 20
7.854023392854637
 30
0.0
 11
11.0092000093379
 21
7.839384888003952
 31
0.0
  0
LINE
  5
F7
330
1F
100
AcDbEntity
  8
MAKE2D VISIBLE LINES
100
AcDbLine
 10
11.0092000093379
 20
7.839384888003952
 30
0.0
 11
11.01756067397964
 21
7.828500494371388
 31
0.0
  0
LINE
  5
F8
330
1F
100
AcDbEntity
  8
MAKE2D VISIBLE LINES
100
AcDbLine
 10
11.01756067397964
 20
7.828500494371388
 30
0.0
 11
11.02570690304
 21
7.817450944557015
 31
0.0
  0
LINE
  5
F9
330
1F
100
AcDbEntity
  8
MAKE2D VISIBLE LINES
100
AcDbLine
 10
11.02570690304
 20
7.817450944557015
 30
0.0
 11
11.04140256322959
 21
7.794908259079952
 31
0.0
  0
LINE
  5
FA
330
1F
100
AcDbEntity
  8
MAKE2D VISIBLE LINES
100
AcDbLine
 10
11.04140256322959
 20
7.794908259079952
 30
0.0
 11
11.05638000753272
 21
7.771860596966995
 31
0.0
  0
LINE
  5
FB
330
1F
100
AcDbEntity
  8
MAKE2D VISIBLE LINES
100
AcDbLine
 10
11.05638000753272
 20
7.771860596966995
 30
0.0
 11
11.07073225357546
 21
7.748411723612379
 31
0.0
  0
LINE
  5
FC
330
1F
100
AcDbEntity
  8
MAKE2D VISIBLE LINES
100
AcDbLine
 10
11.07073225357546
 20
7.748411723612379
 30
0.0
 11
11.08694792597063
 21
7.720362228365995
 31
0.0
  0
LINE
  5
FD
330
1F
100
AcDbEntity
  8
MAKE2D VISIBLE LINES
100
AcDbLine
 10
11.08694792597063
 20
7.720362228365995
 30
0.0
 11
11.10239613863639
 21
7.691903508248499
 31
0.0
  0
LINE
  5
FE
330
1F
100
AcDbEntity
  8
MAKE2D VISIBLE LINES
100
AcDbLine
 10
11.10239613863639
 20
7.691903508248499
 30
0.0
 11
11.11704926443982
 21
7.663039844855241
 31
0.0
  0
LINE
  5
FF
330
1F
100
AcDbEntity
  8
MAKE2D VISIBLE LINES
100
AcDbLine
 10
11.11704926443982
 20
7.663039844855241
 30
0.0
 11
11.13087967624801
 21
7.633775519781567
 31
0.0
  0
LINE
  5
100
330
1F
100
AcDbEntity
  8
MAKE2D VISIBLE LINES
100
AcDbLine
 10
11.13087967624801
 20
7.633775519781567
 30
0.0
 11
11.14570774132161
 21
7.599693411796767
 31
0.0
  0
LINE
  5
101
330
1F
100
AcDbEntity
  8
MAKE2D VISIBLE LINES
100
AcDbLine
 10
11.14570774132161
 20
7.599693411796767
 30
0.0
 11
11.15937352518959
 21
7.565117798577683
 31
0.0
  0
LINE
  5
102
330
1F
100
AcDbEntity
  8
MAKE2D VISIBLE LINES
100
AcDbLine
 10
1.911666474996588
 20
35.81455716691893
 30
0.0
 11
1.580392405906625
 21
36.21461639952675
 31
0.0
  0
LINE
  5
103
330
1F
100
AcDbEntity
  8
MAKE2D VISIBLE LINES
100
AcDbLine
 10
1.580392405906625
 20
36.21461639952675
 30
0.0
 11
1.381942326670925
 21
36.68224911905018
 31
0.0
  0
LINE
  5
104
330
1F
100
AcDbEntity
  8
MAKE2D VISIBLE LINES
100
AcDbLine
 10
1.381942326670925
 20
36.68224911905018
 30
0.0
 11
1.196429847622037
 21
37.15516491179145
 31
0.0
  0
LINE
  5
105
330
1F
100
AcDbEntity
  8
MAKE2D VISIBLE LINES
100
AcDbLine
 10
1.196429847622037
 20
37.15516491179145
 30
0.0
 11
1.023922018623109
 21
37.63298364704947
 31
0.0
  0
LINE
  5
106
330
1F
100
AcDbEntity
  8
MAKE2D VISIBLE LINES
100
AcDbLine
 10
1.023922018623109
 20
37.63298364704947
 30
0.0
 11
0.8644858895372944
 21
38.11532519412318
 31
0.0
  0
LINE
  5
107
330
1F
100
AcDbEntity
  8
MAKE2D VISIBLE LINES
100
AcDbLine
 10
0.8644858895372944
 20
38.11532519412318
 30
0.0
 11
0.7188087247771358
 21
38.59967921145505
 31
0.0
  0
LINE
  5
108
330
1F
100
AcDbEntity
  8
MAKE2D VISIBLE LINES
100
AcDbLine
 10
0.7188087247771358
 20
38.59967921145505
 30
0.0
 11
0.5862794402483165
 21
39.08778943594241
 31
0.0
  0
LINE
  5
109
330
1F
100
AcDbEntity
  8
MAKE2D VISIBLE LINES
100
AcDbLine
 10
0.5862794402483165
 20
39.08778943594241
 30
0.0
 11
0.4670217454753522
 21
39.57930552069723
 31
0.0
  0
LINE
  5
10A
330
1F
100
AcDbEntity
  8
MAKE2D VISIBLE LINES
100
AcDbLine
 10
0.4670217454753522
 20
39.57930552069723
 30
0.0
 11
0.3611593499827591
 21
40.07387711883148
 31
0.0
  0
LINE
  5
10B
330
1F
100
AcDbEntity
  8
MAKE2D VISIBLE LINES
100
AcDbLine
 10
0.3611593499827591
 20
40.07387711883148
 30
0.0
 11
0.2697326543679821
 21
40.56572744234918
 31
0.0
  0
LINE
  5
10C
330
1F
100
AcDbEntity
  8
MAKE2D VISIBLE LINES
100
AcDbLine
 10
0.2697326543679821
 20
40.56572744234918
 30
0.0
 11
0.1915641114728754
 21
41.0598636710529
 31
0.0
  0
LINE
  5
10D
330
1F
100
AcDbEntity
  8
MAKE2D VISIBLE LINES
100
AcDbLine
 10
0.1915641114728754
 20
41.0598636710529
 30
0.0
 11
0.126685392884061
 21
41.55592507870199
 31
0.0
  0
LINE
  5
10E
330
1F
100
AcDbEntity
  8
MAKE2D VISIBLE LINES
100
AcDbLine
 10
0.126685392884061
 20
41.55592507870199
 30
0.0
 11
0.0751281701881609
 21
42.05355093905582
 31
0.0
  0
LINE
  5
10F
330
1F
100
AcDbEntity
  8
MAKE2D VISIBLE LINES
100
AcDbLine
 10
0.0751281701881609
 20
42.05355093905582
 30
0.0
 11
0.0369241149717971
 21
42.55238052587377
 31
0.0
  0
LINE
  5
110
330
1F
100
AcDbEntity
  8
MAKE2D VISIBLE LINES
100
AcDbLine
 10
0.0369241149717971
 20
42.55238052587377
 30
0.0
 11
0.0121048988215917
 21
43.05205311291517
 31
0.0
  0
LINE
  5
111
330
1F
100
AcDbEntity
  8
MAKE2D VISIBLE LINES
100
AcDbLine
 10
0.0121048988215917
 20
43.05205311291517
 30
0.0
 11
0.0007021933241666
 21
43.55220797393943
 31
0.0
  0
LINE
  5
112
330
1F
100
AcDbEntity
  8
MAKE2D VISIBLE LINES
100
AcDbLine
 10
0.0007021933241666
 20
43.55220797393943
 30
0.0
 11
0.0027476700661438
 21
44.0524843827059
 31
0.0
  0
LINE
  5
113
330
1F
100
AcDbEntity
  8
MAKE2D VISIBLE LINES
100
AcDbLine
 10
0.0027476700661438
 20
44.0524843827059
 30
0.0
 11
0.0199464893931937
 21
44.58959508849605
 31
0.0
  0
LINE
  5
114
330
1F
100
AcDbEntity
  8
MAKE2D VISIBLE LINES
100
AcDbLine
 10
0.0199464893931937
 20
44.58959508849605
 30
0.0
 11
0.0526419225900891
 21
45.12598668064003
 31
0.0
  0
LINE
  5
115
330
1F
100
AcDbEntity
  8
MAKE2D VISIBLE LINES
100
AcDbLine
 10
0.0526419225900891
 20
45.12598668064003
 30
0.0
 11
0.1007767112874653
 21
45.66121602413763
 31
0.0
  0
LINE
  5
116
330
1F
100
AcDbEntity
  8
MAKE2D VISIBLE LINES
100
AcDbLine
 10
0.1007767112874653
 20
45.66121602413763
 30
0.0
 11
0.1642935971159575
 21
46.19483998398869
 31
0.0
  0
LINE
  5
117
330
1F
100
AcDbEntity
  8
MAKE2D VISIBLE LINES
100
AcDbLine
 10
0.1642935971159575
 20
46.19483998398869
 30
0.0
 11
0.243135321706201
 21
46.72641542519301
 31
0.0
  0
LINE
  5
118
330
1F
100
AcDbEntity
  8
MAKE2D VISIBLE LINES
100
AcDbLine
 10
0.243135321706201
 20
46.72641542519301
 30
0.0
 11
0.337244626688831
 21
47.2554992127504
 31
0.0
  0
LINE
  5
119
330
1F
100
AcDbEntity
  8
MAKE2D VISIBLE LINES
100
AcDbLine
 10
0.337244626688831
 20
47.2554992127504
 30
0.0
 11
0.4465642536944828
 21
47.78164821166067
 31
0.0
  0
LINE
  5
11A
330
1F
100
AcDbEntity
  8
MAKE2D VISIBLE LINES
100
AcDbLine
 10
0.4465642536944828
 20
47.78164821166067
 30
0.0
 11
0.5710369443537916
 21
48.30441928692361
 31
0.0
  0
LINE
  5
11B
330
1F
100
AcDbEntity
  8
MAKE2D VISIBLE LINES
100
AcDbLine
 10
0.5710369443537916
 20
48.30441928692361
 30
0.0
 11
0.7352074949246258
 21
48.90914321649575
 31
0.0
  0
LINE
  5
11C
330
1F
100
AcDbEntity
  8
MAKE2D VISIBLE LINES
100
AcDbLine
 10
0.7352074949246258
 20
48.90914321649575
 30
0.0
 11
0.9196335650510533
 21
49.50800747475867
 31
0.0
  0
LINE
  5
11D
330
1F
100
AcDbEntity
  8
MAKE2D VISIBLE LINES
100
AcDbLine
 10
0.9196335650510533
 20
49.50800747475867
 30
0.0
 11
1.124045540387448
 21
50.1003477237363
 31
0.0
  0
LINE
  5
11E
330
1F
100
AcDbEntity
  8
MAKE2D VISIBLE LINES
100
AcDbLine
 10
1.124045540387448
 20
50.1003477237363
 30
0.0
 11
1.348173806588183
 21
50.68549962545259
 31
0.0
  0
LINE
  5
11F
330
1F
100
AcDbEntity
  8
MAKE2D VISIBLE LINES
100
AcDbLine
 10
1.348173806588183
 20
50.68549962545259
 30
0.0
 11
1.544739511827495
 21
51.15505424911146
 31
0.0
  0
LINE
  5
120
330
1F
100
AcDbEntity
  8
MAKE2D VISIBLE LINES
100
AcDbLine
 10
1.544739511827495
 20
51.15505424911146
 30
0.0
 11
1.596496371187821
 21
51.27120863847705
 31
0.0
  0
LINE
  5
121
330
1F
100
AcDbEntity
  8
MAKE2D VISIBLE LINES
100
AcDbLine
 10
1.596496371187821
 20
51.27120863847705
 30
0.0
 11
1.605796087714636
 21
51.29008054446442
 31
0.0
  0
LINE
  5
122
330
1F
100
AcDbEntity
  8
MAKE2D VISIBLE LINES
100
AcDbLine
 10
1.605796087714636
 20
51.29008054446442
 30
0.0
 11
1.615573640186909
 21
51.30871222420163
 31
0.0
  0
LINE
  5
123
330
1F
100
AcDbEntity
  8
MAKE2D VISIBLE LINES
100
AcDbLine
 10
1.615573640186909
 20
51.30871222420163
 30
0.0
 11
1.625785279395587
 21
51.3271149009763
 31
0.0
  0
LINE
  5
124
330
1F
100
AcDbEntity
  8
MAKE2D VISIBLE LINES
100
AcDbLine
 10
1.625785279395587
 20
51.3271149009763
 30
0.0
 11
1.636387256131619
 21
51.34529979807601
 31
0.0
  0
LINE
  5
125
330
1F
100
AcDbEntity
  8
MAKE2D VISIBLE LINES
100
AcDbLine
 10
1.636387256131619
 20
51.34529979807601
 30
0.0
 11
1.650400337156293
 21
51.36815201859602
 31
0.0
  0
LINE
  5
126
330
1F
100
AcDbEntity
  8
MAKE2D VISIBLE LINES
100
AcDbLine
 10
1.650400337156293
 20
51.36815201859602
 30
0.0
 11
1.664980151420938
 21
51.39064342833899
 31
0.0
  0
LINE
  5
127
330
1F
100
AcDbEntity
  8
MAKE2D VISIBLE LINES
100
AcDbLine
 10
1.664980151420938
 20
51.39064342833899
 30
0.0
 11
1.680131361042796
 21
51.41274819429378
 31
0.0
  0
LINE
  5
128
330
1F
100
AcDbEntity
  8
MAKE2D VISIBLE LINES
100
AcDbLine
 10
1.680131361042796
 20
51.41274819429378
 30
0.0
 11
1.695858628139105
 21
51.43444048344925
 31
0.0
  0
LINE
  5
129
330
1F
100
AcDbEntity
  8
MAKE2D VISIBLE LINES
100
AcDbLine
 10
1.695858628139105
 20
51.43444048344925
 30
0.0
 11
1.712166614827106
 21
51.45569446279426
 31
0.0
  0
LINE
  5
12A
330
1F
100
AcDbEntity
  8
MAKE2D VISIBLE LINES
100
AcDbLine
 10
1.712166614827106
 20
51.45569446279426
 30
0.0
 11
1.72905998322404
 21
51.47648429931764
 31
0.0
  0
LINE
  5
12B
330
1F
100
AcDbEntity
  8
MAKE2D VISIBLE LINES
100
AcDbLine
 10
1.72905998322404
 20
51.47648429931764
 30
0.0
 11
1.746543395447147
 21
51.49678416000827
 31
0.0
  0
LINE
  5
12C
330
1F
100
AcDbEntity
  8
MAKE2D VISIBLE LINES
100
AcDbLine
 10
1.746543395447147
 20
51.49678416000827
 30
0.0
 11
1.764621513613665
 21
51.516568211855
 31
0.0
  0
LINE
  5
12D
330
1F
100
AcDbEntity
  8
MAKE2D VISIBLE LINES
100
AcDbLine
 10
1.764621513613665
 20
51.516568211855
 30
0.0
 11
1.781962229157201
 21
51.53446000697667
 31
0.0
  0
LINE
  5
12E
330
1F
100
AcDbEntity
  8
MAKE2D VISIBLE LINES
100
AcDbLine
 10
1.781962229157201
 20
51.53446000697667
 30
0.0
 11
1.799844308366227
 21
51.5518111044052
 31
0.0
  0
LINE
  5
12F
330
1F
100
AcDbEntity
  8
MAKE2D VISIBLE LINES
100
AcDbLine
 10
1.799844308366227
 20
51.5518111044052
 30
0.0
 11
1.818291490800336
 21
51.56854857725364
 31
0.0
  0
LINE
  5
130
330
1F
100
AcDbEntity
  8
MAKE2D VISIBLE LINES
100
AcDbLine
 10
1.818291490800336
 20
51.56854857725364
 30
0.0
 11
1.827734414339171
 21
51.57666441480814
 31
0.0
  0
LINE
  5
131
330
1F
100
AcDbEntity
  8
MAKE2D VISIBLE LINES
100
AcDbLine
 10
1.827734414339171
 20
51.57666441480814
 30
0.0
 11
1.837327516019125
 21
51.58459949863501
 31
0.0
  0
LINE
  5
132
330
1F
100
AcDbEntity
  8
MAKE2D VISIBLE LINES
100
AcDbLine
 10
1.837327516019125
 20
51.58459949863501
 30
0.0
 11
1.846221302499015
 21
51.59168198750979
 31
0.0
  0
LINE
  5
133
330
1F
100
AcDbEntity
  8
MAKE2D VISIBLE LINES
100
AcDbLine
 10
1.846221302499015
 20
51.59168198750979
 30
0.0
 11
1.855238682375527
 21
51.59860659250543
 31
0.0
  0
LINE
  5
134
330
1F
100
AcDbEntity
  8
MAKE2D VISIBLE LINES
100
AcDbLine
 10
1.855238682375527
 20
51.59860659250543
 30
0.0
 11
1.873627659836112
 21
51.61198407284955
 31
0.0
  0
LINE
  5
135
330
1F
100
AcDbEntity
  8
MAKE2D VISIBLE LINES
100
AcDbLine
 10
1.873627659836112
 20
51.61198407284955
 30
0.0
 11
1.892461323436275
 21
51.62473578364794
 31
0.0
  0
LINE
  5
136
330
1F
100
AcDbEntity
  8
MAKE2D VISIBLE LINES
100
AcDbLine
 10
1.892461323436275
 20
51.62473578364794
 30
0.0
 11
1.911706548211408
 21
51.63686556888111
 31
0.0
  0
LINE
  5
137
330
1F
100
AcDbEntity
  8
MAKE2D VISIBLE LINES
100
AcDbLine
 10
20.15014766632112
 20
62.16670279556648
 30
0.0
 11
20.66226580242679
 21
62.25357570237452
 31
0.0
  0
LINE
  5
138
330
1F
100
AcDbEntity
  8
MAKE2D VISIBLE LINES
100
AcDbLine
 10
20.66226580242679
 20
62.25357570237452
 30
0.0
 11
21.16647265679935
 21
62.19162215261514
 31
0.0
  0
LINE
  5
139
330
1F
100
AcDbEntity
  8
MAKE2D VISIBLE LINES
100
AcDbLine
 10
21.16647265679935
 20
62.19162215261514
 30
0.0
 11
21.66878598668309
 21
62.11582277581917
 31
0.0
  0
LINE
  5
13A
330
1F
100
AcDbEntity
  8
MAKE2D VISIBLE LINES
100
AcDbLine
 10
21.66878598668309
 20
62.11582277581917
 30
0.0
 11
22.16884306431097
 21
62.0263095704536
 31
0.0
  0
LINE
  5
13B
330
1F
100
AcDbEntity
  8
MAKE2D VISIBLE LINES
100
AcDbLine
 10
22.16884306431097
 20
62.0263095704536
 30
0.0
 11
22.66628116191598
 21
61.92321453498545
 31
0.0
  0
LINE
  5
13C
330
1F
100
AcDbEntity
  8
MAKE2D VISIBLE LINES
100
AcDbLine
 10
22.66628116191598
 20
61.92321453498545
 30
0.0
 11
23.1585826277368
 21
61.80719765175401
 31
0.0
  0
LINE
  5
13D
330
1F
100
AcDbEntity
  8
MAKE2D VISIBLE LINES
100
AcDbLine
 10
23.1585826277368
 20
61.80719765175401
 30
0.0
 11
23.64756312426734
 21
61.67791626665957
 31
0.0
  0
LINE
  5
13E
330
1F
100
AcDbEntity
  8
MAKE2D VISIBLE LINES
100
AcDbLine
 10
23.64756312426734
 20
61.67791626665957
 30
0.0
 11
24.13285738743397
 21
61.5354384175543
 31
0.0
  0
LINE
  5
13F
330
1F
100
AcDbEntity
  8
MAKE2D VISIBLE LINES
100
AcDbLine
 10
24.13285738743397
 20
61.5354384175543
 30
0.0
 11
24.61410015316302
 21
61.37983214229042
 31
0.0
  0
LINE
  5
140
330
1F
100
AcDbEntity
  8
MAKE2D VISIBLE LINES
100
AcDbLine
 10
24.61410015316302
 20
61.37983214229042
 30
0.0
 11
25.08576837599441
 21
61.21308482151771
 31
0.0
  0
LINE
  5
141
330
1F
100
AcDbEntity
  8
MAKE2D VISIBLE LINES
100
AcDbLine
 10
25.08576837599441
 20
61.21308482151771
 30
0.0
 11
25.55278717441912
 21
61.03371265108824
 31
0.0
  0
LINE
  5
142
330
1F
100
AcDbEntity
  8
MAKE2D VISIBLE LINES
100
AcDbLine
 10
25.55278717441912
 20
61.03371265108824
 30
0.0
 11
26.01482831455866
 21
60.84186856572419
 31
0.0
  0
LINE
  5
143
330
1F
100
AcDbEntity
  8
MAKE2D VISIBLE LINES
100
AcDbLine
 10
26.01482831455866
 20
60.84186856572419
 30
0.0
 11
26.47156356253446
 21
60.63770550014772
 31
0.0
  0
LINE
  5
144
330
1F
100
AcDbEntity
  8
MAKE2D VISIBLE LINES
100
AcDbLine
 10
26.47156356253446
 20
60.63770550014772
 30
0.0
 11
26.92266468446802
 21
60.42137638908098
 31
0.0
  0
LINE
  5
145
330
1F
100
AcDbEntity
  8
MAKE2D VISIBLE LINES
100
AcDbLine
 10
26.92266468446802
 20
60.42137638908098
 30
0.0
 11
27.3678034464808
 21
60.19303416724615
 31
0.0
  0
LINE
  5
146
330
1F
100
AcDbEntity
  8
MAKE2D VISIBLE LINES
100
AcDbLine
 10
27.3678034464808
 20
60.19303416724615
 30
0.0
 11
27.80665161469426
 21
59.9528317693654
 31
0.0
  0
LINE
  5
147
330
1F
100
AcDbEntity
  8
MAKE2D VISIBLE LINES
100
AcDbLine
 10
27.80665161469426
 20
59.9528317693654
 30
0.0
 11
28.23888095522988
 21
59.70092213016088
 31
0.0
  0
LINE
  5
148
330
1F
100
AcDbEntity
  8
MAKE2D VISIBLE LINES
100
AcDbLine
 10
28.23888095522988
 20
59.70092213016088
 30
0.0
 11
28.69543306143839
 21
59.41747216281544
 31
0.0
  0
LINE
  5
149
330
1F
100
AcDbEntity
  8
MAKE2D VISIBLE LINES
100
AcDbLine
 10
28.69543306143839
 20
59.41747216281544
 30
0.0
 11
29.14361409003524
 21
59.12096129101052
 31
0.0
  0
LINE
  5
14A
330
1F
100
AcDbEntity
  8
MAKE2D VISIBLE LINES
100
AcDbLine
 10
29.14361409003524
 20
59.12096129101052
 30
0.0
 11
29.58306890403249
 21
58.81166066944787
 31
0.0
  0
LINE
  5
14B
330
1F
100
AcDbEntity
  8
MAKE2D VISIBLE LINES
100
AcDbLine
 10
29.58306890403249
 20
58.81166066944787
 30
0.0
 11
30.01344236644221
 21
58.4898414528293
 31
0.0
  0
LINE
  5
14C
330
1F
100
AcDbEntity
  8
MAKE2D VISIBLE LINES
100
AcDbLine
 10
30.01344236644221
 20
58.4898414528293
 30
0.0
 11
30.43437934027644
 21
58.15577479585656
 31
0.0
  0
LINE
  5
14D
330
1F
100
AcDbEntity
  8
MAKE2D VISIBLE LINES
100
AcDbLine
 10
30.43437934027644
 20
58.15577479585656
 30
0.0
 11
30.84552468854725
 21
57.80973185323145
 31
0.0
  0
LINE
  5
14E
330
1F
100
AcDbEntity
  8
MAKE2D VISIBLE LINES
100
AcDbLine
 10
30.84552468854725
 20
57.80973185323145
 30
0.0
 11
31.24652327426669
 21
57.45198377965575
 31
0.0
  0
LINE
  5
14F
330
1F
100
AcDbEntity
  8
MAKE2D VISIBLE LINES
100
AcDbLine
 10
31.24652327426669
 20
57.45198377965575
 30
0.0
 11
31.63701996044682
 21
57.08280172983121
 31
0.0
  0
LINE
  5
150
330
1F
100
AcDbEntity
  8
MAKE2D VISIBLE LINES
100
AcDbLine
 10
31.63701996044682
 20
57.08280172983121
 30
0.0
 11
32.07864097038809
 21
56.63826389768873
 31
0.0
  0
LINE
  5
151
330
1F
100
AcDbEntity
  8
MAKE2D VISIBLE LINES
100
AcDbLine
 10
32.07864097038809
 20
56.63826389768873
 30
0.0
 11
32.50505959636833
 21
56.17911410670308
 31
0.0
  0
LINE
  5
152
330
1F
100
AcDbEntity
  8
MAKE2D VISIBLE LINES
100
AcDbLine
 10
32.50505959636833
 20
56.17911410670308
 30
0.0
 11
32.91583531206149
 21
55.70591801874452
 31
0.0
  0
LINE
  5
153
330
1F
100
AcDbEntity
  8
MAKE2D VISIBLE LINES
100
AcDbLine
 10
32.91583531206149
 20
55.70591801874452
 30
0.0
 11
33.31052759114153
 21
55.21924129568327
 31
0.0
  0
LINE
  5
154
330
1F
100
AcDbEntity
  8
MAKE2D VISIBLE LINES
100
AcDbLine
 10
33.31052759114153
 20
55.21924129568327
 30
0.0
 11
33.61889096971589
 21
54.81423308940171
 31
0.0
  0
LINE
  5
155
330
1F
100
AcDbEntity
  8
MAKE2D VISIBLE LINES
100
AcDbLine
 10
33.61889096971589
 20
54.81423308940171
 30
0.0
 11
33.69360519400373
 21
54.7113331399925
 31
0.0
  0
LINE
  5
156
330
1F
100
AcDbEntity
  8
MAKE2D VISIBLE LINES
100
AcDbLine
 10
33.69360519400373
 20
54.7113331399925
 30
0.0
 11
33.70529888536899
 21
54.69384339618293
 31
0.0
  0
LINE
  5
157
330
1F
100
AcDbEntity
  8
MAKE2D VISIBLE LINES
100
AcDbLine
 10
33.70529888536899
 20
54.69384339618293
 30
0.0
 11
33.71654561587012
 21
54.67605994730353
 31
0.0
  0
LINE
  5
158
330
1F
100
AcDbEntity
  8
MAKE2D VISIBLE LINES
100
AcDbLine
 10
33.71654561587012
 20
54.67605994730353
 30
0.0
 11
33.72737698043451
 21
54.65801506973663
 31
0.0
  0
LINE
  5
159
330
1F
100
AcDbEntity
  8
MAKE2D VISIBLE LINES
100
AcDbLine
 10
33.72737698043451
 20
54.65801506973663
 30
0.0
 11
33.73782457398953
 21
54.63974103986457
 31
0.0
  0
LINE
  5
15A
330
1F
100
AcDbEntity
  8
MAKE2D VISIBLE LINES
100
AcDbLine
 10
33.73782457398953
 20
54.63974103986457
 30
0.0
 11
33.75060863723056
 21
54.61617924548891
 31
0.0
  0
LINE
  5
15B
330
1F
100
AcDbEntity
  8
MAKE2D VISIBLE LINES
100
AcDbLine
 10
33.75060863723056
 20
54.61617924548891
 30
0.0
 11
33.76279686385234
 21
54.592307051312
 31
0.0
  0
LINE
  5
15C
330
1F
100
AcDbEntity
  8
MAKE2D VISIBLE LINES
100
AcDbLine
 10
33.76279686385234
 20
54.592307051312
 30
0.0
 11
33.77436455017737
 21
54.56813333624207
 31
0.0
  0
LINE
  5
15D
330
1F
100
AcDbEntity
  8
MAKE2D VISIBLE LINES
100
AcDbLine
 10
33.77436455017737
 20
54.56813333624207
 30
0.0
 11
33.78528699252814
 21
54.54366697918734
 31
0.0
  0
LINE
  5
15E
330
1F
100
AcDbEntity
  8
MAKE2D VISIBLE LINES
100
AcDbLine
 10
33.78528699252814
 20
54.54366697918734
 30
0.0
 11
33.79553948722712
 21
54.51891685905602
 31
0.0
  0
LINE
  5
15F
330
1F
100
AcDbEntity
  8
MAKE2D VISIBLE LINES
100
AcDbLine
 10
33.79553948722712
 20
54.51891685905602
 30
0.0
 11
33.80509733059679
 21
54.49389185475633
 31
0.0
  0
LINE
  5
160
330
1F
100
AcDbEntity
  8
MAKE2D VISIBLE LINES
100
AcDbLine
 10
33.80509733059679
 20
54.49389185475633
 30
0.0
 11
33.81393581895968
 21
54.46860084519648
 31
0.0
  0
LINE
  5
161
330
1F
100
AcDbEntity
  8
MAKE2D VISIBLE LINES
100
AcDbLine
 10
33.81393581895968
 20
54.46860084519648
 30
0.0
 11
33.82203024863824
 21
54.44305270928467
 31
0.0
  0
LINE
  5
162
330
1F
100
AcDbEntity
  8
MAKE2D VISIBLE LINES
100
AcDbLine
 10
33.82203024863824
 20
54.44305270928467
 30
0.0
 11
33.82885463553478
 21
54.41908931088695
 31
0.0
  0
LINE
  5
163
330
1F
100
AcDbEntity
  8
MAKE2D VISIBLE LINES
100
AcDbLine
 10
33.82885463553478
 20
54.41908931088695
 30
0.0
 11
33.83494008307988
 21
54.39492742670831
 31
0.0
  0
LINE
  5
164
330
1F
100
AcDbEntity
  8
MAKE2D VISIBLE LINES
100
AcDbLine
 10
33.83494008307988
 20
54.39492742670831
 30
0.0
 11
33.8402115677299
 21
54.37058296153934
 31
0.0
  0
LINE
  5
165
330
1F
100
AcDbEntity
  8
MAKE2D VISIBLE LINES
100
AcDbLine
 10
33.8402115677299
 20
54.37058296153934
 30
0.0
 11
33.84251862911189
 21
54.35834723133057
 31
0.0
  0
LINE
  5
166
330
1F
100
AcDbEntity
  8
MAKE2D VISIBLE LINES
100
AcDbLine
 10
33.84251862911189
 20
54.35834723133057
 30
0.0
 11
33.84459406594126
 21
54.34607182017069
 31
0.0
  0
LINE
  5
167
330
1F
100
AcDbEntity
  8
MAKE2D VISIBLE LINES
100
AcDbLine
 10
33.84459406594126
 20
54.34607182017069
 30
0.0
 11
33.8462805849334
 21
54.33482980595515
 31
0.0
  0
LINE
  5
168
330
1F
100
AcDbEntity
  8
MAKE2D VISIBLE LINES
100
AcDbLine
 10
33.8462805849334
 20
54.33482980595515
 30
0.0
 11
33.84776862786697
 21
54.32355970564586
 31
0.0
  0
LINE
  5
169
330
1F
100
AcDbEntity
  8
MAKE2D VISIBLE LINES
100
AcDbLine
 10
33.84776862786697
 20
54.32355970564586
 30
0.0
 11
33.85015922175382
 21
54.30094862322095
 31
0.0
  0
LINE
  5
16A
330
1F
100
AcDbEntity
  8
MAKE2D VISIBLE LINES
100
AcDbLine
 10
33.85015922175382
 20
54.30094862322095
 30
0.0
 11
33.85178571999268
 21
54.27826532584574
 31
0.0
  0
LINE
  5
16B
330
1F
100
AcDbEntity
  8
MAKE2D VISIBLE LINES
100
AcDbLine
 10
33.85178571999268
 20
54.27826532584574
 30
0.0
 11
33.85266799497442
 21
54.25553656647
 31
0.0
  0
LINE
  5
16C
330
1F
100
AcDbEntity
  8
MAKE2D VISIBLE LINES
100
AcDbLine
 10
33.85255097818964
 20
33.19550563297391
 30
0.0
 11
33.67172934854202
 21
32.70870893776571
 31
0.0
  0
LINE
  5
16D
330
1F
100
AcDbEntity
  8
MAKE2D VISIBLE LINES
100
AcDbLine
 10
33.67172934854202
 20
32.70870893776571
 30
0.0
 11
33.36597257341974
 21
32.30302976802282
 31
0.0
  0
LINE
  5
16E
330
1F
100
AcDbEntity
  8
MAKE2D VISIBLE LINES
100
AcDbLine
 10
33.36597257341974
 20
32.30302976802282
 30
0.0
 11
33.04917172257299
 21
31.90591335206047
 31
0.0
  0
LINE
  5
16F
330
1F
100
AcDbEntity
  8
MAKE2D VISIBLE LINES
100
AcDbLine
 10
33.04917172257299
 20
31.90591335206047
 30
0.0
 11
32.72162247392407
 21
31.51760782213928
 31
0.0
  0
LINE
  5
170
330
1F
100
AcDbEntity
  8
MAKE2D VISIBLE LINES
100
AcDbLine
 10
32.72162247392407
 20
31.51760782213928
 30
0.0
 11
32.38362050539526
 21
31.13836131051988
 31
0.0
  0
LINE
  5
171
330
1F
100
AcDbEntity
  8
MAKE2D VISIBLE LINES
100
AcDbLine
 10
32.38362050539526
 20
31.13836131051988
 30
0.0
 11
32.03699620434832
 21
30.77002417643919
 31
0.0
  0
LINE
  5
172
330
1F
100
AcDbEntity
  8
MAKE2D VISIBLE LINES
100
AcDbLine
 10
32.03699620434832
 20
30.77002417643919
 30
0.0
 11
31.68054499237526
 21
30.41119533708756
 31
0.0
  0
LINE
  5
173
330
1F
100
AcDbEntity
  8
MAKE2D VISIBLE LINES
100
AcDbLine
 10
31.68054499237526
 20
30.41119533708756
 30
0.0
 11
31.31450842401167
 21
30.0621571014813
 31
0.0
  0
LINE
  5
174
330
1F
100
AcDbEntity
  8
MAKE2D VISIBLE LINES
100
AcDbLine
 10
31.31450842401167
 20
30.0621571014813
 30
0.0
 11
30.93912805379312
 21
29.72319177863669
 31
0.0
  0
LINE
  5
175
330
1F
100
AcDbEntity
  8
MAKE2D VISIBLE LINES
100
AcDbLine
 10
30.93912805379312
 20
29.72319177863669
 30
0.0
 11
30.55888652657222
 21
29.39808877588548
 31
0.0
  0
LINE
  5
176
330
1F
100
AcDbEntity
  8
MAKE2D VISIBLE LINES
100
AcDbLine
 10
30.55888652657222
 20
29.39808877588548
 30
0.0
 11
30.17003627101965
 21
29.0833247175781
 31
0.0
  0
LINE
  5
177
330
1F
100
AcDbEntity
  8
MAKE2D VISIBLE LINES
100
AcDbLine
 10
30.17003627101965
 20
29.0833247175781
 30
0.0
 11
29.77287384943382
 21
28.77910739524242
 31
0.0
  0
LINE
  5
178
330
1F
100
AcDbEntity
  8
MAKE2D VISIBLE LINES
100
AcDbLine
 10
29.77287384943382
 20
28.77910739524242
 30
0.0
 11
29.36769582411315
 21
28.48564460040629
 31
0.0
  0
LINE
  5
179
330
1F
100
AcDbEntity
  8
MAKE2D VISIBLE LINES
100
AcDbLine
 10
29.36769582411315
 20
28.48564460040629
 30
0.0
 11
28.95479875735606
 21
28.20314412459755
 31
0.0
  0
LINE
  5
17A
330
1F
100
AcDbEntity
  8
MAKE2D VISIBLE LINES
100
AcDbLine
 10
28.95479875735606
 20
28.20314412459755
 30
0.0
 11
28.53447921146096
 21
27.93181375934406
 31
0.0
  0
LINE
  5
17B
330
1F
100
AcDbEntity
  8
MAKE2D VISIBLE LINES
100
AcDbLine
 10
28.53447921146096
 20
27.93181375934406
 30
0.0
 11
28.10703374872628
 21
27.67186129617367
 31
0.0
  0
LINE
  5
17C
330
1F
100
AcDbEntity
  8
MAKE2D VISIBLE LINES
100
AcDbLine
 10
28.10703374872628
 20
27.67186129617367
 30
0.0
 11
27.67275893145043
 21
27.42349452661424
 31
0.0
  0
LINE
  5
17D
330
1F
100
AcDbEntity
  8
MAKE2D VISIBLE LINES
100
AcDbLine
 10
27.67275893145043
 20
27.42349452661424
 30
0.0
 11
27.19900800594367
 21
27.16983378821106
 31
0.0
  0
LINE
  5
17E
330
1F
100
AcDbEntity
  8
MAKE2D VISIBLE LINES
100
AcDbLine
 10
27.19900800594367
 20
27.16983378821106
 30
0.0
 11
26.71813154419851
 21
26.92995306794206
 31
0.0
  0
LINE
  5
17F
330
1F
100
AcDbEntity
  8
MAKE2D VISIBLE LINES
100
AcDbLine
 10
26.71813154419851
 20
26.92995306794206
 30
0.0
 11
26.230541941561
 21
26.70402434608944
 31
0.0
  0
LINE
  5
180
330
1F
100
AcDbEntity
  8
MAKE2D VISIBLE LINES
100
AcDbLine
 10
26.230541941561
 20
26.70402434608944
 30
0.0
 11
25.73665159337718
 21
26.49221960293536
 31
0.0
  0
LINE
  5
181
330
1F
100
AcDbEntity
  8
MAKE2D VISIBLE LINES
100
AcDbLine
 10
25.73665159337718
 20
26.49221960293536
 30
0.0
 11
25.2368728949931
 21
26.29471081876203
 31
0.0
  0
LINE
  5
182
330
1F
100
AcDbEntity
  8
MAKE2D VISIBLE LINES
100
AcDbLine
 10
25.2368728949931
 20
26.29471081876203
 30
0.0
 11
24.73161824175482
 21
26.11166997385161
 31
0.0
  0
LINE
  5
183
330
1F
100
AcDbEntity
  8
MAKE2D VISIBLE LINES
100
AcDbLine
 10
24.73161824175482
 20
26.11166997385161
 30
0.0
 11
24.22130002900837
 21
25.94326904848629
 31
0.0
  0
LINE
  5
184
330
1F
100
AcDbEntity
  8
MAKE2D VISIBLE LINES
100
AcDbLine
 10
24.22130002900837
 20
25.94326904848629
 30
0.0
 11
23.70633065209982
 21
25.78968002294825
 31
0.0
  0
LINE
  5
185
330
1F
100
AcDbEntity
  8
MAKE2D VISIBLE LINES
100
AcDbLine
 10
23.70633065209982
 20
25.78968002294825
 30
0.0
 11
23.10053909145849
 21
25.6294939253323
 31
0.0
  0
LINE
  5
186
330
1F
100
AcDbEntity
  8
MAKE2D VISIBLE LINES
100
AcDbLine
 10
23.10053909145849
 20
25.6294939253323
 30
0.0
 11
22.48969439528459
 21
25.4897794579581
 31
0.0
  0
LINE
  5
187
330
1F
100
AcDbEntity
  8
MAKE2D VISIBLE LINES
100
AcDbLine
 10
22.48969439528459
 20
25.4897794579581
 30
0.0
 11
21.87450670439202
 21
25.37063529713651
 31
0.0
  0
LINE
  5
188
330
1F
100
AcDbEntity
  8
MAKE2D VISIBLE LINES
100
AcDbLine
 10
21.87450670439202
 20
25.37063529713651
 30
0.0
 11
21.25568615959468
 21
25.27216011917839
 31
0.0
  0
LINE
  5
189
330
1F
100
AcDbEntity
  8
MAKE2D VISIBLE LINES
100
AcDbLine
 10
21.25568615959468
 20
25.27216011917839
 30
0.0
 11
20.75075707281242
 21
25.20761369752171
 31
0.0
  0
LINE
  5
18A
330
1F
100
AcDbEntity
  8
MAKE2D VISIBLE LINES
100
AcDbLine
 10
20.75075707281242
 20
25.20761369752171
 30
0.0
 11
20.62428599356855
 21
25.19435926391415
 31
0.0
  0
LINE
  5
18B
330
1F
100
AcDbEntity
  8
MAKE2D VISIBLE LINES
100
AcDbLine
 10
20.62428599356855
 20
25.19435926391415
 30
0.0
 11
20.60329258485897
 21
25.19297710055806
 31
0.0
  0
LINE
  5
18C
330
1F
100
AcDbEntity
  8
MAKE2D VISIBLE LINES
100
AcDbLine
 10
20.60329258485897
 20
25.19297710055806
 30
0.0
 11
20.582268299198
 21
25.19212886582622
 31
0.0
  0
LINE
  5
18D
330
1F
100
AcDbEntity
  8
MAKE2D VISIBLE LINES
100
AcDbLine
 10
20.582268299198
 20
25.19212886582622
 30
0.0
 11
20.56122529233241
 21
25.19177106216046
 31
0.0
  0
LINE
  5
18E
330
1F
100
AcDbEntity
  8
MAKE2D VISIBLE LINES
100
AcDbLine
 10
20.56122529233241
 20
25.19177106216046
 30
0.0
 11
20.54017572000895
 21
25.19186019200257
 31
0.0
  0
LINE
  5
18F
330
1F
100
AcDbEntity
  8
MAKE2D VISIBLE LINES
100
AcDbLine
 10
20.54017572000895
 20
25.19186019200257
 30
0.0
 11
20.51337857629022
 21
25.19256976664534
 31
0.0
  0
LINE
  5
190
330
1F
100
AcDbEntity
  8
MAKE2D VISIBLE LINES
100
AcDbLine
 10
20.51337857629022
 20
25.19256976664534
 30
0.0
 11
20.4866105387897
 21
25.19395055595852
 31
0.0
  0
LINE
  5
191
330
1F
100
AcDbEntity
  8
MAKE2D VISIBLE LINES
100
AcDbLine
 10
20.4866105387897
 20
25.19395055595852
 30
0.0
 11
20.45989164781138
 21
25.19601951223488
 31
0.0
  0
LINE
  5
192
330
1F
100
AcDbEntity
  8
MAKE2D VISIBLE LINES
100
AcDbLine
 10
20.45989164781138
 20
25.19601951223488
 30
0.0
 11
20.43324194365928
 21
25.19879358776717
 31
0.0
  0
LINE
  5
193
330
1F
100
AcDbEntity
  8
MAKE2D VISIBLE LINES
100
AcDbLine
 10
20.43324194365928
 20
25.19879358776717
 30
0.0
 11
20.40668146663738
 21
25.20228973484817
 31
0.0
  0
LINE
  5
194
330
1F
100
AcDbEntity
  8
MAKE2D VISIBLE LINES
100
AcDbLine
 10
20.40668146663738
 20
25.20228973484817
 30
0.0
 11
20.38023025704967
 21
25.20652490577065
 31
0.0
  0
LINE
  5
195
330
1F
100
AcDbEntity
  8
MAKE2D VISIBLE LINES
100
AcDbLine
 10
20.38023025704967
 20
25.20652490577065
 30
0.0
 11
20.35390835520018
 21
25.21151605282737
 31
0.0
  0
LINE
  5
196
330
1F
100
AcDbEntity
  8
MAKE2D VISIBLE LINES
100
AcDbLine
 10
20.35390835520018
 20
25.21151605282737
 30
0.0
 11
20.32773580139289
 21
25.2172801283111
 31
0.0
  0
LINE
  5
197
330
1F
100
AcDbEntity
  8
MAKE2D VISIBLE LINES
100
AcDbLine
 10
20.32773580139289
 20
25.2172801283111
 30
0.0
 11
20.30357068927921
 21
25.22335171765535
 31
0.0
  0
LINE
  5
198
330
1F
100
AcDbEntity
  8
MAKE2D VISIBLE LINES
100
AcDbLine
 10
20.30357068927921
 20
25.22335171765535
 30
0.0
 11
20.27960315377467
 21
25.23016249178482
 31
0.0
  0
LINE
  5
199
330
1F
100
AcDbEntity
  8
MAKE2D VISIBLE LINES
100
AcDbLine
 10
20.27960315377467
 20
25.23016249178482
 30
0.0
 11
20.25588448492926
 21
25.23776948151594
 31
0.0
  0
LINE
  5
19A
330
1F
100
AcDbEntity
  8
MAKE2D VISIBLE LINES
100
AcDbLine
 10
20.25588448492926
 20
25.23776948151594
 30
0.0
 11
20.24413450364437
 21
25.24188937936226
 31
0.0
  0
LINE
  5
19B
330
1F
100
AcDbEntity
  8
MAKE2D VISIBLE LINES
100
AcDbLine
 10
20.24413450364437
 20
25.24188937936226
 30
0.0
 11
20.23246597279301
 21
25.24622971766514
 31
0.0
  0
LINE
  5
19C
330
1F
100
AcDbEntity
  8
MAKE2D VISIBLE LINES
100
AcDbLine
 10
20.23246597279301
 20
25.24622971766514
 30
0.0
 11
20.22188105828389
 21
25.25039251298581
 31
0.0
  0
LINE
  5
19D
330
1F
100
AcDbEntity
  8
MAKE2D VISIBLE LINES
100
AcDbLine
 10
20.22188105828389
 20
25.25039251298581
 30
0.0
 11
20.21137114241801
 21
25.25474144058913
 31
0.0
  0
LINE
  5
19E
330
1F
100
AcDbEntity
  8
MAKE2D VISIBLE LINES
100
AcDbLine
 10
20.21137114241801
 20
25.25474144058913
 30
0.0
 11
20.19058292490474
 21
25.26398235204844
 31
0.0
  0
LINE
  5
19F
330
1F
100
AcDbEntity
  8
MAKE2D VISIBLE LINES
100
AcDbLine
 10
20.19058292490474
 20
25.26398235204844
 30
0.0
 11
20.17011455683082
 21
25.27392177085245
 31
0.0
  0
LINE
  5
1A0
330
1F
100
AcDbEntity
  8
MAKE2D VISIBLE LINES
100
AcDbLine
 10
20.17011455683082
 20
25.27392177085245
 30
0.0
 11
20.14997927477393
 21
25.28452901581056
 31
0.0
  0
CIRCLE
  5
1A1
330
1F
100
AcDbEntity
  8
MAKE2D VISIBLE LINES
100
AcDbCircle
 10
18.63814620246073
 20
43.72566167457317
 30
0.0
 40
18.503015396292
  0
CIRCLE
  5
1A2
330
1F
100
AcDbEntity
  8
MAKE2D VISIBLE LINES
100
AcDbCircle
 10
18.63814617026716
 20
43.72566162162872
 30
0.0
 40
18.46801534335605
  0
LINE
  5
1A3
330
1F
100
AcDbEntity
  8
MAKE2D VISIBLE LINES
100
AcDbLine
 10
37.10615744659148
 20
18.10471467564718
 30
0.0
 11
37.14115753172779
 21
18.06971467564718
 31
0.0
  0
LINE
  5
1A4
330
1F
100
AcDbEntity
  8
MAKE2D VISIBLE LINES
100
AcDbLine
 10
0.135094843563941
 20
18.06971467564717
 30
0.0
 11
0.1700949246362882
 21
18.10471467564717
 31
0.0
  0
LINE
  5
1A5
330
1F
100
AcDbEntity
  8
MAKE2D VISIBLE LINES
100
AcDbLine
 10
6.137814169134121
 20
0.4377252940757899
 30
0.0
 11
11.93990583876973
 21
0.4378537680258258
 31
0.0
  0
LINE
  5
1A6
330
1F
100
AcDbEntity
  8
MAKE2D VISIBLE LINES
100
AcDbLine
 10
11.94574980417974
 20
0.3788576934988939
 30
0.0
 11
11.9459902487681
 21
0.3822316939900382
 31
0.0
  0
LINE
  5
1A7
330
1F
100
AcDbEntity
  8
MAKE2D VISIBLE LINES
100
AcDbLine
 10
11.9459902487681
 20
0.3822316939900382
 30
0.0
 11
11.94612192060514
 21
0.3856000406626544
 31
0.0
  0
LINE
  5
1A8
330
1F
100
AcDbEntity
  8
MAKE2D VISIBLE LINES
100
AcDbLine
 10
11.94612192060514
 20
0.3856000406626544
 30
0.0
 11
11.94615237432343
 21
0.3889630706001183
 31
0.0
  0
LINE
  5
1A9
330
1F
100
AcDbEntity
  8
MAKE2D VISIBLE LINES
100
AcDbLine
 10
11.94615237432343
 20
0.3889630706001183
 30
0.0
 11
11.94608916455551
 21
0.3923211208858056
 31
0.0
  0
LINE
  5
1AA
330
1F
100
AcDbEntity
  8
MAKE2D VISIBLE LINES
100
AcDbLine
 10
11.94608916455551
 20
0.3923211208858056
 30
0.0
 11
11.94593984593392
 21
0.3956745286030921
 31
0.0
  0
LINE
  5
1AB
330
1F
100
AcDbEntity
  8
MAKE2D VISIBLE LINES
100
AcDbLine
 10
11.94593984593392
 20
0.3956745286030921
 30
0.0
 11
11.94571197309121
 21
0.3990236308353536
 31
0.0
  0
LINE
  5
1AC
330
1F
100
AcDbEntity
  8
MAKE2D VISIBLE LINES
100
AcDbLine
 10
11.94571197309121
 20
0.3990236308353536
 30
0.0
 11
11.94541310065993
 21
0.4023687646659658
 31
0.0
  0
LINE
  5
1AD
330
1F
100
AcDbEntity
  8
MAKE2D VISIBLE LINES
100
AcDbLine
 10
11.94541310065993
 20
0.4023687646659658
 30
0.0
 11
11.94505078327262
 21
0.4057102671783045
 31
0.0
  0
LINE
  5
1AE
330
1F
100
AcDbEntity
  8
MAKE2D VISIBLE LINES
100
AcDbLine
 10
11.94505078327262
 20
0.4057102671783045
 30
0.0
 11
11.9441660321601
 21
0.4123837265816645
 31
0.0
  0
LINE
  5
1AF
330
1F
100
AcDbEntity
  8
MAKE2D VISIBLE LINES
100
AcDbLine
 10
11.9441660321601
 20
0.4123837265816645
 30
0.0
 11
10.77824272118758
 21
7.306658436922586
 31
0.0
  0
LINE
  5
1B0
330
1F
100
AcDbEntity
  8
MAKE2D VISIBLE LINES
100
AcDbLine
 10
10.77824272118758
 20
7.306658436922586
 30
0.0
 11
10.77573419995588
 21
7.320639812695086
 31
0.0
  0
LINE
  5
1B1
330
1F
100
AcDbEntity
  8
MAKE2D VISIBLE LINES
100
AcDbLine
 10
10.77573419995588
 20
7.320639812695086
 30
0.0
 11
10.77293941279146
 21
7.33456194872003
 31
0.0
  0
LINE
  5
1B2
330
1F
100
AcDbEntity
  8
MAKE2D VISIBLE LINES
100
AcDbLine
 10
10.77293941279146
 20
7.33456194872003
 30
0.0
 11
10.77069250426282
 21
7.344409995992776
 31
0.0
  0
LINE
  5
1B3
330
1F
100
AcDbEntity
  8
MAKE2D VISIBLE LINES
100
AcDbLine
 10
10.77069250426282
 20
7.344409995992776
 30
0.0
 11
10.76822488894098
 21
7.354205526335754
 31
0.0
  0
LINE
  5
1B4
330
1F
100
AcDbEntity
  8
MAKE2D VISIBLE LINES
100
AcDbLine
 10
10.76822488894098
 20
7.354205526335754
 30
0.0
 11
10.76554985744874
 21
7.363948518023449
 31
0.0
  0
LINE
  5
1B5
330
1F
100
AcDbEntity
  8
MAKE2D VISIBLE LINES
100
AcDbLine
 10
10.76554985744874
 20
7.363948518023449
 30
0.0
 11
10.76268070040887
 21
7.373638949330343
 31
0.0
  0
LINE
  5
1B6
330
1F
100
AcDbEntity
  8
MAKE2D VISIBLE LINES
100
AcDbLine
 10
10.76268070040887
 20
7.373638949330343
 30
0.0
 11
10.75641317217734
 21
7.392862043899664
 31
0.0
  0
LINE
  5
1B7
330
1F
100
AcDbEntity
  8
MAKE2D VISIBLE LINES
100
AcDbLine
 10
10.75641317217734
 20
7.392862043899664
 30
0.0
 11
10.74952862922865
 21
7.411874636239587
 31
0.0
  0
LINE
  5
1B8
330
1F
100
AcDbEntity
  8
MAKE2D VISIBLE LINES
100
AcDbLine
 10
10.74952862922865
 20
7.411874636239587
 30
0.0
 11
10.74231331554827
 21
7.430188010694226
 31
0.0
  0
LINE
  5
1B9
330
1F
100
AcDbEntity
  8
MAKE2D VISIBLE LINES
100
AcDbLine
 10
10.74231331554827
 20
7.430188010694226
 30
0.0
 11
10.73460376655957
 21
7.448288138170383
 31
0.0
  0
LINE
  5
1BA
330
1F
100
AcDbEntity
  8
MAKE2D VISIBLE LINES
100
AcDbLine
 10
10.73460376655957
 20
7.448288138170383
 30
0.0
 11
10.7263902177173
 21
7.466161631549181
 31
0.0
  0
LINE
  5
1BB
330
1F
100
AcDbEntity
  8
MAKE2D VISIBLE LINES
100
AcDbLine
 10
10.7263902177173
 20
7.466161631549181
 30
0.0
 11
10.7176629044762
 21
7.483795103711742
 31
0.0
  0
LINE
  5
1BC
330
1F
100
AcDbEntity
  8
MAKE2D VISIBLE LINES
100
AcDbLine
 10
10.7176629044762
 20
7.483795103711742
 30
0.0
 11
10.7076340489465
 21
7.502596820412194
 31
0.0
  0
LINE
  5
1BD
330
1F
100
AcDbEntity
  8
MAKE2D VISIBLE LINES
100
AcDbLine
 10
10.7076340489465
 20
7.502596820412194
 30
0.0
 11
10.69702784299432
 21
7.521090392101065
 31
0.0
  0
LINE
  5
1BE
330
1F
100
AcDbEntity
  8
MAKE2D VISIBLE LINES
100
AcDbLine
 10
10.69702784299432
 20
7.521090392101065
 30
0.0
 11
10.68769446872803
 21
7.536341494438149
 31
0.0
  0
LINE
  5
1BF
330
1F
100
AcDbEntity
  8
MAKE2D VISIBLE LINES
100
AcDbLine
 10
10.68769446872803
 20
7.536341494438149
 30
0.0
 11
10.68285604765554
 21
7.543854857700101
 31
0.0
  0
LINE
  5
1C0
330
1F
100
AcDbEntity
  8
MAKE2D VISIBLE LINES
100
AcDbLine
 10
10.68285604765554
 20
7.543854857700101
 30
0.0
 11
10.67788770211513
 21
7.551278529221888
 31
0.0
  0
LINE
  5
1C1
330
1F
100
AcDbEntity
  8
MAKE2D VISIBLE LINES
100
AcDbLine
 10
10.67788770211513
 20
7.551278529221888
 30
0.0
 11
10.6727778557255
 21
7.558601334151685
 31
0.0
  0
LINE
  5
1C2
330
1F
100
AcDbEntity
  8
MAKE2D VISIBLE LINES
100
AcDbLine
 10
10.6727778557255
 20
7.558601334151685
 30
0.0
 11
10.66751493210539
 21
7.565812097637664
 31
0.0
  0
LINE
  5
1C3
330
1F
100
AcDbEntity
  8
MAKE2D VISIBLE LINES
100
AcDbLine
 10
10.66751493210539
 20
7.565812097637664
 30
0.0
 11
10.66208735487351
 21
7.572899644827997
 31
0.0
  0
LINE
  5
1C4
330
1F
100
AcDbEntity
  8
MAKE2D VISIBLE LINES
100
AcDbLine
 10
10.66208735487351
 20
7.572899644827997
 30
0.0
 11
10.6564835476486
 21
7.579852800870855
 31
0.0
  0
LINE
  5
1C5
330
1F
100
AcDbEntity
  8
MAKE2D VISIBLE LINES
100
AcDbLine
 10
10.6564835476486
 20
7.579852800870855
 30
0.0
 11
10.64879661918909
 21
7.588898498328112
 31
0.0
  0
LINE
  5
1C6
330
1F
100
AcDbEntity
  8
MAKE2D VISIBLE LINES
100
AcDbLine
 10
10.64879661918909
 20
7.588898498328112
 30
0.0
 11
1.87910029862383
 21
17.36970626330365
 31
0.0
  0
LINE
  5
1C7
330
1F
100
AcDbEntity
  8
MAKE2D VISIBLE LINES
100
AcDbLine
 10
1.87910029862383
 20
17.36970626330365
 30
0.0
 11
1.845207623553521
 21
17.40672125044186
 31
0.0
  0
LINE
  5
1C8
330
1F
100
AcDbEntity
  8
MAKE2D VISIBLE LINES
100
AcDbLine
 10
1.845207623553521
 20
17.40672125044186
 30
0.0
 11
1.836487410408347
 21
17.41572177492775
 31
0.0
  0
LINE
  5
1C9
330
1F
100
AcDbEntity
  8
MAKE2D VISIBLE LINES
100
AcDbLine
 10
1.836487410408347
 20
17.41572177492775
 30
0.0
 11
1.827604410353709
 21
17.42455301371239
 31
0.0
  0
LINE
  5
1CA
330
1F
100
AcDbEntity
  8
MAKE2D VISIBLE LINES
100
AcDbLine
 10
1.827604410353709
 20
17.42455301371239
 30
0.0
 11
1.818526638810394
 21
17.43318096840491
 31
0.0
  0
LINE
  5
1CB
330
1F
100
AcDbEntity
  8
MAKE2D VISIBLE LINES
100
AcDbLine
 10
1.818526638810394
 20
17.43318096840491
 30
0.0
 11
1.80922211119919
 21
17.44157164061442
 31
0.0
  0
LINE
  5
1CC
330
1F
100
AcDbEntity
  8
MAKE2D VISIBLE LINES
100
AcDbLine
 10
1.80922211119919
 20
17.44157164061442
 30
0.0
 11
1.80110412624212
 21
17.44850468858339
 31
0.0
  0
LINE
  5
1CD
330
1F
100
AcDbEntity
  8
MAKE2D VISIBLE LINES
100
AcDbLine
 10
1.80110412624212
 20
17.44850468858339
 30
0.0
 11
1.792809380985464
 21
17.45523786467324
 31
0.0
  0
LINE
  5
1CE
330
1F
100
AcDbEntity
  8
MAKE2D VISIBLE LINES
100
AcDbLine
 10
1.792809380985464
 20
17.45523786467324
 30
0.0
 11
1.784348603649913
 21
17.46176787241811
 31
0.0
  0
LINE
  5
1CF
330
1F
100
AcDbEntity
  8
MAKE2D VISIBLE LINES
100
AcDbLine
 10
1.784348603649913
 20
17.46176787241811
 30
0.0
 11
1.77573252245616
 21
17.46809141535213
 31
0.0
  0
LINE
  5
1D0
330
1F
100
AcDbEntity
  8
MAKE2D VISIBLE LINES
100
AcDbLine
 10
1.77573252245616
 20
17.46809141535213
 30
0.0
 11
1.769067342302224
 21
17.47274957401896
 31
0.0
  0
LINE
  5
1D1
330
1F
100
AcDbEntity
  8
MAKE2D VISIBLE LINES
100
AcDbLine
 10
1.769067342302224
 20
17.47274957401896
 30
0.0
 11
1.76568790952352
 21
17.47500454226518
 31
0.0
  0
LINE
  5
1D2
330
1F
100
AcDbEntity
  8
MAKE2D VISIBLE LINES
100
AcDbLine
 10
1.76568790952352
 20
17.47500454226518
 30
0.0
 11
1.762269020259423
 21
17.47719488627584
 31
0.0
  0
LINE
  5
1D3
330
1F
100
AcDbEntity
  8
MAKE2D VISIBLE LINES
100
AcDbLine
 10
1.762269020259423
 20
17.47719488627584
 30
0.0
 11
1.758804503496755
 21
17.47930919341783
 31
0.0
  0
LINE
  5
1D4
330
1F
100
AcDbEntity
  8
MAKE2D VISIBLE LINES
100
AcDbLine
 10
1.758804503496755
 20
17.47930919341783
 30
0.0
 11
1.755288188222339
 21
17.48133605105807
 31
0.0
  0
LINE
  5
1D5
330
1F
100
AcDbEntity
  8
MAKE2D VISIBLE LINES
100
AcDbLine
 10
1.755288188222339
 20
17.48133605105807
 30
0.0
 11
1.751713903422998
 21
17.48326404656346
 31
0.0
  0
LINE
  5
1D6
330
1F
100
AcDbEntity
  8
MAKE2D VISIBLE LINES
100
AcDbLine
 10
1.751713903422998
 20
17.48326404656346
 30
0.0
 11
1.748075478085553
 21
17.48508176730092
 31
0.0
  0
LINE
  5
1D7
330
1F
100
AcDbEntity
  8
MAKE2D VISIBLE LINES
100
AcDbLine
 10
1.756429946604975
 20
17.48072289803684
 30
0.0
 11
0.2119418904396871
 21
17.48067242004957
 31
0.0
  0
LINE
  5
1D8
330
1F
100
AcDbEntity
  8
MAKE2D VISIBLE LINES
100
AcDbLine
 10
0.2119418904396871
 20
17.48067242004957
 30
0.0
 11
0.208539456362313
 21
17.4807957361771
 31
0.0
  0
LINE
  5
1D9
330
1F
100
AcDbEntity
  8
MAKE2D VISIBLE LINES
100
AcDbLine
 10
0.208539456362313
 20
17.4807957361771
 30
0.0
 11
0.2051395861598772
 21
17.48098249742102
 31
0.0
  0
LINE
  5
1DA
330
1F
100
AcDbEntity
  8
MAKE2D VISIBLE LINES
100
AcDbLine
 10
0.2051395861598772
 20
17.48098249742102
 30
0.0
 11
0.2017429509496261
 21
17.48122980887633
 31
0.0
  0
LINE
  5
1DB
330
1F
100
AcDbEntity
  8
MAKE2D VISIBLE LINES
100
AcDbLine
 10
0.2017429509496261
 20
17.48122980887633
 30
0.0
 11
0.1949620699746631
 21
17.48189450280113
 31
0.0
  0
LINE
  5
1DC
330
1F
100
AcDbEntity
  8
MAKE2D VISIBLE LINES
100
AcDbLine
 10
0.1949620699746631
 20
17.48189450280113
 30
0.0
 11
0.1882021823753951
 21
17.48276665871151
 31
0.0
  0
LINE
  5
1DD
330
1F
100
AcDbEntity
  8
MAKE2D VISIBLE LINES
100
AcDbLine
 10
0.1882021823753951
 20
17.48276665871151
 30
0.0
 11
0.1813905565447556
 21
17.48384177888191
 31
0.0
  0
LINE
  5
1DE
330
1F
100
AcDbEntity
  8
MAKE2D VISIBLE LINES
100
AcDbLine
 10
0.1813905565447556
 20
17.48384177888191
 30
0.0
 11
0.1746160800211476
 21
17.48511311388405
 31
0.0
  0
LINE
  5
1DF
330
1F
100
AcDbEntity
  8
MAKE2D VISIBLE LINES
100
AcDbLine
 10
0.1746160800211476
 20
17.48511311388405
 30
0.0
 11
0.1672239264604421
 21
17.48674575922706
 31
0.0
  0
LINE
  5
1E0
330
1F
100
AcDbEntity
  8
MAKE2D VISIBLE LINES
100
AcDbLine
 10
0.1672239264604421
 20
17.48674575922706
 30
0.0
 11
0.1635518168369257
 21
17.48765730183274
 31
0.0
  0
LINE
  5
1E1
330
1F
100
AcDbEntity
  8
MAKE2D VISIBLE LINES
100
AcDbLine
 10
0.1635518168369257
 20
17.48765730183274
 30
0.0
 11
0.1598970353861994
 21
17.48863387034996
 31
0.0
  0
LINE
  5
1E2
330
1F
100
AcDbEntity
  8
MAKE2D VISIBLE LINES
100
AcDbLine
 10
0.1598970353861994
 20
17.48863387034996
 30
0.0
 11
0.1553914996108381
 21
17.48993602734526
 31
0.0
  0
LINE
  5
1E3
330
1F
100
AcDbEntity
  8
MAKE2D VISIBLE LINES
100
AcDbLine
 10
0.1553914996108381
 20
17.48993602734526
 30
0.0
 11
0.150915960732461
 21
17.49133861376956
 31
0.0
  0
LINE
  5
1E4
330
1F
100
AcDbEntity
  8
MAKE2D VISIBLE LINES
100
AcDbLine
 10
0.150915960732461
 20
17.49133861376956
 30
0.0
 11
0.1464722253673408
 21
17.49284033000389
 31
0.0
  0
LINE
  5
1E5
330
1F
100
AcDbEntity
  8
MAKE2D VISIBLE LINES
100
AcDbLine
 10
0.1464722253673408
 20
17.49284033000389
 30
0.0
 11
0.1420621001317506
 21
17.49443987642932
 31
0.0
  0
LINE
  5
1E6
330
1F
100
AcDbEntity
  8
MAKE2D VISIBLE LINES
100
AcDbLine
 10
0.1420621001317506
 20
17.49443987642932
 30
0.0
 11
0.1376873916419631
 21
17.49613595342687
 31
0.0
  0
LINE
  5
1E7
330
1F
100
AcDbEntity
  8
MAKE2D VISIBLE LINES
100
AcDbLine
 10
0.1376873916419631
 20
17.49613595342687
 30
0.0
 11
0.1333499065142512
 21
17.49792726137757
 31
0.0
  0
LINE
  5
1E8
330
1F
100
AcDbEntity
  8
MAKE2D VISIBLE LINES
100
AcDbLine
 10
0.1333499065142512
 20
17.49792726137757
 30
0.0
 11
0.1290514513648879
 21
17.49981250066248
 31
0.0
  0
LINE
  5
1E9
330
1F
100
AcDbEntity
  8
MAKE2D VISIBLE LINES
100
AcDbLine
 10
0.1290514513648879
 20
17.49981250066248
 30
0.0
 11
0.124793832810146
 21
17.50179037166262
 31
0.0
  0
LINE
  5
1EA
330
1F
100
AcDbEntity
  8
MAKE2D VISIBLE LINES
100
AcDbLine
 10
0.124793832810146
 20
17.50179037166262
 30
0.0
 11
0.1205788574662983
 21
17.50385957475904
 31
0.0
  0
LINE
  5
1EB
330
1F
100
AcDbEntity
  8
MAKE2D VISIBLE LINES
100
AcDbLine
 10
0.1205788574662983
 20
17.50385957475904
 30
0.0
 11
0.1164083319496179
 21
17.50601881033278
 31
0.0
  0
LINE
  5
1EC
330
1F
100
AcDbEntity
  8
MAKE2D VISIBLE LINES
100
AcDbLine
 10
0.1164083319496179
 20
17.50601881033278
 30
0.0
 11
0.1122840628763775
 21
17.50826677876486
 31
0.0
  0
LINE
  5
1ED
330
1F
100
AcDbEntity
  8
MAKE2D VISIBLE LINES
100
AcDbLine
 10
0.1122840628763775
 20
17.50826677876486
 30
0.0
 11
0.1082078568628501
 21
17.51060218043634
 31
0.0
  0
LINE
  5
1EE
330
1F
100
AcDbEntity
  8
MAKE2D VISIBLE LINES
100
AcDbLine
 10
0.1082078568628501
 20
17.51060218043634
 30
0.0
 11
0.1041815205253084
 21
17.51302371572825
 31
0.0
  0
LINE
  5
1EF
330
1F
100
AcDbEntity
  8
MAKE2D VISIBLE LINES
100
AcDbLine
 10
0.1041815205253084
 20
17.51302371572825
 30
0.0
 11
0.1002068604800255
 21
17.51553008502163
 31
0.0
  0
LINE
  5
1F0
330
1F
100
AcDbEntity
  8
MAKE2D VISIBLE LINES
100
AcDbLine
 10
0.1002068604800255
 20
17.51553008502163
 30
0.0
 11
0.0962856833432742
 21
17.51811998869752
 31
0.0
  0
LINE
  5
1F1
330
1F
100
AcDbEntity
  8
MAKE2D VISIBLE LINES
100
AcDbLine
 10
0.0962856833432742
 20
17.51811998869752
 30
0.0
 11
0.0924197957313274
 21
17.52079212713695
 31
0.0
  0
LINE
  5
1F2
330
1F
100
AcDbEntity
  8
MAKE2D VISIBLE LINES
100
AcDbLine
 10
0.0924197957313274
 20
17.52079212713695
 30
0.0
 11
0.0886110042604579
 21
17.52354520072096
 31
0.0
  0
LINE
  5
1F3
330
1F
100
AcDbEntity
  8
MAKE2D VISIBLE LINES
100
AcDbLine
 10
0.0886110042604579
 20
17.52354520072096
 30
0.0
 11
0.0848611155469386
 21
17.5263779098306
 31
0.0
  0
LINE
  5
1F4
330
1F
100
AcDbEntity
  8
MAKE2D VISIBLE LINES
100
AcDbLine
 10
0.0848611155469386
 20
17.5263779098306
 30
0.0
 11
0.0811719362070425
 21
17.5292889548469
 31
0.0
  0
LINE
  5
1F5
330
1F
100
AcDbEntity
  8
MAKE2D VISIBLE LINES
100
AcDbLine
 10
0.0811719362070425
 20
17.5292889548469
 30
0.0
 11
0.0775452728570424
 21
17.5322770361509
 31
0.0
  0
LINE
  5
1F6
330
1F
100
AcDbEntity
  8
MAKE2D VISIBLE LINES
100
AcDbLine
 10
0.0775452728570424
 20
17.5322770361509
 30
0.0
 11
0.0739829321132112
 21
17.53534085412364
 31
0.0
  0
LINE
  5
1F7
330
1F
100
AcDbEntity
  8
MAKE2D VISIBLE LINES
100
AcDbLine
 10
0.0739829321132112
 20
17.53534085412364
 30
0.0
 11
0.0704867205918217
 21
17.53847910914615
 31
0.0
  0
LINE
  5
1F8
330
1F
100
AcDbEntity
  8
MAKE2D VISIBLE LINES
100
AcDbLine
 10
0.0704867205918217
 20
17.53847910914615
 30
0.0
 11
0.0670584449091469
 21
17.54169050159948
 31
0.0
  0
LINE
  5
1F9
330
1F
100
AcDbEntity
  8
MAKE2D VISIBLE LINES
100
AcDbLine
 10
0.0670584449091469
 20
17.54169050159948
 30
0.0
 11
0.0636999116814597
 21
17.54497373186467
 31
0.0
  0
LINE
  5
1FA
330
1F
100
AcDbEntity
  8
MAKE2D VISIBLE LINES
100
AcDbLine
 10
0.0636999116814597
 20
17.54497373186467
 30
0.0
 11
0.0604129275250328
 21
17.54832750032274
 31
0.0
  0
LINE
  5
1FB
330
1F
100
AcDbEntity
  8
MAKE2D VISIBLE LINES
100
AcDbLine
 10
0.0604129275250328
 20
17.54832750032274
 30
0.0
 11
0.0571992990561393
 21
17.55175050735475
 31
0.0
  0
LINE
  5
1FC
330
1F
100
AcDbEntity
  8
MAKE2D VISIBLE LINES
100
AcDbLine
 10
0.0571992990561393
 20
17.55175050735475
 30
0.0
 11
0.0540608328910519
 21
17.55524145334172
 31
0.0
  0
LINE
  5
1FD
330
1F
100
AcDbEntity
  8
MAKE2D VISIBLE LINES
100
AcDbLine
 10
0.0540608328910519
 20
17.55524145334172
 30
0.0
 11
0.0509993356460437
 21
17.55879903866471
 31
0.0
  0
LINE
  5
1FE
330
1F
100
AcDbEntity
  8
MAKE2D VISIBLE LINES
100
AcDbLine
 10
0.0509993356460437
 20
17.55879903866471
 30
0.0
 11
0.0480166139373873
 21
17.56242196370474
 31
0.0
  0
LINE
  5
1FF
330
1F
100
AcDbEntity
  8
MAKE2D VISIBLE LINES
100
AcDbLine
 10
0.0480166139373873
 20
17.56242196370474
 30
0.0
 11
0.0451144743813558
 21
17.56610892884285
 31
0.0
  0
LINE
  5
200
330
1F
100
AcDbEntity
  8
MAKE2D VISIBLE LINES
100
AcDbLine
 10
0.0451144743813558
 20
17.56610892884285
 30
0.0
 11
0.0422947235942221
 21
17.56985863446009
 31
0.0
  0
LINE
  5
201
330
1F
100
AcDbEntity
  8
MAKE2D VISIBLE LINES
100
AcDbLine
 10
0.0422947235942221
 20
17.56985863446009
 30
0.0
 11
0.0395591681922589
 21
17.5736697809375
 31
0.0
  0
LINE
  5
202
330
1F
100
AcDbEntity
  8
MAKE2D VISIBLE LINES
100
AcDbLine
 10
0.0395591681922589
 20
17.5736697809375
 30
0.0
 11
0.036914335820168
 21
17.57753355952087
 31
0.0
  0
LINE
  5
203
330
1F
100
AcDbEntity
  8
MAKE2D VISIBLE LINES
100
AcDbLine
 10
0.036914335820168
 20
17.57753355952087
 30
0.0
 11
0.0343557533240923
 21
17.58145513731728
 31
0.0
  0
LINE
  5
204
330
1F
100
AcDbEntity
  8
MAKE2D VISIBLE LINES
100
AcDbLine
 10
0.0343557533240923
 20
17.58145513731728
 30
0.0
 11
0.0318839933317288
 21
17.58543239939858
 31
0.0
  0
LINE
  5
205
330
1F
100
AcDbEntity
  8
MAKE2D VISIBLE LINES
100
AcDbLine
 10
0.0318839933317288
 20
17.58543239939858
 30
0.0
 11
0.0294996284707747
 21
17.58946323083663
 31
0.0
  0
LINE
  5
206
330
1F
100
AcDbEntity
  8
MAKE2D VISIBLE LINES
100
AcDbLine
 10
0.0294996284707747
 20
17.58946323083663
 30
0.0
 11
0.0272032313689271
 21
17.59354551670328
 31
0.0
  0
LINE
  5
207
330
1F
100
AcDbEntity
  8
MAKE2D VISIBLE LINES
100
AcDbLine
 10
0.0272032313689271
 20
17.59354551670328
 30
0.0
 11
0.0249953746538832
 21
17.59767714207039
 31
0.0
  0
LINE
  5
208
330
1F
100
AcDbEntity
  8
MAKE2D VISIBLE LINES
100
AcDbLine
 10
0.0249953746538832
 20
17.59767714207039
 30
0.0
 11
0.0228766309533401
 21
17.60185599200981
 31
0.0
  0
LINE
  5
209
330
1F
100
AcDbEntity
  8
MAKE2D VISIBLE LINES
100
AcDbLine
 10
0.0228766309533401
 20
17.60185599200981
 30
0.0
 11
0.0208475728949949
 21
17.60607995159339
 31
0.0
  0
LINE
  5
20A
330
1F
100
AcDbEntity
  8
MAKE2D VISIBLE LINES
100
AcDbLine
 10
0.0208475728949949
 20
17.60607995159339
 30
0.0
 11
0.0189087731065447
 21
17.610346905893
 31
0.0
  0
LINE
  5
20B
330
1F
100
AcDbEntity
  8
MAKE2D VISIBLE LINES
100
AcDbLine
 10
0.0189087731065447
 20
17.610346905893
 30
0.0
 11
0.0170608042156868
 21
17.61465473998048
 31
0.0
  0
LINE
  5
20C
330
1F
100
AcDbEntity
  8
MAKE2D VISIBLE LINES
100
AcDbLine
 10
0.0170608042156868
 20
17.61465473998048
 30
0.0
 11
0.0153042388501183
 21
17.61900133892769
 31
0.0
  0
LINE
  5
20D
330
1F
100
AcDbEntity
  8
MAKE2D VISIBLE LINES
100
AcDbLine
 10
0.0153042388501183
 20
17.61900133892769
 30
0.0
 11
0.0136396496375362
 21
17.62338458780648
 31
0.0
  0
LINE
  5
20E
330
1F
100
AcDbEntity
  8
MAKE2D VISIBLE LINES
100
AcDbLine
 10
0.0136396496375362
 20
17.62338458780648
 30
0.0
 11
0.0120676092056378
 21
17.62780237168872
 31
0.0
  0
LINE
  5
20F
330
1F
100
AcDbEntity
  8
MAKE2D VISIBLE LINES
100
AcDbLine
 10
0.0120676092056378
 20
17.62780237168872
 30
0.0
 11
0.0105886901821201
 21
17.63225257564624
 31
0.0
  0
LINE
  5
210
330
1F
100
AcDbEntity
  8
MAKE2D VISIBLE LINES
100
AcDbLine
 10
0.0105886901821201
 20
17.63225257564624
 30
0.0
 11
0.0092034651946803
 21
17.63673308475092
 31
0.0
  0
LINE
  5
211
330
1F
100
AcDbEntity
  8
MAKE2D VISIBLE LINES
100
AcDbLine
 10
0.0092034651946803
 20
17.63673308475092
 30
0.0
 11
0.0079125068710156
 21
17.6412417840746
 31
0.0
  0
LINE
  5
212
330
1F
100
AcDbEntity
  8
MAKE2D VISIBLE LINES
100
AcDbLine
 10
0.0079125068710156
 20
17.6412417840746
 30
0.0
 11
0.006716387838823
 21
17.64577655868914
 31
0.0
  0
LINE
  5
213
330
1F
100
AcDbEntity
  8
MAKE2D VISIBLE LINES
100
AcDbLine
 10
0.006716387838823
 20
17.64577655868914
 30
0.0
 11
0.0056156807257998
 21
17.65033529366639
 31
0.0
  0
LINE
  5
214
330
1F
100
AcDbEntity
  8
MAKE2D VISIBLE LINES
100
AcDbLine
 10
0.0056156807257998
 20
17.65033529366639
 30
0.0
 11
0.004610958159643
 21
17.65491587407821
 31
0.0
  0
LINE
  5
215
330
1F
100
AcDbEntity
  8
MAKE2D VISIBLE LINES
100
AcDbLine
 10
0.004610958159643
 20
17.65491587407821
 30
0.0
 11
0.0037027927680498
 21
17.65951618499644
 31
0.0
  0
LINE
  5
216
330
1F
100
AcDbEntity
  8
MAKE2D VISIBLE LINES
100
AcDbLine
 10
0.0037027927680498
 20
17.65951618499644
 30
0.0
 11
0.0028917571787174
 21
17.66413411149296
 31
0.0
  0
LINE
  5
217
330
1F
100
AcDbEntity
  8
MAKE2D VISIBLE LINES
100
AcDbLine
 10
0.0028917571787174
 20
17.66413411149296
 30
0.0
 11
0.0021784240193428
 21
17.66876753863961
 31
0.0
  0
LINE
  5
218
330
1F
100
AcDbEntity
  8
MAKE2D VISIBLE LINES
100
AcDbLine
 10
0.0021784240193428
 20
17.66876753863961
 30
0.0
 11
0.0015633659176233
 21
17.67341435150824
 31
0.0
  0
LINE
  5
219
330
1F
100
AcDbEntity
  8
MAKE2D VISIBLE LINES
100
AcDbLine
 10
0.0015633659176233
 20
17.67341435150824
 30
0.0
 11
0.0010471555012559
 21
17.67807243517072
 31
0.0
  0
LINE
  5
21A
330
1F
100
AcDbEntity
  8
MAKE2D VISIBLE LINES
100
AcDbLine
 10
0.0010471555012559
 20
17.67807243517072
 30
0.0
 11
0.0006303653979378
 21
17.68273967469889
 31
0.0
  0
LINE
  5
21B
330
1F
100
AcDbEntity
  8
MAKE2D VISIBLE LINES
100
AcDbLine
 10
0.0006303653979378
 20
17.68273967469889
 30
0.0
 11
0.0003135682353661
 21
17.68741395516461
 31
0.0
  0
LINE
  5
21C
330
1F
100
AcDbEntity
  8
MAKE2D VISIBLE LINES
100
AcDbLine
 10
0.0003135682353661
 20
17.68741395516461
 30
0.0
 11
0.000097336641238
 21
17.69209316163973
 31
0.0
  0
LINE
  5
21D
330
1F
100
AcDbEntity
  8
MAKE2D VISIBLE LINES
100
AcDbLine
 10
0.000097336641238
 20
17.69209316163973
 30
0.0
 11
-0.0000177567567494
 21
17.69677517919612
 31
0.0
  0
LINE
  5
21E
330
1F
100
AcDbEntity
  8
MAKE2D VISIBLE LINES
100
AcDbLine
 10
-0.0000177567567494
 20
17.69677517919612
 30
0.0
 11
-0.000031139330899
 21
17.70145789290562
 31
0.0
  0
LINE
  5
21F
330
1F
100
AcDbEntity
  8
MAKE2D VISIBLE LINES
100
AcDbLine
 10
-0.000031139330899
 20
17.70145789290562
 30
0.0
 11
0.0000577615464864
 21
17.70613918784009
 31
0.0
  0
LINE
  5
220
330
1F
100
AcDbEntity
  8
MAKE2D VISIBLE LINES
100
AcDbLine
 10
0.0000577615464864
 20
17.70613918784009
 30
0.0
 11
0.0002495185031039
 21
17.71081694907138
 31
0.0
  0
LINE
  5
221
330
1F
100
AcDbEntity
  8
MAKE2D VISIBLE LINES
100
AcDbLine
 10
0.0002495185031039
 20
17.71081694907138
 30
0.0
 11
0.0005447041666507
 21
17.71548906167135
 31
0.0
  0
LINE
  5
222
330
1F
100
AcDbEntity
  8
MAKE2D VISIBLE LINES
100
AcDbLine
 10
0.0005447041666507
 20
17.71548906167135
 30
0.0
 11
0.0009459453233451
 21
17.72017717107709
 31
0.0
  0
LINE
  5
223
330
1F
100
AcDbEntity
  8
MAKE2D VISIBLE LINES
100
AcDbLine
 10
0.0009459453233451
 20
17.72017717107709
 30
0.0
 11
0.0014513503169575
 21
17.72485540912916
 31
0.0
  0
LINE
  5
224
330
1F
100
AcDbEntity
  8
MAKE2D VISIBLE LINES
100
AcDbLine
 10
0.0014513503169575
 20
17.72485540912916
 30
0.0
 11
0.0020600192130922
 21
17.72952174734284
 31
0.0
  0
LINE
  5
225
330
1F
100
AcDbEntity
  8
MAKE2D VISIBLE LINES
100
AcDbLine
 10
0.0020600192130922
 20
17.72952174734284
 30
0.0
 11
0.0027710520773533
 21
17.73417415723339
 31
0.0
  0
LINE
  5
226
330
1F
100
AcDbEntity
  8
MAKE2D VISIBLE LINES
100
AcDbLine
 10
0.0027710520773533
 20
17.73417415723339
 30
0.0
 11
0.0035835489753451
 21
17.73881061031609
 31
0.0
  0
LINE
  5
227
330
1F
100
AcDbEntity
  8
MAKE2D VISIBLE LINES
100
AcDbLine
 10
0.0035835489753451
 20
17.73881061031609
 30
0.0
 11
0.0044966099726719
 21
17.74342907810621
 31
0.0
  0
LINE
  5
228
330
1F
100
AcDbEntity
  8
MAKE2D VISIBLE LINES
100
AcDbLine
 10
0.0044966099726719
 20
17.74342907810621
 30
0.0
 11
0.0055093351349377
 21
17.74802753211903
 31
0.0
  0
LINE
  5
229
330
1F
100
AcDbEntity
  8
MAKE2D VISIBLE LINES
100
AcDbLine
 10
0.0055093351349377
 20
17.74802753211903
 30
0.0
 11
0.0066208245277468
 21
17.7526039438698
 31
0.0
  0
LINE
  5
22A
330
1F
100
AcDbEntity
  8
MAKE2D VISIBLE LINES
100
AcDbLine
 10
0.0066208245277468
 20
17.7526039438698
 30
0.0
 11
0.0078301782167034
 21
17.75715628487381
 31
0.0
  0
LINE
  5
22B
330
1F
100
AcDbEntity
  8
MAKE2D VISIBLE LINES
100
AcDbLine
 10
0.0078301782167034
 20
17.75715628487381
 30
0.0
 11
0.0091364962674118
 21
17.76168252664631
 31
0.0
  0
LINE
  5
22C
330
1F
100
AcDbEntity
  8
MAKE2D VISIBLE LINES
100
AcDbLine
 10
0.0091364962674118
 20
17.76168252664631
 30
0.0
 11
0.0105388787454761
 21
17.76618064070259
 31
0.0
  0
LINE
  5
22D
330
1F
100
AcDbEntity
  8
MAKE2D VISIBLE LINES
100
AcDbLine
 10
0.0105388787454761
 20
17.76618064070259
 30
0.0
 11
0.0120364257165005
 21
17.77064859855791
 31
0.0
  0
LINE
  5
22E
330
1F
100
AcDbEntity
  8
MAKE2D VISIBLE LINES
100
AcDbLine
 10
0.0120364257165005
 20
17.77064859855791
 30
0.0
 11
0.0136282372460893
 21
17.77508437172754
 31
0.0
  0
LINE
  5
22F
330
1F
100
AcDbEntity
  8
MAKE2D VISIBLE LINES
100
AcDbLine
 10
0.0136282372460893
 20
17.77508437172754
 30
0.0
 11
0.0153134133998466
 21
17.77948593172676
 31
0.0
  0
LINE
  5
230
330
1F
100
AcDbEntity
  8
MAKE2D VISIBLE LINES
100
AcDbLine
 10
0.0153134133998466
 20
17.77948593172676
 30
0.0
 11
0.0170910542433767
 21
17.78385125007084
 31
0.0
  0
LINE
  5
231
330
1F
100
AcDbEntity
  8
MAKE2D VISIBLE LINES
100
AcDbLine
 10
0.0170910542433767
 20
17.78385125007084
 30
0.0
 11
0.0189602598422837
 21
17.78817829827504
 31
0.0
  0
LINE
  5
232
330
1F
100
AcDbEntity
  8
MAKE2D VISIBLE LINES
100
AcDbLine
 10
0.0189602598422837
 20
17.78817829827504
 30
0.0
 11
0.0209201302621719
 21
17.79246504785463
 31
0.0
  0
LINE
  5
233
330
1F
100
AcDbEntity
  8
MAKE2D VISIBLE LINES
100
AcDbLine
 10
0.0209201302621719
 20
17.79246504785463
 30
0.0
 11
0.0229697655686455
 21
17.79670947032489
 31
0.0
  0
LINE
  5
234
330
1F
100
AcDbEntity
  8
MAKE2D VISIBLE LINES
100
AcDbLine
 10
0.0229697655686455
 20
17.79670947032489
 30
0.0
 11
0.0251082658273087
 21
17.80090953720109
 31
0.0
  0
LINE
  5
235
330
1F
100
AcDbEntity
  8
MAKE2D VISIBLE LINES
100
AcDbLine
 10
0.0251082658273087
 20
17.80090953720109
 30
0.0
 11
0.0273347311037657
 21
17.8050632199985
 31
0.0
  0
LINE
  5
236
330
1F
100
AcDbEntity
  8
MAKE2D VISIBLE LINES
100
AcDbLine
 10
0.0273347311037657
 20
17.8050632199985
 30
0.0
 11
0.0296482614636207
 21
17.80916849023239
 31
0.0
  0
LINE
  5
237
330
1F
100
AcDbEntity
  8
MAKE2D VISIBLE LINES
100
AcDbLine
 10
0.0296482614636207
 20
17.80916849023239
 30
0.0
 11
0.0320479569724779
 21
17.81322331941802
 31
0.0
  0
LINE
  5
238
330
1F
100
AcDbEntity
  8
MAKE2D VISIBLE LINES
100
AcDbLine
 10
0.0320479569724779
 20
17.81322331941802
 30
0.0
 11
0.0345329176959415
 21
17.81722567907067
 31
0.0
  0
LINE
  5
239
330
1F
100
AcDbEntity
  8
MAKE2D VISIBLE LINES
100
AcDbLine
 10
0.0345329176959415
 20
17.81722567907067
 30
0.0
 11
0.0371022436996157
 21
17.82117354070562
 31
0.0
  0
LINE
  5
23A
330
1F
100
AcDbEntity
  8
MAKE2D VISIBLE LINES
100
AcDbLine
 10
0.0371022436996157
 20
17.82117354070562
 30
0.0
 11
0.0397550350491048
 21
17.82506487583812
 31
0.0
  0
LINE
  5
23B
330
1F
100
AcDbEntity
  8
MAKE2D VISIBLE LINES
100
AcDbLine
 10
0.0397550350491048
 20
17.82506487583812
 30
0.0
 11
0.0424903918100129
 21
17.82889765598345
 31
0.0
  0
LINE
  5
23C
330
1F
100
AcDbEntity
  8
MAKE2D VISIBLE LINES
100
AcDbLine
 10
0.0424903918100129
 20
17.82889765598345
 30
0.0
 11
0.0453074140479443
 21
17.83266985265689
 31
0.0
  0
LINE
  5
23D
330
1F
100
AcDbEntity
  8
MAKE2D VISIBLE LINES
100
AcDbLine
 10
0.0453074140479443
 20
17.83266985265689
 30
0.0
 11
0.0482052018285031
 21
17.8363794373737
 31
0.0
  0
LINE
  5
23E
330
1F
100
AcDbEntity
  8
MAKE2D VISIBLE LINES
100
AcDbLine
 10
0.0482052018285031
 20
17.8363794373737
 30
0.0
 11
0.0511828552172936
 21
17.84002438164916
 31
0.0
  0
LINE
  5
23F
330
1F
100
AcDbEntity
  8
MAKE2D VISIBLE LINES
100
AcDbLine
 10
0.0511828552172936
 20
17.84002438164916
 30
0.0
 11
0.05423947427992
 21
17.84360265699852
 31
0.0
  0
LINE
  5
240
330
1F
100
AcDbEntity
  8
MAKE2D VISIBLE LINES
100
AcDbLine
 10
0.05423947427992
 20
17.84360265699852
 30
0.0
 11
0.0573741590819865
 21
17.84711223493708
 31
0.0
  0
LINE
  5
241
330
1F
100
AcDbEntity
  8
MAKE2D VISIBLE LINES
100
AcDbLine
 10
0.0573741590819865
 20
17.84711223493708
 30
0.0
 11
0.0605860096890972
 21
17.85055108698008
 31
0.0
  0
LINE
  5
242
330
1F
100
AcDbEntity
  8
MAKE2D VISIBLE LINES
100
AcDbLine
 10
0.0605860096890972
 20
17.85055108698008
 30
0.0
 11
0.0638621239876796
 21
17.85390551280069
 31
0.0
  0
LINE
  5
243
330
1F
100
AcDbEntity
  8
MAKE2D VISIBLE LINES
100
AcDbLine
 10
0.0638621239876796
 20
17.85390551280069
 30
0.0
 11
0.0672120036681031
 21
17.85718667864934
 31
0.0
  0
LINE
  5
244
330
1F
100
AcDbEntity
  8
MAKE2D VISIBLE LINES
100
AcDbLine
 10
0.0672120036681031
 20
17.85718667864934
 30
0.0
 11
0.0706336895633488
 21
17.86039356253649
 31
0.0
  0
LINE
  5
245
330
1F
100
AcDbEntity
  8
MAKE2D VISIBLE LINES
100
AcDbLine
 10
0.0706336895633488
 20
17.86039356253649
 30
0.0
 11
0.0741252225063974
 21
17.86352514247262
 31
0.0
  0
LINE
  5
246
330
1F
100
AcDbEntity
  8
MAKE2D VISIBLE LINES
100
AcDbLine
 10
0.0741252225063974
 20
17.86352514247262
 30
0.0
 11
0.0776846433302299
 21
17.86658039646819
 31
0.0
  0
LINE
  5
247
330
1F
100
AcDbEntity
  8
MAKE2D VISIBLE LINES
100
AcDbLine
 10
0.0776846433302299
 20
17.86658039646819
 30
0.0
 11
0.0813099928678272
 21
17.86955830253367
 31
0.0
  0
LINE
  5
248
330
1F
100
AcDbEntity
  8
MAKE2D VISIBLE LINES
100
AcDbLine
 10
0.0813099928678272
 20
17.86955830253367
 30
0.0
 11
0.0849993119521702
 21
17.87245783867952
 31
0.0
  0
LINE
  5
249
330
1F
100
AcDbEntity
  8
MAKE2D VISIBLE LINES
100
AcDbLine
 10
0.0849993119521702
 20
17.87245783867952
 30
0.0
 11
0.0887506414162398
 21
17.87527798291621
 31
0.0
  0
LINE
  5
24A
330
1F
100
AcDbEntity
  8
MAKE2D VISIBLE LINES
100
AcDbLine
 10
0.0887506414162398
 20
17.87527798291621
 30
0.0
 11
0.0925620220930168
 21
17.87801771325422
 31
0.0
  0
LINE
  5
24B
330
1F
100
AcDbEntity
  8
MAKE2D VISIBLE LINES
100
AcDbLine
 10
0.0925620220930168
 20
17.87801771325422
 30
0.0
 11
0.0964314948154822
 21
17.88067600770401
 31
0.0
  0
LINE
  5
24C
330
1F
100
AcDbEntity
  8
MAKE2D VISIBLE LINES
100
AcDbLine
 10
0.0964314948154822
 20
17.88067600770401
 30
0.0
 11
0.100357100416617
 21
17.88325184427604
 31
0.0
  0
LINE
  5
24D
330
1F
100
AcDbEntity
  8
MAKE2D VISIBLE LINES
100
AcDbLine
 10
0.100357100416617
 20
17.88325184427604
 30
0.0
 11
0.1043368797294019
 21
17.88574420098079
 31
0.0
  0
LINE
  5
24E
330
1F
100
AcDbEntity
  8
MAKE2D VISIBLE LINES
100
AcDbLine
 10
0.1043368797294019
 20
17.88574420098079
 30
0.0
 11
0.1083688735868179
 21
17.88815205582872
 31
0.0
  0
LINE
  5
24F
330
1F
100
AcDbEntity
  8
MAKE2D VISIBLE LINES
100
AcDbLine
 10
0.1083688735868179
 20
17.88815205582872
 30
0.0
 11
0.1124511228218458
 21
17.89047438683031
 31
0.0
  0
LINE
  5
250
330
1F
100
AcDbEntity
  8
MAKE2D VISIBLE LINES
100
AcDbLine
 10
0.1124511228218458
 20
17.89047438683031
 30
0.0
 11
0.1165816682674667
 21
17.89271017199601
 31
0.0
  0
LINE
  5
251
330
1F
100
AcDbEntity
  8
MAKE2D VISIBLE LINES
100
AcDbLine
 10
0.1165816682674667
 20
17.89271017199601
 30
0.0
 11
0.1207585507566613
 21
17.89485838933629
 31
0.0
  0
LINE
  5
252
330
1F
100
AcDbEntity
  8
MAKE2D VISIBLE LINES
100
AcDbLine
 10
0.1207585507566613
 20
17.89485838933629
 30
0.0
 11
0.1249798111224107
 21
17.89691801686163
 31
0.0
  0
LINE
  5
253
330
1F
100
AcDbEntity
  8
MAKE2D VISIBLE LINES
100
AcDbLine
 10
0.1249798111224107
 20
17.89691801686163
 30
0.0
 11
0.1292434901976956
 21
17.89888803258248
 31
0.0
  0
LINE
  5
254
330
1F
100
AcDbEntity
  8
MAKE2D VISIBLE LINES
100
AcDbLine
 10
0.1292434901976956
 20
17.89888803258248
 30
0.0
 11
0.133547628815497
 21
17.90076741450933
 31
0.0
  0
LINE
  5
255
330
1F
100
AcDbEntity
  8
MAKE2D VISIBLE LINES
100
AcDbLine
 10
0.133547628815497
 20
17.90076741450933
 30
0.0
 11
0.1378902678087958
 21
17.90255514065263
 31
0.0
  0
LINE
  5
256
330
1F
100
AcDbEntity
  8
MAKE2D VISIBLE LINES
100
AcDbLine
 10
0.1378902678087958
 20
17.90255514065263
 30
0.0
 11
0.1422694480105728
 21
17.90425018902286
 31
0.0
  0
LINE
  5
257
330
1F
100
AcDbEntity
  8
MAKE2D VISIBLE LINES
100
AcDbLine
 10
0.1422694480105728
 20
17.90425018902286
 30
0.0
 11
0.1466832102538091
 21
17.90585153763048
 31
0.0
  0
LINE
  5
258
330
1F
100
AcDbEntity
  8
MAKE2D VISIBLE LINES
100
AcDbLine
 10
0.1466832102538091
 20
17.90585153763048
 30
0.0
 11
0.1511295953714855
 21
17.90735816448595
 31
0.0
  0
LINE
  5
259
330
1F
100
AcDbEntity
  8
MAKE2D VISIBLE LINES
100
AcDbLine
 10
0.1511295953714855
 20
17.90735816448595
 30
0.0
 11
0.1556066441965828
 21
17.90876904759976
 31
0.0
  0
LINE
  5
25A
330
1F
100
AcDbEntity
  8
MAKE2D VISIBLE LINES
100
AcDbLine
 10
0.1556066441965828
 20
17.90876904759976
 30
0.0
 11
0.160112397562082
 21
17.91008316498236
 31
0.0
  0
LINE
  5
25B
330
1F
100
AcDbEntity
  8
MAKE2D VISIBLE LINES
100
AcDbLine
 10
0.160112397562082
 20
17.91008316498236
 30
0.0
 11
0.164644896300964
 21
17.91129949464422
 31
0.0
  0
LINE
  5
25C
330
1F
100
AcDbEntity
  8
MAKE2D VISIBLE LINES
100
AcDbLine
 10
0.164644896300964
 20
17.91129949464422
 30
0.0
 11
0.1692021812462097
 21
17.9124170145958
 31
0.0
  0
LINE
  5
25D
330
1F
100
AcDbEntity
  8
MAKE2D VISIBLE LINES
100
AcDbLine
 10
0.1692021812462097
 20
17.9124170145958
 30
0.0
 11
0.1737822932308
 21
17.91343470284759
 31
0.0
  0
LINE
  5
25E
330
1F
100
AcDbEntity
  8
MAKE2D VISIBLE LINES
100
AcDbLine
 10
0.1737822932308
 20
17.91343470284759
 30
0.0
 11
0.1783832730877157
 21
17.91435153741003
 31
0.0
  0
LINE
  5
25F
330
1F
100
AcDbEntity
  8
MAKE2D VISIBLE LINES
100
AcDbLine
 10
0.1783832730877157
 20
17.91435153741003
 30
0.0
 11
0.1830031616499379
 21
17.91516649629362
 31
0.0
  0
LINE
  5
260
330
1F
100
AcDbEntity
  8
MAKE2D VISIBLE LINES
100
AcDbLine
 10
0.1830031616499379
 20
17.91516649629362
 30
0.0
 11
0.1876399997504473
 21
17.9158785575088
 31
0.0
  0
LINE
  5
261
330
1F
100
AcDbEntity
  8
MAKE2D VISIBLE LINES
100
AcDbLine
 10
0.1876399997504473
 20
17.9158785575088
 30
0.0
 11
0.192291828222225
 21
17.91648669906605
 31
0.0
  0
ARC
  5
262
330
1F
100
AcDbEntity
  8
MAKE2D VISIBLE LINES
100
AcDbCircle
 10
6.137812887712902
 20
0.2189752943418736
 30
0.0
 40
0.2187499997341529
100
AcDbArc
 50
89.99975300580601
 51
269.9894306339284
  0
LINE
  5
263
330
1F
100
AcDbEntity
  8
MAKE2D VISIBLE LINES
100
AcDbLine
 10
33.41481516996902
 20
17.44531532870447
 30
0.0
 11
33.41496776321485
 21
17.48070865451787
 31
0.0
  0
LINE
  5
264
330
1F
100
AcDbEntity
  8
MAKE2D VISIBLE LINES
100
AcDbLine
 10
33.40622134130725
 20
7.688219817372423
 30
0.0
 11
33.40937610762185
 21
7.732291344344327
 31
0.0
  0
LINE
  5
265
330
1F
100
AcDbEntity
  8
MAKE2D VISIBLE LINES
100
AcDbLine
 10
33.40523340439579
 20
7.6797827304556
 30
0.0
 11
33.40548119755596
 21
7.681830227358355
 31
0.0
  0
LINE
  5
266
330
1F
100
AcDbEntity
  8
MAKE2D VISIBLE LINES
100
AcDbLine
 10
33.390766514024
 20
7.592378453108735
 30
0.0
 11
33.39803052774358
 21
7.63110586419645
 31
0.0
  0
LINE
  5
267
330
1F
100
AcDbEntity
  8
MAKE2D VISIBLE LINES
100
AcDbLine
 10
33.38639365500818
 20
7.571659484187733
 30
0.0
 11
33.38934806712598
 21
7.585485343905516
 31
0.0
  0
LINE
  5
268
330
1F
100
AcDbEntity
  8
MAKE2D VISIBLE LINES
100
AcDbLine
 10
33.3754423212763
 20
7.525260069735522
 30
0.0
 11
33.3795346830759
 21
7.541827260276206
 31
0.0
  0
LINE
  5
269
330
1F
100
AcDbEntity
  8
MAKE2D VISIBLE LINES
100
AcDbLine
 10
33.35017334407425
 20
7.437452134192718
 30
0.0
 11
33.37417582182955
 21
7.520293727698626
 31
0.0
  0
LINE
  5
26A
330
1F
100
AcDbEntity
  8
MAKE2D VISIBLE LINES
100
AcDbLine
 10
33.4093760497708
 20
7.732291339667171
 30
0.0
 11
33.41481543294117
 21
17.44531532966705
 31
0.0
  0
LINE
  5
26B
330
1F
100
AcDbEntity
  8
MAKE2D VISIBLE LINES
100
AcDbLine
 10
33.40548095819364
 20
7.681830255101003
 30
0.0
 11
33.4062214407618
 21
7.688219806187988
 31
0.0
  0
LINE
  5
26C
330
1F
100
AcDbEntity
  8
MAKE2D VISIBLE LINES
100
AcDbLine
 10
33.39803087856433
 20
7.631105805546559
 30
0.0
 11
33.40523309815048
 21
7.679782767014466
 31
0.0
  0
LINE
  5
26D
330
1F
100
AcDbEntity
  8
MAKE2D VISIBLE LINES
100
AcDbLine
 10
33.3893486444183
 20
7.585485223565968
 30
0.0
 11
33.39076729262946
 21
7.592378294537583
 31
0.0
  0
LINE
  5
26E
330
1F
100
AcDbEntity
  8
MAKE2D VISIBLE LINES
100
AcDbLine
 10
33.37953446903806
 20
7.541827311963455
 30
0.0
 11
33.38639384106519
 21
7.571659442807501
 31
0.0
  0
LINE
  5
26F
330
1F
100
AcDbEntity
  8
MAKE2D VISIBLE LINES
100
AcDbLine
 10
33.37417577179241
 20
7.520293740792095
 30
0.0
 11
33.3754422274638
 21
7.525260093935525
 31
0.0
  0
LINE
  5
270
330
1F
100
AcDbEntity
  8
MAKE2D VISIBLE LINES
100
AcDbLine
 10
33.3483282419867
 20
7.431803999982021
 30
0.0
 11
33.35017331097053
 21
7.437452145053551
 31
0.0
  0
LINE
  5
271
330
1F
100
AcDbEntity
  8
MAKE2D VISIBLE LINES
100
AcDbLine
 10
33.48276800621671
 20
17.48184825994548
 30
0.0
 11
33.49113584973335
 21
17.480751032062
 31
0.0
  0
LINE
  5
272
330
1F
100
AcDbEntity
  8
MAKE2D VISIBLE LINES
100
AcDbLine
 10
33.49225234811514
 20
17.48063275639056
 30
0.0
 11
20.62378861774988
 21
17.48015853680095
 31
0.0
  0
LINE
  5
273
330
1F
100
AcDbEntity
  8
MAKE2D VISIBLE LINES
100
AcDbLine
 10
20.62378861774988
 20
17.48015853680095
 30
0.0
 11
20.62037757986592
 21
17.48003452333205
 31
0.0
  0
LINE
  5
274
330
1F
100
AcDbEntity
  8
MAKE2D VISIBLE LINES
100
AcDbLine
 10
20.62037757986592
 20
17.48003452333205
 30
0.0
 11
20.61573972035411
 21
17.47974448084557
 31
0.0
  0
LINE
  5
275
330
1F
100
AcDbEntity
  8
MAKE2D VISIBLE LINES
100
AcDbLine
 10
20.61573972035411
 20
17.47974448084557
 30
0.0
 11
20.61110908044596
 21
17.4793227088502
 31
0.0
  0
LINE
  5
276
330
1F
100
AcDbEntity
  8
MAKE2D VISIBLE LINES
100
AcDbLine
 10
20.61110908044596
 20
17.4793227088502
 30
0.0
 11
20.60648635591228
 21
17.47878563475643
 31
0.0
  0
LINE
  5
277
330
1F
100
AcDbEntity
  8
MAKE2D VISIBLE LINES
100
AcDbLine
 10
20.60648635591228
 20
17.47878563475643
 30
0.0
 11
20.60187224252393
 21
17.47814968597476
 31
0.0
  0
LINE
  5
278
330
1F
100
AcDbEntity
  8
MAKE2D VISIBLE LINES
100
AcDbLine
 10
20.60187224252393
 20
17.47814968597476
 30
0.0
 11
20.59267263226651
 21
17.47664687398966
 31
0.0
  0
LINE
  5
279
330
1F
100
AcDbEntity
  8
MAKE2D VISIBLE LINES
100
AcDbLine
 10
20.59267263226651
 20
17.47664687398966
 30
0.0
 11
20.57372546261288
 21
17.47299097848261
 31
0.0
  0
LINE
  5
27A
330
1F
100
AcDbEntity
  8
MAKE2D VISIBLE LINES
100
AcDbLine
 10
20.57372546261288
 20
17.47299097848261
 30
0.0
 11
20.56400175243125
 21
17.47079432998344
 31
0.0
  0
LINE
  5
27B
330
1F
100
AcDbEntity
  8
MAKE2D VISIBLE LINES
100
AcDbLine
 10
20.56400175243125
 20
17.47079432998344
 30
0.0
 11
20.55562075491468
 21
17.46858638696191
 31
0.0
  0
LINE
  5
27C
330
1F
100
AcDbEntity
  8
MAKE2D VISIBLE LINES
100
AcDbLine
 10
20.55562075491468
 20
17.46858638696191
 30
0.0
 11
20.54730160206199
 21
17.46610327183562
 31
0.0
  0
LINE
  5
27D
330
1F
100
AcDbEntity
  8
MAKE2D VISIBLE LINES
100
AcDbLine
 10
20.54730160206199
 20
17.46610327183562
 30
0.0
 11
20.53904780037158
 21
17.46337625080275
 31
0.0
  0
LINE
  5
27E
330
1F
100
AcDbEntity
  8
MAKE2D VISIBLE LINES
100
AcDbLine
 10
20.53904780037158
 20
17.46337625080275
 30
0.0
 11
20.53086285634186
 21
17.46043659006143
 31
0.0
  0
LINE
  5
27F
330
1F
100
AcDbEntity
  8
MAKE2D VISIBLE LINES
100
AcDbLine
 10
20.53086285634186
 20
17.46043659006143
 30
0.0
 11
20.52197323270338
 21
17.45699860158877
 31
0.0
  0
LINE
  5
280
330
1F
100
AcDbEntity
  8
MAKE2D VISIBLE LINES
100
AcDbLine
 10
20.52197323270338
 20
17.45699860158877
 30
0.0
 11
20.51317956552457
 21
17.45333707944079
 31
0.0
  0
LINE
  5
281
330
1F
100
AcDbEntity
  8
MAKE2D VISIBLE LINES
100
AcDbLine
 10
20.51317956552457
 20
17.45333707944079
 30
0.0
 11
20.50449082930251
 21
17.4494465015114
 31
0.0
  0
LINE
  5
282
330
1F
100
AcDbEntity
  8
MAKE2D VISIBLE LINES
100
AcDbLine
 10
20.50449082930251
 20
17.4494465015114
 30
0.0
 11
20.49591599853431
 21
17.44532134569454
 31
0.0
  0
LINE
  5
283
330
1F
100
AcDbEntity
  8
MAKE2D VISIBLE LINES
100
AcDbLine
 10
20.49591599853431
 20
17.44532134569454
 30
0.0
 11
20.48746404771706
 21
17.44095608988412
 31
0.0
  0
LINE
  5
284
330
1F
100
AcDbEntity
  8
MAKE2D VISIBLE LINES
100
AcDbLine
 10
20.48746404771706
 20
17.44095608988412
 30
0.0
 11
20.47914395134788
 21
17.43634521197406
 31
0.0
  0
LINE
  5
285
330
1F
100
AcDbEntity
  8
MAKE2D VISIBLE LINES
100
AcDbLine
 10
20.47914395134788
 20
17.43634521197406
 30
0.0
 11
20.47096468392385
 21
17.43148318985828
 31
0.0
  0
LINE
  5
286
330
1F
100
AcDbEntity
  8
MAKE2D VISIBLE LINES
100
AcDbLine
 10
20.47096468392385
 20
17.43148318985828
 30
0.0
 11
20.46293521994208
 21
17.42636450143071
 31
0.0
  0
LINE
  5
287
330
1F
100
AcDbEntity
  8
MAKE2D VISIBLE LINES
100
AcDbLine
 10
20.46293521994208
 20
17.42636450143071
 30
0.0
 11
20.45676482911317
 21
17.42217480913318
 31
0.0
  0
LINE
  5
288
330
1F
100
AcDbEntity
  8
MAKE2D VISIBLE LINES
100
AcDbLine
 10
20.45676482911317
 20
17.42217480913318
 30
0.0
 11
20.45071351587777
 21
17.41781366777997
 31
0.0
  0
LINE
  5
289
330
1F
100
AcDbEntity
  8
MAKE2D VISIBLE LINES
100
AcDbLine
 10
20.45071351587777
 20
17.41781366777997
 30
0.0
 11
20.44480312005503
 21
17.41327019607635
 31
0.0
  0
LINE
  5
28A
330
1F
100
AcDbEntity
  8
MAKE2D VISIBLE LINES
100
AcDbLine
 10
20.44480312005503
 20
17.41327019607635
 30
0.0
 11
20.44190759111691
 21
17.41092668593853
 31
0.0
  0
LINE
  5
28B
330
1F
100
AcDbEntity
  8
MAKE2D VISIBLE LINES
100
AcDbLine
 10
20.44190759111691
 20
17.41092668593853
 30
0.0
 11
20.43905548146413
 21
17.40853351272759
 31
0.0
  0
LINE
  5
28C
330
1F
100
AcDbEntity
  8
MAKE2D VISIBLE LINES
100
AcDbLine
 10
20.43905548146413
 20
17.40853351272759
 30
0.0
 11
20.43461055405464
 21
17.40462384999011
 31
0.0
  0
LINE
  5
28D
330
1F
100
AcDbEntity
  8
MAKE2D VISIBLE LINES
100
AcDbLine
 10
20.43461055405464
 20
17.40462384999011
 30
0.0
 11
20.43027065431595
 21
17.40059926544648
 31
0.0
  0
LINE
  5
28E
330
1F
100
AcDbEntity
  8
MAKE2D VISIBLE LINES
100
AcDbLine
 10
20.43027065431595
 20
17.40059926544648
 30
0.0
 11
20.42602401152797
 21
17.39647397113558
 31
0.0
  0
LINE
  5
28F
330
1F
100
AcDbEntity
  8
MAKE2D VISIBLE LINES
100
AcDbLine
 10
20.42602401152797
 20
17.39647397113558
 30
0.0
 11
20.4218588549706
 21
17.39226217909626
 31
0.0
  0
LINE
  5
290
330
1F
100
AcDbEntity
  8
MAKE2D VISIBLE LINES
100
AcDbLine
 10
20.4218588549706
 20
17.39226217909626
 30
0.0
 11
20.41372591766724
 21
17.38363594998784
 31
0.0
  0
LINE
  5
291
330
1F
100
AcDbEntity
  8
MAKE2D VISIBLE LINES
100
AcDbLine
 10
20.41372591766724
 20
17.38363594998784
 30
0.0
 11
11.6405075558465
 21
7.593059925383255
 31
0.0
  0
LINE
  5
292
330
1F
100
AcDbEntity
  8
MAKE2D VISIBLE LINES
100
AcDbLine
 10
11.6405075558465
 20
7.593059925383255
 30
0.0
 11
11.63591428063025
 21
7.587563823837507
 31
0.0
  0
LINE
  5
293
330
1F
100
AcDbEntity
  8
MAKE2D VISIBLE LINES
100
AcDbLine
 10
11.63591428063025
 20
7.587563823837507
 30
0.0
 11
11.63282013227031
 21
7.58363316437071
 31
0.0
  0
LINE
  5
294
330
1F
100
AcDbEntity
  8
MAKE2D VISIBLE LINES
100
AcDbLine
 10
11.63282013227031
 20
7.58363316437071
 30
0.0
 11
11.63100228009075
 21
7.581207217287389
 31
0.0
  0
LINE
  5
295
330
1F
100
AcDbEntity
  8
MAKE2D VISIBLE LINES
100
AcDbLine
 10
11.63100228009075
 20
7.581207217287389
 30
0.0
 11
11.62922942886075
 21
7.578749581988334
 31
0.0
  0
LINE
  5
296
330
1F
100
AcDbEntity
  8
MAKE2D VISIBLE LINES
100
AcDbLine
 10
11.62922942886075
 20
7.578749581988334
 30
0.0
 11
11.62581432292705
 21
7.57374448870114
 31
0.0
  0
LINE
  5
297
330
1F
100
AcDbEntity
  8
MAKE2D VISIBLE LINES
100
AcDbLine
 10
11.62581432292705
 20
7.57374448870114
 30
0.0
 11
11.62256600182457
 21
7.568628368425356
 31
0.0
  0
LINE
  5
298
330
1F
100
AcDbEntity
  8
MAKE2D VISIBLE LINES
100
AcDbLine
 10
11.62256600182457
 20
7.568628368425356
 30
0.0
 11
11.61947565290867
 21
7.563411705077213
 31
0.0
  0
LINE
  5
299
330
1F
100
AcDbEntity
  8
MAKE2D VISIBLE LINES
100
AcDbLine
 10
11.61947565290867
 20
7.563411705077213
 30
0.0
 11
11.61653446353467
 21
7.558104982572941
 31
0.0
  0
LINE
  5
29A
330
1F
100
AcDbEntity
  8
MAKE2D VISIBLE LINES
100
AcDbLine
 10
11.61653446353467
 20
7.558104982572941
 30
0.0
 11
11.61373362105793
 21
7.552718684828765
 31
0.0
  0
LINE
  5
29B
330
1F
100
AcDbEntity
  8
MAKE2D VISIBLE LINES
100
AcDbLine
 10
11.61373362105793
 20
7.552718684828765
 30
0.0
 11
11.6110643128338
 21
7.547263295760919
 31
0.0
  0
LINE
  5
29C
330
1F
100
AcDbEntity
  8
MAKE2D VISIBLE LINES
100
AcDbLine
 10
11.6110643128338
 20
7.547263295760919
 30
0.0
 11
11.60851772621763
 21
7.541749299285629
 31
0.0
  0
LINE
  5
29D
330
1F
100
AcDbEntity
  8
MAKE2D VISIBLE LINES
100
AcDbLine
 10
11.60851772621763
 20
7.541749299285629
 30
0.0
 11
11.60443066421105
 21
7.53220913656518
 31
0.0
  0
LINE
  5
29E
330
1F
100
AcDbEntity
  8
MAKE2D VISIBLE LINES
100
AcDbLine
 10
11.60443066421105
 20
7.53220913656518
 30
0.0
 11
11.60067973246904
 21
7.522538606617214
 31
0.0
  0
LINE
  5
29F
330
1F
100
AcDbEntity
  8
MAKE2D VISIBLE LINES
100
AcDbLine
 10
11.60067973246904
 20
7.522538606617214
 30
0.0
 11
11.59726808718349
 21
7.512748014856609
 31
0.0
  0
LINE
  5
2A0
330
1F
100
AcDbEntity
  8
MAKE2D VISIBLE LINES
100
AcDbLine
 10
11.59726808718349
 20
7.512748014856609
 30
0.0
 11
11.59419888454629
 21
7.50284766669825
 31
0.0
  0
LINE
  5
2A1
330
1F
100
AcDbEntity
  8
MAKE2D VISIBLE LINES
100
AcDbLine
 10
11.59419888454629
 20
7.50284766669825
 30
0.0
 11
11.59147528074933
 21
7.492847867557016
 31
0.0
  0
LINE
  5
2A2
330
1F
100
AcDbEntity
  8
MAKE2D VISIBLE LINES
100
AcDbLine
 10
11.59147528074933
 20
7.492847867557016
 30
0.0
 11
11.58910043198448
 21
7.482758922847791
 31
0.0
  0
LINE
  5
2A3
330
1F
100
AcDbEntity
  8
MAKE2D VISIBLE LINES
100
AcDbLine
 10
11.58910043198448
 20
7.482758922847791
 30
0.0
 11
11.58707749444365
 21
7.472591137985454
 31
0.0
  0
LINE
  5
2A4
330
1F
100
AcDbEntity
  8
MAKE2D VISIBLE LINES
100
AcDbLine
 10
11.58707749444365
 20
7.472591137985454
 30
0.0
 11
11.5861989786922
 21
7.46748090093902
 31
0.0
  0
LINE
  5
2A5
330
1F
100
AcDbEntity
  8
MAKE2D VISIBLE LINES
100
AcDbLine
 10
11.5861989786922
 20
7.46748090093902
 30
0.0
 11
11.58540962431871
 21
7.462354818384889
 31
0.0
  0
LINE
  5
2A6
330
1F
100
AcDbEntity
  8
MAKE2D VISIBLE LINES
100
AcDbLine
 10
11.58540962431871
 20
7.462354818384889
 30
0.0
 11
11.5844789795486
 21
7.455344082734833
 31
0.0
  0
LINE
  5
2A7
330
1F
100
AcDbEntity
  8
MAKE2D VISIBLE LINES
100
AcDbLine
 10
11.5844789795486
 20
7.455344082734833
 30
0.0
 11
11.58372220058824
 21
7.448311605995173
 31
0.0
  0
LINE
  5
2A8
330
1F
100
AcDbEntity
  8
MAKE2D VISIBLE LINES
100
AcDbLine
 10
11.58372220058824
 20
7.448311605995173
 30
0.0
 11
11.5831467300459
 21
7.441262699202976
 31
0.0
  0
LINE
  5
2A9
330
1F
100
AcDbEntity
  8
MAKE2D VISIBLE LINES
100
AcDbLine
 10
11.5831467300459
 20
7.441262699202976
 30
0.0
 11
11.58276001052984
 21
7.434202673395306
 31
0.0
  0
LINE
  5
2AA
330
1F
100
AcDbEntity
  8
MAKE2D VISIBLE LINES
100
AcDbLine
 10
11.58276001052984
 20
7.434202673395306
 30
0.0
 11
11.58256948464831
 21
7.427136839609227
 31
0.0
  0
LINE
  5
2AB
330
1F
100
AcDbEntity
  8
MAKE2D VISIBLE LINES
100
AcDbLine
 10
11.58256948464831
 20
7.427136839609227
 30
0.0
 11
11.58258259500956
 21
7.420070508881803
 31
0.0
  0
LINE
  5
2AC
330
1F
100
AcDbEntity
  8
MAKE2D VISIBLE LINES
100
AcDbLine
 10
11.58258259500956
 20
7.420070508881803
 30
0.0
 11
11.58280678422187
 21
7.413008992250099
 31
0.0
  0
LINE
  5
2AD
330
1F
100
AcDbEntity
  8
MAKE2D VISIBLE LINES
100
AcDbLine
 10
11.58280678422187
 20
7.413008992250099
 30
0.0
 11
11.58324949489347
 21
7.40595760075118
 31
0.0
  0
LINE
  5
2AE
330
1F
100
AcDbEntity
  8
MAKE2D VISIBLE LINES
100
AcDbLine
 10
11.58324949489347
 20
7.40595760075118
 30
0.0
 11
11.58370978457745
 21
7.400857081073408
 31
0.0
  0
LINE
  5
2AF
330
1F
100
AcDbEntity
  8
MAKE2D VISIBLE LINES
100
AcDbLine
 10
11.58370978457745
 20
7.400857081073408
 30
0.0
 11
11.58428373306333
 21
7.395766913224383
 31
0.0
  0
LINE
  5
2B0
330
1F
100
AcDbEntity
  8
MAKE2D VISIBLE LINES
100
AcDbLine
 10
11.58428373306333
 20
7.395766913224383
 30
0.0
 11
11.58496633643452
 21
7.390689342886164
 31
0.0
  0
LINE
  5
2B1
330
1F
100
AcDbEntity
  8
MAKE2D VISIBLE LINES
100
AcDbLine
 10
11.58496633643452
 20
7.390689342886164
 30
0.0
 11
12.75082925890654
 21
0.5144215827038797
 31
0.0
  0
LINE
  5
2B2
330
1F
100
AcDbEntity
  8
MAKE2D VISIBLE LINES
100
AcDbLine
 10
12.75082925890654
 20
0.5144215827038797
 30
0.0
 11
12.75605311898048
 21
0.4850103236478044
 31
0.0
  0
LINE
  5
2B3
330
1F
100
AcDbEntity
  8
MAKE2D VISIBLE LINES
100
AcDbLine
 10
12.75605311898048
 20
0.4850103236478044
 30
0.0
 11
12.75777385216791
 21
0.4768479403155208
 31
0.0
  0
LINE
  5
2B4
330
1F
100
AcDbEntity
  8
MAKE2D VISIBLE LINES
100
AcDbLine
 10
12.75777385216791
 20
0.4768479403155208
 30
0.0
 11
12.75973075193502
 21
0.4687313602627051
 31
0.0
  0
LINE
  5
2B5
330
1F
100
AcDbEntity
  8
MAKE2D VISIBLE LINES
100
AcDbLine
 10
12.75973075193502
 20
0.4687313602627051
 30
0.0
 11
12.76078127866786
 21
0.4648567616047783
 31
0.0
  0
LINE
  5
2B6
330
1F
100
AcDbEntity
  8
MAKE2D VISIBLE LINES
100
AcDbLine
 10
12.76078127866786
 20
0.4648567616047783
 30
0.0
 11
12.76192157105213
 21
0.4610057914801227
 31
0.0
  0
LINE
  5
2B7
330
1F
100
AcDbEntity
  8
MAKE2D VISIBLE LINES
100
AcDbLine
 10
12.76192157105213
 20
0.4610057914801227
 30
0.0
 11
12.76316603582689
 21
0.4571890768261617
 31
0.0
  0
LINE
  5
2B8
330
1F
100
AcDbEntity
  8
MAKE2D VISIBLE LINES
100
AcDbLine
 10
12.76316603582689
 20
0.4571890768261617
 30
0.0
 11
12.76452907973118
 21
0.4534172445803185
 31
0.0
  0
LINE
  5
2B9
330
1F
100
AcDbEntity
  8
MAKE2D VISIBLE LINES
100
AcDbLine
 10
12.76452907973118
 20
0.4534172445803185
 30
0.0
 11
12.76525957096285
 21
0.4515514802783858
 31
0.0
  0
LINE
  5
2BA
330
1F
100
AcDbEntity
  8
MAKE2D VISIBLE LINES
100
AcDbLine
 10
12.76525957096285
 20
0.4515514802783858
 30
0.0
 11
12.76602510950405
 21
0.4497009216800163
 31
0.0
  0
LINE
  5
2BB
330
1F
100
AcDbEntity
  8
MAKE2D VISIBLE LINES
100
AcDbLine
 10
12.76602510950405
 20
0.4497009216800163
 30
0.0
 11
12.76682749619715
 21
0.4478668971523879
 31
0.0
  0
LINE
  5
2BC
330
1F
100
AcDbEntity
  8
MAKE2D VISIBLE LINES
100
AcDbLine
 10
12.76682749619715
 20
0.4478668971523879
 30
0.0
 11
12.76766853188454
 21
0.4460507350626786
 31
0.0
  0
LINE
  5
2BD
330
1F
100
AcDbEntity
  8
MAKE2D VISIBLE LINES
100
AcDbLine
 10
12.76766853188454
 20
0.4460507350626786
 30
0.0
 11
12.7685500174086
 21
0.4442537637780661
 31
0.0
  0
LINE
  5
2BE
330
1F
100
AcDbEntity
  8
MAKE2D VISIBLE LINES
100
AcDbLine
 10
12.7685500174086
 20
0.4442537637780661
 30
0.0
 11
12.7694737536117
 21
0.4424773116657285
 31
0.0
  0
LINE
  5
2BF
330
1F
100
AcDbEntity
  8
MAKE2D VISIBLE LINES
100
AcDbLine
 10
12.7694737536117
 20
0.4424773116657285
 30
0.0
 11
12.77044154133623
 21
0.4407227070928436
 31
0.0
  0
LINE
  5
2C0
330
1F
100
AcDbEntity
  8
MAKE2D VISIBLE LINES
100
AcDbLine
 10
12.77044154133623
 20
0.4407227070928436
 30
0.0
 11
12.77145518142458
 21
0.4389912784265893
 31
0.0
  0
LINE
  5
2C1
330
1F
100
AcDbEntity
  8
MAKE2D VISIBLE LINES
100
AcDbLine
 10
11.14892237919025
 20
7.496975026295019
 30
0.0
 11
11.15062196333716
 21
7.511608743280639
 31
0.0
  0
LINE
  5
2C2
330
1F
100
AcDbEntity
  8
MAKE2D VISIBLE LINES
100
AcDbLine
 10
11.15062196333716
 20
7.511608743280639
 30
0.0
 11
11.1526132688459
 21
7.526206472277547
 31
0.0
  0
LINE
  5
2C3
330
1F
100
AcDbEntity
  8
MAKE2D VISIBLE LINES
100
AcDbLine
 10
11.1526132688459
 20
7.526206472277547
 30
0.0
 11
11.15489526296059
 21
7.540762284217218
 31
0.0
  0
LINE
  5
2C4
330
1F
100
AcDbEntity
  8
MAKE2D VISIBLE LINES
100
AcDbLine
 10
11.15489526296059
 20
7.540762284217218
 30
0.0
 11
11.15746691292532
 21
7.555270250031128
 31
0.0
  0
LINE
  5
2C5
330
1F
100
AcDbEntity
  8
MAKE2D VISIBLE LINES
100
AcDbLine
 10
11.15746691292532
 20
7.555270250031128
 30
0.0
 11
11.16032718598422
 21
7.569724440650753
 31
0.0
  0
LINE
  5
2C6
330
1F
100
AcDbEntity
  8
MAKE2D VISIBLE LINES
100
AcDbLine
 10
11.16032718598422
 20
7.569724440650753
 30
0.0
 11
11.16347504938137
 21
7.584118927007568
 31
0.0
  0
LINE
  5
2C7
330
1F
100
AcDbEntity
  8
MAKE2D VISIBLE LINES
100
AcDbLine
 10
11.16347504938137
 20
7.584118927007568
 30
0.0
 11
11.16690947036088
 21
7.598447780033048
 31
0.0
  0
LINE
  5
2C8
330
1F
100
AcDbEntity
  8
MAKE2D VISIBLE LINES
100
AcDbLine
 10
11.16690947036088
 20
7.598447780033048
 30
0.0
 11
11.17062941616687
 21
7.612705070658667
 31
0.0
  0
LINE
  5
2C9
330
1F
100
AcDbEntity
  8
MAKE2D VISIBLE LINES
100
AcDbLine
 10
11.17062941616687
 20
7.612705070658667
 30
0.0
 11
11.17463385404343
 21
7.626884869815903
 31
0.0
  0
LINE
  5
2CA
330
1F
100
AcDbEntity
  8
MAKE2D VISIBLE LINES
100
AcDbLine
 10
11.17463385404343
 20
7.626884869815903
 30
0.0
 11
11.17892175123467
 21
7.640981248436232
 31
0.0
  0
LINE
  5
2CB
330
1F
100
AcDbEntity
  8
MAKE2D VISIBLE LINES
100
AcDbLine
 10
11.17892175123467
 20
7.640981248436232
 30
0.0
 11
11.1834920749847
 21
7.654988277451126
 31
0.0
  0
LINE
  5
2CC
330
1F
100
AcDbEntity
  8
MAKE2D VISIBLE LINES
100
AcDbLine
 10
11.1834920749847
 20
7.654988277451126
 30
0.0
 11
11.18834379253761
 21
7.668900027792065
 31
0.0
  0
LINE
  5
2CD
330
1F
100
AcDbEntity
  8
MAKE2D VISIBLE LINES
100
AcDbLine
 10
11.18834379253761
 20
7.668900027792065
 30
0.0
 11
11.19347587113752
 21
7.682710570390523
 31
0.0
  0
LINE
  5
2CE
330
1F
100
AcDbEntity
  8
MAKE2D VISIBLE LINES
100
AcDbLine
 10
11.19347587113752
 20
7.682710570390523
 30
0.0
 11
11.19888727802853
 21
7.696413976177972
 31
0.0
  0
LINE
  5
2CF
330
1F
100
AcDbEntity
  8
MAKE2D VISIBLE LINES
100
AcDbLine
 10
11.19888727802853
 20
7.696413976177972
 30
0.0
 11
11.20457698045474
 21
7.71000431608589
 31
0.0
  0
LINE
  5
2D0
330
1F
100
AcDbEntity
  8
MAKE2D VISIBLE LINES
100
AcDbLine
 10
11.20457698045474
 20
7.71000431608589
 30
0.0
 11
11.21054394566027
 21
7.723475661045754
 31
0.0
  0
LINE
  5
2D1
330
1F
100
AcDbEntity
  8
MAKE2D VISIBLE LINES
100
AcDbLine
 10
11.21054394566027
 20
7.723475661045754
 30
0.0
 11
11.2164438616636
 21
7.736105364619521
 31
0.0
  0
LINE
  5
2D2
330
1F
100
AcDbEntity
  8
MAKE2D VISIBLE LINES
100
AcDbLine
 10
11.2164438616636
 20
7.736105364619521
 30
0.0
 11
11.22259235157027
 21
7.74861586340644
 31
0.0
  0
LINE
  5
2D3
330
1F
100
AcDbEntity
  8
MAKE2D VISIBLE LINES
100
AcDbLine
 10
11.22259235157027
 20
7.74861586340644
 30
0.0
 11
11.22899074355082
 21
7.760999768596935
 31
0.0
  0
LINE
  5
2D4
330
1F
100
AcDbEntity
  8
MAKE2D VISIBLE LINES
100
AcDbLine
 10
11.22899074355082
 20
7.760999768596935
 30
0.0
 11
11.23564036577582
 21
7.773249691381434
 31
0.0
  0
LINE
  5
2D5
330
1F
100
AcDbEntity
  8
MAKE2D VISIBLE LINES
100
AcDbLine
 10
11.23564036577582
 20
7.773249691381434
 30
0.0
 11
11.24254254641583
 21
7.785358242950357
 31
0.0
  0
LINE
  5
2D6
330
1F
100
AcDbEntity
  8
MAKE2D VISIBLE LINES
100
AcDbLine
 10
11.24254254641583
 20
7.785358242950357
 30
0.0
 11
11.24969861364141
 21
7.79731803449413
 31
0.0
  0
LINE
  5
2D7
330
1F
100
AcDbEntity
  8
MAKE2D VISIBLE LINES
100
AcDbLine
 10
11.24969861364141
 20
7.79731803449413
 30
0.0
 11
11.25710989562311
 21
7.809121677203176
 31
0.0
  0
LINE
  5
2D8
330
1F
100
AcDbEntity
  8
MAKE2D VISIBLE LINES
100
AcDbLine
 10
11.25710989562311
 20
7.809121677203176
 30
0.0
 11
11.26477772053151
 21
7.820761782267918
 31
0.0
  0
LINE
  5
2D9
330
1F
100
AcDbEntity
  8
MAKE2D VISIBLE LINES
100
AcDbLine
 10
11.26477772053151
 20
7.820761782267918
 30
0.0
 11
11.27677279963867
 21
7.837904472073703
 31
0.0
  0
LINE
  5
2DA
330
1F
100
AcDbEntity
  8
MAKE2D VISIBLE LINES
100
AcDbLine
 10
11.27677279963867
 20
7.837904472073703
 30
0.0
 11
11.28299346903191
 21
7.846314610352657
 31
0.0
  0
LINE
  5
2DB
330
1F
100
AcDbEntity
  8
MAKE2D VISIBLE LINES
100
AcDbLine
 10
11.28299346903191
 20
7.846314610352657
 30
0.0
 11
11.28936571335045
 21
7.854608309647581
 31
0.0
  0
LINE
  5
2DC
330
1F
100
AcDbEntity
  8
MAKE2D VISIBLE LINES
100
AcDbLine
 10
11.28936571335045
 20
7.854608309647581
 30
0.0
 11
11.30017024315934
 21
7.868004938759499
 31
0.0
  0
LINE
  5
2DD
330
1F
100
AcDbEntity
  8
MAKE2D VISIBLE LINES
100
AcDbLine
 10
11.30017024315934
 20
7.868004938759499
 30
0.0
 11
11.31128975991951
 21
7.881147468436976
 31
0.0
  0
LINE
  5
2DE
330
1F
100
AcDbEntity
  8
MAKE2D VISIBLE LINES
100
AcDbLine
 10
11.31128975991951
 20
7.881147468436976
 30
0.0
 11
20.08326585718701
 21
17.67058090310455
 31
0.0
  0
LINE
  5
2DF
330
1F
100
AcDbEntity
  8
MAKE2D VISIBLE LINES
100
AcDbLine
 10
20.08326585718701
 20
17.67058090310455
 30
0.0
 11
20.10945767879572
 21
17.6984418267339
 31
0.0
  0
LINE
  5
2E0
330
1F
100
AcDbEntity
  8
MAKE2D VISIBLE LINES
100
AcDbLine
 10
20.10945767879572
 20
17.6984418267339
 30
0.0
 11
20.12293507368439
 21
17.71199473113158
 31
0.0
  0
LINE
  5
2E1
330
1F
100
AcDbEntity
  8
MAKE2D VISIBLE LINES
100
AcDbLine
 10
20.12293507368439
 20
17.71199473113158
 30
0.0
 11
20.13677207434408
 21
17.72518284563924
 31
0.0
  0
LINE
  5
2E2
330
1F
100
AcDbEntity
  8
MAKE2D VISIBLE LINES
100
AcDbLine
 10
20.13677207434408
 20
17.72518284563924
 30
0.0
 11
20.14882922199877
 21
17.73602227096737
 31
0.0
  0
LINE
  5
2E3
330
1F
100
AcDbEntity
  8
MAKE2D VISIBLE LINES
100
AcDbLine
 10
20.14882922199877
 20
17.73602227096737
 30
0.0
 11
20.16117707493704
 21
17.74654231299787
 31
0.0
  0
LINE
  5
2E4
330
1F
100
AcDbEntity
  8
MAKE2D VISIBLE LINES
100
AcDbLine
 10
20.16117707493704
 20
17.74654231299787
 30
0.0
 11
20.17379122247741
 21
17.75674663355622
 31
0.0
  0
LINE
  5
2E5
330
1F
100
AcDbEntity
  8
MAKE2D VISIBLE LINES
100
AcDbLine
 10
20.17379122247741
 20
17.75674663355622
 30
0.0
 11
20.18664725393838
 21
17.76663889446788
 31
0.0
  0
LINE
  5
2E6
330
1F
100
AcDbEntity
  8
MAKE2D VISIBLE LINES
100
AcDbLine
 10
20.18664725393838
 20
17.76663889446788
 30
0.0
 11
20.20212861806016
 21
17.77793522391159
 31
0.0
  0
LINE
  5
2E7
330
1F
100
AcDbEntity
  8
MAKE2D VISIBLE LINES
100
AcDbLine
 10
20.20212861806016
 20
17.77793522391159
 30
0.0
 11
20.2179010224411
 21
17.78880279891344
 31
0.0
  0
LINE
  5
2E8
330
1F
100
AcDbEntity
  8
MAKE2D VISIBLE LINES
100
AcDbLine
 10
20.2179010224411
 20
17.78880279891344
 30
0.0
 11
20.23395157581963
 21
17.79924386895266
 31
0.0
  0
LINE
  5
2E9
330
1F
100
AcDbEntity
  8
MAKE2D VISIBLE LINES
100
AcDbLine
 10
20.23395157581963
 20
17.79924386895266
 30
0.0
 11
20.25026738693421
 21
17.80926068350847
 31
0.0
  0
LINE
  5
2EA
330
1F
100
AcDbEntity
  8
MAKE2D VISIBLE LINES
100
AcDbLine
 10
20.25026738693421
 20
17.80926068350847
 30
0.0
 11
20.26683556452327
 21
17.8188554920601
 31
0.0
  0
LINE
  5
2EB
330
1F
100
AcDbEntity
  8
MAKE2D VISIBLE LINES
100
AcDbLine
 10
20.26683556452327
 20
17.8188554920601
 30
0.0
 11
20.28364321732525
 21
17.82803054408676
 31
0.0
  0
LINE
  5
2EC
330
1F
100
AcDbEntity
  8
MAKE2D VISIBLE LINES
100
AcDbLine
 10
20.28364321732525
 20
17.82803054408676
 30
0.0
 11
20.3006774540786
 21
17.83678808906769
 31
0.0
  0
LINE
  5
2ED
330
1F
100
AcDbEntity
  8
MAKE2D VISIBLE LINES
100
AcDbLine
 10
20.3006774540786
 20
17.83678808906769
 30
0.0
 11
20.31792538352175
 21
17.84513037648211
 31
0.0
  0
LINE
  5
2EE
330
1F
100
AcDbEntity
  8
MAKE2D VISIBLE LINES
100
AcDbLine
 10
20.31792538352175
 20
17.84513037648211
 30
0.0
 11
20.33516087464023
 21
17.85296407462476
 31
0.0
  0
LINE
  5
2EF
330
1F
100
AcDbEntity
  8
MAKE2D VISIBLE LINES
100
AcDbLine
 10
20.33516087464023
 20
17.85296407462476
 30
0.0
 11
20.35258174764375
 21
17.86038770986441
 31
0.0
  0
LINE
  5
2F0
330
1F
100
AcDbEntity
  8
MAKE2D VISIBLE LINES
100
AcDbLine
 10
20.35258174764375
 20
17.86038770986441
 30
0.0
 11
20.37017744174907
 21
17.8673942338948
 31
0.0
  0
LINE
  5
2F1
330
1F
100
AcDbEntity
  8
MAKE2D VISIBLE LINES
100
AcDbLine
 10
20.37017744174907
 20
17.8673942338948
 30
0.0
 11
20.38793739617297
 21
17.87397659840968
 31
0.0
  0
LINE
  5
2F2
330
1F
100
AcDbEntity
  8
MAKE2D VISIBLE LINES
100
AcDbLine
 10
20.38793739617297
 20
17.87397659840968
 30
0.0
 11
20.40585105013221
 21
17.8801277551028
 31
0.0
  0
LINE
  5
2F3
330
1F
100
AcDbEntity
  8
MAKE2D VISIBLE LINES
100
AcDbLine
 10
20.40585105013221
 20
17.8801277551028
 30
0.0
 11
20.42390784284357
 21
17.88584065566791
 31
0.0
  0
LINE
  5
2F4
330
1F
100
AcDbEntity
  8
MAKE2D VISIBLE LINES
100
AcDbLine
 10
20.42390784284357
 20
17.88584065566791
 30
0.0
 11
20.44209721352383
 21
17.89110825179877
 31
0.0
  0
LINE
  5
2F5
330
1F
100
AcDbEntity
  8
MAKE2D VISIBLE LINES
100
AcDbLine
 10
20.44209721352383
 20
17.89110825179877
 30
0.0
 11
20.46040860138975
 21
17.89592349518911
 31
0.0
  0
LINE
  5
2F6
330
1F
100
AcDbEntity
  8
MAKE2D VISIBLE LINES
100
AcDbLine
 10
20.46040860138975
 20
17.89592349518911
 30
0.0
 11
20.47883144565811
 21
17.90027933753269
 31
0.0
  0
LINE
  5
2F7
330
1F
100
AcDbEntity
  8
MAKE2D VISIBLE LINES
100
AcDbLine
 10
20.47883144565811
 20
17.90027933753269
 30
0.0
 11
20.49735518554569
 21
17.90416873052326
 31
0.0
  0
LINE
  5
2F8
330
1F
100
AcDbEntity
  8
MAKE2D VISIBLE LINES
100
AcDbLine
 10
20.49735518554569
 20
17.90416873052326
 30
0.0
 11
20.51596926026924
 21
17.90758462585457
 31
0.0
  0
LINE
  5
2F9
330
1F
100
AcDbEntity
  8
MAKE2D VISIBLE LINES
100
AcDbLine
 10
20.51596926026924
 20
17.90758462585457
 30
0.0
 11
20.53466310904556
 21
17.91051997522037
 31
0.0
  0
LINE
  5
2FA
330
1F
100
AcDbEntity
  8
MAKE2D VISIBLE LINES
100
AcDbLine
 10
20.53466310904556
 20
17.91051997522037
 30
0.0
 11
20.55342617109141
 21
17.9129677303144
 31
0.0
  0
LINE
  5
2FB
330
1F
100
AcDbEntity
  8
MAKE2D VISIBLE LINES
100
AcDbLine
 10
20.55342617109141
 20
17.9129677303144
 30
0.0
 11
20.57224788562356
 21
17.91492084283043
 31
0.0
  0
LINE
  5
2FC
330
1F
100
AcDbEntity
  8
MAKE2D VISIBLE LINES
100
AcDbLine
 10
20.57224788562356
 20
17.91492084283043
 30
0.0
 11
20.59111769185878
 21
17.91637226446218
 31
0.0
  0
LINE
  5
2FD
330
1F
100
AcDbEntity
  8
MAKE2D VISIBLE LINES
100
AcDbLine
 10
20.59111769185878
 20
17.91637226446218
 30
0.0
 11
20.61002502901385
 21
17.91731494690343
 31
0.0
  0
LINE
  5
2FE
330
1F
100
AcDbEntity
  8
MAKE2D VISIBLE LINES
100
AcDbLine
 10
11.14584813509966
 20
7.390150819090923
 30
0.0
 11
11.14533940684874
 21
7.443628858458974
 31
0.0
  0
LINE
  5
2FF
330
1F
100
AcDbEntity
  8
MAKE2D VISIBLE LINES
100
AcDbLine
 10
12.31878698318227
 20
0.4431594396094024
 30
0.0
 11
12.31168153080523
 21
0.4875019769684736
 31
0.0
  0
LINE
  5
300
330
1F
100
AcDbEntity
  8
MAKE2D VISIBLE LINES
100
AcDbLine
 10
12.33404047435485
 20
0.369113971410095
 30
0.0
 11
12.32083105487084
 21
0.4317597280582362
 31
0.0
  0
LINE
  5
301
330
1F
100
AcDbEntity
  8
MAKE2D VISIBLE LINES
100
AcDbLine
 10
12.35821056205197
 20
0.2912250709826469
 30
0.0
 11
12.35343378868745
 21
0.3037802460532441
 31
0.0
  0
LINE
  5
302
330
1F
100
AcDbEntity
  8
MAKE2D VISIBLE LINES
100
AcDbLine
 10
12.4132378639797
 20
0.1877841439393674
 30
0.0
 11
12.39109572570364
 21
0.2226820416936811
 31
0.0
  0
LINE
  5
303
330
1F
100
AcDbEntity
  8
MAKE2D VISIBLE LINES
100
AcDbLine
 10
12.44639881438292
 20
0.1457931081304471
 30
0.0
 11
12.42880022986029
 21
0.166800399114915
 31
0.0
  0
LINE
  5
304
330
1F
100
AcDbEntity
  8
MAKE2D VISIBLE LINES
100
AcDbLine
 10
12.48928180105936
 20
0.103954292689291
 30
0.0
 11
12.47267417656419
 21
0.1187939467529502
 31
0.0
  0
LINE
  5
305
330
1F
100
AcDbEntity
  8
MAKE2D VISIBLE LINES
100
AcDbLine
 10
12.53842252537555
 20
0.0679741681254483
 30
0.0
 11
12.5120857617893
 21
0.0858926503230544
 31
0.0
  0
LINE
  5
306
330
1F
100
AcDbEntity
  8
MAKE2D VISIBLE LINES
100
AcDbLine
 10
12.56192199343397
 20
0.0542858162129065
 30
0.0
 11
12.54759177093288
 21
0.0623915385088153
 31
0.0
  0
LINE
  5
307
330
1F
100
AcDbEntity
  8
MAKE2D VISIBLE LINES
100
AcDbLine
 10
12.58363651523086
 20
0.0433458135310624
 30
0.0
 11
12.56539226100847
 21
0.0524312337217887
 31
0.0
  0
LINE
  5
308
330
1F
100
AcDbEntity
  8
MAKE2D VISIBLE LINES
100
AcDbLine
 10
12.64917553646234
 20
0.018799902065413
 30
0.0
 11
12.64013798524322
 21
0.0215057542016674
 31
0.0
  0
LINE
  5
309
330
1F
100
AcDbEntity
  8
MAKE2D VISIBLE LINES
100
AcDbLine
 10
12.6847696948776
 20
0.0100962811785564
 30
0.0
 11
12.67509325537593
 21
0.0121588441386851
 31
0.0
  0
LINE
  5
30A
330
1F
100
AcDbEntity
  8
MAKE2D VISIBLE LINES
100
AcDbLine
 10
12.7554137059008
 20
0.0011631035932506
 30
0.0
 11
12.73090774171594
 21
0.0030615638372879
 31
0.0
  0
LINE
  5
30B
330
1F
100
AcDbEntity
  8
MAKE2D VISIBLE LINES
100
AcDbLine
 10
12.80322166715688
 20
0.0006595252604598
 30
0.0
 11
12.77363256962824
 21
0.0008004847495852
 31
0.0
  0
LINE
  5
30C
330
1F
100
AcDbEntity
  8
MAKE2D VISIBLE LINES
100
AcDbLine
 10
11.14533810818232
 20
7.443628861814875
 30
0.0
 11
11.14892448498996
 21
7.496974785948125
 31
0.0
  0
LINE
  5
30D
330
1F
100
AcDbEntity
  8
MAKE2D VISIBLE LINES
100
AcDbLine
 10
12.31168153452391
 20
0.4875019775936261
 30
0.0
 11
11.14584813507459
 21
7.390150818998133
 31
0.0
  0
LINE
  5
30E
330
1F
100
AcDbEntity
  8
MAKE2D VISIBLE LINES
100
AcDbLine
 10
12.32083051488045
 20
0.4317596172156152
 30
0.0
 11
12.3187869186194
 21
0.4431594574801094
 31
0.0
  0
LINE
  5
30F
330
1F
100
AcDbEntity
  8
MAKE2D VISIBLE LINES
100
AcDbLine
 10
12.35343275143864
 20
0.3037798668662809
 30
0.0
 11
12.33404052164956
 21
0.3691139818142687
 31
0.0
  0
LINE
  5
310
330
1F
100
AcDbEntity
  8
MAKE2D VISIBLE LINES
100
AcDbLine
 10
12.39109614878756
 20
0.2226822857354614
 30
0.0
 11
12.35821103866855
 21
0.2912252589460553
 31
0.0
  0
LINE
  5
311
330
1F
100
AcDbEntity
  8
MAKE2D VISIBLE LINES
100
AcDbLine
 10
12.42880106575444
 20
0.1668010431043923
 30
0.0
 11
12.41323760057026
 21
0.187783956103072
 31
0.0
  0
LINE
  5
312
330
1F
100
AcDbEntity
  8
MAKE2D VISIBLE LINES
100
AcDbLine
 10
12.47267414829608
 20
0.1187938923760812
 30
0.0
 11
12.44639855055126
 21
0.1457929310959167
 31
0.0
  0
LINE
  5
313
330
1F
100
AcDbEntity
  8
MAKE2D VISIBLE LINES
100
AcDbLine
 10
12.51208649934893
 20
0.0858936454315641
 30
0.0
 11
12.48928148991286
 21
0.1039539338509147
 31
0.0
  0
LINE
  5
314
330
1F
100
AcDbEntity
  8
MAKE2D VISIBLE LINES
100
AcDbLine
 10
12.54759226218104
 20
0.0623923688740569
 30
0.0
 11
12.53842260276065
 21
0.0679742804358585
 31
0.0
  0
LINE
  5
315
330
1F
100
AcDbEntity
  8
MAKE2D VISIBLE LINES
100
AcDbLine
 10
12.56539245267046
 20
0.0524316087364332
 30
0.0
 11
12.56192206576297
 21
0.0542859511450151
 31
0.0
  0
LINE
  5
316
330
1F
100
AcDbEntity
  8
MAKE2D VISIBLE LINES
100
AcDbLine
 10
12.64013819467784
 20
0.0215064280332706
 30
0.0
 11
12.58363683881487
 21
0.0433465221299875
 31
0.0
  0
LINE
  5
317
330
1F
100
AcDbEntity
  8
MAKE2D VISIBLE LINES
100
AcDbLine
 10
12.67509325805181
 20
0.0121588500737855
 30
0.0
 11
12.64917545807453
 21
0.0187996448660275
 31
0.0
  0
LINE
  5
318
330
1F
100
AcDbEntity
  8
MAKE2D VISIBLE LINES
100
AcDbLine
 10
12.73090777588018
 20
0.0030618804975274
 30
0.0
 11
12.68476964616126
 21
0.0100960417881074
 31
0.0
  0
LINE
  5
319
330
1F
100
AcDbEntity
  8
MAKE2D VISIBLE LINES
100
AcDbLine
 10
12.77363257929148
 20
0.0008004784163645
 30
0.0
 11
12.75541365688117
 21
0.0011630149551315
 31
0.0
  0
LINE
  5
31A
330
1F
100
AcDbEntity
  8
MAKE2D VISIBLE LINES
100
AcDbLine
 10
0.1700949291213737
 20
18.10471467564717
 30
0.0
 11
18.63812511475541
 21
18.10471467564717
 31
0.0
  0
LINE
  5
31B
330
1F
100
AcDbEntity
  8
MAKE2D VISIBLE LINES
100
AcDbLine
 10
18.63812511475542
 20
18.10471467564717
 30
0.0
 11
37.10615744296351
 21
18.10471467564718
 31
0.0
  0
LINE
  5
31C
330
1F
100
AcDbEntity
  8
MAKE2D VISIBLE LINES
100
AcDbLine
 10
0.1350948480575089
 20
18.06971467564717
 30
0.0
 11
18.63812511501167
 21
18.06971467564716
 31
0.0
  0
LINE
  5
31D
330
1F
100
AcDbEntity
  8
MAKE2D VISIBLE LINES
100
AcDbLine
 10
18.63812511501179
 20
18.06971467564717
 30
0.0
 11
37.14115752809293
 21
18.06971467564718
 31
0.0
  0
LINE
  5
31E
330
1F
100
AcDbEntity
  8
MAKE2D VISIBLE LINES
100
AcDbLine
 10
2.073035389523602
 20
17.79123042367867
 30
0.0
 11
20.22157848487385
 21
17.79123042367867
 31
0.0
  0
ENDSEC
  0
SECTION
  2
OBJECTS
  0
DICTIONARY
  5
C
330
0
100
AcDbDictionary
281
     1
  3
ACAD_GROUP
350
D
  3
ACAD_LAYOUT
350
1A
  3
ACAD_MLEADERSTYLE
350
320
  3
ACAD_MLINESTYLE
350
17
  3
ACAD_PLOTSETTINGS
350
19
  3
ACAD_PLOTSTYLENAME
350
E
  3
ACAD_TABLESTYLE
350
31F
  3
ACAD_VISUALSTYLE
350
2A
  0
DICTIONARY
  5
D
102
{ACAD_REACTORS
330
C
102
}
330
C
100
AcDbDictionary
281
     1
  0
DICTIONARY
  5
1A
102
{ACAD_REACTORS
330
C
102
}
330
C
100
AcDbDictionary
281
     1
  3
Layout1
350
1E
  3
Layout2
350
26
  3
Model
350
22
  0
DICTIONARY
  5
320
102
{ACAD_REACTORS
330
C
102
}
330
C
100
AcDbDictionary
281
     1
  0
DICTIONARY
  5
17
102
{ACAD_REACTORS
330
C
102
}
330
C
100
AcDbDictionary
281
     1
  3
Standard
350
18
  0
DICTIONARY
  5
19
102
{ACAD_REACTORS
330
C
102
}
330
C
100
AcDbDictionary
281
     1
  0
ACDBDICTIONARYWDFLT
  5
E
102
{ACAD_REACTORS
330
C
102
}
330
C
100
AcDbDictionary
281
     1
  3
Normal
350
F
100
AcDbDictionaryWithDefault
340
F
  0
DICTIONARY
  5
31F
102
{ACAD_REACTORS
330
C
102
}
330
C
100
AcDbDictionary
281
     1
  0
DICTIONARY
  5
2A
102
{ACAD_REACTORS
330
C
102
}
330
C
100
AcDbDictionary
281
     1
  3
2dWireframe
350
2F
  3
3D Hidden
350
31
  3
3dWireframe
350
30
  3
Basic
350
32
  3
Brighten
350
36
  3
ColorChange
350
3A
  3
Conceptual
350
34
  3
Dim
350
35
  3
Facepattern
350
39
  3
Flat
350
2B
  3
FlatWithEdges
350
2C
  3
Gouraud
350
2D
  3
GouraudWithEdges
350
2E
  3
Linepattern
350
38
  3
Realistic
350
33
  3
Thicken
350
37
  0
LAYOUT
  5
1E
102
{ACAD_REACTORS
330
1A
102
}
330
1A
100
AcDbPlotSettings
  1

  2
none_device
  4

  6

 40
0.0
 41
0.0
 42
0.0
 43
0.0
 44
0.0
 45
0.0
 46
0.0
 47
0.0
 48
0.0
 49
0.0
140
0.0
141
0.0
142
1.0
143
1.0
 70
   688
 72
     0
 73
     0
 74
     5
  7

 75
    16
 76
     0
 77
     2
 78
   300
147
1.0
148
0.0
149
0.0
100
AcDbLayout
  1
Layout1
 70
     1
 71
     1
 10
0.0
 20
0.0
 11
12.0
 21
9.0
 12
0.0
 22
0.0
 32
0.0
 14
1.000000000000000E+20
 24
1.000000000000000E+20
 34
1.000000000000000E+20
 15
-1.000000000000000E+20
 25
-1.000000000000000E+20
 35
-1.000000000000000E+20
146
0.0
 13
0.0
 23
0.0
 33
0.0
 16
1.0
 26
0.0
 36
0.0
 17
0.0
 27
1.0
 37
0.0
 76
     0
330
1B
  0
LAYOUT
  5
26
102
{ACAD_REACTORS
330
1A
102
}
330
1A
100
AcDbPlotSettings
  1

  2
none_device
  4

  6

 40
0.0
 41
0.0
 42
0.0
 43
0.0
 44
0.0
 45
0.0
 46
0.0
 47
0.0
 48
0.0
 49
0.0
140
0.0
141
0.0
142
1.0
143
1.0
 70
   688
 72
     0
 73
     0
 74
     5
  7

 75
    16
 76
     0
 77
     2
 78
   300
147
1.0
148
0.0
149
0.0
100
AcDbLayout
  1
Layout2
 70
     1
 71
     2
 10
0.0
 20
0.0
 11
0.0
 21
0.0
 12
0.0
 22
0.0
 32
0.0
 14
0.0
 24
0.0
 34
0.0
 15
0.0
 25
0.0
 35
0.0
146
0.0
 13
0.0
 23
0.0
 33
0.0
 16
1.0
 26
0.0
 36
0.0
 17
0.0
 27
1.0
 37
0.0
 76
     0
330
23
  0
LAYOUT
  5
22
102
{ACAD_REACTORS
330
1A
102
}
330
1A
100
AcDbPlotSettings
  1

  2
none_device
  4

  6

 40
0.0
 41
0.0
 42
0.0
 43
0.0
 44
0.0
 45
0.0
 46
0.0
 47
0.0
 48
0.0
 49
0.0
140
0.0
141
0.0
142
1.0
143
1.0
 70
  1712
 72
     0
 73
     0
 74
     0
  7

 75
     0
 76
     0
 77
     2
 78
   300
147
1.0
148
0.0
149
0.0
100
AcDbLayout
  1
Model
 70
     1
 71
     0
 10
0.0
 20
0.0
 11
12.0
 21
9.0
 12
0.0
 22
0.0
 32
0.0
 14
-0.000031139330899
 24
0.0002200576020439
 34
0.0
 15
37.14116159875273
 25
62.25357570237452
 35
0.0
146
0.0
 13
0.0
 23
0.0
 33
0.0
 16
1.0
 26
0.0
 36
0.0
 17
0.0
 27
1.0
 37
0.0
 76
     0
330
1F
331
29
  0
MLINESTYLE
  5
18
102
{ACAD_REACTORS
330
17
102
}
330
17
100
AcDbMlineStyle
  2
Standard
 70
     0
  3

 62
   256
 51
90.0
 52
90.0
 71
     2
 49
0.5
 62
   256
  6
BYLAYER
 49
-0.5
 62
   256
  6
BYLAYER
  0
ACDBPLACEHOLDER
  5
F
102
{ACAD_REACTORS
330
E
102
}
330
E
  0
VISUALSTYLE
  5
2F
102
{ACAD_REACTORS
330
2A
102
}
330
2A
100
AcDbVisualStyle
  2
2dWireframe
 70
     4
 71
     0
 72
     2
 73
     0
 90
        0
 40
-0.6
 41
-30.0
 62
     5
 63
     7
421
 16777215
 74
     1
 91
        4
 64
     7
 65
   257
 75
     1
175
     1
 42
1.0
 92
        0
 66
   257
 43
1.0
 76
     1
 77
     6
 78
     2
 67
     7
 79
     5
170
     0
171
     0
290
     0
174
     0
 93
        1
 44
0.0
173
     0
291
     0
 45
0.0
1001
ACAD
1000
AcDbSavedByObjectVersion
1070
     0
  0
VISUALSTYLE
  5
31
102
{ACAD_REACTORS
330
2A
102
}
330
2A
100
AcDbVisualStyle
  2
3D Hidden
 70
     6
 71
     1
 72
     2
 73
     2
 90
        0
 40
-0.6
 41
-30.0
 62
     5
 63
     7
421
 16777215
 74
     2
 91
        2
 64
     7
 65
   257
 75
     2
175
     1
 42
40.0
 92
        0
 66
   257
 43
1.0
 76
     1
 77
     6
 78
     2
 67
     7
 79
     3
170
     0
171
     0
290
     0
174
     0
 93
        1
 44
0.0
173
     0
291
     0
 45
0.0
1001
ACAD
1000
AcDbSavedByObjectVersion
1070
     0
  0
VISUALSTYLE
  5
30
102
{ACAD_REACTORS
330
2A
102
}
330
2A
100
AcDbVisualStyle
  2
3dWireframe
 70
     5
 71
     0
 72
     2
 73
     0
 90
        0
 40
-0.6
 41
-30.0
 62
     5
 63
     7
421
 16777215
 74
     1
 91
        4
 64
     7
 65
   257
 75
     1
175
     1
 42
1.0
 92
        0
 66
   257
 43
1.0
 76
     1
 77
     6
 78
     2
 67
     7
 79
     5
170
     0
171
     0
290
     0
174
     0
 93
        1
 44
0.0
173
     0
291
     0
 45
0.0
1001
ACAD
1000
AcDbSavedByObjectVersion
1070
     0
  0
VISUALSTYLE
  5
32
102
{ACAD_REACTORS
330
2A
102
}
330
2A
100
AcDbVisualStyle
  2
Basic
 70
     7
 71
     1
 72
     0
 73
     1
 90
        0
 40
-0.6
 41
-30.0
 62
     5
 63
     7
421
 16777215
 74
     0
 91
        4
 64
     7
 65
   257
 75
     1
175
     1
 42
1.0
 92
        8
 66
     7
 43
1.0
 76
     1
 77
     6
 78
     2
 67
     7
 79
     5
170
     0
171
     0
290
     0
174
     0
 93
        1
 44
0.0
173
     0
291
     1
 45
0.0
1001
ACAD
1000
AcDbSavedByObjectVersion
1070
     0
  0
VISUALSTYLE
  5
36
102
{ACAD_REACTORS
330
2A
102
}
330
2A
100
AcDbVisualStyle
  2
Brighten
 70
    12
 71
     2
 72
     2
 73
     0
 90
        0
 40
-0.6
 41
-30.0
 62
     5
 63
     7
421
 16777215
 74
     1
 91
        4
 64
     7
 65
   257
 75
     1
175
     1
 42
1.0
 92
        8
 66
     7
 43
1.0
 76
     1
 77
     6
 78
     2
 67
     7
 79
     5
170
     0
171
     0
290
     0
174
     0
 93
        1
 44
50.0
173
     0
291
     1
 45
0.0
1001
ACAD
1000
AcDbSavedByObjectVersion
1070
     0
  0
VISUALSTYLE
  5
3A
102
{ACAD_REACTORS
330
2A
102
}
330
2A
100
AcDbVisualStyle
  2
ColorChange
 70
    16
 71
     2
 72
     2
 73
     3
 90
        0
 40
-0.6
 41
-30.0
 62
     5
 63
     8
421
  8421504
 74
     1
 91
        4
 64
     7
 65
   257
 75
     1
175
     1
 42
1.0
 92
        8
 66
     8
424
  8421504
 43
1.0
 76
     1
 77
     6
 78
     2
 67
     7
 79
     5
170
     0
171
     0
290
     0
174
     0
 93
        1
 44
0.0
173
     0
291
     1
 45
0.0
1001
ACAD
1000
AcDbSavedByObjectVersion
1070
     0
  0
VISUALSTYLE
  5
34
102
{ACAD_REACTORS
330
2A
102
}
330
2A
100
AcDbVisualStyle
  2
Conceptual
 70
     9
 71
     3
 72
     2
 73
     0
 90
        0
 40
-0.6
 41
-30.0
 62
     5
 63
     7
421
 16777215
 74
     2
 91
        2
 64
     7
 65
   257
 75
     1
175
     1
 42
40.0
 92
        8
 66
     7
 43
1.0
 76
     1
 77
     6
 78
     2
 67
     7
 79
     3
170
     0
171
     0
290
     0
174
     0
 93
        1
 44
0.0
173
     0
291
     0
 45
0.0
1001
ACAD
1000
AcDbSavedByObjectVersion
1070
     0
  0
VISUALSTYLE
  5
35
102
{ACAD_REACTORS
330
2A
102
}
330
2A
100
AcDbVisualStyle
  2
Dim
 70
    11
 71
     2
 72
     2
 73
     0
 90
        0
 40
-0.6
 41
-30.0
 62
     5
 63
     7
421
 16777215
 74
     1
 91
        4
 64
     7
 65
   257
 75
     1
175
     1
 42
1.0
 92
        8
 66
     7
 43
1.0
 76
     1
 77
     6
 78
     2
 67
     7
 79
     5
170
     0
171
     0
290
     0
174
     0
 93
        1
 44
-50.0
173
     0
291
     1
 45
0.0
1001
ACAD
1000
AcDbSavedByObjectVersion
1070
     0
  0
VISUALSTYLE
  5
39
102
{ACAD_REACTORS
330
2A
102
}
330
2A
100
AcDbVisualStyle
  2
Facepattern
 70
    15
 71
     2
 72
     2
 73
     0
 90
        0
 40
-0.6
 41
-30.0
 62
     5
 63
     7
421
 16777215
 74
     1
 91
        4
 64
     7
 65
   257
 75
     1
175
     1
 42
1.0
 92
        8
 66
     7
 43
1.0
 76
     1
 77
     6
 78
     2
 67
     7
 79
     5
170
     0
171
     0
290
     0
174
     0
 93
        1
 44
0.0
173
     0
291
     1
 45
0.0
1001
ACAD
1000
AcDbSavedByObjectVersion
1070
     0
  0
VISUALSTYLE
  5
2B
102
{ACAD_REACTORS
330
2A
102
}
330
2A
100
AcDbVisualStyle
  2
Flat
 70
     0
 71
     2
 72
     1
 73
     1
 90
        2
 40
-0.6
 41
30.0
 62
     5
 63
     7
421
 16777215
 74
     0
 91
        4
 64
     7
 65
   257
 75
     1
175
     1
 42
1.0
 92
        8
 66
     7
 43
1.0
 76
     1
 77
     6
 78
     2
 67
     7
 79
     5
170
     0
171
     0
290
     0
174
     0
 93
       13
 44
0.0
173
     0
291
     1
 45
0.0
1001
ACAD
1000
AcDbSavedByObjectVersion
1070
     0
  0
VISUALSTYLE
  5
2C
102
{ACAD_REACTORS
330
2A
102
}
330
2A
100
AcDbVisualStyle
  2
FlatWithEdges
 70
     1
 71
     2
 72
     1
 73
     1
 90
        2
 40
-0.6
 41
30.0
 62
     5
 63
     7
421
 16777215
 74
     1
 91
        4
 64
     7
 65
   257
 75
     1
175
     1
 42
1.0
 92
        0
 66
   257
 43
1.0
 76
     1
 77
     6
 78
     2
 67
     7
 79
     5
170
     0
171
     0
290
     0
174
     0
 93
       13
 44
0.0
173
     0
291
     1
 45
0.0
1001
ACAD
1000
AcDbSavedByObjectVersion
1070
     0
  0
VISUALSTYLE
  5
2D
102
{ACAD_REACTORS
330
2A
102
}
330
2A
100
AcDbVisualStyle
  2
Gouraud
 70
     2
 71
     2
 72
     2
 73
     1
 90
        2
 40
-0.6
 41
30.0
 62
     5
 63
     7
421
 16777215
 74
     0
 91
        4
 64
     7
 65
   257
 75
     1
175
     1
 42
1.0
 92
        0
 66
     7
 43
1.0
 76
     1
 77
     6
 78
     2
 67
     7
 79
     5
170
     0
171
     0
290
     0
174
     0
 93
       13
 44
0.0
173
     0
291
     1
 45
0.0
1001
ACAD
1000
AcDbSavedByObjectVersion
1070
     0
  0
VISUALSTYLE
  5
2E
102
{ACAD_REACTORS
330
2A
102
}
330
2A
100
AcDbVisualStyle
  2
GouraudWithEdges
 70
     3
 71
     2
 72
     2
 73
     1
 90
        2
 40
-0.6
 41
30.0
 62
     5
 63
     7
421
 16777215
 74
     1
 91
        4
 64
     7
 65
   257
 75
     1
175
     1
 42
1.0
 92
        0
 66
   257
 43
1.0
 76
     1
 77
     6
 78
     2
 67
     7
 79
     5
170
     0
171
     0
290
     0
174
     0
 93
       13
 44
0.0
173
     0
291
     1
 45
0.0
1001
ACAD
1000
AcDbSavedByObjectVersion
1070
     0
  0
VISUALSTYLE
  5
38
102
{ACAD_REACTORS
330
2A
102
}
330
2A
100
AcDbVisualStyle
  2
Linepattern
 70
    14
 71
     2
 72
     2
 73
     0
 90
        0
 40
-0.6
 41
-30.0
 62
     5
 63
     7
421
 16777215
 74
     1
 91
        4
 64
     7
 65
   257
 75
     7
175
     7
 42
1.0
 92
        8
 66
     7
 43
1.0
 76
     1
 77
     6
 78
     2
 67
     7
 79
     5
170
     0
171
     0
290
     0
174
     0
 93
        1
 44
0.0
173
     0
291
     1
 45
0.0
1001
ACAD
1000
AcDbSavedByObjectVersion
1070
     0
  0
VISUALSTYLE
  5
33
102
{ACAD_REACTORS
330
2A
102
}
330
2A
100
AcDbVisualStyle
  2
Realistic
 70
     8
 71
     2
 72
     2
 73
     0
 90
        0
 40
-0.6
 41
-30.0
 62
     5
 63
     7
421
 16777215
 74
     1
 91
        0
 64
     7
 65
   257
 75
     1
175
     1
 42
1.0
 92
        8
 66
     8
424
  7895160
 43
1.0
 76
     1
 77
     6
 78
     2
 67
     7
 79
     5
170
     0
171
     0
290
     0
174
     0
 93
       13
 44
0.0
173
     0
291
     0
 45
0.0
1001
ACAD
1000
AcDbSavedByObjectVersion
1070
     0
  0
VISUALSTYLE
  5
37
102
{ACAD_REACTORS
330
2A
102
}
330
2A
100
AcDbVisualStyle
  2
Thicken
 70
    13
 71
     2
 72
     2
 73
     0
 90
        0
 40
-0.6
 41
-30.0
 62
     5
 63
     7
421
 16777215
 74
     1
 91
        4
 64
     7
 65
   257
 75
     1
175
     1
 42
1.0
 92
       12
 66
     7
 43
1.0
 76
     1
 77
     6
 78
     2
 67
     7
 79
     5
170
     0
171
     0
290
     0
174
     0
 93
        1
 44
0.0
173
     0
291
     1
 45
0.0
1001
ACAD
1000
AcDbSavedByObjectVersion
1070
     0
  0
ENDSEC
  0
EOF
