  0
SECTION
  2
HEADER
  9
$ACADVER
  1
AC1015
  9
$ACADMAINTVER
 70
     6
  9
$DWGCODEPAGE
  3
ANSI_1252
  9
$INSBASE
 10
0.0
 20
0.0
 30
0.0
  9
$EXTMIN
 10
-13.9375005
 20
0.0000168797021935
 30
0.0
  9
$EXTMAX
 10
44.04212671064786
 20
55.96557830567294
 30
0.0
  9
$LIMMIN
 10
0.0
 20
0.0
  9
$LIMMAX
 10
12.0
 20
9.0
  9
$ORTHOMODE
 70
     0
  9
$REGENMODE
 70
     1
  9
$FILLMODE
 70
     1
  9
$QTEXTMODE
 70
     0
  9
$MIRRTEXT
 70
     1
  9
$LTSCALE
 40
0.0393700787401575
  9
$ATTMODE
 70
     1
  9
$TEXTSIZE
 40
0.2
  9
$TRACEWID
 40
0.05
  9
$TEXTSTYLE
  7
Standard
  9
$CLAYER
  8
DEFAULT
  9
$CELTYPE
  6
ByLayer
  9
$CECOLOR
 62
   256
  9
$CELTSCALE
 40
1.0
  9
$DISPSILH
 70
     0
  9
$DIMSCALE
 40
1.0
  9
$DIMASZ
 40
0.18
  9
$DIMEXO
 40
0.0625
  9
$DIMDLI
 40
0.38
  9
$DIMRND
 40
0.0
  9
$DIMDLE
 40
0.0
  9
$DIMEXE
 40
0.18
  9
$DIMTP
 40
0.0
  9
$DIMTM
 40
0.0
  9
$DIMTXT
 40
0.18
  9
$DIMCEN
 40
0.09
  9
$DIMTSZ
 40
0.0
  9
$DIMTOL
 70
     0
  9
$DIMLIM
 70
     0
  9
$DIMTIH
 70
     1
  9
$DIMTOH
 70
     1
  9
$DIMSE1
 70
     0
  9
$DIMSE2
 70
     0
  9
$DIMTAD
 70
     0
  9
$DIMZIN
 70
     0
  9
$DIMBLK
  1

  9
$DIMASO
 70
     1
  9
$DIMSHO
 70
     1
  9
$DIMPOST
  1

  9
$DIMAPOST
  1

  9
$DIMALT
 70
     0
  9
$DIMALTD
 70
     2
  9
$DIMALTF
 40
25.4
  9
$DIMLFAC
 40
1.0
  9
$DIMTOFL
 70
     0
  9
$DIMTVP
 40
0.0
  9
$DIMTIX
 70
     0
  9
$DIMSOXD
 70
     0
  9
$DIMSAH
 70
     0
  9
$DIMBLK1
  1

  9
$DIMBLK2
  1

  9
$DIMSTYLE
  2
Standard
  9
$DIMCLRD
 70
     0
  9
$DIMCLRE
 70
     0
  9
$DIMCLRT
 70
     0
  9
$DIMTFAC
 40
1.0
  9
$DIMGAP
 40
0.09
  9
$DIMJUST
 70
     0
  9
$DIMSD1
 70
     0
  9
$DIMSD2
 70
     0
  9
$DIMTOLJ
 70
     1
  9
$DIMTZIN
 70
     0
  9
$DIMALTZ
 70
     0
  9
$DIMALTTZ
 70
     0
  9
$DIMUPT
 70
     0
  9
$DIMDEC
 70
     4
  9
$DIMTDEC
 70
     4
  9
$DIMALTU
 70
     2
  9
$DIMALTTD
 70
     2
  9
$DIMTXSTY
  7
Standard
  9
$DIMAUNIT
 70
     0
  9
$DIMADEC
 70
     0
  9
$DIMALTRND
 40
0.0
  9
$DIMAZIN
 70
     0
  9
$DIMDSEP
 70
    46
  9
$DIMATFIT
 70
     3
  9
$DIMFRAC
 70
     0
  9
$DIMLDRBLK
  1

  9
$DIMLUNIT
 70
     2
  9
$DIMLWD
 70
    -2
  9
$DIMLWE
 70
    -2
  9
$DIMTMOVE
 70
     2
  9
$LUNITS
 70
     2
  9
$LUPREC
 70
     3
  9
$SKETCHINC
 40
0.1
  9
$FILLETRAD
 40
0.5
  9
$AUNITS
 70
     0
  9
$AUPREC
 70
     0
  9
$MENU
  1
.
  9
$ELEVATION
 40
0.0
  9
$PELEVATION
 40
0.0
  9
$THICKNESS
 40
0.0
  9
$LIMCHECK
 70
     0
  9
$CHAMFERA
 40
0.5
  9
$CHAMFERB
 40
0.5
  9
$CHAMFERC
 40
1.0
  9
$CHAMFERD
 40
0.0
  9
$SKPOLY
 70
     0
  9
$TDCREATE
 40
2455345.573173958
  9
$TDUCREATE
 40
2455345.739840625
  9
$TDUPDATE
 40
2455345.57317397
  9
$TDUUPDATE
 40
2455345.739840636
  9
$TDINDWG
 40
0.0000000116
  9
$TDUSRTIMER
 40
0.0000000116
  9
$USRTIMER
 70
     1
  9
$ANGBASE
 50
0.0
  9
$ANGDIR
 70
     0
  9
$PDMODE
 70
     0
  9
$PDSIZE
 40
0.0
  9
$PLINEWID
 40
0.0
  9
$SPLFRAME
 70
     0
  9
$SPLINETYPE
 70
     6
  9
$SPLINESEGS
 70
     8
  9
$HANDSEED
  5
8F
  9
$SURFTAB1
 70
     6
  9
$SURFTAB2
 70
     6
  9
$SURFTYPE
 70
     6
  9
$SURFU
 70
     6
  9
$SURFV
 70
     6
  9
$UCSBASE
  2

  9
$UCSNAME
  2

  9
$UCSORG
 10
0.0
 20
0.0
 30
0.0
  9
$UCSXDIR
 10
1.0
 20
0.0
 30
0.0
  9
$UCSYDIR
 10
0.0
 20
1.0
 30
0.0
  9
$UCSORTHOREF
  2

  9
$UCSORTHOVIEW
 70
     0
  9
$UCSORGTOP
 10
0.0
 20
0.0
 30
0.0
  9
$UCSORGBOTTOM
 10
0.0
 20
0.0
 30
0.0
  9
$UCSORGLEFT
 10
0.0
 20
0.0
 30
0.0
  9
$UCSORGRIGHT
 10
0.0
 20
0.0
 30
0.0
  9
$UCSORGFRONT
 10
0.0
 20
0.0
 30
0.0
  9
$UCSORGBACK
 10
0.0
 20
0.0
 30
0.0
  9
$PUCSBASE
  2

  9
$PUCSNAME
  2

  9
$PUCSORG
 10
0.0
 20
0.0
 30
0.0
  9
$PUCSXDIR
 10
1.0
 20
0.0
 30
0.0
  9
$PUCSYDIR
 10
0.0
 20
1.0
 30
0.0
  9
$PUCSORTHOREF
  2

  9
$PUCSORTHOVIEW
 70
     0
  9
$PUCSORGTOP
 10
0.0
 20
0.0
 30
0.0
  9
$PUCSORGBOTTOM
 10
0.0
 20
0.0
 30
0.0
  9
$PUCSORGLEFT
 10
0.0
 20
0.0
 30
0.0
  9
$PUCSORGRIGHT
 10
0.0
 20
0.0
 30
0.0
  9
$PUCSORGFRONT
 10
0.0
 20
0.0
 30
0.0
  9
$PUCSORGBACK
 10
0.0
 20
0.0
 30
0.0
  9
$USERI1
 70
     0
  9
$USERI2
 70
     0
  9
$USERI3
 70
     0
  9
$USERI4
 70
     0
  9
$USERI5
 70
     0
  9
$USERR1
 40
0.0
  9
$USERR2
 40
0.0
  9
$USERR3
 40
0.0
  9
$USERR4
 40
0.0
  9
$USERR5
 40
0.0
  9
$WORLDVIEW
 70
     1
  9
$SHADEDGE
 70
     3
  9
$SHADEDIF
 70
    70
  9
$TILEMODE
 70
     1
  9
$MAXACTVP
 70
    64
  9
$PINSBASE
 10
0.0
 20
0.0
 30
0.0
  9
$PLIMCHECK
 70
     0
  9
$PEXTMIN
 10
1.000000000000000E+20
 20
1.000000000000000E+20
 30
1.000000000000000E+20
  9
$PEXTMAX
 10
-1.000000000000000E+20
 20
-1.000000000000000E+20
 30
-1.000000000000000E+20
  9
$PLIMMIN
 10
0.0
 20
0.0
  9
$PLIMMAX
 10
12.0
 20
9.0
  9
$UNITMODE
 70
     0
  9
$VISRETAIN
 70
     1
  9
$PLINEGEN
 70
     0
  9
$PSLTSCALE
 70
     1
  9
$TREEDEPTH
 70
  3020
  9
$CMLSTYLE
  2
Standard
  9
$CMLJUST
 70
     0
  9
$CMLSCALE
 40
1.0
  9
$PROXYGRAPHICS
 70
     1
  9
$MEASUREMENT
 70
     0
  9
$CELWEIGHT
370
    -1
  9
$ENDCAPS
280
     0
  9
$JOINSTYLE
280
     0
  9
$LWDISPLAY
290
     0
  9
$INSUNITS
 70
     1
  9
$HYPERLINKBASE
  1

  9
$STYLESHEET
  1

  9
$XEDIT
290
     1
  9
$CEPSNTYPE
380
     0
  9
$PSTYLEMODE
290
     1
  9
$FINGERPRINTGUID
  2
{0513B2A5-0206-4B9E-80E0-C4C35D56F7DC}
  9
$VERSIONGUID
  2
{FAEB1C32-E019-11D5-929B-00C0DF256EC4}
  9
$EXTNAMES
290
     1
  9
$PSVPSCALE
 40
0.0
  9
$OLESTARTUP
290
     0
  0
ENDSEC
  0
SECTION
  2
CLASSES
  0
CLASS
  1
ACDBDICTIONARYWDFLT
  2
AcDbDictionaryWithDefault
  3
ObjectDBX Classes
 90
        0
280
     0
281
     0
  0
CLASS
  1
VISUALSTYLE
  2
AcDbVisualStyle
  3
ObjectDBX Classes
 90
     4095
280
     0
281
     0
  0
CLASS
  1
ACDBPLACEHOLDER
  2
AcDbPlaceHolder
  3
ObjectDBX Classes
 90
        0
280
     0
281
     0
  0
CLASS
  1
LAYOUT
  2
AcDbLayout
  3
ObjectDBX Classes
 90
        0
280
     0
281
     0
  0
ENDSEC
  0
SECTION
  2
TABLES
  0
TABLE
  2
VPORT
  5
8
330
0
100
AcDbSymbolTable
 70
     1
  0
VPORT
  5
29
330
8
100
AcDbSymbolTableRecord
100
AcDbViewportTableRecord
  2
*Active
 70
     0
 10
0.0
 20
0.0
 11
1.0
 21
1.0
 12
15.05231310532393
 22
27.98279759268757
 13
0.0
 23
0.0
 14
0.5
 24
0.5
 15
0.5
 25
0.5
 16
0.0
 26
0.0
 36
1.0
 17
0.0
 27
0.0
 37
0.0
 40
57.08487265449016
 41
1.035987591893298
 42
50.0
 43
0.0
 44
0.0
 50
0.0
 51
0.0
 71
     0
 72
   100
 73
     1
 74
     3
 75
     0
 76
     0
 77
     0
 78
     0
281
     0
 65
     1
110
0.0
120
0.0
130
0.0
111
1.0
121
0.0
131
0.0
112
0.0
122
1.0
132
0.0
 79
     0
146
0.0
  0
ENDTAB
  0
TABLE
  2
LTYPE
  5
5
330
0
100
AcDbSymbolTable
 70
     1
  0
LTYPE
  5
14
330
5
100
AcDbSymbolTableRecord
100
AcDbLinetypeTableRecord
  2
ByBlock
 70
     0
  3

 72
    65
 73
     0
 40
0.0
  0
LTYPE
  5
15
330
5
100
AcDbSymbolTableRecord
100
AcDbLinetypeTableRecord
  2
ByLayer
 70
     0
  3

 72
    65
 73
     0
 40
0.0
  0
LTYPE
  5
16
330
5
100
AcDbSymbolTableRecord
100
AcDbLinetypeTableRecord
  2
Continuous
 70
     0
  3
Solid line
 72
    65
 73
     0
 40
0.0
  0
ENDTAB
  0
TABLE
  2
LAYER
  5
2
330
0
100
AcDbSymbolTable
 70
     2
  0
LAYER
  5
10
330
2
100
AcDbSymbolTableRecord
100
AcDbLayerTableRecord
  2
0
 70
     0
 62
     7
  6
Continuous
370
    -3
390
F
  0
LAYER
  5
3B
330
2
100
AcDbSymbolTableRecord
100
AcDbLayerTableRecord
  2
DEFAULT
 70
     0
 62
     7
  6
Continuous
370
    -3
390
F
  0
ENDTAB
  0
TABLE
  2
STYLE
  5
3
330
0
100
AcDbSymbolTable
 70
     1
  0
STYLE
  5
11
330
3
100
AcDbSymbolTableRecord
100
AcDbTextStyleTableRecord
  2
Standard
 70
     0
 40
0.0
 41
1.0
 50
0.0
 71
     0
 42
0.2
  3
txt
  4

  0
ENDTAB
  0
TABLE
  2
VIEW
  5
6
330
0
100
AcDbSymbolTable
 70
     0
  0
ENDTAB
  0
TABLE
  2
UCS
  5
7
330
0
100
AcDbSymbolTable
 70
     0
  0
ENDTAB
  0
TABLE
  2
APPID
  5
9
330
0
100
AcDbSymbolTable
 70
     1
  0
APPID
  5
12
330
9
100
AcDbSymbolTableRecord
100
AcDbRegAppTableRecord
  2
ACAD
 70
     0
  0
ENDTAB
  0
TABLE
  2
DIMSTYLE
  5
A
330
0
100
AcDbSymbolTable
 70
     1
100
AcDbDimStyleTable
  0
DIMSTYLE
105
27
330
A
100
AcDbSymbolTableRecord
100
AcDbDimStyleTableRecord
  2
Standard
 70
     0
340
11
  0
ENDTAB
  0
TABLE
  2
BLOCK_RECORD
  5
1
330
0
100
AcDbSymbolTable
 70
     1
  0
BLOCK_RECORD
  5
1F
330
1
100
AcDbSymbolTableRecord
100
AcDbBlockTableRecord
  2
*Model_Space
340
22
  0
BLOCK_RECORD
  5
1B
330
1
100
AcDbSymbolTableRecord
100
AcDbBlockTableRecord
  2
*Paper_Space
340
1E
  0
BLOCK_RECORD
  5
23
330
1
100
AcDbSymbolTableRecord
100
AcDbBlockTableRecord
  2
*Paper_Space0
340
26
  0
ENDTAB
  0
ENDSEC
  0
SECTION
  2
BLOCKS
  0
BLOCK
  5
20
330
1F
100
AcDbEntity
  8
0
100
AcDbBlockBegin
  2
*Model_Space
 70
     0
 10
0.0
 20
0.0
 30
0.0
  3
*Model_Space
  1

  0
ENDBLK
  5
21
330
1F
100
AcDbEntity
  8
0
100
AcDbBlockEnd
  0
BLOCK
  5
1C
330
1B
100
AcDbEntity
 67
     1
  8
0
100
AcDbBlockBegin
  2
*Paper_Space
 70
     0
 10
0.0
 20
0.0
 30
0.0
  3
*Paper_Space
  1

  0
ENDBLK
  5
1D
330
1B
100
AcDbEntity
 67
     1
  8
0
100
AcDbBlockEnd
  0
BLOCK
  5
24
330
23
100
AcDbEntity
  8
0
100
AcDbBlockBegin
  2
*Paper_Space0
 70
     0
 10
0.0
 20
0.0
 30
0.0
  3
*Paper_Space0
  1

  0
ENDBLK
  5
25
330
23
100
AcDbEntity
  8
0
100
AcDbBlockEnd
  0
ENDSEC
  0
SECTION
  2
ENTITIES
  0
SPLINE
  5
3C
330
1F
100
AcDbEntity
  8
DEFAULT
100
AcDbSpline
210
0.0
220
0.0
230
1.0
 70
    24
 71
     2
 72
     6
 73
     3
 74
     0
 42
0.0000000001
 43
0.0000000001
 40
0.0
 40
0.0
 40
0.0
 40
1.0
 40
1.0
 40
1.0
 10
37.25909834219661
 20
25.89376192371889
 30
0.0
 10
31.61040334219661
 20
25.89376192371889
 30
0.0
 10
25.96170834219662
 20
25.89376192371889
 30
0.0
  0
ARC
  5
3D
330
1F
100
AcDbEntity
  8
DEFAULT
100
AcDbCircle
 10
12.0922175
 20
36.69830621674214
 30
0.0
 40
0.1993846528658557
100
AcDbArc
 50
70.05885133177277
 51
70.53232518732183
  0
SPLINE
  5
3E
330
1F
100
AcDbEntity
  8
DEFAULT
100
AcDbSpline
210
0.0
220
0.0
230
1.0
 70
    24
 71
     2
 72
     6
 73
     3
 74
     0
 42
0.0000000001
 43
0.0000000001
 40
0.0
 40
0.0
 40
0.0
 40
1.0
 40
1.0
 40
1.0
 10
12.5823625
 20
26.20625492371889
 30
0.0
 10
10.9120265
 20
26.20625492371889
 30
0.0
 10
9.2416905
 20
26.20625492371889
 30
0.0
  0
SPLINE
  5
3F
330
1F
100
AcDbEntity
  8
DEFAULT
100
AcDbSpline
210
0.0
220
0.0
230
1.0
 70
    24
 71
     2
 72
     6
 73
     3
 74
     0
 42
0.0000000001
 43
0.0000000001
 40
0.0
 40
0.0
 40
0.0
 40
1.0
 40
1.0
 40
1.0
 10
12.5612585
 20
25.89376192371889
 30
0.0
 10
11.5952675
 20
25.89376192371889
 30
0.0
 10
10.6292765
 20
25.89376192371889
 30
0.0
  0
SPLINE
  5
40
330
1F
100
AcDbEntity
  8
DEFAULT
100
AcDbSpline
210
0.0
220
0.0
230
1.0
 70
     8
 71
     3
 72
    13
 73
     9
 74
     0
 42
0.0000000001
 43
0.0000000001
 40
-0.0153929115090909
 40
-0.0153929115090909
 40
-0.0153929115090909
 40
-0.0153929115090909
 40
1.0
 40
1.0
 40
1.0
 40
2.0
 40
3.0
 40
4.0
 40
4.0
 40
4.0
 40
4.0
 10
13.50000253078582
 20
0.4375099237188948
 30
0.0
 10
13.50000185385722
 20
8.745841590385561
 30
0.0
 10
13.50000117692861
 20
17.05417325705223
 30
0.0
 10
13.5000005
 20
25.36250492371889
 30
0.0
 10
13.50004734372875
 20
25.45189507324626
 30
0.0
 10
13.45381585650264
 20
25.63052745810988
 30
0.0
 10
13.26373170212202
 20
25.83167007758747
 30
0.0
 10
13.08799189139352
 20
25.8879187273841
 30
0.0
 10
12.9987415
 20
25.89289492371889
 30
0.0
  0
SPLINE
  5
41
330
1F
100
AcDbEntity
  8
DEFAULT
100
AcDbSpline
210
0.0
220
0.0
230
1.0
 70
    24
 71
     2
 72
     6
 73
     3
 74
     0
 42
0.0000000001
 43
0.0000000001
 40
0.0
 40
0.0
 40
0.0
 40
1.0
 40
1.0
 40
1.0
 10
-12.5823625
 20
26.20625492371889
 30
0.0
 10
-10.9120265
 20
26.20625492371889
 30
0.0
 10
-9.2416905
 20
26.20625492371889
 30
0.0
  0
SPLINE
  5
42
330
1F
100
AcDbEntity
  8
DEFAULT
100
AcDbSpline
210
0.0
220
0.0
230
1.0
 70
    27
 71
     2
 72
     8
 73
     5
 74
     0
 42
0.0000000001
 43
0.0000000001
 40
0.0
 40
0.0
 40
0.0
 40
1.0
 40
1.0
 40
2.0
 40
2.0
 40
2.0
 10
10.6292765
 20
25.75625492371889
 30
0.0
 10
10.6292765
 20
25.98125492371889
 30
0.0
 10
10.6292765
 20
26.20625492371889
 30
0.0
 10
10.6292765
 20
25.98125492371889
 30
0.0
 10
10.6292765
 20
25.75625492371889
 30
0.0
  0
SPLINE
  5
43
330
1F
100
AcDbEntity
  8
DEFAULT
100
AcDbSpline
210
0.0
220
0.0
230
1.0
 70
    12
 71
     2
 72
    10
 73
     7
 74
     0
 42
0.0000000001
 43
0.0000000001
 40
3.141592653589793
 40
3.141592653589793
 40
3.141592653589793
 40
4.71238898038469
 40
4.71238898038469
 40
5.71238898038469
 40
5.71238898038469
 40
7.283185307179586
 40
7.283185307179586
 40
7.283185307179586
 10
10.6292765
 20
25.75625492371889
 30
0.0
 41
1.0
 10
10.6292765
 20
25.70625492371889
 30
0.0
 41
0.7071067811865476
 10
10.5792765
 20
25.70625492371889
 30
0.0
 41
1.0
 10
10.1292765
 20
25.70625492371889
 30
0.0
 41
1.0
 10
9.6792765
 20
25.70625492371889
 30
0.0
 41
1.0
 10
9.629276500000001
 20
25.70625492371889
 30
0.0
 41
0.7071067811865476
 10
9.629276500000001
 20
25.75625492371889
 30
0.0
 41
1.0
  0
SPLINE
  5
44
330
1F
100
AcDbEntity
  8
DEFAULT
100
AcDbSpline
210
0.0
220
0.0
230
1.0
 70
    24
 71
     2
 72
     6
 73
     3
 74
     0
 42
0.0000000001
 43
0.0000000001
 40
0.0
 40
0.0
 40
0.0
 40
1.0
 40
1.0
 40
1.0
 10
-12.9687505
 20
26.3312489237189
 30
0.0
 10
-12.9687505
 20
26.33063292371889
 30
0.0
 10
-12.9687505
 20
26.33001692371889
 30
0.0
  0
SPLINE
  5
45
330
1F
100
AcDbEntity
  8
DEFAULT
100
AcDbSpline
210
0.0
220
0.0
230
1.0
 70
    12
 71
     3
 72
    47
 73
    43
 74
     0
 42
0.0000000001
 43
0.0000000001
 40
0.0
 40
0.0
 40
0.0
 40
0.0
 40
1.0
 40
1.0
 40
1.0
 40
2.0
 40
3.0
 40
4.0
 40
4.0
 40
4.0
 40
5.024304424935119
 40
5.024304424935119
 40
5.024304424935119
 40
6.594826456083829
 40
6.594826456083829
 40
6.594826456083829
 40
7.594826456083829
 40
7.594826456083829
 40
7.594826456083829
 40
8.59482645608383
 40
9.59482645608383
 40
10.59482645608383
 40
10.59482645608383
 40
10.59482645608383
 40
11.59482645608383
 40
11.59482645608383
 40
11.59482645608383
 40
11.93842480080144
 40
11.93842480080144
 40
11.93842480080144
 40
12.28202314551904
 40
12.28202314551904
 40
12.28202314551904
 40
13.28202314551904
 40
13.28202314551904
 40
13.28202314551904
 40
14.28202414775484
 40
15.28202514999065
 40
16.28202314551904
 40
16.28202314551904
 40
16.28202314551904
 40
17.28202314551904
 40
17.28202314551904
 40
17.28202314551904
 40
17.28202314551904
 10
-12.8607045
 20
26.3312489237189
 30
0.0
 41
1.0
 10
-12.89671983333334
 20
26.33124892371889
 30
0.0
 41
1.0
 10
-12.93273516666667
 20
26.33124892371889
 30
0.0
 41
1.0
 10
-12.9687505
 20
26.3312489237189
 30
0.0
 41
1.0
 10
-13.13785338640298
 20
26.33151040491509
 30
0.0
 41
1.0
 10
-13.47573027655479
 20
26.24051742280223
 30
0.0
 41
1.0
 10
-13.84679213890908
 20
25.86950509595817
 30
0.0
 41
1.0
 10
-13.93775385062676
 20
25.53160439605058
 30
0.0
 41
1.0
 10
-13.9375005
 20
25.36250542371889
 30
0.0
 41
1.0
 10
-13.93749816945571
 20
16.98125892372565
 30
0.0
 41
1.0
 10
-13.93749583891142
 20
8.6000124237324
 30
0.0
 41
1.0
 10
-13.93749350836712
 20
0.2187659237391514
 30
0.0
 41
1.0
 10
-13.93749350837899
 20
0.0906571024564535
 30
0.0
 41
0.8048025017945376
 10
-13.84691931673769
 20
0.0000580632840185
 30
0.0
 41
0.8048025017945376
 10
-13.71881050027433
 20
0.0000229235806796
 30
0.0
 41
1.0
 10
-13.52072966684956
 20
0.0000232569600838
 30
0.0
 41
1.0
 10
-13.32264883342478
 20
0.0000235903394885
 30
0.0
 41
1.0
 10
-13.124568
 20
0.0000239237188932
 30
0.0
 41
1.0
 10
-12.99420621993915
 20
-0.0031848599717062
 30
0.0
 41
1.0
 10
-12.7308701194383
 20
0.104881816353669
 30
0.0
 41
1.0
 10
-12.57309148293086
 20
0.4838094436975695
 30
0.0
 41
1.0
 10
-12.5619277181262
 20
0.7441338906816111
 30
0.0
 41
1.0
 10
-12.5612585
 20
0.8747669237188938
 30
0.0
 41
1.0
 10
-12.5612585
 20
9.287346257052228
 30
0.0
 41
1.0
 10
-12.5612585
 20
17.69992559038556
 30
0.0
 41
1.0
 10
-12.5612585
 20
26.11250492371889
 30
0.0
 41
1.0
 10
-12.5612585
 20
26.24064072776506
 30
0.0
 41
0.8047378541243649
 10
-12.65186419595384
 20
26.33124642371889
 30
0.0
 41
0.8047378541243649
 10
-12.78
 20
26.33124642371889
 30
0.0
 41
1.0
 10
-12.90813580404617
 20
26.3312464237189
 30
0.0
 41
0.8047378541243649
 10
-12.9987415
 20
26.24064072776506
 30
0.0
 41
0.8047378541243649
 10
-12.9987415
 20
26.11250492371889
 30
0.0
 41
1.0
 10
-12.99874583333334
 20
17.69706492371889
 30
0.0
 41
1.0
 10
-12.99875016666667
 20
9.281624923718894
 30
0.0
 41
1.0
 10
-12.9987545
 20
0.8661849237188941
 30
0.0
 41
1.0
 10
-12.99875452412565
 20
0.8193323192289956
 30
0.0
 41
1.0
 10
-13.00577682846709
 20
0.6692904786695035
 30
0.0
 41
1.0
 10
-13.0312891135776
 20
0.5357466675847313
 30
0.0
 41
1.0
 10
-13.06928349361092
 20
0.4339581177127478
 30
0.0
 41
1.0
 10
-13.124486
 20
0.4375099237188948
 30
0.0
 41
1.0
 10
-13.32255383333334
 20
0.4375099237188948
 30
0.0
 41
1.0
 10
-13.52062166666667
 20
0.4375099237188948
 30
0.0
 41
1.0
 10
-13.7186895
 20
0.4375099237188948
 30
0.0
 41
1.0
  0
SPLINE
  5
46
330
1F
100
AcDbEntity
  8
DEFAULT
100
AcDbSpline
210
0.0
220
0.0
230
1.0
 70
     8
 71
     3
 72
    13
 73
     9
 74
     0
 42
0.0000000001
 43
0.0000000001
 40
-0.0153929115090909
 40
-0.0153929115090909
 40
-0.0153929115090909
 40
-0.0153929115090909
 40
1.0
 40
1.0
 40
1.0
 40
2.0
 40
3.0
 40
4.0
 40
4.0
 40
4.0
 40
4.0
 10
-13.50000253078582
 20
0.4375099237188948
 30
0.0
 10
-13.50000185385722
 20
8.745841590385561
 30
0.0
 10
-13.50000117692861
 20
17.05417325705223
 30
0.0
 10
-13.5000005
 20
25.36250492371889
 30
0.0
 10
-13.50004734372875
 20
25.45189507324626
 30
0.0
 10
-13.45381585650264
 20
25.63052745810988
 30
0.0
 10
-13.26373170212202
 20
25.83167007758747
 30
0.0
 10
-13.08799189139352
 20
25.8879187273841
 30
0.0
 10
-12.9987415
 20
25.89289492371889
 30
0.0
  0
SPLINE
  5
47
330
1F
100
AcDbEntity
  8
DEFAULT
100
AcDbSpline
210
0.0
220
0.0
230
1.0
 70
    24
 71
     2
 72
     6
 73
     3
 74
     0
 42
0.0000000001
 43
0.0000000001
 40
0.0
 40
0.0
 40
0.0
 40
1.0
 40
1.0
 40
1.0
 10
9.500000499999999
 20
25.94836192371889
 30
0.0
 10
9.500000499999999
 20
26.07730842371889
 30
0.0
 10
9.500000499999999
 20
26.20625492371889
 30
0.0
  0
SPLINE
  5
48
330
1F
100
AcDbEntity
  8
DEFAULT
100
AcDbSpline
210
0.0
220
0.0
230
1.0
 70
    27
 71
     2
 72
     8
 73
     5
 74
     0
 42
0.0000000001
 43
0.0000000001
 40
0.0
 40
0.0
 40
0.0
 40
1.0
 40
1.0
 40
2.0
 40
2.0
 40
2.0
 10
9.6292765
 20
25.75625492371889
 30
0.0
 10
9.6292765
 20
25.98125492371889
 30
0.0
 10
9.6292765
 20
26.20625492371889
 30
0.0
 10
9.6292765
 20
25.98125492371889
 30
0.0
 10
9.6292765
 20
25.75625492371889
 30
0.0
  0
SPLINE
  5
49
330
1F
100
AcDbEntity
  8
DEFAULT
100
AcDbSpline
210
0.0
220
0.0
230
1.0
 70
    12
 71
     2
 72
     8
 73
     5
 74
     0
 42
0.0000000001
 43
0.0000000001
 40
0.0
 40
0.0
 40
0.0
 40
1.0
 40
1.0
 40
2.570796326794897
 40
2.570796326794897
 40
2.570796326794897
 10
-9.135289499999999
 20
25.70625492371889
 30
0.0
 41
1.0
 10
-8.842645
 20
25.70625492371889
 30
0.0
 41
1.0
 10
-8.5500005
 20
25.70625492371889
 30
0.0
 41
1.0
 10
-8.500000499999999
 20
25.70625492371889
 30
0.0
 41
0.7071067811865476
 10
-8.5000005
 20
25.75625492371889
 30
0.0
 41
1.0
  0
SPLINE
  5
4A
330
1F
100
AcDbEntity
  8
DEFAULT
100
AcDbSpline
210
0.0
220
0.0
230
1.0
 70
    27
 71
     2
 72
     8
 73
     5
 74
     0
 42
0.0000000001
 43
0.0000000001
 40
0.0
 40
0.0
 40
0.0
 40
1.0
 40
1.0
 40
2.0
 40
2.0
 40
2.0
 10
-10.6292765
 20
25.75625492371889
 30
0.0
 10
-10.6292765
 20
25.98125492371889
 30
0.0
 10
-10.6292765
 20
26.20625492371889
 30
0.0
 10
-10.6292765
 20
25.98125492371889
 30
0.0
 10
-10.6292765
 20
25.75625492371889
 30
0.0
  0
SPLINE
  5
4B
330
1F
100
AcDbEntity
  8
DEFAULT
100
AcDbSpline
210
0.0
220
0.0
230
1.0
 70
    11
 71
     2
 72
    16
 73
    13
 74
     0
 42
0.0000000001
 43
0.0000000001
 40
-1.0
 40
-1.0
 40
-1.0
 40
0.0
 40
0.0
 40
0.0424264068711945
 40
0.0424264068711945
 40
1.042426406871194
 40
1.042426406871194
 40
2.042426406871194
 40
2.042426406871194
 40
3.042426406871194
 40
3.042426406871194
 40
4.042426406871194
 40
4.042426406871194
 40
4.042426406871194
 10
12.8307045
 20
26.51875492371889
 30
0.0
 10
0.0000000000000018
 20
26.51875492371889
 30
0.0
 10
-12.8307045
 20
26.51875492371889
 30
0.0
 10
-12.8457045
 20
26.50375492371889
 30
0.0
 10
-12.8607045
 20
26.48875492371889
 30
0.0
 10
-12.8607045
 20
26.41000492371889
 30
0.0
 10
-12.8607045
 20
26.33125492371889
 30
0.0
 10
-0.0000000000000018
 20
26.33125492371889
 30
0.0
 10
12.8607045
 20
26.33125492371889
 30
0.0
 10
12.8607045
 20
26.41000492371889
 30
0.0
 10
12.8607045
 20
26.48875492371889
 30
0.0
 10
12.8457045
 20
26.50375492371889
 30
0.0
 10
12.8307045
 20
26.51875492371889
 30
0.0
  0
SPLINE
  5
4C
330
1F
100
AcDbEntity
  8
DEFAULT
100
AcDbSpline
210
0.0
220
0.0
230
1.0
 70
    12
 71
     3
 72
    47
 73
    43
 74
     0
 42
0.0000000001
 43
0.0000000001
 40
0.0
 40
0.0
 40
0.0
 40
0.0
 40
1.0
 40
1.0
 40
1.0
 40
2.0
 40
3.0
 40
4.0
 40
4.0
 40
4.0
 40
5.024304424935119
 40
5.024304424935119
 40
5.024304424935119
 40
6.594826456083829
 40
6.594826456083829
 40
6.594826456083829
 40
7.594826456083829
 40
7.594826456083829
 40
7.594826456083829
 40
8.59482645608383
 40
9.59482645608383
 40
10.59482645608383
 40
10.59482645608383
 40
10.59482645608383
 40
11.59482645608383
 40
11.59482645608383
 40
11.59482645608383
 40
11.93842480080144
 40
11.93842480080144
 40
11.93842480080144
 40
12.28202314551904
 40
12.28202314551904
 40
12.28202314551904
 40
13.28202314551904
 40
13.28202314551904
 40
13.28202314551904
 40
14.28202414775484
 40
15.28202514999065
 40
16.28202314551904
 40
16.28202314551904
 40
16.28202314551904
 40
17.28202314551904
 40
17.28202314551904
 40
17.28202314551904
 40
17.28202314551904
 10
12.8607045
 20
26.3312489237189
 30
0.0
 41
1.0
 10
12.89671983333334
 20
26.33124892371889
 30
0.0
 41
1.0
 10
12.93273516666667
 20
26.33124892371889
 30
0.0
 41
1.0
 10
12.9687505
 20
26.3312489237189
 30
0.0
 41
1.0
 10
13.13785338640298
 20
26.33151040491509
 30
0.0
 41
1.0
 10
13.47573027655479
 20
26.24051742280223
 30
0.0
 41
1.0
 10
13.84679213890908
 20
25.86950509595817
 30
0.0
 41
1.0
 10
13.93775385062676
 20
25.53160439605058
 30
0.0
 41
1.0
 10
13.9375005
 20
25.36250542371889
 30
0.0
 41
1.0
 10
13.93749816945571
 20
16.98125892372565
 30
0.0
 41
1.0
 10
13.93749583891142
 20
8.6000124237324
 30
0.0
 41
1.0
 10
13.93749350836712
 20
0.2187659237391514
 30
0.0
 41
1.0
 10
13.93749350837899
 20
0.0906571024564535
 30
0.0
 41
0.8048025017945376
 10
13.84691931673769
 20
0.0000580632840185
 30
0.0
 41
0.8048025017945376
 10
13.71881050027433
 20
0.0000229235806796
 30
0.0
 41
1.0
 10
13.52072966684956
 20
0.0000232569600838
 30
0.0
 41
1.0
 10
13.32264883342478
 20
0.0000235903394885
 30
0.0
 41
1.0
 10
13.124568
 20
0.0000239237188932
 30
0.0
 41
1.0
 10
12.99420621993915
 20
-0.0031848599717062
 30
0.0
 41
1.0
 10
12.7308701194383
 20
0.104881816353669
 30
0.0
 41
1.0
 10
12.57309148293086
 20
0.4838094436975695
 30
0.0
 41
1.0
 10
12.5619277181262
 20
0.7441338906816111
 30
0.0
 41
1.0
 10
12.5612585
 20
0.8747669237188938
 30
0.0
 41
1.0
 10
12.5612585
 20
9.287346257052228
 30
0.0
 41
1.0
 10
12.5612585
 20
17.69992559038556
 30
0.0
 41
1.0
 10
12.5612585
 20
26.11250492371889
 30
0.0
 41
1.0
 10
12.5612585
 20
26.24064072776506
 30
0.0
 41
0.8047378541243649
 10
12.65186419595384
 20
26.33124642371889
 30
0.0
 41
0.8047378541243649
 10
12.78
 20
26.33124642371889
 30
0.0
 41
1.0
 10
12.90813580404617
 20
26.3312464237189
 30
0.0
 41
0.8047378541243649
 10
12.9987415
 20
26.24064072776506
 30
0.0
 41
0.8047378541243649
 10
12.9987415
 20
26.11250492371889
 30
0.0
 41
1.0
 10
12.99874583333334
 20
17.69706492371889
 30
0.0
 41
1.0
 10
12.99875016666667
 20
9.281624923718894
 30
0.0
 41
1.0
 10
12.9987545
 20
0.8661849237188941
 30
0.0
 41
1.0
 10
12.99875452412565
 20
0.8193323192289956
 30
0.0
 41
1.0
 10
13.00577682846709
 20
0.6692904786695035
 30
0.0
 41
1.0
 10
13.0312891135776
 20
0.5357466675847313
 30
0.0
 41
1.0
 10
13.06928349361092
 20
0.4339581177127478
 30
0.0
 41
1.0
 10
13.124486
 20
0.4375099237188948
 30
0.0
 41
1.0
 10
13.32255383333334
 20
0.4375099237188948
 30
0.0
 41
1.0
 10
13.52062166666667
 20
0.4375099237188948
 30
0.0
 41
1.0
 10
13.7186895
 20
0.4375099237188948
 30
0.0
 41
1.0
  0
SPLINE
  5
4D
330
1F
100
AcDbEntity
  8
DEFAULT
100
AcDbSpline
210
0.0
220
0.0
230
1.0
 70
    24
 71
     2
 72
     6
 73
     3
 74
     0
 42
0.0000000001
 43
0.0000000001
 40
0.0
 40
0.0
 40
0.0
 40
1.0
 40
1.0
 40
1.0
 10
9.6292765
 20
25.89376192371889
 30
0.0
 10
9.580415499999999
 20
25.89376192371889
 30
0.0
 10
9.531554499999999
 20
25.89376192371889
 30
0.0
  0
SPLINE
  5
4E
330
1F
100
AcDbEntity
  8
DEFAULT
100
AcDbSpline
210
0.0
220
0.0
230
1.0
 70
    12
 71
     2
 72
     8
 73
     5
 74
     0
 42
0.0000000001
 43
0.0000000001
 40
0.0
 40
0.0
 40
0.0
 40
1.0
 40
1.0
 40
2.570796326794897
 40
2.570796326794897
 40
2.570796326794897
 10
9.135289499999999
 20
25.70625492371889
 30
0.0
 41
1.0
 10
8.842645
 20
25.70625492371889
 30
0.0
 41
1.0
 10
8.5500005
 20
25.70625492371889
 30
0.0
 41
1.0
 10
8.500000499999999
 20
25.70625492371889
 30
0.0
 41
0.7071067811865476
 10
8.5000005
 20
25.75625492371889
 30
0.0
 41
1.0
  0
SPLINE
  5
4F
330
1F
100
AcDbEntity
  8
DEFAULT
100
AcDbSpline
210
0.0
220
0.0
230
1.0
 70
    27
 71
     2
 72
     8
 73
     5
 74
     0
 42
0.0000000001
 43
0.0000000001
 40
0.0
 40
0.0
 40
0.0
 40
1.0
 40
1.0
 40
2.0
 40
2.0
 40
2.0
 10
8.500000499999999
 20
25.75625492371889
 30
0.0
 10
8.500000499999999
 20
25.82500842371889
 30
0.0
 10
8.500000499999999
 20
25.89376192371889
 30
0.0
 10
8.500000499999999
 20
25.82500842371889
 30
0.0
 10
8.500000499999999
 20
25.75625492371889
 30
0.0
  0
SPLINE
  5
50
330
1F
100
AcDbEntity
  8
DEFAULT
100
AcDbSpline
210
0.0
220
0.0
230
1.0
 70
    24
 71
     2
 72
     6
 73
     3
 74
     0
 42
0.0000000001
 43
0.0000000001
 40
0.0
 40
0.0
 40
0.0
 40
1.0
 40
1.0
 40
1.0
 10
12.9687505
 20
26.3312489237189
 30
0.0
 10
12.9687505
 20
26.33063292371889
 30
0.0
 10
12.9687505
 20
26.33001692371889
 30
0.0
  0
SPLINE
  5
51
330
1F
100
AcDbEntity
  8
DEFAULT
100
AcDbSpline
210
0.0
220
0.0
230
1.0
 70
    24
 71
     2
 72
     6
 73
     3
 74
     0
 42
0.0000000001
 43
0.0000000001
 40
0.0
 40
0.0
 40
0.0
 40
1.0
 40
1.0
 40
1.0
 10
40.92920334219662
 20
26.20625492371889
 30
0.0
 10
39.29663634219661
 20
26.20625492371889
 30
0.0
 10
37.66406934219661
 20
26.20625492371889
 30
0.0
  0
SPLINE
  5
52
330
1F
100
AcDbEntity
  8
DEFAULT
100
AcDbSpline
210
0.0
220
0.0
230
1.0
 70
    24
 71
     2
 72
     6
 73
     3
 74
     0
 42
0.0000000001
 43
0.0000000001
 40
0.0
 40
0.0
 40
0.0
 40
1.0
 40
1.0
 40
1.0
 10
42.51897334219661
 20
15.14447492371889
 30
0.0
 10
42.51944584219661
 20
15.14010792371889
 30
0.0
 10
42.51991834219661
 20
15.13574092371889
 30
0.0
  0
SPLINE
  5
53
330
1F
100
AcDbEntity
  8
DEFAULT
100
AcDbSpline
210
0.0
220
0.0
230
1.0
 70
    24
 71
     2
 72
     6
 73
     3
 74
     0
 42
0.0000000001
 43
0.0000000001
 40
0.0
 40
0.0
 40
0.0
 40
1.0
 40
1.0
 40
1.0
 10
42.51991834219661
 20
15.13574092371889
 30
0.0
 10
42.51997134219661
 20
15.13524592371889
 30
0.0
 10
42.52002434219661
 20
15.13475092371889
 30
0.0
  0
SPLINE
  5
54
330
1F
100
AcDbEntity
  8
DEFAULT
100
AcDbSpline
210
0.0
220
0.0
230
1.0
 70
    12
 71
     2
 72
    16
 73
    13
 74
     0
 42
0.0000000001
 43
0.0000000001
 40
0.0
 40
0.0
 40
0.0
 40
1.0
 40
1.0
 40
1.171801231517828
 40
1.171801231517828
 40
1.343602463035656
 40
1.343602463035656
 40
1.515403694553485
 40
1.515403694553485
 40
1.687204926071313
 40
1.687204926071313
 40
2.687204926071312
 40
2.687204926071312
 40
2.687204926071312
 10
41.87121534219661
 20
17.08879092371889
 30
0.0
 41
1.0
 10
41.39027790953682
 20
21.58902582403194
 30
0.0
 41
1.0
 10
40.90934047687703
 20
26.08926072434499
 30
0.0
 41
1.0
 10
40.89971084872187
 20
26.17935443023224
 30
0.0
 41
0.923878156532401
 10
40.95660805081312
 20
26.24986906681991
 30
0.0
 41
1.0
 10
41.01350525290438
 20
26.32038370340759
 30
0.0
 41
0.923878156532401
 10
41.10359909727911
 20
26.33001203580147
 30
0.0
 41
1.0
 10
41.19369294165384
 20
26.33964036819536
 30
0.0
 41
0.923878156532401
 10
41.26420675991805
 20
26.28274215194295
 30
0.0
 41
1.0
 10
41.33472057818228
 20
26.22584393569055
 30
0.0
 41
0.923878156532401
 10
41.34434761481288
 20
26.13574995284698
 30
0.0
 41
1.0
 10
41.93218147850475
 20
20.63524993828294
 30
0.0
 41
1.0
 10
42.52001534219661
 20
15.13474992371889
 30
0.0
 41
1.0
  0
ARC
  5
55
330
1F
100
AcDbEntity
  8
DEFAULT
100
AcDbCircle
 10
38.32543234219661
 20
14.68647292371889
 30
0.0
 40
3.780977537458731
100
AcDbArc
 50
6.100075028213278
 51
7.066903343651559
  0
ARC
  5
56
330
1F
100
AcDbEntity
  8
DEFAULT
100
AcDbCircle
 10
38.32573834219662
 20
14.68670992371889
 30
0.0
 40
3.780616396343243
100
AcDbArc
 50
23.19351410652883
 51
24.16437162213781
  0
SPLINE
  5
57
330
1F
100
AcDbEntity
  8
DEFAULT
100
AcDbSpline
210
0.0
220
0.0
230
1.0
 70
    27
 71
     2
 72
     8
 73
     5
 74
     0
 42
0.0000000001
 43
0.0000000001
 40
0.0
 40
0.0
 40
0.0
 40
1.0
 40
1.0
 40
2.0
 40
2.0
 40
2.0
 10
-8.500000499999999
 20
25.75625492371889
 30
0.0
 10
-8.500000499999999
 20
25.82500842371889
 30
0.0
 10
-8.500000499999999
 20
25.89376192371889
 30
0.0
 10
-8.500000499999999
 20
25.82500842371889
 30
0.0
 10
-8.500000499999999
 20
25.75625492371889
 30
0.0
  0
SPLINE
  5
58
330
1F
100
AcDbEntity
  8
DEFAULT
100
AcDbSpline
210
0.0
220
0.0
230
1.0
 70
    12
 71
     2
 72
    10
 73
     7
 74
     0
 42
0.0000000001
 43
0.0000000001
 40
3.141592653589793
 40
3.141592653589793
 40
3.141592653589793
 40
4.71238898038469
 40
4.71238898038469
 40
5.71238898038469
 40
5.71238898038469
 40
7.283185307179586
 40
7.283185307179586
 40
7.283185307179586
 10
-10.6292765
 20
25.75625492371889
 30
0.0
 41
1.0
 10
-10.6292765
 20
25.70625492371889
 30
0.0
 41
0.7071067811865476
 10
-10.5792765
 20
25.70625492371889
 30
0.0
 41
1.0
 10
-10.1292765
 20
25.70625492371889
 30
0.0
 41
1.0
 10
-9.6792765
 20
25.70625492371889
 30
0.0
 41
1.0
 10
-9.629276500000001
 20
25.70625492371889
 30
0.0
 41
0.7071067811865476
 10
-9.629276500000001
 20
25.75625492371889
 30
0.0
 41
1.0
  0
SPLINE
  5
59
330
1F
100
AcDbEntity
  8
DEFAULT
100
AcDbSpline
210
0.0
220
0.0
230
1.0
 70
    27
 71
     2
 72
     8
 73
     5
 74
     0
 42
0.0000000001
 43
0.0000000001
 40
0.0
 40
0.0
 40
0.0
 40
1.0
 40
1.0
 40
2.0
 40
2.0
 40
2.0
 10
-9.6292765
 20
25.75625492371889
 30
0.0
 10
-9.6292765
 20
25.98125492371889
 30
0.0
 10
-9.6292765
 20
26.20625492371889
 30
0.0
 10
-9.6292765
 20
25.98125492371889
 30
0.0
 10
-9.6292765
 20
25.75625492371889
 30
0.0
  0
SPLINE
  5
5A
330
1F
100
AcDbEntity
  8
DEFAULT
100
AcDbSpline
210
0.0
220
0.0
230
1.0
 70
     8
 71
     3
 72
    18
 73
    14
 74
     0
 42
0.0000000001
 43
0.0000000001
 40
-3.0
 40
-3.0
 40
-3.0
 40
-3.0
 40
-2.0
 40
-1.0
 40
0.0
 40
0.0
 40
0.0
 40
1.0
 40
1.0
 40
1.0
 40
2.0
 40
3.0
 40
4.0
 40
4.0
 40
4.0
 40
4.0
 10
12.5612495
 20
35.91896521674214
 30
0.0
 10
12.56507661636454
 20
35.80877620014322
 30
0.0
 10
12.39540747819248
 20
35.65537247319291
 30
0.0
 10
12.08049927382678
 20
35.6492648492538
 30
0.0
 10
11.84528236456574
 20
35.63613615550405
 30
0.0
 10
11.7424995
 20
35.63613621674214
 30
0.0
 10
3.9098995
 20
35.63614088340881
 30
0.0
 10
-3.9227005
 20
35.63614555007548
 30
0.0
 10
-11.7553005
 20
35.63615021674214
 30
0.0
 10
-11.85808336456573
 20
35.63615027798021
 30
0.0
 10
-12.08049927382678
 20
35.6492648492538
 30
0.0
 10
-12.39540747819248
 20
35.65537247319291
 30
0.0
 10
-12.56507661636454
 20
35.80877620014322
 30
0.0
 10
-12.5612495
 20
35.91896521674214
 30
0.0
  0
SPLINE
  5
5B
330
1F
100
AcDbEntity
  8
DEFAULT
100
AcDbSpline
210
0.0
220
0.0
230
1.0
 70
    12
 71
     2
 72
     8
 73
     5
 74
     0
 42
0.0000000001
 43
0.0000000001
 40
-0.1564563050227523
 40
-0.1564563050227523
 40
-0.1564563050227523
 40
0.0
 40
0.0
 40
1.0
 40
1.0
 40
1.0
 10
-12.1542905
 20
36.40753221674213
 30
0.0
 41
1.0
 10
-12.08684791289738
 20
36.44766903679673
 30
0.0
 41
0.9951502028461119
 10
-12.0128525
 20
36.47382521674214
 30
0.0
 41
1.0
 10
-10.6610395
 20
36.95166921674213
 30
0.0
 41
1.0
 10
-9.309226500000001
 20
37.42951321674214
 30
0.0
 41
1.0
  0
SPLINE
  5
5C
330
1F
100
AcDbEntity
  8
DEFAULT
100
AcDbSpline
210
0.0
220
0.0
230
1.0
 70
    12
 71
     2
 72
    16
 73
    13
 74
     0
 42
0.0000000001
 43
0.0000000001
 40
0.0019935333980788
 40
0.0019935333980788
 40
0.0019935333980788
 40
1.0
 40
1.0
 40
1.171805892708601
 40
1.171805892708601
 40
1.343611785417202
 40
1.343611785417202
 40
1.515417678125803
 40
1.515417678125803
 40
1.687223570834404
 40
1.687223570834404
 40
2.687223570834404
 40
2.687223570834404
 40
2.687223570834404
 10
13.50000049800646
 20
53.29195386633699
 30
0.0
 41
1.0
 10
13.49999999900323
 20
54.51939104153956
 30
0.0
 41
1.0
 10
13.4999995
 20
55.74682821674214
 30
0.0
 41
1.0
 10
13.49999946316365
 20
55.83743745955847
 30
0.0
 41
0.9238794936171792
 10
13.56406986017365
 20
55.90150788261571
 30
0.0
 41
1.0
 10
13.62814025718365
 20
55.96557830567294
 30
0.0
 41
0.9238794936171792
 10
13.7187495
 20
55.96557830567294
 30
0.0
 41
1.0
 10
13.80935874281635
 20
55.96557830567294
 30
0.0
 41
0.9238794936171792
 10
13.87342913982635
 20
55.90150788261572
 30
0.0
 41
1.0
 10
13.93749953683635
 20
55.83743745955848
 30
0.0
 41
0.9238794936171792
 10
13.9374995
 20
55.74682821674214
 30
0.0
 41
1.0
 10
13.9374995
 20
54.43516221674214
 30
0.0
 41
1.0
 10
13.9374995
 20
53.12349621674213
 30
0.0
 41
1.0
  0
SPLINE
  5
5D
330
1F
100
AcDbEntity
  8
DEFAULT
100
AcDbSpline
210
0.0
220
0.0
230
1.0
 70
     8
 71
     3
 72
    12
 73
     8
 74
     0
 42
0.0000000001
 43
0.0000000001
 40
0.0
 40
0.0
 40
0.0
 40
0.0
 40
1.0
 40
2.0
 40
3.0
 40
4.0
 40
5.0
 40
5.0
 40
5.0
 40
5.0
 10
12.9987465
 20
52.82466021674214
 30
0.0
 10
13.07057182581262
 20
52.82498167601434
 30
0.0
 10
13.21399283564781
 20
52.82762646099864
 30
0.0
 10
13.42971613705552
 20
52.83905614967279
 30
0.0
 10
13.64199181294032
 20
52.86075414062804
 30
0.0
 10
13.86045200895902
 20
52.9117707454785
 30
0.0
 10
13.93885756695092
 20
53.05106262478746
 30
0.0
 10
13.9374995
 20
53.12345821674213
 30
0.0
  0
POLYLINE
  5
5E
330
1F
100
AcDbEntity
  8
DEFAULT
100
AcDb2dPolyline
 66
     1
 10
0.0
 20
0.0
 30
0.0
  0
VERTEX
  5
5F
330
5E
100
AcDbEntity
  8
DEFAULT
100
AcDbVertex
100
AcDb2dVertex
 10
12.8607045
 20
52.96264821674213
 30
0.0
  0
VERTEX
  5
60
330
5E
100
AcDbEntity
  8
DEFAULT
100
AcDbVertex
100
AcDb2dVertex
 10
12.9987405
 20
52.82466021674214
 30
0.0
  0
SEQEND
  5
61
330
5E
100
AcDbEntity
  8
DEFAULT
  0
SPLINE
  5
62
330
1F
100
AcDbEntity
  8
DEFAULT
100
AcDbSpline
210
0.0
220
0.0
230
1.0
 70
    12
 71
     2
 72
    12
 73
     9
 74
     0
 42
0.0000000001
 43
0.0000000001
 40
-1.0
 40
-1.0
 40
-1.0
 40
0.0
 40
0.0
 40
0.3436092152831531
 40
0.3436092152831531
 40
0.6872184305663062
 40
0.6872184305663062
 40
1.685164585699064
 40
1.685164585699064
 40
1.685164585699064
 10
-13.9375005
 20
53.12349621674213
 30
0.0
 41
1.0
 10
-13.93749900004217
 20
54.43516234181723
 30
0.0
 41
1.0
 10
-13.93749750008434
 20
55.74682846689232
 30
0.0
 41
1.0
 10
-13.9374972499343
 20
55.96557684185937
 30
0.0
 41
0.7071069833397772
 10
-13.71874887496715
 20
55.96557671678434
 30
0.0
 41
1.0
 10
-13.5000005
 20
55.96557659170933
 30
0.0
 41
0.7071069833397772
 10
-13.5000005
 20
55.74682821674214
 30
0.0
 41
1.0
 10
-13.5000005
 20
54.5194667148713
 30
0.0
 41
1.0
 10
-13.5000005
 20
53.29210521300046
 30
0.0
 41
1.0
  0
SPLINE
  5
63
330
1F
100
AcDbEntity
  8
DEFAULT
100
AcDbSpline
210
0.0
220
0.0
230
1.0
 70
     8
 71
     3
 72
    12
 73
     8
 74
     0
 42
0.0000000001
 43
0.0000000001
 40
0.0
 40
0.0
 40
0.0
 40
0.0
 40
1.0
 40
2.0
 40
3.0
 40
4.0
 40
5.0
 40
5.0
 40
5.0
 40
5.0
 10
-12.9987465
 20
52.82466021674214
 30
0.0
 10
-13.07057182581262
 20
52.82498167601434
 30
0.0
 10
-13.21399283564781
 20
52.82762646099864
 30
0.0
 10
-13.42971613705552
 20
52.83905614967279
 30
0.0
 10
-13.64199181294032
 20
52.86075414062804
 30
0.0
 10
-13.86045200895902
 20
52.9117707454785
 30
0.0
 10
-13.93885756695092
 20
53.05106262478746
 30
0.0
 10
-13.9374995
 20
53.12345821674213
 30
0.0
  0
SPLINE
  5
64
330
1F
100
AcDbEntity
  8
DEFAULT
100
AcDbSpline
210
0.0
220
0.0
230
1.0
 70
    24
 71
     2
 72
     6
 73
     3
 74
     0
 42
0.0000000001
 43
0.0000000001
 40
0.0
 40
0.0
 40
0.0
 40
1.0
 40
1.0
 40
1.0
 10
12.5612525
 20
34.98440221674214
 30
0.0
 10
12.5612525
 20
34.98439471674214
 30
0.0
 10
12.5612525
 20
34.98438721674214
 30
0.0
  0
ARC
  5
65
330
1F
100
AcDbEntity
  8
DEFAULT
100
AcDbCircle
 10
-12.0922175
 20
36.69830621674214
 30
0.0
 40
0.1993848649747435
100
AcDbArc
 50
109.4676748126776
 51
109.94232720866
  0
SPLINE
  5
66
330
1F
100
AcDbEntity
  8
DEFAULT
100
AcDbSpline
210
0.0
220
0.0
230
1.0
 70
    12
 71
     2
 72
    10
 73
     7
 74
     0
 42
0.0000000001
 43
0.0000000001
 40
-0.3816720874099143
 40
-0.3816720874099143
 40
-0.3816720874099143
 40
0.0
 40
0.0
 40
1.0
 40
1.0
 40
1.372902581311601
 40
1.372902581311601
 40
1.372902581311601
 10
12.1237495
 20
36.08916821674214
 30
0.0
 41
1.0
 10
11.93344117185452
 20
36.07362915985082
 30
0.0
 41
0.9991704126832753
 10
11.7424995
 20
36.07362921674213
 30
0.0
 41
1.0
 10
-0.0043899999999999
 20
36.07363271674214
 30
0.0
 41
1.0
 10
-11.7512795
 20
36.07363621674214
 30
0.0
 41
1.0
 10
-11.9378387973351
 20
36.07363627232772
 30
0.0
 41
0.9991318158786815
 10
-12.1237505
 20
36.08916721674213
 30
0.0
 41
1.0
  0
SPLINE
  5
67
330
1F
100
AcDbEntity
  8
DEFAULT
100
AcDbSpline
210
0.0
220
0.0
230
1.0
 70
     8
 71
     3
 72
    13
 73
     9
 74
     0
 42
0.0000000001
 43
0.0000000001
 40
0.0
 40
0.0
 40
0.0
 40
0.0
 40
1.0
 40
2.0
 40
3.0
 40
3.0
 40
3.0
 40
4.0
 40
4.0
 40
4.0
 40
4.0
 10
12.56124985083
 20
35.91896472305213
 30
0.0
 10
12.56242820182784
 20
35.84245834120316
 30
0.0
 10
12.47244650022364
 20
35.69315840934291
 30
0.0
 10
12.21251259905254
 20
35.6931814392367
 30
0.0
 10
12.12255764654836
 20
35.8424976290201
 30
0.0
 10
12.123749677205
 20
35.91900401422213
 30
0.0
 10
12.12374961813667
 20
36.0882830817288
 30
0.0
 10
12.12374955906833
 20
36.25756214923547
 30
0.0
 10
12.1237495
 20
36.42684121674213
 30
0.0
  0
SPLINE
  5
68
330
1F
100
AcDbEntity
  8
DEFAULT
100
AcDbSpline
210
0.0
220
0.0
230
1.0
 70
    12
 71
     2
 72
    10
 73
     7
 74
     0
 42
0.0000000001
 43
0.0000000001
 40
-0.493411894535491
 40
-0.493411894535491
 40
-0.493411894535491
 40
0.0
 40
0.0
 40
1.0
 40
1.0
 40
1.502870203940095
 40
1.502870203940095
 40
1.502870203940095
 10
-9.309226500000001
 20
37.42951321674214
 30
0.0
 41
1.0
 10
-9.064401450519696
 20
37.4628400765478
 30
0.0
 41
0.997712845884852
 10
-8.817318499999999
 20
37.46284021674214
 30
0.0
 41
1.0
 10
-0.0051595000000013
 20
37.46284521674214
 30
0.0
 41
1.0
 10
8.806999499999996
 20
37.46285021674213
 30
0.0
 41
1.0
 10
9.058798352565704
 20
37.46285035961226
 30
0.0
 41
0.9978344962284621
 10
9.3084185
 20
37.42979821674214
 30
0.0
 41
1.0
  0
SPLINE
  5
69
330
1F
100
AcDbEntity
  8
DEFAULT
100
AcDbSpline
210
0.0
220
0.0
230
1.0
 70
    12
 71
     3
 72
    16
 73
    12
 74
     0
 42
0.0000000001
 43
0.0000000001
 40
-0.1271676422410517
 40
-0.1271676422410517
 40
-0.1271676422410517
 40
-0.1271676422410517
 40
0.0
 40
0.0
 40
0.0
 40
1.0
 40
1.0
 40
1.0
 40
1.999994604891924
 40
2.999997302445962
 40
4.0
 40
4.0
 40
4.0
 40
4.0
 10
-9.330553499999999
 20
37.87062921674214
 30
0.0
 41
1.0
 10
-9.372773445153436
 20
37.86591934760565
 30
0.0
 41
0.9956469191566063
 10
-9.414180359465579
 20
37.85642334406788
 30
0.0
 41
0.9956469191566063
 10
-9.454233499999999
 20
37.84226521674213
 30
0.0
 41
1.0
 10
-10.355711
 20
37.52360771674213
 30
0.0
 41
1.0
 10
-11.2571885
 20
37.20495021674214
 30
0.0
 41
1.0
 10
-12.158666
 20
36.88629271674214
 30
0.0
 41
1.0
 10
-12.2199782647791
 20
36.86437814078723
 30
0.0
 41
1.0
 10
-12.34066655784053
 20
36.8157226608749
 30
0.0
 41
1.0
 10
-12.50290114512243
 20
36.69997709186097
 30
0.0
 41
1.0
 10
-12.55766382261726
 20
36.57514903706491
 30
0.0
 41
1.0
 10
-12.5608385
 20
36.50981821674214
 30
0.0
 41
1.0
  0
SPLINE
  5
6A
330
1F
100
AcDbEntity
  8
DEFAULT
100
AcDbSpline
210
0.0
220
0.0
230
1.0
 70
    12
 71
     3
 72
    16
 73
    12
 74
     0
 42
0.0000000001
 43
0.0000000001
 40
0.0
 40
0.0
 40
0.0
 40
0.0
 40
1.000002698646194
 40
2.000005397292387
 40
3.0
 40
3.0
 40
3.0
 40
4.0
 40
4.0
 40
4.0
 40
4.127167642241051
 40
4.127167642241051
 40
4.127167642241051
 40
4.127167642241051
 10
12.5608255
 20
36.51005521674214
 30
0.0
 41
1.0
 10
12.55759610615096
 20
36.57535636590926
 30
0.0
 41
1.0
 10
12.50278017133293
 20
36.70009088663195
 30
0.0
 41
1.0
 10
12.3405918826595
 20
36.81574997534997
 30
0.0
 41
1.0
 10
12.21995368852515
 20
36.86438763109462
 30
0.0
 41
1.0
 10
12.158666
 20
36.88629271674214
 30
0.0
 41
1.0
 10
11.2571885
 20
37.20495021674213
 30
0.0
 41
1.0
 10
10.355711
 20
37.52360771674213
 30
0.0
 41
1.0
 10
9.4542335
 20
37.84226521674213
 30
0.0
 41
1.0
 10
9.414180359465579
 20
37.85642334406788
 30
0.0
 41
0.9956469191566063
 10
9.372773445153436
 20
37.86591934760565
 30
0.0
 41
0.9956469191566063
 10
9.330553499999999
 20
37.87062921674214
 30
0.0
 41
1.0
  0
SPLINE
  5
6B
330
1F
100
AcDbEntity
  8
DEFAULT
100
AcDbSpline
210
0.0
220
0.0
230
1.0
 70
     8
 71
     3
 72
    13
 73
     9
 74
     0
 42
0.0000000001
 43
0.0000000001
 40
0.0
 40
0.0
 40
0.0
 40
0.0
 40
1.0
 40
2.0
 40
3.0
 40
3.0
 40
3.0
 40
4.0
 40
4.0
 40
4.0
 40
4.0
 10
-12.5612501424
 20
35.91896686592214
 30
0.0
 10
-12.56242204073417
 20
35.84265409703174
 30
0.0
 10
-12.47282732330083
 20
35.69321248188991
 30
0.0
 10
-12.21213454144745
 20
35.69323433240949
 30
0.0
 10
-12.12256515256222
 20
35.84269131636967
 30
0.0
 10
-12.123750322795
 20
35.91900404890713
 30
0.0
 10
-12.12375038186333
 20
36.08828343818547
 30
0.0
 10
-12.12375044093167
 20
36.25756282746381
 30
0.0
 10
-12.1237505
 20
36.42684221674214
 30
0.0
  0
SPLINE
  5
6C
330
1F
100
AcDbEntity
  8
DEFAULT
100
AcDbSpline
210
0.0
220
0.0
230
1.0
 70
     8
 71
     3
 72
    62
 73
    58
 74
     0
 42
0.0000000001
 43
0.0000000001
 40
0.0
 40
0.0
 40
0.0
 40
0.0
 40
1.0
 40
2.0
 40
3.0
 40
3.0
 40
3.0
 40
4.0
 40
4.0
 40
4.0
 40
5.0
 40
6.0
 40
7.0
 40
7.0
 40
7.0
 40
8.0
 40
8.0
 40
8.0
 40
9.0
 40
9.0
 40
9.0
 40
10.0
 40
10.0
 40
10.0
 40
11.0
 40
12.0
 40
13.0
 40
13.0
 40
13.0
 40
14.0
 40
14.0
 40
14.0
 40
15.0
 40
16.0
 40
17.0
 40
17.0
 40
17.0
 40
18.0
 40
18.0
 40
18.0
 40
19.0
 40
19.0
 40
19.0
 40
20.0
 40
20.0
 40
20.0
 40
21.0
 40
22.0
 40
23.0
 40
23.0
 40
23.0
 40
24.0
 40
24.0
 40
24.0
 40
25.0
 40
26.0
 40
27.0
 40
27.0
 40
27.0
 40
27.0
 10
-8.807000500000001
 20
26.3312489237189
 30
0.0
 10
-8.923185698862627
 20
26.33124193665128
 30
0.0
 10
-9.155479949855293
 20
26.2809871283777
 30
0.0
 10
-9.441761409084492
 20
26.06846864346473
 30
0.0
 10
-9.557081251786533
 20
25.86065074898655
 30
0.0
 10
-9.5907165
 20
25.7494419237189
 30
0.0
 10
-10.4921945
 20
22.7676849237189
 30
0.0
 10
-11.3936725
 20
19.7859279237189
 30
0.0
 10
-12.2951505
 20
16.8041709237189
 30
0.0
 10
-12.34735531799358
 20
16.63096846288304
 30
0.0
 10
-12.43685777071378
 20
16.28008242256258
 30
0.0
 10
-12.52492364338262
 20
15.74406563310019
 30
0.0
 10
-12.55213492001813
 20
15.38296442003963
 30
0.0
 10
-12.5581075
 20
15.20216692371889
 30
0.0
 10
-12.5589105
 20
15.16812092371889
 30
0.0
 10
-12.5597135
 20
15.13407492371889
 30
0.0
 10
-12.5605165
 20
15.10002892371889
 30
0.0
 10
-12.56076116666667
 20
15.06818775705223
 30
0.0
 10
-12.56100583333333
 20
15.03634659038556
 30
0.0
 10
-12.5612505
 20
15.00450542371889
 30
0.0
 10
-12.5612505
 20
13.20950525705223
 30
0.0
 10
-12.5612505
 20
11.41450509038556
 30
0.0
 10
-12.5612505
 20
9.619504923718893
 30
0.0
 10
-12.56136037183231
 20
9.47660643426856
 30
0.0
 10
-12.48463451554453
 20
9.191008963698515
 30
0.0
 10
-12.17095868959773
 20
8.877426845952002
 30
0.0
 10
-11.8854089964426
 20
8.80063040617539
 30
0.0
 10
-11.7425005
 20
8.800761923718893
 30
0.0
 10
-3.914166833333334
 20
8.800761923718893
 30
0.0
 10
3.914166833333333
 20
8.800761923718893
 30
0.0
 10
11.7425005
 20
8.800761923718893
 30
0.0
 10
11.8854089964426
 20
8.80063040617539
 30
0.0
 10
12.17095868959773
 20
8.877426845952002
 30
0.0
 10
12.48463451554453
 20
9.191008963698515
 30
0.0
 10
12.56136037183231
 20
9.47660643426856
 30
0.0
 10
12.5612505
 20
9.619504923718893
 30
0.0
 10
12.5612505
 20
11.41450509038556
 30
0.0
 10
12.5612505
 20
13.20950525705223
 30
0.0
 10
12.5612505
 20
15.00450542371889
 30
0.0
 10
12.56100583333333
 20
15.03634659038556
 30
0.0
 10
12.56076116666667
 20
15.06818775705222
 30
0.0
 10
12.5605165
 20
15.10002892371889
 30
0.0
 10
12.5597135
 20
15.13407492371889
 30
0.0
 10
12.5589105
 20
15.16812092371889
 30
0.0
 10
12.5581075
 20
15.20216692371889
 30
0.0
 10
12.55213492001813
 20
15.38296442003963
 30
0.0
 10
12.52492364338262
 20
15.74406563310019
 30
0.0
 10
12.43685777071378
 20
16.28008242256258
 30
0.0
 10
12.34735531799358
 20
16.63096846288304
 30
0.0
 10
12.2951505
 20
16.8041709237189
 30
0.0
 10
11.3936725
 20
19.7859279237189
 30
0.0
 10
10.4921945
 20
22.7676849237189
 30
0.0
 10
9.5907165
 20
25.7494419237189
 30
0.0
 10
9.557081251786533
 20
25.86065074898655
 30
0.0
 10
9.441761409084492
 20
26.06846864346473
 30
0.0
 10
9.155479949855293
 20
26.2809871283777
 30
0.0
 10
8.923185698862627
 20
26.33124193665128
 30
0.0
 10
8.807000500000001
 20
26.3312489237189
 30
0.0
  0
SPLINE
  5
6D
330
1F
100
AcDbEntity
  8
DEFAULT
100
AcDbSpline
210
0.0
220
0.0
230
1.0
 70
    11
 71
     3
 72
    71
 73
    67
 74
     0
 42
0.0000000001
 43
0.0000000001
 40
-3.0
 40
-3.0
 40
-3.0
 40
-3.0
 40
-2.0
 40
-1.0
 40
0.0
 40
0.0
 40
0.0
 40
1.0
 40
1.0
 40
1.0
 40
2.0
 40
2.0
 40
2.0
 40
3.0
 40
3.0
 40
3.0
 40
4.0
 40
4.0
 40
4.0
 40
5.0
 40
6.0
 40
7.0
 40
7.0
 40
7.0
 40
8.0
 40
8.0
 40
8.0
 40
9.0
 40
10.0
 40
11.0
 40
11.0
 40
11.0
 40
12.0
 40
12.0
 40
12.0
 40
13.0
 40
14.0
 40
15.0
 40
15.0
 40
15.0
 40
16.0
 40
16.0
 40
16.0
 40
17.0
 40
18.0
 40
19.0
 40
19.0
 40
19.0
 40
20.0
 40
20.0
 40
20.0
 40
21.0
 40
21.0
 40
21.0
 40
22.0
 40
22.0
 40
22.0
 40
23.0
 40
23.0
 40
23.0
 40
24.0
 40
25.0
 40
26.0
 40
26.0
 40
26.0
 40
27.0
 40
27.0
 40
27.0
 40
27.0
 10
8.806999999999999
 20
25.89376192371889
 30
0.0
 10
8.860123440064338
 20
25.89370771643691
 30
0.0
 10
8.96639408306214
 20
25.87124388096418
 30
0.0
 10
9.098223546908532
 20
25.77552637828731
 30
0.0
 10
9.152797117590891
 20
25.68166101345857
 30
0.0
 10
9.1693195
 20
25.6311519237189
 30
0.0
 10
9.1701915
 20
25.62838192371889
 30
0.0
 10
9.1710635
 20
25.62561192371889
 30
0.0
 10
9.1719355
 20
25.62284192371889
 30
0.0
 10
9.171919166666667
 20
25.62295525705223
 30
0.0
 10
9.171902833333334
 20
25.62306859038556
 30
0.0
 10
9.1718865
 20
25.6231819237189
 30
0.0
 10
10.07338083333333
 20
22.6413119237189
 30
0.0
 10
10.97487516666667
 20
19.6594419237189
 30
0.0
 10
11.8763695
 20
16.6775719237189
 30
0.0
 10
11.87635316666667
 20
16.67768525705223
 30
0.0
 10
11.87633683333333
 20
16.67779859038556
 30
0.0
 10
11.8763205
 20
16.6779119237189
 30
0.0
 10
11.93089086643084
 20
16.49703256260813
 30
0.0
 10
12.02242302685249
 20
16.1306571476037
 30
0.0
 10
12.10527681879914
 20
15.57028371324121
 30
0.0
 10
12.12368572165318
 20
15.19309707885326
 30
0.0
 10
12.1237505
 20
15.00450492371889
 30
0.0
 10
12.1237505
 20
13.20950525705223
 30
0.0
 10
12.1237505
 20
11.41450559038556
 30
0.0
 10
12.1237505
 20
9.619505923718894
 30
0.0
 10
12.12376382983522
 20
9.55297346369346
 30
0.0
 10
12.08811048994896
 20
9.419957917178834
 30
0.0
 10
11.94199055701117
 20
9.273968890708211
 30
0.0
 10
11.80904742571899
 20
9.238208525691443
 30
0.0
 10
11.7425
 20
9.238248923718892
 30
0.0
 10
3.9141665
 20
9.238248923718892
 30
0.0
 10
-3.914167
 20
9.238248923718892
 30
0.0
 10
-11.7425005
 20
9.238248923718892
 30
0.0
 10
-11.80904742571899
 20
9.238208525691443
 30
0.0
 10
-11.94199055701117
 20
9.273968890708211
 30
0.0
 10
-12.08811048994896
 20
9.419957917178834
 30
0.0
 10
-12.12376382983522
 20
9.55297346369346
 30
0.0
 10
-12.1237505
 20
9.619505923718894
 30
0.0
 10
-12.1237505
 20
11.41450559038556
 30
0.0
 10
-12.1237505
 20
13.20950525705223
 30
0.0
 10
-12.1237505
 20
15.00450492371889
 30
0.0
 10
-12.12368572165318
 20
15.19309707885326
 30
0.0
 10
-12.10527681879914
 20
15.57028371324121
 30
0.0
 10
-12.02242302685249
 20
16.1306571476037
 30
0.0
 10
-11.93089086643084
 20
16.49703256260813
 30
0.0
 10
-11.8763205
 20
16.6779119237189
 30
0.0
 10
-11.87633683333333
 20
16.67779859038556
 30
0.0
 10
-11.87635316666667
 20
16.67768525705223
 30
0.0
 10
-11.8763695
 20
16.6775719237189
 30
0.0
 10
-10.97487516666667
 20
19.6594419237189
 30
0.0
 10
-10.07338083333333
 20
22.6413119237189
 30
0.0
 10
-9.1718865
 20
25.6231819237189
 30
0.0
 10
-9.171902833333332
 20
25.62306859038556
 30
0.0
 10
-9.171919166666667
 20
25.62295525705223
 30
0.0
 10
-9.1719355
 20
25.62284192371889
 30
0.0
 10
-9.1710635
 20
25.6256119237189
 30
0.0
 10
-9.170191500000001
 20
25.62838192371889
 30
0.0
 10
-9.1693195
 20
25.6311519237189
 30
0.0
 10
-9.152797117590891
 20
25.68166101345857
 30
0.0
 10
-9.098223546908532
 20
25.77552637828731
 30
0.0
 10
-8.96639408306214
 20
25.87124388096418
 30
0.0
 10
-8.860123440064338
 20
25.89370771643691
 30
0.0
 10
-8.807000500000001
 20
25.89376192371889
 30
0.0
 10
-2.935667000000001
 20
25.89376192371889
 30
0.0
 10
2.935666499999999
 20
25.89376192371889
 30
0.0
 10
8.806999999999999
 20
25.89376192371889
 30
0.0
  0
ARC
  5
6E
330
1F
100
AcDbEntity
  8
DEFAULT
100
AcDbCircle
 10
-12.7786355
 20
36.50592921674214
 30
0.0
 40
0.2173767497834973
100
AcDbArc
 50
357.6909542022334
 51
0.0
  0
SPLINE
  5
6F
330
1F
100
AcDbEntity
  8
DEFAULT
100
AcDbSpline
210
0.0
220
0.0
230
1.0
 70
    12
 71
     3
 72
    73
 73
    69
 74
     0
 42
0.0000000001
 43
0.0000000001
 40
-8.0
 40
-8.0
 40
-8.0
 40
-8.0
 40
-6.999999827298442
 40
-5.999999654596884
 40
-5.0
 40
-5.0
 40
-5.0
 40
-4.0
 40
-4.0
 40
-4.0
 40
-2.999999905802138
 40
-1.999999811604276
 40
-1.0
 40
-1.0
 40
-1.0
 40
0.0
 40
0.0
 40
0.0
 40
1.0
 40
2.0
 40
3.0
 40
3.0
 40
3.0
 40
4.0
 40
4.0
 40
4.0
 40
4.999999758142596
 40
5.99999988821836
 40
7.0
 40
7.0
 40
7.0
 40
8.0
 40
8.0
 40
8.0
 40
8.34359811473682
 40
8.34359811473682
 40
8.34359811473682
 40
8.687196229473638
 40
8.687196229473638
 40
8.687196229473638
 40
9.687196229473638
 40
9.687196229473638
 40
9.687196229473638
 40
10.68719653366553
 40
11.68719683785742
 40
12.68719622947364
 40
12.68719622947364
 40
12.68719622947364
 40
13.68719622947364
 40
13.68719622947364
 40
13.68719622947364
 40
14.68719622947364
 40
14.68719622947364
 40
14.68719622947364
 40
15.68719622947364
 40
15.68719622947364
 40
15.68719622947364
 40
16.68719622947364
 40
17.68719622947364
 40
18.68719622947364
 40
18.68719622947364
 40
18.68719622947364
 40
19.68719622947364
 40
19.68719622947364
 40
19.68719622947364
 40
20.68719622947364
 40
21.68719622947364
 40
22.68719622947364
 40
22.68719622947364
 40
22.68719622947364
 40
22.68719622947364
 10
37.25909834219661
 20
26.33124849238182
 30
0.0
 41
1.0
 10
37.35086558374222
 20
26.33131120146001
 30
0.0
 41
1.0
 10
37.53435493192296
 20
26.29564587609728
 30
0.0
 41
1.0
 10
37.76970075873537
 20
26.14329010604115
 30
0.0
 41
1.0
 10
37.87735339735197
 20
25.99047895710568
 30
0.0
 41
1.0
 10
37.91486453896712
 20
25.90672851200416
 30
0.0
 41
1.0
 10
39.33465478925483
 20
22.74229164141065
 30
0.0
 41
1.0
 10
40.75444503954256
 20
19.57785477081713
 30
0.0
 41
1.0
 10
42.17423528983028
 20
16.41341790022362
 30
0.0
 41
1.0
 10
42.23473538652778
 20
16.27857994809415
 30
0.0
 41
1.0
 10
42.34154544943283
 20
16.00253777653541
 30
0.0
 41
1.0
 10
42.4574448024113
 20
15.57395359359538
 30
0.0
 41
1.0
 10
42.50431482462616
 20
15.28170228630228
 30
0.0
 41
1.0
 10
42.52002089926729
 20
15.13475042981799
 30
0.0
 41
1.0
 10
43.02717804691039
 20
10.38917092778496
 30
0.0
 41
1.0
 10
43.53433519455351
 20
5.643591425751926
 30
0.0
 41
1.0
 10
44.04149234219661
 20
0.8980119237188939
 30
0.0
 41
1.0
 10
44.05506410504114
 20
0.7710179932167673
 30
0.0
 41
1.0
 10
44.06913803474319
 20
0.4904420728792964
 30
0.0
 41
1.0
 10
43.92818098472433
 20
0.1115703371890195
 30
0.0
 41
1.0
 10
43.64245108552945
 20
0.0000169239996108
 30
0.0
 41
1.0
 10
43.51542734219661
 20
0.0000169237188949
 30
0.0
 41
1.0
 10
36.87623672757494
 20
0.0000169090466611
 30
0.0
 41
1.0
 10
30.23704611295328
 20
0.0000168943744273
 30
0.0
 41
1.0
 10
23.59785549833161
 20
0.0000168797021935
 30
0.0
 41
1.0
 10
23.45793450262733
 20
-0.0000186548142097
 30
0.0
 41
1.0
 10
23.19177597796578
 20
0.1073698131434685
 30
0.0
 41
1.0
 10
22.9077051068875
 20
0.4234314274206873
 30
0.0
 41
1.0
 10
22.82920161992566
 20
0.699486465678292
 30
0.0
 41
1.0
 10
22.84410700709162
 20
0.8386143957443946
 30
0.0
 41
1.0
 10
23.74525021765255
 20
9.270809804787566
 30
0.0
 41
1.0
 10
24.6463934282135
 20
17.70300521383074
 30
0.0
 41
1.0
 10
25.54753663877443
 20
26.13520062287391
 30
0.0
 41
1.0
 10
25.5611528836444
 20
26.26261082375647
 30
0.0
 41
0.8047378948236217
 10
25.66087363281566
 20
26.34307531032052
 30
0.0
 41
0.8047378948236217
 10
25.78828383604937
 20
26.32945908745077
 30
0.0
 41
1.0
 10
25.91569403928307
 20
26.31584286458101
 30
0.0
 41
0.8047378948236217
 10
25.99615854306614
 20
26.21612212930374
 30
0.0
 41
0.8047378948236217
 10
25.98254234219661
 20
26.0887119237189
 30
0.0
 41
1.0
 10
25.08140203892161
 20
17.65651615919256
 30
0.0
 41
1.0
 10
24.18026173564661
 20
9.224320394666229
 30
0.0
 41
1.0
 10
23.27912143237161
 20
0.7921246301398945
 30
0.0
 41
1.0
 10
23.27624726585588
 20
0.7343585258586789
 30
0.0
 41
1.0
 10
23.32239531558383
 20
0.6258672374644647
 30
0.0
 41
1.0
 10
23.43714700893177
 20
0.4982260400259719
 30
0.0
 41
1.0
 10
23.54010179246752
 20
0.4407728960900787
 30
0.0
 41
1.0
 10
23.59785549833161
 20
0.4375168797021935
 30
0.0
 41
1.0
 10
30.23732544628661
 20
0.4375175610410935
 30
0.0
 41
1.0
 10
36.8767953942416
 20
0.4375182423799934
 30
0.0
 41
1.0
 10
43.51626534219661
 20
0.4375189237188934
 30
0.0
 41
1.0
 10
43.65471485521049
 20
0.4375189376205572
 30
0.0
 41
1.0
 10
43.62210736643183
 20
0.7050812998446674
 30
0.0
 41
1.0
 10
43.60739534219661
 20
0.8427469237188945
 30
0.0
 41
1.0
 10
43.09993303022191
 20
5.591251592668143
 30
0.0
 41
1.0
 10
42.59247071824722
 20
10.33975626161739
 30
0.0
 41
1.0
 10
42.08500840627252
 20
15.08826093056664
 30
0.0
 41
1.0
 10
42.07093422655525
 20
15.21997411423728
 30
0.0
 41
1.0
 10
42.02892465916359
 20
15.48191876727449
 30
0.0
 41
1.0
 10
41.92504418627126
 20
15.86605838907808
 30
0.0
 41
1.0
 10
41.82931044209459
 20
16.11347475189849
 30
0.0
 41
1.0
 10
41.77508428340249
 20
16.23432989733966
 30
0.0
 41
1.0
 10
40.35529266694872
 20
19.39876658653553
 30
0.0
 41
1.0
 10
38.93550105049496
 20
22.56320327573141
 30
0.0
 41
1.0
 10
37.51570943404118
 20
25.72763996492728
 30
0.0
 41
1.0
 10
37.5010318150693
 20
25.76041338840214
 30
0.0
 41
1.0
 10
37.4589054404515
 20
25.82021074768309
 30
0.0
 41
1.0
 10
37.36681069729953
 20
25.87982988573944
 30
0.0
 41
1.0
 10
37.29500835143537
 20
25.89378626056083
 30
0.0
 41
1.0
 10
37.25909834219661
 20
25.89376172238776
 30
0.0
 41
1.0
  0
SPLINE
  5
70
330
1F
100
AcDbEntity
  8
DEFAULT
100
AcDbSpline
210
0.0
220
0.0
230
1.0
 70
    12
 71
     2
 72
    12
 73
     9
 74
     0
 42
0.0000000001
 43
0.0000000001
 40
-1.0
 40
-1.0
 40
-1.0
 40
0.0
 40
0.0
 40
1.570796326794897
 40
1.570796326794897
 40
2.570796326794897
 40
2.570796326794897
 40
3.07778410319972
 40
3.07778410319972
 40
3.07778410319972
 10
38.97624134219661
 20
26.20625492371889
 30
0.0
 41
1.0
 10
38.97624134219661
 20
25.98125492371889
 30
0.0
 41
1.0
 10
38.97624134219661
 20
25.75625492371889
 30
0.0
 41
1.0
 10
38.9762413421966
 20
25.70625492371889
 30
0.0
 41
0.7071067811865476
 10
38.92624134219661
 20
25.70625492371889
 30
0.0
 41
1.0
 10
38.47624134219662
 20
25.70625508164739
 30
0.0
 41
1.0
 10
38.02624134219661
 20
25.70625523957589
 30
0.0
 41
1.0
 10
38.01328807664652
 20
25.70625523957589
 30
0.0
 41
0.9680421078204612
 10
38.00196418883347
 20
25.71254464759322
 30
0.0
 41
1.0
  0
SPLINE
  5
71
330
1F
100
AcDbEntity
  8
DEFAULT
100
AcDbSpline
210
0.0
220
0.0
230
1.0
 70
    24
 71
     2
 72
     6
 73
     3
 74
     0
 42
0.0000000001
 43
0.0000000001
 40
0.0
 40
0.0
 40
0.0
 40
1.0
 40
1.0
 40
1.0
 10
37.97624134219661
 20
25.7699219237189
 30
0.0
 10
37.97624134219661
 20
25.9880884237189
 30
0.0
 10
37.97624134219661
 20
26.20625492371889
 30
0.0
  0
SPLINE
  5
72
330
1F
100
AcDbEntity
  8
DEFAULT
100
AcDbSpline
210
0.0
220
0.0
230
1.0
 70
    12
 71
     2
 72
    14
 73
    11
 74
     0
 42
0.0000000001
 43
0.0000000001
 40
-1.0
 40
-1.0
 40
-1.0
 40
0.0
 40
0.0
 40
1.570796326794897
 40
1.570796326794897
 40
2.570796326794897
 40
2.570796326794897
 40
4.141592653589793
 40
4.141592653589793
 40
5.141592653589793
 40
5.141592653589793
 40
5.141592653589793
 10
27.16509834219661
 20
25.89376192371889
 30
0.0
 41
1.0
 10
27.16509834219661
 20
25.82500842371889
 30
0.0
 41
1.0
 10
27.16509834219661
 20
25.75625492371889
 30
0.0
 41
1.0
 10
27.16509834219661
 20
25.70625492371889
 30
0.0
 41
0.7071067811865476
 10
27.11509834219662
 20
25.70625492371889
 30
0.0
 41
1.0
 10
26.66509834219661
 20
25.70625492371889
 30
0.0
 41
1.0
 10
26.21509834219661
 20
25.70625492371889
 30
0.0
 41
1.0
 10
26.16509834219661
 20
25.70625492371889
 30
0.0
 41
0.7071067811865476
 10
26.16509834219661
 20
25.75625492371889
 30
0.0
 41
1.0
 10
26.16509834219661
 20
25.82500842371889
 30
0.0
 41
1.0
 10
26.16509834219661
 20
25.89376192371889
 30
0.0
 41
1.0
  0
SPLINE
  5
73
330
1F
100
AcDbEntity
  8
DEFAULT
100
AcDbSpline
210
0.0
220
0.0
230
1.0
 70
     8
 71
     3
 72
    26
 73
    22
 74
     0
 42
0.0000000001
 43
0.0000000001
 40
0.0
 40
0.0
 40
0.0
 40
0.0
 40
1.0
 40
1.0
 40
1.0
 40
1.999942304766243
 40
2.999951920638535
 40
3.999961536510829
 40
4.999971152383122
 40
5.999980768255414
 40
6.999990384127707
 40
8.0
 40
8.0
 40
8.0
 40
9.0
 40
9.0
 40
9.0
 40
10.0
 40
10.0
 40
10.0
 40
11.0
 40
11.0
 40
11.0
 40
11.0
 10
12.5612525
 20
41.10108421674213
 30
0.0
 10
12.5612525
 20
39.06218771674213
 30
0.0
 10
12.5612525
 20
37.02329121674213
 30
0.0
 10
12.5612525
 20
34.98439471674214
 30
0.0
 10
12.56118820570971
 20
34.94725597170979
 30
0.0
 10
12.57874198274573
 20
34.87275428525134
 30
0.0
 10
12.65478708264918
 20
34.7865612464085
 30
0.0
 10
12.76265934357938
 20
34.74685131530094
 30
0.0
 10
12.87640776254098
 20
34.76275636071275
 30
0.0
 10
12.97081740987318
 20
34.82476097865446
 30
0.0
 10
13.05261989936026
 20
34.90040483141694
 30
0.0
 10
13.10512907994601
 20
34.95306718175858
 30
0.0
 10
13.1309895
 20
34.97975021674214
 30
0.0
 10
13.32865283333333
 20
35.19523121674214
 30
0.0
 10
13.52631616666667
 20
35.41071221674213
 30
0.0
 10
13.7239795
 20
35.62619321674214
 30
0.0
 10
13.86044096290204
 20
35.77495868938806
 30
0.0
 10
13.93815279708424
 20
35.97572247501587
 30
0.0
 10
13.9374915
 20
36.17758621674214
 30
0.0
 10
13.9374915
 20
41.82565255007547
 30
0.0
 10
13.9374915
 20
47.4737188834088
 30
0.0
 10
13.9374915
 20
53.12178521674213
 30
0.0
  0
SPLINE
  5
74
330
1F
100
AcDbEntity
  8
DEFAULT
100
AcDbSpline
210
0.0
220
0.0
230
1.0
 70
     8
 71
     3
 72
    14
 73
    10
 74
     0
 42
0.0000000001
 43
0.0000000001
 40
0.0
 40
0.0
 40
0.0
 40
0.0
 40
1.0
 40
1.0
 40
1.0
 40
2.0
 40
2.0
 40
2.0
 40
3.0
 40
3.0
 40
3.0
 40
3.0
 10
13.5000085
 20
52.84702021674213
 30
0.0
 10
13.5000085
 20
47.29054221674213
 30
0.0
 10
13.5000085
 20
41.73406421674213
 30
0.0
 10
13.5000085
 20
36.17758621674214
 30
0.0
 10
13.5002863450654
 20
36.08358858651585
 30
0.0
 10
13.46411736323132
 20
35.99010931528847
 30
0.0
 10
13.4005835
 20
35.92082221674214
 30
0.0
 10
13.26663816666666
 20
35.77379855007548
 30
0.0
 10
13.13269283333333
 20
35.62677488340881
 30
0.0
 10
12.9987475
 20
35.47975121674214
 30
0.0
  0
POLYLINE
  5
75
330
1F
100
AcDbEntity
  8
DEFAULT
100
AcDb2dPolyline
 66
     1
 10
0.0
 20
0.0
 30
0.0
  0
VERTEX
  5
76
330
75
100
AcDbEntity
  8
DEFAULT
100
AcDbVertex
100
AcDb2dVertex
 10
-12.8607045
 20
52.96264821674213
 30
0.0
  0
VERTEX
  5
77
330
75
100
AcDbEntity
  8
DEFAULT
100
AcDbVertex
100
AcDb2dVertex
 10
-12.9987405
 20
52.82466021674214
 30
0.0
  0
SEQEND
  5
78
330
75
100
AcDbEntity
  8
DEFAULT
  0
SPLINE
  5
79
330
1F
100
AcDbEntity
  8
DEFAULT
100
AcDbSpline
210
0.0
220
0.0
230
1.0
 70
    11
 71
     2
 72
    16
 73
    13
 74
     0
 42
0.0000000001
 43
0.0000000001
 40
0.0
 40
0.0
 40
0.0
 40
1.0
 40
1.0
 40
2.0
 40
2.0
 40
3.0
 40
3.0
 40
4.0
 40
4.0
 40
5.0
 40
5.0
 40
6.0
 40
6.0
 40
6.0
 10
25.68114334219661
 20
26.33125492371889
 30
0.0
 10
33.44597134219661
 20
26.33125492371889
 30
0.0
 10
41.21079934219661
 20
26.33125492371889
 30
0.0
 10
41.21079934219661
 20
26.41000517371889
 30
0.0
 10
41.21079934219661
 20
26.4887554237189
 30
0.0
 10
41.19579934219661
 20
26.50375542371889
 30
0.0
 10
41.18079934219661
 20
26.51875542371889
 30
0.0
 10
33.44597134219661
 20
26.51875542371889
 30
0.0
 10
25.71114334219661
 20
26.51875542371889
 30
0.0
 10
25.69614334219661
 20
26.50375542371889
 30
0.0
 10
25.68114334219661
 20
26.4887554237189
 30
0.0
 10
25.68114334219661
 20
26.41000517371889
 30
0.0
 10
25.68114334219661
 20
26.33125492371889
 30
0.0
  0
SPLINE
  5
7A
330
1F
100
AcDbEntity
  8
DEFAULT
100
AcDbSpline
210
0.0
220
0.0
230
1.0
 70
    24
 71
     2
 72
     6
 73
     3
 74
     0
 42
0.0000000001
 43
0.0000000001
 40
0.0
 40
0.0
 40
0.0
 40
1.0
 40
1.0
 40
1.0
 10
37.91438134219661
 20
25.90780992371889
 30
0.0
 10
37.91462434219662
 20
25.90726992371889
 30
0.0
 10
37.91486734219662
 20
25.90672992371889
 30
0.0
  0
SPLINE
  5
7B
330
1F
100
AcDbEntity
  8
DEFAULT
100
AcDbSpline
210
0.0
220
0.0
230
1.0
 70
    15
 71
     2
 72
    28
 73
    25
 74
     0
 42
0.0000000001
 43
0.0000000001
 40
8.853981633974483
 40
8.853981633974483
 40
8.853981633974483
 40
9.853981633974483
 40
9.853981633974483
 40
11.42477796076938
 40
11.42477796076938
 40
12.42477796076938
 40
12.42477796076938
 40
13.2102137264611
 40
13.2102137264611
 40
14.2102137264611
 40
14.2102137264611
 40
14.99557428756427
 40
14.99557428756427
 40
15.99557428756427
 40
15.99557428756427
 40
16.78093484866745
 40
16.78093484866745
 40
17.78093484866745
 40
17.78093484866745
 40
18.56637061435916
 40
18.56637061435916
 40
19.56637061435916
 40
19.56637061435916
 40
21.13716694115406
 40
21.13716694115406
 40
21.13716694115406
 10
12.8007045
 20
53.12729921674212
 30
0.0
 41
1.0
 10
0.0000000000000009
 20
53.12729921674213
 30
0.0
 41
1.0
 10
-12.8007045
 20
53.12729921674214
 30
0.0
 41
1.0
 10
-12.8607045
 20
53.12729921674214
 30
0.0
 41
0.7071067811865476
 10
-12.8607045
 20
53.06729921674214
 30
0.0
 41
1.0
 10
-12.86070456084321
 20
47.39359421674214
 30
0.0
 41
1.0
 10
-12.86070462168643
 20
41.71988921674214
 30
0.0
 41
1.0
 10
-12.86070462168643
 20
41.40051352686267
 30
0.0
 41
0.9238723374604806
 10
-12.63486341395794
 20
41.17468930279067
 30
0.0
 41
1.0
 10
-10.95911341395794
 20
39.49906580279067
 30
0.0
 41
1.0
 10
-9.28336341395794
 20
37.82344230279067
 30
0.0
 41
1.0
 10
-9.057546224372699
 20
37.59764209505571
 30
0.0
 41
0.9238867272355175
 10
-8.738204500000002
 20
37.59764209505571
 30
0.0
 41
1.0
 10
0.0
 20
37.59764209505571
 30
0.0
 41
1.0
 10
8.738204500000002
 20
37.59764209505571
 30
0.0
 41
1.0
 10
9.057546224372699
 20
37.59764209505572
 30
0.0
 41
0.9238867272355176
 10
9.283363413957938
 20
37.82344230279067
 30
0.0
 41
1.0
 10
10.95911345697897
 20
39.4990657597664
 30
0.0
 41
1.0
 10
12.6348635
 20
41.17468921674213
 30
0.0
 41
1.0
 10
12.86070462168643
 20
41.40051352686267
 30
0.0
 41
0.9238723374604815
 10
12.86070462168643
 20
41.71988921674214
 30
0.0
 41
1.0
 10
12.86070456084321
 20
47.39359421674214
 30
0.0
 41
1.0
 10
12.8607045
 20
53.06729921674214
 30
0.0
 41
1.0
 10
12.8607045
 20
53.12729921674212
 30
0.0
 41
0.7071067811865476
 10
12.8007045
 20
53.12729921674213
 30
0.0
 41
1.0
  0
SPLINE
  5
7C
330
1F
100
AcDbEntity
  8
DEFAULT
100
AcDbSpline
210
0.0
220
0.0
230
1.0
 70
    24
 71
     2
 72
     6
 73
     3
 74
     0
 42
0.0000000001
 43
0.0000000001
 40
0.0
 40
0.0
 40
0.0
 40
1.0
 40
1.0
 40
1.0
 10
-12.9987415
 20
52.82466021674214
 30
0.0
 10
-12.9987415
 20
43.90456071674214
 30
0.0
 10
-12.9987415
 20
34.98446121674213
 30
0.0
  0
SPLINE
  5
7D
330
1F
100
AcDbEntity
  8
DEFAULT
100
AcDbSpline
210
0.0
220
0.0
230
1.0
 70
    24
 71
     2
 72
     6
 73
     3
 74
     0
 42
0.0000000001
 43
0.0000000001
 40
0.0
 40
0.0
 40
0.0
 40
1.0
 40
1.0
 40
1.0
 10
-9.500000499999999
 20
25.94836192371889
 30
0.0
 10
-9.500000499999999
 20
26.07730842371889
 30
0.0
 10
-9.500000499999999
 20
26.20625492371889
 30
0.0
  0
SPLINE
  5
7E
330
1F
100
AcDbEntity
  8
DEFAULT
100
AcDbSpline
210
0.0
220
0.0
230
1.0
 70
    24
 71
     2
 72
     6
 73
     3
 74
     0
 42
0.0000000001
 43
0.0000000001
 40
0.0
 40
0.0
 40
0.0
 40
1.0
 40
1.0
 40
1.0
 10
-12.5608385
 20
36.50981821674214
 30
0.0
 10
-12.5610445
 20
36.50218821674214
 30
0.0
 10
-12.5612505
 20
36.49455821674213
 30
0.0
  0
ARC
  5
7F
330
1F
100
AcDbEntity
  8
DEFAULT
100
AcDbCircle
 10
-12.78000014559499
 20
41.11323576501724
 30
0.0
 40
0.2196609039551192
100
AcDbArc
 50
185.2446620205074
 51
354.7553379794907
  0
SPLINE
  5
80
330
1F
100
AcDbEntity
  8
DEFAULT
100
AcDbSpline
210
0.0
220
0.0
230
1.0
 70
    24
 71
     2
 72
     6
 73
     3
 74
     0
 42
0.0000000001
 43
0.0000000001
 40
0.0
 40
0.0
 40
0.0
 40
1.0
 40
1.0
 40
1.0
 10
13.9374995
 20
53.12349621674213
 30
0.0
 10
13.9374995
 20
53.12347721674213
 30
0.0
 10
13.9374995
 20
53.12345821674213
 30
0.0
  0
SPLINE
  5
81
330
1F
100
AcDbEntity
  8
DEFAULT
100
AcDbSpline
210
0.0
220
0.0
230
1.0
 70
    24
 71
     2
 72
     6
 73
     3
 74
     0
 42
0.0000000001
 43
0.0000000001
 40
0.0
 40
0.0
 40
0.0
 40
1.0
 40
1.0
 40
1.0
 10
12.9987475
 20
34.98453521674214
 30
0.0
 10
12.9987475
 20
43.90459771674214
 30
0.0
 10
12.9987475
 20
52.82466021674214
 30
0.0
  0
SPLINE
  5
82
330
1F
100
AcDbEntity
  8
DEFAULT
100
AcDbSpline
210
0.0
220
0.0
230
1.0
 70
    24
 71
     2
 72
     6
 73
     3
 74
     0
 42
0.0000000001
 43
0.0000000001
 40
0.0
 40
0.0
 40
0.0
 40
1.0
 40
1.0
 40
1.0
 10
-13.9375005
 20
53.12349621674213
 30
0.0
 10
-13.9375005
 20
53.12347621674213
 30
0.0
 10
-13.9375005
 20
53.12345621674213
 30
0.0
  0
ARC
  5
83
330
1F
100
AcDbEntity
  8
DEFAULT
100
AcDbCircle
 10
12.78000014559499
 20
41.11323576501724
 30
0.0
 40
0.2196609039551192
100
AcDbArc
 50
185.2446620205093
 51
354.7553379794926
  0
SPLINE
  5
84
330
1F
100
AcDbEntity
  8
DEFAULT
100
AcDbSpline
210
0.0
220
0.0
230
1.0
 70
    12
 71
     2
 72
     8
 73
     5
 74
     0
 42
0.0000000001
 43
0.0000000001
 40
0.0
 40
0.0
 40
0.0
 40
0.9999999999999999
 40
0.9999999999999999
 40
1.153623091371731
 40
1.153623091371731
 40
1.153623091371731
 10
9.308418500000002
 20
37.42979821674214
 30
0.0
 41
1.0
 10
10.660635
 20
36.95181171674214
 30
0.0
 41
1.0
 10
12.0128515
 20
36.47382521674214
 30
0.0
 41
1.0
 10
12.08548564363884
 20
36.44815023045226
 30
0.0
 41
0.9955877209657549
 10
12.1520435
 20
36.40935621674214
 30
0.0
 41
1.0
  0
SPLINE
  5
85
330
1F
100
AcDbEntity
  8
DEFAULT
100
AcDbSpline
210
0.0
220
0.0
230
1.0
 70
    12
 71
     2
 72
    10
 73
     7
 74
     0
 42
0.0000000001
 43
0.0000000001
 40
-0.6347387962588387
 40
-0.6347387962588387
 40
-0.6347387962588387
 40
0.0
 40
0.0
 40
1.0
 40
1.0
 40
1.646277432429428
 40
1.646277432429428
 40
1.646277432429428
 10
13.61382849999999
 20
53.30656121674214
 30
0.0
 41
1.0
 10
13.2990616320675
 20
53.26210235149408
 30
0.0
 41
0.9975399652724807
 10
12.98117049999999
 20
53.26210221674214
 30
0.0
 41
1.0
 10
0.0062099999999985
 20
53.26209671674213
 30
0.0
 41
1.0
 10
-12.9687505
 20
53.26209121674213
 30
0.0
 41
1.0
 10
-13.2923957544892
 20
53.26209107955105
 30
0.0
 41
0.9976539975587482
 10
-13.6130075
 20
53.30629921674213
 30
0.0
 41
1.0
  0
ARC
  5
86
330
1F
100
AcDbEntity
  8
DEFAULT
100
AcDbCircle
 10
37.25909634219661
 20
25.61268592371889
 30
0.0
 40
0.2810691113293821
100
AcDbArc
 50
88.40997480765463
 51
89.99959230097045
  0
SPLINE
  5
87
330
1F
100
AcDbEntity
  8
DEFAULT
100
AcDbSpline
210
0.0
220
0.0
230
1.0
 70
     8
 71
     3
 72
    14
 73
    10
 74
     0
 42
0.0000000001
 43
0.0000000001
 40
0.0
 40
0.0
 40
0.0
 40
0.0
 40
1.0
 40
1.0
 40
1.0
 40
2.0
 40
2.0
 40
2.0
 40
3.0
 40
3.0
 40
3.0
 40
3.0
 10
-13.5000085
 20
52.84702021674213
 30
0.0
 10
-13.5000085
 20
47.29054221674213
 30
0.0
 10
-13.5000085
 20
41.73406421674213
 30
0.0
 10
-13.5000085
 20
36.17758621674214
 30
0.0
 10
-13.5002863450654
 20
36.08358858651585
 30
0.0
 10
-13.46411736323132
 20
35.99010931528847
 30
0.0
 10
-13.4005835
 20
35.92082221674214
 30
0.0
 10
-13.26663816666666
 20
35.77379855007548
 30
0.0
 10
-13.13269283333333
 20
35.62677488340881
 30
0.0
 10
-12.9987475
 20
35.47975121674214
 30
0.0
  0
SPLINE
  5
88
330
1F
100
AcDbEntity
  8
DEFAULT
100
AcDbSpline
210
0.0
220
0.0
230
1.0
 70
     8
 71
     3
 72
    26
 73
    22
 74
     0
 42
0.0000000001
 43
0.0000000001
 40
0.0
 40
0.0
 40
0.0
 40
0.0
 40
1.0
 40
1.0
 40
1.0
 40
1.999942304766243
 40
2.999951920638535
 40
3.999961536510829
 40
4.999971152383122
 40
5.999980768255414
 40
6.999990384127707
 40
8.0
 40
8.0
 40
8.0
 40
9.0
 40
9.0
 40
9.0
 40
10.0
 40
10.0
 40
10.0
 40
11.0
 40
11.0
 40
11.0
 40
11.0
 10
-12.5612525
 20
41.10108421674213
 30
0.0
 10
-12.5612525
 20
39.06218771674213
 30
0.0
 10
-12.5612525
 20
37.02329121674213
 30
0.0
 10
-12.5612525
 20
34.98439471674214
 30
0.0
 10
-12.56118820570971
 20
34.94725597170979
 30
0.0
 10
-12.57874198274573
 20
34.87275428525134
 30
0.0
 10
-12.65478708264918
 20
34.7865612464085
 30
0.0
 10
-12.76265934357938
 20
34.74685131530094
 30
0.0
 10
-12.87640776254098
 20
34.76275636071275
 30
0.0
 10
-12.97081740987318
 20
34.82476097865446
 30
0.0
 10
-13.05261989936026
 20
34.90040483141694
 30
0.0
 10
-13.10512907994601
 20
34.95306718175858
 30
0.0
 10
-13.1309895
 20
34.97975021674214
 30
0.0
 10
-13.32865283333333
 20
35.19523121674214
 30
0.0
 10
-13.52631616666667
 20
35.41071221674213
 30
0.0
 10
-13.7239795
 20
35.62619321674214
 30
0.0
 10
-13.86044096290204
 20
35.77495868938806
 30
0.0
 10
-13.93815279708424
 20
35.97572247501587
 30
0.0
 10
-13.9374915
 20
36.17758621674214
 30
0.0
 10
-13.9374915
 20
41.82565255007547
 30
0.0
 10
-13.9374915
 20
47.4737188834088
 30
0.0
 10
-13.9374915
 20
53.12178521674213
 30
0.0
  0
SPLINE
  5
89
330
1F
100
AcDbEntity
  8
DEFAULT
100
AcDbSpline
210
0.0
220
0.0
230
1.0
 70
    24
 71
     2
 72
     6
 73
     3
 74
     0
 42
0.0000000001
 43
0.0000000001
 40
0.0
 40
0.0
 40
0.0
 40
1.0
 40
1.0
 40
1.0
 10
-9.6292765
 20
25.89376192371889
 30
0.0
 10
-9.580415499999999
 20
25.89376192371889
 30
0.0
 10
-9.531554499999999
 20
25.89376192371889
 30
0.0
  0
SPLINE
  5
8A
330
1F
100
AcDbEntity
  8
DEFAULT
100
AcDbSpline
210
0.0
220
0.0
230
1.0
 70
    24
 71
     2
 72
     6
 73
     3
 74
     0
 42
0.0000000001
 43
0.0000000001
 40
0.0
 40
0.0
 40
0.0
 40
1.0
 40
1.0
 40
1.0
 10
-12.5612585
 20
25.89376192371889
 30
0.0
 10
-11.5952675
 20
25.89376192371889
 30
0.0
 10
-10.6292765
 20
25.89376192371889
 30
0.0
  0
ARC
  5
8B
330
1F
100
AcDbEntity
  8
DEFAULT
100
AcDbCircle
 10
37.25926934219661
 20
25.61258092371889
 30
0.0
 40
0.2810627670014286
100
AcDbArc
 50
24.16466981555079
 51
25.71325308901442
  0
ENDSEC
  0
SECTION
  2
OBJECTS
  0
DICTIONARY
  5
C
330
0
100
AcDbDictionary
281
     1
  3
ACAD_GROUP
350
D
  3
ACAD_LAYOUT
350
1A
  3
ACAD_MLEADERSTYLE
350
8E
  3
ACAD_MLINESTYLE
350
17
  3
ACAD_PLOTSETTINGS
350
19
  3
ACAD_PLOTSTYLENAME
350
E
  3
ACAD_VISUALSTYLE
350
2A
  3
AcDbVariableDictionary
350
8C
  0
DICTIONARY
  5
D
102
{ACAD_REACTORS
330
C
102
}
330
C
100
AcDbDictionary
281
     1
  0
DICTIONARY
  5
1A
102
{ACAD_REACTORS
330
C
102
}
330
C
100
AcDbDictionary
281
     1
  3
Layout1
350
1E
  3
Layout2
350
26
  3
Model
350
22
  0
DICTIONARY
  5
8E
102
{ACAD_REACTORS
330
C
102
}
330
C
100
AcDbDictionary
281
     1
  0
DICTIONARY
  5
17
102
{ACAD_REACTORS
330
C
102
}
330
C
100
AcDbDictionary
281
     1
  3
Standard
350
18
  0
DICTIONARY
  5
19
102
{ACAD_REACTORS
330
C
102
}
330
C
100
AcDbDictionary
281
     1
  0
ACDBDICTIONARYWDFLT
  5
E
102
{ACAD_REACTORS
330
C
102
}
330
C
100
AcDbDictionary
281
     1
  3
Normal
350
F
100
AcDbDictionaryWithDefault
340
F
  0
DICTIONARY
  5
2A
102
{ACAD_REACTORS
330
C
102
}
330
C
100
AcDbDictionary
281
     1
  3
2dWireframe
350
2F
  3
3D Hidden
350
31
  3
3dWireframe
350
30
  3
Basic
350
32
  3
Brighten
350
36
  3
ColorChange
350
3A
  3
Conceptual
350
34
  3
Dim
350
35
  3
Facepattern
350
39
  3
Flat
350
2B
  3
FlatWithEdges
350
2C
  3
Gouraud
350
2D
  3
GouraudWithEdges
350
2E
  3
Linepattern
350
38
  3
Realistic
350
33
  3
Thicken
350
37
  0
DICTIONARY
  5
8C
102
{ACAD_REACTORS
330
C
102
}
330
C
100
AcDbDictionary
281
     1
  0
LAYOUT
  5
1E
102
{ACAD_REACTORS
330
1A
102
}
330
1A
100
AcDbPlotSettings
  1

  2
none_device
  4

  6

 40
0.0
 41
0.0
 42
0.0
 43
0.0
 44
0.0
 45
0.0
 46
0.0
 47
0.0
 48
0.0
 49
0.0
140
0.0
141
0.0
142
1.0
143
1.0
 70
   688
 72
     0
 73
     0
 74
     5
  7

 75
    16
147
1.0
148
0.0
149
0.0
100
AcDbLayout
  1
Layout1
 70
     1
 71
     1
 10
0.0
 20
0.0
 11
12.0
 21
9.0
 12
0.0
 22
0.0
 32
0.0
 14
1.000000000000000E+20
 24
1.000000000000000E+20
 34
1.000000000000000E+20
 15
-1.000000000000000E+20
 25
-1.000000000000000E+20
 35
-1.000000000000000E+20
146
0.0
 13
0.0
 23
0.0
 33
0.0
 16
1.0
 26
0.0
 36
0.0
 17
0.0
 27
1.0
 37
0.0
 76
     0
330
1B
  0
LAYOUT
  5
26
102
{ACAD_REACTORS
330
1A
102
}
330
1A
100
AcDbPlotSettings
  1

  2
none_device
  4

  6

 40
0.0
 41
0.0
 42
0.0
 43
0.0
 44
0.0
 45
0.0
 46
0.0
 47
0.0
 48
0.0
 49
0.0
140
0.0
141
0.0
142
1.0
143
1.0
 70
   688
 72
     0
 73
     0
 74
     5
  7

 75
    16
147
1.0
148
0.0
149
0.0
100
AcDbLayout
  1
Layout2
 70
     1
 71
     2
 10
0.0
 20
0.0
 11
0.0
 21
0.0
 12
0.0
 22
0.0
 32
0.0
 14
0.0
 24
0.0
 34
0.0
 15
0.0
 25
0.0
 35
0.0
146
0.0
 13
0.0
 23
0.0
 33
0.0
 16
1.0
 26
0.0
 36
0.0
 17
0.0
 27
1.0
 37
0.0
 76
     0
330
23
  0
LAYOUT
  5
22
102
{ACAD_REACTORS
330
1A
102
}
330
1A
100
AcDbPlotSettings
  1

  2
none_device
  4

  6

 40
0.0
 41
0.0
 42
0.0
 43
0.0
 44
0.0
 45
0.0
 46
0.0
 47
0.0
 48
0.0
 49
0.0
140
0.0
141
0.0
142
1.0
143
1.0
 70
  1712
 72
     0
 73
     0
 74
     0
  7

 75
     0
147
1.0
148
0.0
149
0.0
100
AcDbLayout
  1
Model
 70
     1
 71
     0
 10
0.0
 20
0.0
 11
12.0
 21
9.0
 12
0.0
 22
0.0
 32
0.0
 14
-13.9375005
 24
0.0000168797021935
 34
0.0
 15
44.04212671064786
 25
55.96557830567294
 35
0.0
146
0.0
 13
0.0
 23
0.0
 33
0.0
 16
1.0
 26
0.0
 36
0.0
 17
0.0
 27
1.0
 37
0.0
 76
     0
330
1F
331
29
  0
MLINESTYLE
  5
18
102
{ACAD_REACTORS
330
17
102
}
330
17
100
AcDbMlineStyle
  2
Standard
 70
     0
  3

 62
   256
 51
90.0
 52
90.0
 71
     2
 49
0.5
 62
   256
  6
BYLAYER
 49
-0.5
 62
   256
  6
BYLAYER
  0
ACDBPLACEHOLDER
  5
F
102
{ACAD_REACTORS
330
E
102
}
330
E
  0
VISUALSTYLE
  5
2F
102
{ACAD_REACTORS
330
2A
102
}
330
2A
100
AcDbVisualStyle
  2
2dWireframe
 70
     4
 71
     0
 72
     2
 73
     0
 90
        0
 40
-0.6
 41
-30.0
 62
     5
 63
     7
 74
     1
 91
        4
 64
     7
 65
   257
 75
     1
175
     1
 42
1.0
 92
        0
 66
   257
 43
1.0
 76
     1
 77
     6
 78
     2
 67
     7
 79
     5
170
     0
171
     0
290
     0
174
     0
 93
        1
 44
0.0
173
     0
291
     0
 45
0.0
1001
ACAD
1000
AcDbSavedByObjectVersion
1070
     0
  0
VISUALSTYLE
  5
31
102
{ACAD_REACTORS
330
2A
102
}
330
2A
100
AcDbVisualStyle
  2
3D Hidden
 70
     6
 71
     1
 72
     2
 73
     2
 90
        0
 40
-0.6
 41
-30.0
 62
     5
 63
     7
 74
     2
 91
        2
 64
     7
 65
   257
 75
     2
175
     1
 42
40.0
 92
        0
 66
   257
 43
1.0
 76
     1
 77
     6
 78
     2
 67
     7
 79
     3
170
     0
171
     0
290
     0
174
     0
 93
        1
 44
0.0
173
     0
291
     0
 45
0.0
1001
ACAD
1000
AcDbSavedByObjectVersion
1070
     0
  0
VISUALSTYLE
  5
30
102
{ACAD_REACTORS
330
2A
102
}
330
2A
100
AcDbVisualStyle
  2
3dWireframe
 70
     5
 71
     0
 72
     2
 73
     0
 90
        0
 40
-0.6
 41
-30.0
 62
     5
 63
     7
 74
     1
 91
        4
 64
     7
 65
   257
 75
     1
175
     1
 42
1.0
 92
        0
 66
   257
 43
1.0
 76
     1
 77
     6
 78
     2
 67
     7
 79
     5
170
     0
171
     0
290
     0
174
     0
 93
        1
 44
0.0
173
     0
291
     0
 45
0.0
1001
ACAD
1000
AcDbSavedByObjectVersion
1070
     0
  0
VISUALSTYLE
  5
32
102
{ACAD_REACTORS
330
2A
102
}
330
2A
100
AcDbVisualStyle
  2
Basic
 70
     7
 71
     1
 72
     0
 73
     1
 90
        0
 40
-0.6
 41
-30.0
 62
     5
 63
     7
 74
     0
 91
        4
 64
     7
 65
   257
 75
     1
175
     1
 42
1.0
 92
        8
 66
     7
 43
1.0
 76
     1
 77
     6
 78
     2
 67
     7
 79
     5
170
     0
171
     0
290
     0
174
     0
 93
        1
 44
0.0
173
     0
291
     1
 45
0.0
1001
ACAD
1000
AcDbSavedByObjectVersion
1070
     0
  0
VISUALSTYLE
  5
36
102
{ACAD_REACTORS
330
2A
102
}
330
2A
100
AcDbVisualStyle
  2
Brighten
 70
    12
 71
     2
 72
     2
 73
     0
 90
        0
 40
-0.6
 41
-30.0
 62
     5
 63
     7
 74
     1
 91
        4
 64
     7
 65
   257
 75
     1
175
     1
 42
1.0
 92
        8
 66
     7
 43
1.0
 76
     1
 77
     6
 78
     2
 67
     7
 79
     5
170
     0
171
     0
290
     0
174
     0
 93
        1
 44
50.0
173
     0
291
     1
 45
0.0
1001
ACAD
1000
AcDbSavedByObjectVersion
1070
     0
  0
VISUALSTYLE
  5
3A
102
{ACAD_REACTORS
330
2A
102
}
330
2A
100
AcDbVisualStyle
  2
ColorChange
 70
    16
 71
     2
 72
     2
 73
     3
 90
        0
 40
-0.6
 41
-30.0
 62
     5
 63
     8
 74
     1
 91
        4
 64
     7
 65
   257
 75
     1
175
     1
 42
1.0
 92
        8
 66
     8
 43
1.0
 76
     1
 77
     6
 78
     2
 67
     7
 79
     5
170
     0
171
     0
290
     0
174
     0
 93
        1
 44
0.0
173
     0
291
     1
 45
0.0
1001
ACAD
1000
AcDbSavedByObjectVersion
1070
     0
  0
VISUALSTYLE
  5
34
102
{ACAD_REACTORS
330
2A
102
}
330
2A
100
AcDbVisualStyle
  2
Conceptual
 70
     9
 71
     3
 72
     2
 73
     0
 90
        0
 40
-0.6
 41
-30.0
 62
     5
 63
     7
 74
     2
 91
        2
 64
     7
 65
   257
 75
     1
175
     1
 42
40.0
 92
        8
 66
     7
 43
1.0
 76
     1
 77
     6
 78
     2
 67
     7
 79
     3
170
     0
171
     0
290
     0
174
     0
 93
        1
 44
0.0
173
     0
291
     0
 45
0.0
1001
ACAD
1000
AcDbSavedByObjectVersion
1070
     0
  0
VISUALSTYLE
  5
35
102
{ACAD_REACTORS
330
2A
102
}
330
2A
100
AcDbVisualStyle
  2
Dim
 70
    11
 71
     2
 72
     2
 73
     0
 90
        0
 40
-0.6
 41
-30.0
 62
     5
 63
     7
 74
     1
 91
        4
 64
     7
 65
   257
 75
     1
175
     1
 42
1.0
 92
        8
 66
     7
 43
1.0
 76
     1
 77
     6
 78
     2
 67
     7
 79
     5
170
     0
171
     0
290
     0
174
     0
 93
        1
 44
-50.0
173
     0
291
     1
 45
0.0
1001
ACAD
1000
AcDbSavedByObjectVersion
1070
     0
  0
VISUALSTYLE
  5
39
102
{ACAD_REACTORS
330
2A
102
}
330
2A
100
AcDbVisualStyle
  2
Facepattern
 70
    15
 71
     2
 72
     2
 73
     0
 90
        0
 40
-0.6
 41
-30.0
 62
     5
 63
     7
 74
     1
 91
        4
 64
     7
 65
   257
 75
     1
175
     1
 42
1.0
 92
        8
 66
     7
 43
1.0
 76
     1
 77
     6
 78
     2
 67
     7
 79
     5
170
     0
171
     0
290
     0
174
     0
 93
        1
 44
0.0
173
     0
291
     1
 45
0.0
1001
ACAD
1000
AcDbSavedByObjectVersion
1070
     0
  0
VISUALSTYLE
  5
2B
102
{ACAD_REACTORS
330
2A
102
}
330
2A
100
AcDbVisualStyle
  2
Flat
 70
     0
 71
     2
 72
     1
 73
     1
 90
        2
 40
-0.6
 41
30.0
 62
     5
 63
     7
 74
     0
 91
        4
 64
     7
 65
   257
 75
     1
175
     1
 42
1.0
 92
        8
 66
     7
 43
1.0
 76
     1
 77
     6
 78
     2
 67
     7
 79
     5
170
     0
171
     0
290
     0
174
     0
 93
       13
 44
0.0
173
     0
291
     1
 45
0.0
1001
ACAD
1000
AcDbSavedByObjectVersion
1070
     0
  0
VISUALSTYLE
  5
2C
102
{ACAD_REACTORS
330
2A
102
}
330
2A
100
AcDbVisualStyle
  2
FlatWithEdges
 70
     1
 71
     2
 72
     1
 73
     1
 90
        2
 40
-0.6
 41
30.0
 62
     5
 63
     7
 74
     1
 91
        4
 64
     7
 65
   257
 75
     1
175
     1
 42
1.0
 92
        0
 66
   257
 43
1.0
 76
     1
 77
     6
 78
     2
 67
     7
 79
     5
170
     0
171
     0
290
     0
174
     0
 93
       13
 44
0.0
173
     0
291
     1
 45
0.0
1001
ACAD
1000
AcDbSavedByObjectVersion
1070
     0
  0
VISUALSTYLE
  5
2D
102
{ACAD_REACTORS
330
2A
102
}
330
2A
100
AcDbVisualStyle
  2
Gouraud
 70
     2
 71
     2
 72
     2
 73
     1
 90
        2
 40
-0.6
 41
30.0
 62
     5
 63
     7
 74
     0
 91
        4
 64
     7
 65
   257
 75
     1
175
     1
 42
1.0
 92
        0
 66
     7
 43
1.0
 76
     1
 77
     6
 78
     2
 67
     7
 79
     5
170
     0
171
     0
290
     0
174
     0
 93
       13
 44
0.0
173
     0
291
     1
 45
0.0
1001
ACAD
1000
AcDbSavedByObjectVersion
1070
     0
  0
VISUALSTYLE
  5
2E
102
{ACAD_REACTORS
330
2A
102
}
330
2A
100
AcDbVisualStyle
  2
GouraudWithEdges
 70
     3
 71
     2
 72
     2
 73
     1
 90
        2
 40
-0.6
 41
30.0
 62
     5
 63
     7
 74
     1
 91
        4
 64
     7
 65
   257
 75
     1
175
     1
 42
1.0
 92
        0
 66
   257
 43
1.0
 76
     1
 77
     6
 78
     2
 67
     7
 79
     5
170
     0
171
     0
290
     0
174
     0
 93
       13
 44
0.0
173
     0
291
     1
 45
0.0
1001
ACAD
1000
AcDbSavedByObjectVersion
1070
     0
  0
VISUALSTYLE
  5
38
102
{ACAD_REACTORS
330
2A
102
}
330
2A
100
AcDbVisualStyle
  2
Linepattern
 70
    14
 71
     2
 72
     2
 73
     0
 90
        0
 40
-0.6
 41
-30.0
 62
     5
 63
     7
 74
     1
 91
        4
 64
     7
 65
   257
 75
     7
175
     7
 42
1.0
 92
        8
 66
     7
 43
1.0
 76
     1
 77
     6
 78
     2
 67
     7
 79
     5
170
     0
171
     0
290
     0
174
     0
 93
        1
 44
0.0
173
     0
291
     1
 45
0.0
1001
ACAD
1000
AcDbSavedByObjectVersion
1070
     0
  0
VISUALSTYLE
  5
33
102
{ACAD_REACTORS
330
2A
102
}
330
2A
100
AcDbVisualStyle
  2
Realistic
 70
     8
 71
     2
 72
     2
 73
     0
 90
        0
 40
-0.6
 41
-30.0
 62
     5
 63
     7
 74
     1
 91
        0
 64
     7
 65
   257
 75
     1
175
     1
 42
1.0
 92
        8
 66
     8
 43
1.0
 76
     1
 77
     6
 78
     2
 67
     7
 79
     5
170
     0
171
     0
290
     0
174
     0
 93
       13
 44
0.0
173
     0
291
     0
 45
0.0
1001
ACAD
1000
AcDbSavedByObjectVersion
1070
     0
  0
VISUALSTYLE
  5
37
102
{ACAD_REACTORS
330
2A
102
}
330
2A
100
AcDbVisualStyle
  2
Thicken
 70
    13
 71
     2
 72
     2
 73
     0
 90
        0
 40
-0.6
 41
-30.0
 62
     5
 63
     7
 74
     1
 91
        4
 64
     7
 65
   257
 75
     1
175
     1
 42
1.0
 92
       12
 66
     7
 43
1.0
 76
     1
 77
     6
 78
     2
 67
     7
 79
     5
170
     0
171
     0
290
     0
174
     0
 93
        1
 44
0.0
173
     0
291
     1
 45
0.0
1001
ACAD
1000
AcDbSavedByObjectVersion
1070
     0
  0
ENDSEC
  0
EOF
