  0
SECTION
  2
HEADER
  9
$ACADVER
  1
AC1018
  9
$ACADMAINTVER
 70
     0
  9
$DWGCODEPAGE
  3
ANSI_1252
  9
$INSBASE
 10
0.0
 20
0.0
 30
0.0
  9
$EXTMIN
 10
-7.684261574716183
 20
-0.0007099061565887
 30
0.0
  9
$EXTMAX
 10
33.20238130092929
 20
52.73602647424487
 30
0.0
  9
$LIMMIN
 10
0.0
 20
0.0
  9
$LIMMAX
 10
12.0
 20
9.0
  9
$ORTHOMODE
 70
     0
  9
$REGENMODE
 70
     1
  9
$FILLMODE
 70
     1
  9
$QTEXTMODE
 70
     0
  9
$MIRRTEXT
 70
     1
  9
$LTSCALE
 40
0.0393700787401575
  9
$ATTMODE
 70
     1
  9
$TEXTSIZE
 40
0.2
  9
$TRACEWID
 40
0.05
  9
$TEXTSTYLE
  7
Standard
  9
$CLAYER
  8
DEFAULT
  9
$CELTYPE
  6
ByLayer
  9
$CECOLOR
 62
   256
  9
$CELTSCALE
 40
1.0
  9
$DISPSILH
 70
     0
  9
$DIMSCALE
 40
1.0
  9
$DIMASZ
 40
0.18
  9
$DIMEXO
 40
0.0625
  9
$DIMDLI
 40
0.38
  9
$DIMRND
 40
0.0
  9
$DIMDLE
 40
0.0
  9
$DIMEXE
 40
0.18
  9
$DIMTP
 40
0.0
  9
$DIMTM
 40
0.0
  9
$DIMTXT
 40
0.18
  9
$DIMCEN
 40
0.09
  9
$DIMTSZ
 40
0.0
  9
$DIMTOL
 70
     0
  9
$DIMLIM
 70
     0
  9
$DIMTIH
 70
     1
  9
$DIMTOH
 70
     1
  9
$DIMSE1
 70
     0
  9
$DIMSE2
 70
     0
  9
$DIMTAD
 70
     0
  9
$DIMZIN
 70
     0
  9
$DIMBLK
  1

  9
$DIMASO
 70
     1
  9
$DIMSHO
 70
     1
  9
$DIMPOST
  1

  9
$DIMAPOST
  1

  9
$DIMALT
 70
     0
  9
$DIMALTD
 70
     2
  9
$DIMALTF
 40
25.4
  9
$DIMLFAC
 40
1.0
  9
$DIMTOFL
 70
     0
  9
$DIMTVP
 40
0.0
  9
$DIMTIX
 70
     0
  9
$DIMSOXD
 70
     0
  9
$DIMSAH
 70
     0
  9
$DIMBLK1
  1

  9
$DIMBLK2
  1

  9
$DIMSTYLE
  2
Standard
  9
$DIMCLRD
 70
     0
  9
$DIMCLRE
 70
     0
  9
$DIMCLRT
 70
     0
  9
$DIMTFAC
 40
1.0
  9
$DIMGAP
 40
0.09
  9
$DIMJUST
 70
     0
  9
$DIMSD1
 70
     0
  9
$DIMSD2
 70
     0
  9
$DIMTOLJ
 70
     1
  9
$DIMTZIN
 70
     0
  9
$DIMALTZ
 70
     0
  9
$DIMALTTZ
 70
     0
  9
$DIMUPT
 70
     0
  9
$DIMDEC
 70
     4
  9
$DIMTDEC
 70
     4
  9
$DIMALTU
 70
     2
  9
$DIMALTTD
 70
     2
  9
$DIMTXSTY
  7
Standard
  9
$DIMAUNIT
 70
     0
  9
$DIMADEC
 70
     0
  9
$DIMALTRND
 40
0.0
  9
$DIMAZIN
 70
     0
  9
$DIMDSEP
 70
    46
  9
$DIMATFIT
 70
     3
  9
$DIMFRAC
 70
     0
  9
$DIMLDRBLK
  1

  9
$DIMLUNIT
 70
     2
  9
$DIMLWD
 70
    -2
  9
$DIMLWE
 70
    -2
  9
$DIMTMOVE
 70
     2
  9
$LUNITS
 70
     2
  9
$LUPREC
 70
     3
  9
$SKETCHINC
 40
0.1
  9
$FILLETRAD
 40
0.5
  9
$AUNITS
 70
     0
  9
$AUPREC
 70
     0
  9
$MENU
  1
.
  9
$ELEVATION
 40
0.0
  9
$PELEVATION
 40
0.0
  9
$THICKNESS
 40
0.0
  9
$LIMCHECK
 70
     0
  9
$CHAMFERA
 40
0.5
  9
$CHAMFERB
 40
0.5
  9
$CHAMFERC
 40
1.0
  9
$CHAMFERD
 40
0.0
  9
$SKPOLY
 70
     0
  9
$TDCREATE
 40
2456071.560173333
  9
$TDUCREATE
 40
2456071.72684
  9
$TDUPDATE
 40
2456071.560173345
  9
$TDUUPDATE
 40
2456071.726840012
  9
$TDINDWG
 40
0.0000000116
  9
$TDUSRTIMER
 40
0.0000000116
  9
$USRTIMER
 70
     1
  9
$ANGBASE
 50
0.0
  9
$ANGDIR
 70
     0
  9
$PDMODE
 70
     0
  9
$PDSIZE
 40
0.0
  9
$PLINEWID
 40
0.0
  9
$SPLFRAME
 70
     0
  9
$SPLINETYPE
 70
     6
  9
$SPLINESEGS
 70
     8
  9
$HANDSEED
  5
160
  9
$SURFTAB1
 70
     6
  9
$SURFTAB2
 70
     6
  9
$SURFTYPE
 70
     6
  9
$SURFU
 70
     6
  9
$SURFV
 70
     6
  9
$UCSBASE
  2

  9
$UCSNAME
  2

  9
$UCSORG
 10
0.0
 20
0.0
 30
0.0
  9
$UCSXDIR
 10
1.0
 20
0.0
 30
0.0
  9
$UCSYDIR
 10
0.0
 20
1.0
 30
0.0
  9
$UCSORTHOREF
  2

  9
$UCSORTHOVIEW
 70
     0
  9
$UCSORGTOP
 10
0.0
 20
0.0
 30
0.0
  9
$UCSORGBOTTOM
 10
0.0
 20
0.0
 30
0.0
  9
$UCSORGLEFT
 10
0.0
 20
0.0
 30
0.0
  9
$UCSORGRIGHT
 10
0.0
 20
0.0
 30
0.0
  9
$UCSORGFRONT
 10
0.0
 20
0.0
 30
0.0
  9
$UCSORGBACK
 10
0.0
 20
0.0
 30
0.0
  9
$PUCSBASE
  2

  9
$PUCSNAME
  2

  9
$PUCSORG
 10
0.0
 20
0.0
 30
0.0
  9
$PUCSXDIR
 10
1.0
 20
0.0
 30
0.0
  9
$PUCSYDIR
 10
0.0
 20
1.0
 30
0.0
  9
$PUCSORTHOREF
  2

  9
$PUCSORTHOVIEW
 70
     0
  9
$PUCSORGTOP
 10
0.0
 20
0.0
 30
0.0
  9
$PUCSORGBOTTOM
 10
0.0
 20
0.0
 30
0.0
  9
$PUCSORGLEFT
 10
0.0
 20
0.0
 30
0.0
  9
$PUCSORGRIGHT
 10
0.0
 20
0.0
 30
0.0
  9
$PUCSORGFRONT
 10
0.0
 20
0.0
 30
0.0
  9
$PUCSORGBACK
 10
0.0
 20
0.0
 30
0.0
  9
$USERI1
 70
     0
  9
$USERI2
 70
     0
  9
$USERI3
 70
     0
  9
$USERI4
 70
     0
  9
$USERI5
 70
     0
  9
$USERR1
 40
0.0
  9
$USERR2
 40
0.0
  9
$USERR3
 40
0.0
  9
$USERR4
 40
0.0
  9
$USERR5
 40
0.0
  9
$WORLDVIEW
 70
     1
  9
$SHADEDGE
 70
     3
  9
$SHADEDIF
 70
    70
  9
$TILEMODE
 70
     1
  9
$MAXACTVP
 70
    64
  9
$PINSBASE
 10
0.0
 20
0.0
 30
0.0
  9
$PLIMCHECK
 70
     0
  9
$PEXTMIN
 10
1.000000000000000E+20
 20
1.000000000000000E+20
 30
1.000000000000000E+20
  9
$PEXTMAX
 10
-1.000000000000000E+20
 20
-1.000000000000000E+20
 30
-1.000000000000000E+20
  9
$PLIMMIN
 10
0.0
 20
0.0
  9
$PLIMMAX
 10
12.0
 20
9.0
  9
$UNITMODE
 70
     0
  9
$VISRETAIN
 70
     1
  9
$PLINEGEN
 70
     0
  9
$PSLTSCALE
 70
     1
  9
$TREEDEPTH
 70
  3020
  9
$CMLSTYLE
  2
Standard
  9
$CMLJUST
 70
     0
  9
$CMLSCALE
 40
1.0
  9
$PROXYGRAPHICS
 70
     1
  9
$MEASUREMENT
 70
     0
  9
$CELWEIGHT
370
    -1
  9
$ENDCAPS
280
     0
  9
$JOINSTYLE
280
     0
  9
$LWDISPLAY
290
     0
  9
$INSUNITS
 70
     1
  9
$HYPERLINKBASE
  1

  9
$STYLESHEET
  1

  9
$XEDIT
290
     1
  9
$CEPSNTYPE
380
     0
  9
$PSTYLEMODE
290
     1
  9
$FINGERPRINTGUID
  2
{C9745437-9A04-4297-ADFA-75BBEAF1B7F0}
  9
$VERSIONGUID
  2
{FAEB1C32-E019-11D5-929B-00C0DF256EC4}
  9
$EXTNAMES
290
     1
  9
$PSVPSCALE
 40
0.0
  9
$OLESTARTUP
290
     0
  9
$SORTENTS
280
   127
  9
$INDEXCTL
280
     0
  9
$HIDETEXT
280
     1
  9
$XCLIPFRAME
290
     0
  9
$HALOGAP
280
     0
  9
$OBSCOLOR
 70
   257
  9
$OBSLTYPE
280
     0
  9
$INTERSECTIONDISPLAY
280
     0
  9
$INTERSECTIONCOLOR
 70
   257
  9
$DIMASSOC
280
     2
  9
$PROJECTNAME
  1

  0
ENDSEC
  0
SECTION
  2
CLASSES
  0
CLASS
  1
ACDBDICTIONARYWDFLT
  2
AcDbDictionaryWithDefault
  3
ObjectDBX Classes
 90
        0
 91
        4
280
     0
281
     0
  0
CLASS
  1
VISUALSTYLE
  2
AcDbVisualStyle
  3
ObjectDBX Classes
 90
     4095
 91
        4
280
     0
281
     0
  0
ENDSEC
  0
SECTION
  2
TABLES
  0
TABLE
  2
VPORT
  5
8
330
0
100
AcDbSymbolTable
 70
     1
  0
VPORT
  5
29
330
8
100
AcDbSymbolTableRecord
100
AcDbViewportTableRecord
  2
*Active
 70
     0
 10
0.0
 20
0.0
 11
1.0
 21
1.0
 12
12.75905986310655
 22
26.36765828404414
 13
0.0
 23
0.0
 14
0.5
 24
0.5
 15
0.5
 25
0.5
 16
0.0
 26
0.0
 36
1.0
 17
0.0
 27
0.0
 37
0.0
 40
53.79147110800949
 41
0.7752971776774599
 42
50.0
 43
0.0
 44
0.0
 50
0.0
 51
0.0
 71
     0
 72
   100
 73
     1
 74
     3
 75
     0
 76
     0
 77
     0
 78
     0
281
     0
 65
     1
110
0.0
120
0.0
130
0.0
111
1.0
121
0.0
131
0.0
112
0.0
122
1.0
132
0.0
 79
     0
146
0.0
  0
ENDTAB
  0
TABLE
  2
LTYPE
  5
5
330
0
100
AcDbSymbolTable
 70
     1
  0
LTYPE
  5
14
330
5
100
AcDbSymbolTableRecord
100
AcDbLinetypeTableRecord
  2
ByBlock
 70
     0
  3

 72
    65
 73
     0
 40
0.0
  0
LTYPE
  5
15
330
5
100
AcDbSymbolTableRecord
100
AcDbLinetypeTableRecord
  2
ByLayer
 70
     0
  3

 72
    65
 73
     0
 40
0.0
  0
LTYPE
  5
16
330
5
100
AcDbSymbolTableRecord
100
AcDbLinetypeTableRecord
  2
Continuous
 70
     0
  3
Solid line
 72
    65
 73
     0
 40
0.0
  0
ENDTAB
  0
TABLE
  2
LAYER
  5
2
330
0
100
AcDbSymbolTable
 70
     3
  0
LAYER
  5
10
330
2
100
AcDbSymbolTableRecord
100
AcDbLayerTableRecord
  2
0
 70
     0
 62
     7
  6
Continuous
370
    -3
390
F
  0
LAYER
  5
3B
330
2
100
AcDbSymbolTableRecord
100
AcDbLayerTableRecord
  2
MAKE2D VISIBLE LINES
 70
     0
 62
     7
  6
Continuous
370
    -3
390
F
  0
LAYER
  5
58
330
2
100
AcDbSymbolTableRecord
100
AcDbLayerTableRecord
  2
DEFAULT
 70
     0
 62
     7
  6
Continuous
370
    -3
390
F
  0
ENDTAB
  0
TABLE
  2
STYLE
  5
3
330
0
100
AcDbSymbolTable
 70
     1
  0
STYLE
  5
11
330
3
100
AcDbSymbolTableRecord
100
AcDbTextStyleTableRecord
  2
Standard
 70
     0
 40
0.0
 41
1.0
 50
0.0
 71
     0
 42
0.2
  3
txt
  4

  0
ENDTAB
  0
TABLE
  2
VIEW
  5
6
330
0
100
AcDbSymbolTable
 70
     0
  0
ENDTAB
  0
TABLE
  2
UCS
  5
7
330
0
100
AcDbSymbolTable
 70
     0
  0
ENDTAB
  0
TABLE
  2
APPID
  5
9
330
0
100
AcDbSymbolTable
 70
     1
  0
APPID
  5
12
330
9
100
AcDbSymbolTableRecord
100
AcDbRegAppTableRecord
  2
ACAD
 70
     0
  0
ENDTAB
  0
TABLE
  2
DIMSTYLE
  5
A
330
0
100
AcDbSymbolTable
 70
     1
100
AcDbDimStyleTable
  0
DIMSTYLE
105
27
330
A
100
AcDbSymbolTableRecord
100
AcDbDimStyleTableRecord
  2
Standard
 70
     0
340
11
  0
ENDTAB
  0
TABLE
  2
BLOCK_RECORD
  5
1
330
0
100
AcDbSymbolTable
 70
     1
  0
BLOCK_RECORD
  5
1F
330
1
100
AcDbSymbolTableRecord
100
AcDbBlockTableRecord
  2
*Model_Space
340
22
  0
BLOCK_RECORD
  5
1B
330
1
100
AcDbSymbolTableRecord
100
AcDbBlockTableRecord
  2
*Paper_Space
340
1E
  0
BLOCK_RECORD
  5
23
330
1
100
AcDbSymbolTableRecord
100
AcDbBlockTableRecord
  2
*Paper_Space0
340
26
  0
ENDTAB
  0
ENDSEC
  0
SECTION
  2
BLOCKS
  0
BLOCK
  5
20
330
1F
100
AcDbEntity
  8
0
100
AcDbBlockBegin
  2
*Model_Space
 70
     0
 10
0.0
 20
0.0
 30
0.0
  3
*Model_Space
  1

  0
ENDBLK
  5
21
330
1F
100
AcDbEntity
  8
0
100
AcDbBlockEnd
  0
BLOCK
  5
1C
330
1B
100
AcDbEntity
 67
     1
  8
0
100
AcDbBlockBegin
  2
*Paper_Space
 70
     0
 10
0.0
 20
0.0
 30
0.0
  3
*Paper_Space
  1

  0
ENDBLK
  5
1D
330
1B
100
AcDbEntity
 67
     1
  8
0
100
AcDbBlockEnd
  0
BLOCK
  5
24
330
23
100
AcDbEntity
  8
0
100
AcDbBlockBegin
  2
*Paper_Space0
 70
     0
 10
0.0
 20
0.0
 30
0.0
  3
*Paper_Space0
  1

  0
ENDBLK
  5
25
330
23
100
AcDbEntity
  8
0
100
AcDbBlockEnd
  0
ENDSEC
  0
SECTION
  2
ENTITIES
  0
SPLINE
  5
3C
330
1F
100
AcDbEntity
  8
MAKE2D VISIBLE LINES
100
AcDbSpline
210
0.0
220
0.0
230
1.0
 70
    24
 71
     2
 72
     6
 73
     3
 74
     0
 42
0.0000000001
 43
0.0000000001
 40
0.0
 40
0.0
 40
0.0
 40
0.586294460674686
 40
0.586294460674686
 40
0.586294460674686
 10
-6.3592844314405
 20
52.60630138369559
 30
0.0
 10
-6.219057168938241
 20
52.34886864780993
 30
0.0
 10
-6.07882990643598
 20
52.09143591192426
 30
0.0
  0
SPLINE
  5
3D
330
1F
100
AcDbEntity
  8
MAKE2D VISIBLE LINES
100
AcDbSpline
210
0.0
220
0.0
230
1.0
 70
    24
 71
     2
 72
     6
 73
     3
 74
     0
 42
0.0000000001
 43
0.0000000001
 40
1.037108233511898
 40
1.037108233511898
 40
1.037108233511898
 40
2.75550389191353
 40
2.75550389191353
 40
2.75550389191353
 10
-6.40409132215389
 20
36.36533133564486
 30
0.0
 10
-6.83936681319181
 20
35.6245505606479
 30
0.0
 10
-7.274642304229729
 20
34.88376978565095
 30
0.0
  0
SPLINE
  5
3E
330
1F
100
AcDbEntity
  8
MAKE2D VISIBLE LINES
100
AcDbSpline
210
0.0
220
0.0
230
1.0
 70
    24
 71
     2
 72
     6
 73
     3
 74
     0
 42
0.0000000001
 43
0.0000000001
 40
0.0
 40
0.0
 40
0.0
 40
1.71787507568503
 40
1.71787507568503
 40
1.71787507568503
 10
7.274378587357077
 20
34.88421862019772
 30
0.0
 10
6.8392349616998
 20
35.62477497792129
 30
0.0
 10
6.404091336042522
 20
36.36533133564486
 30
0.0
  0
SPLINE
  5
3F
330
1F
100
AcDbEntity
  8
MAKE2D VISIBLE LINES
100
AcDbSpline
210
0.0
220
0.0
230
1.0
 70
    24
 71
     2
 72
     6
 73
     3
 74
     0
 42
0.0000000001
 43
0.0000000001
 40
3.006384864229774
 40
3.006384864229774
 40
3.006384864229774
 40
3.592679332947958
 40
3.592679332947958
 40
3.592679332947958
 10
6.078829916477158
 20
52.09143590486141
 30
0.0
 10
6.219057180903219
 20
52.34886864427885
 30
0.0
 10
6.35928444532928
 20
52.60630138369629
 30
0.0
  0
SPLINE
  5
40
330
1F
100
AcDbEntity
  8
MAKE2D VISIBLE LINES
100
AcDbSpline
210
0.0
220
0.0
230
1.0
 70
    24
 71
     2
 72
     6
 73
     3
 74
     0
 42
0.0000000001
 43
0.0000000001
 40
0.0
 40
0.0
 40
0.0
 40
0.74864153874796
 40
0.74864153874796
 40
0.74864153874796
 10
6.743483272042354
 20
52.39702283354769
 30
0.0
 10
6.564426568260278
 20
52.06830603261499
 30
0.0
 10
6.385369864478202
 20
51.7395892316823
 30
0.0
  0
SPLINE
  5
41
330
1F
100
AcDbEntity
  8
MAKE2D VISIBLE LINES
100
AcDbSpline
210
0.0
220
0.0
230
1.0
 70
    24
 71
     2
 72
     6
 73
     3
 74
     0
 42
0.0000000001
 43
0.0000000001
 40
13.94735369533535
 40
13.94735369533535
 40
13.94735369533535
 40
14.02543283031953
 40
14.02543283031953
 40
14.02543283031953
 10
7.266161041904524
 20
36.72569195376179
 30
0.0
 10
7.268995263354078
 20
36.68675540256957
 30
0.0
 10
7.271829484803632
 20
36.64781885137736
 30
0.0
  0
SPLINE
  5
42
330
1F
100
AcDbEntity
  8
MAKE2D VISIBLE LINES
100
AcDbSpline
210
0.0
220
0.0
230
1.0
 70
    24
 71
     2
 72
     6
 73
     3
 74
     0
 42
0.0000000001
 43
0.0000000001
 40
0.0
 40
0.0
 40
0.0
 40
1.54863430262222
 40
1.54863430262222
 40
1.54863430262222
 10
-7.651737918499734
 20
35.10559221966449
 30
0.0
 10
-7.259463558857171
 20
35.77319080982295
 30
0.0
 10
-6.867189199214607
 20
36.44078939998142
 30
0.0
  0
SPLINE
  5
43
330
1F
100
AcDbEntity
  8
MAKE2D VISIBLE LINES
100
AcDbSpline
210
0.0
220
0.0
230
1.0
 70
    24
 71
     2
 72
     6
 73
     3
 74
     0
 42
0.0000000001
 43
0.0000000001
 40
2.900729231869676
 40
2.900729231869676
 40
2.900729231869676
 40
3.649370754928051
 40
3.649370754928051
 40
3.649370754928051
 10
-6.385369858095324
 20
51.73958924546132
 30
0.0
 10
-6.56442655812484
 20
52.06830603950496
 30
0.0
 10
-6.743483258154356
 20
52.3970228335486
 30
0.0
  0
SPLINE
  5
44
330
1F
100
AcDbEntity
  8
MAKE2D VISIBLE LINES
100
AcDbSpline
210
0.0
220
0.0
230
1.0
 70
    24
 71
     2
 72
     6
 73
     3
 74
     0
 42
0.0000000001
 43
0.0000000001
 40
1.277307783454467
 40
1.277307783454467
 40
1.277307783454467
 40
2.825450568727557
 40
2.825450568727557
 40
2.825450568727557
 10
6.867189210437779
 20
36.44078940451769
 30
0.0
 10
7.259339067056576
 20
35.77340270188409
 30
0.0
 10
7.651488923675373
 20
35.1060159992505
 30
0.0
  0
SPLINE
  5
45
330
1F
100
AcDbEntity
  8
MAKE2D VISIBLE LINES
100
AcDbSpline
210
0.0
220
0.0
230
1.0
 70
    24
 71
     2
 72
     6
 73
     3
 74
     0
 42
0.0000000001
 43
0.0000000001
 40
0.0
 40
0.0
 40
0.0
 40
0.0780791202153038
 40
0.0780791202153038
 40
0.0780791202153038
 10
-7.271829471161084
 20
36.64781885139482
 30
0.0
 10
-7.268995250243107
 20
36.68675539522177
 30
0.0
 10
-7.266161029325129
 20
36.7256919390487
 30
0.0
  0
SPLINE
  5
46
330
1F
100
AcDbEntity
  8
MAKE2D VISIBLE LINES
100
AcDbSpline
210
0.0
220
0.0
230
1.0
 70
    24
 71
     2
 72
     6
 73
     3
 74
     0
 42
0.0000000001
 43
0.0000000001
 40
0.7210993184651698
 40
0.7210993184651698
 40
0.7210993184651698
 40
1.131118426320977
 40
1.131118426320977
 40
1.131118426320977
 10
-6.444039128487497
 20
51.56931294978021
 30
0.0
 10
-6.517174932211287
 20
51.76083337014158
 30
0.0
 10
-6.590310735935077
 20
51.95235379050294
 30
0.0
  0
SPLINE
  5
47
330
1F
100
AcDbEntity
  8
MAKE2D VISIBLE LINES
100
AcDbSpline
210
0.0
220
0.0
230
1.0
 70
    24
 71
     2
 72
     6
 73
     3
 74
     0
 42
0.0000000001
 43
0.0000000001
 40
0.0
 40
0.0
 40
0.0
 40
0.410019129418835
 40
0.410019129418835
 40
0.410019129418835
 10
6.590310749822777
 20
51.95235379050303
 30
0.0
 10
6.517174942252754
 20
51.76083336006954
 30
0.0
 10
6.444039134682731
 20
51.56931292963606
 30
0.0
  0
SPLINE
  5
48
330
1F
100
AcDbEntity
  8
MAKE2D VISIBLE LINES
100
AcDbSpline
210
0.0
220
0.0
230
1.0
 70
     8
 71
     3
 72
    11
 73
     7
 74
     0
 42
0.0000000001
 43
0.0000000001
 40
0.0
 40
0.0
 40
0.0
 40
0.0
 40
0.050930647373219
 40
0.1269154472501393
 40
0.3326276892940517
 40
0.581197249612894
 40
0.581197249612894
 40
0.581197249612894
 40
0.581197249612894
 10
6.773066103500867
 20
52.50261089668593
 30
0.0
 10
6.773322836106473
 20
52.48556151622239
 30
0.0
 10
6.766698544630188
 20
52.44357683411393
 30
0.0
 10
6.731741703767199
 20
52.3382371275988
 30
0.0
 10
6.67276975382174
 20
52.17168919572887
 30
0.0
 10
6.619788890284752
 20
52.02976834678283
 30
0.0
 10
6.590310749823189
 20
51.95235379050251
 30
0.0
  0
SPLINE
  5
49
330
1F
100
AcDbEntity
  8
MAKE2D VISIBLE LINES
100
AcDbSpline
210
0.0
220
0.0
230
1.0
 70
    12
 71
     2
 72
     6
 73
     3
 74
     0
 42
0.0000000001
 43
0.0000000001
 40
0.0
 40
0.0
 40
0.0
 40
0.2989762450058874
 40
0.2989762450058874
 40
0.2989762450058874
 10
-7.274642307988785
 20
34.88376978786007
 30
0.0
 41
1.0
 10
-7.363554140305014
 20
34.72981275300975
 30
0.0
 41
0.7774855530666758
 10
-7.532691889203818
 20
34.78458961311669
 30
0.0
 41
1.0
  0
SPLINE
  5
4A
330
1F
100
AcDbEntity
  8
MAKE2D VISIBLE LINES
100
AcDbSpline
210
0.0
220
0.0
230
1.0
 70
    12
 71
     2
 72
     6
 73
     3
 74
     0
 42
0.0000000001
 43
0.0000000001
 40
0.0
 40
0.0
 40
0.0
 40
0.6121880219339076
 40
0.6121880219339076
 40
0.6121880219339076
 10
7.271829484803632
 20
36.64781885137736
 30
0.0
 41
1.0
 10
7.295378284965545
 20
36.32437313792121
 30
0.0
 41
0.9178720607644476
 10
7.07585795129819
 20
36.08566306555562
 30
0.0
 41
1.0
  0
SPLINE
  5
4B
330
1F
100
AcDbEntity
  8
MAKE2D VISIBLE LINES
100
AcDbSpline
210
0.0
220
0.0
230
1.0
 70
    24
 71
     2
 72
     6
 73
     3
 74
     0
 42
0.0000000001
 43
0.0000000001
 40
0.0
 40
0.0
 40
0.0
 40
0.8824916881953722
 40
0.8824916881953722
 40
0.8824916881953722
 10
7.250500006595018
 20
36.40779189442314
 30
0.0
 10
7.38697416783706
 20
35.98818172027723
 30
0.0
 10
7.523448329079102
 20
35.56857154613132
 30
0.0
  0
SPLINE
  5
4C
330
1F
100
AcDbEntity
  8
MAKE2D VISIBLE LINES
100
AcDbSpline
210
0.0
220
0.0
230
1.0
 70
    12
 71
     2
 72
     6
 73
     3
 74
     0
 42
0.0000000001
 43
0.0000000001
 40
0.0
 40
0.0
 40
0.0
 40
0.2994879596616725
 40
0.2994879596616725
 40
0.2994879596616725
 10
7.532687147554398
 20
34.78459783241911
 30
0.0
 41
1.0
 10
7.363148302543898
 20
34.72969436136776
 30
0.0
 41
0.7767717610240055
 10
7.274379129796358
 20
34.88421893892971
 30
0.0
 41
1.0
  0
SPLINE
  5
4D
330
1F
100
AcDbEntity
  8
MAKE2D VISIBLE LINES
100
AcDbSpline
210
0.0
220
0.0
230
1.0
 70
    12
 71
     2
 72
     6
 73
     3
 74
     0
 42
0.0000000001
 43
0.0000000001
 40
0.0
 40
0.0
 40
0.0
 40
0.1764524584875378
 40
0.1764524584875378
 40
0.1764524584875378
 10
6.698654130785997
 20
35.86402478412151
 30
0.0
 41
1.0
 10
6.612445715849615
 20
35.8434471501163
 30
0.0
 41
0.9931754443327678
 10
6.523815429250973
 20
35.84340105743279
 30
0.0
 41
1.0
  0
SPLINE
  5
4E
330
1F
100
AcDbEntity
  8
MAKE2D VISIBLE LINES
100
AcDbSpline
210
0.0
220
0.0
230
1.0
 70
    24
 71
     2
 72
     6
 73
     3
 74
     0
 42
0.0000000001
 43
0.0000000001
 40
0.0
 40
0.0
 40
0.0
 40
13.04763085852184
 40
13.04763085852184
 40
13.04763085852184
 10
6.523815429250973
 20
35.84340105743279
 30
0.0
 10
0.0
 20
35.84338966441172
 30
0.0
 10
-6.523815429250973
 20
35.84337827139064
 30
0.0
  0
SPLINE
  5
4F
330
1F
100
AcDbEntity
  8
MAKE2D VISIBLE LINES
100
AcDbSpline
210
0.0
220
0.0
230
1.0
 70
    24
 71
     2
 72
     6
 73
     3
 74
     0
 42
0.0000000001
 43
0.0000000001
 40
0.0
 40
0.0
 40
0.0
 40
12.90742943871734
 40
12.90742943871734
 40
12.90742943871734
 10
-6.453717471784813
 20
36.28087425423175
 30
0.0
 10
-0.0000027524278536
 20
36.28087895031481
 30
0.0
 10
6.453711966929106
 20
36.28088364639787
 30
0.0
  0
SPLINE
  5
50
330
1F
100
AcDbEntity
  8
MAKE2D VISIBLE LINES
100
AcDbSpline
210
0.0
220
0.0
230
1.0
 70
    12
 71
     2
 72
     6
 73
     3
 74
     0
 42
0.0000000001
 43
0.0000000001
 40
0.0
 40
0.0
 40
0.0
 40
0.1764517825060701
 40
0.1764517825060701
 40
0.1764517825060701
 10
-6.523815429250973
 20
35.84337827139064
 30
0.0
 41
1.0
 10
-6.612447004447913
 20
35.84342070556647
 30
0.0
 41
0.9931481585563471
 10
-6.69864789381451
 20
35.86403537497822
 30
0.0
 41
1.0
  0
SPLINE
  5
51
330
1F
100
AcDbEntity
  8
MAKE2D VISIBLE LINES
100
AcDbSpline
210
0.0
220
0.0
230
1.0
 70
    12
 71
     2
 72
     8
 73
     5
 74
     0
 42
0.0000000001
 43
0.0000000001
 40
0.0
 40
0.0
 40
0.0
 40
0.2928784283533512
 40
0.2928784283533512
 40
0.5857568567067024
 40
0.5857568567067024
 40
0.5857568567067024
 10
-6.773065181231772
 20
52.50260562224945
 30
0.0
 41
1.0
 10
-6.774801865892191
 20
52.67552665155656
 30
0.0
 41
0.7852926186122291
 10
-6.607060776808027
 20
52.71756978991579
 30
0.0
 41
1.0
 10
-6.439319687723859
 20
52.75961292827503
 30
0.0
 41
0.7852926186122291
 10
-6.359291864742133
 20
52.60631502874916
 30
0.0
 41
1.0
  0
SPLINE
  5
52
330
1F
100
AcDbEntity
  8
MAKE2D VISIBLE LINES
100
AcDbSpline
210
0.0
220
0.0
230
1.0
 70
     8
 71
     3
 72
    11
 73
     7
 74
     0
 42
0.0000000001
 43
0.0000000001
 40
0.0
 40
0.0
 40
0.0
 40
0.0
 40
0.2498916005083809
 40
0.455219286427313
 40
0.530596734089513
 40
0.5811912010269727
 40
0.5811912010269727
 40
0.5811912010269727
 40
0.5811912010269727
 10
-6.590310735935205
 20
51.95235379050288
 30
0.0
 10
-6.619950475386389
 20
52.03017920001255
 30
0.0
 10
-6.673042808463578
 20
52.17239679617387
 30
0.0
 10
-6.732029611787453
 20
52.33904989902775
 30
0.0
 10
-6.766741104339246
 20
52.44399589275787
 30
0.0
 10
-6.773381450228541
 20
52.48566025813466
 30
0.0
 10
-6.773065181231658
 20
52.50260562224956
 30
0.0
  0
SPLINE
  5
53
330
1F
100
AcDbEntity
  8
MAKE2D VISIBLE LINES
100
AcDbSpline
210
0.0
220
0.0
230
1.0
 70
    12
 71
     2
 72
     8
 73
     5
 74
     0
 42
0.0000000001
 43
0.0000000001
 40
0.0
 40
0.0
 40
0.0
 40
0.2928498345617468
 40
0.2928498345617468
 40
0.5856996691234936
 40
0.5856996691234936
 40
0.5856996691234936
 10
6.359327079352965
 20
52.60637961326147
 30
0.0
 41
1.0
 10
6.43938451119625
 20
52.75963727645364
 30
0.0
 41
0.7853251438996819
 10
6.60709780537934
 20
52.71757357862854
 30
0.0
 41
1.0
 10
6.77481109956243
 20
52.67550988080346
 30
0.0
 41
0.7853251438996819
 10
6.773066103500739
 20
52.50261089668496
 30
0.0
 41
1.0
  0
SPLINE
  5
54
330
1F
100
AcDbEntity
  8
MAKE2D VISIBLE LINES
100
AcDbSpline
210
0.0
220
0.0
230
1.0
 70
     8
 71
     3
 72
    13
 73
     9
 74
     0
 42
0.0000000001
 43
0.0000000001
 40
0.0
 40
0.0
 40
0.0
 40
0.0
 40
0.0715000728960166
 40
0.1389577746622289
 40
0.279646554448587
 40
0.3326654404133126
 40
0.4295225278829103
 40
0.8739526566318102
 40
0.8739526566318102
 40
0.8739526566318102
 40
0.8739526566318102
 10
-7.532691889203107
 20
34.78458961311646
 30
0.0
 10
-7.555281471853533
 20
34.79185855955226
 30
0.0
 10
-7.597191237282289
 20
34.81370146579911
 30
0.0
 10
-7.66286514915889
 20
34.8806504246336
 30
0.0
 10
-7.691022497771925
 20
34.96840407074468
 30
0.0
 10
-7.676246024244193
 20
35.06457421631195
 30
0.0
 10
-7.622143544572154
 20
35.25517040368142
 30
0.0
 10
-7.569372668871551
 20
35.42771683217855
 30
0.0
 10
-7.523448315191445
 20
35.56857154613149
 30
0.0
  0
SPLINE
  5
55
330
1F
100
AcDbEntity
  8
MAKE2D VISIBLE LINES
100
AcDbSpline
210
0.0
220
0.0
230
1.0
 70
    24
 71
     2
 72
     6
 73
     3
 74
     0
 42
0.0000000001
 43
0.0000000001
 40
0.0
 40
0.0
 40
0.0
 40
0.8824934918254437
 40
0.8824934918254437
 40
0.8824934918254437
 10
-7.523448315191416
 20
35.56857154613139
 30
0.0
 10
-7.386973875024481
 20
35.98818257787351
 30
0.0
 10
-7.250499434857545
 20
36.40779360961563
 30
0.0
  0
SPLINE
  5
56
330
1F
100
AcDbEntity
  8
MAKE2D VISIBLE LINES
100
AcDbSpline
210
0.0
220
0.0
230
1.0
 70
     8
 71
     3
 72
    13
 73
     9
 74
     0
 42
0.0000000001
 43
0.0000000001
 40
0.0
 40
0.0
 40
0.0
 40
0.0
 40
0.2369494970010312
 40
0.4426432557165738
 40
0.5411759281182517
 40
0.5943884862863233
 40
0.7330157650848926
 40
0.8739522420321179
 40
0.8739522420321179
 40
0.8739522420321179
 40
0.8739522420321179
 10
7.523448329079329
 20
35.56857154613257
 30
0.0
 10
7.547654652678077
 20
35.49339782979447
 30
0.0
 10
7.592642684903225
 20
35.35284761111348
 30
0.0
 10
7.643311337584507
 20
35.17972799840275
 30
0.0
 10
7.676118732856111
 20
35.06516106733037
 30
0.0
 10
7.690842304663192
 20
34.96904997979588
 30
0.0
 10
7.6558160604405
 20
34.85731432492728
 30
0.0
 10
7.57758288354367
 20
34.79906298426014
 30
0.0
 10
7.53268714755373
 20
34.78459783241905
 30
0.0
  0
SPLINE
  5
57
330
1F
100
AcDbEntity
  8
MAKE2D VISIBLE LINES
100
AcDbSpline
210
0.0
220
0.0
230
1.0
 70
    12
 71
     2
 72
     6
 73
     3
 74
     0
 42
0.0000000001
 43
0.0000000001
 40
0.0
 40
0.0
 40
0.0
 40
0.6121837257738026
 40
0.6121837257738026
 40
0.6121837257738026
 10
-7.075853856955646
 20
36.08567000994342
 30
0.0
 41
1.0
 10
-7.295378950339579
 20
36.32437425648834
 30
0.0
 41
0.9178670398096641
 10
-7.271829471161084
 20
36.64781885139483
 30
0.0
 41
1.0
  0
POLYLINE
  5
59
330
1F
100
AcDbEntity
  8
DEFAULT
100
AcDb2dPolyline
 66
     1
 10
0.0
 20
0.0
 30
0.0
  0
VERTEX
  5
5A
330
59
100
AcDbEntity
  8
DEFAULT
100
AcDbVertex
100
AcDb2dVertex
 10
7.12457758977805
 20
0.152076000000001
 30
0.0
  0
VERTEX
  5
5B
330
59
100
AcDbEntity
  8
DEFAULT
100
AcDbVertex
100
AcDb2dVertex
 10
7.315446196770893
 20
0.1512501142299989
 30
0.0
  0
SEQEND
  5
5C
330
59
100
AcDbEntity
  8
DEFAULT
  0
POLYLINE
  5
5D
330
1F
100
AcDbEntity
  8
DEFAULT
100
AcDb2dPolyline
 66
     1
 10
0.0
 20
0.0
 30
0.0
  0
VERTEX
  5
5E
330
5D
100
AcDbEntity
  8
DEFAULT
100
AcDbVertex
100
AcDb2dVertex
 10
-6.290531775610078
 20
0.1512501142300156
 30
0.0
  0
VERTEX
  5
5F
330
5D
100
AcDbEntity
  8
DEFAULT
100
AcDbVertex
100
AcDb2dVertex
 10
6.290531775610081
 20
0.151250114230007
 30
0.0
  0
SEQEND
  5
60
330
5D
100
AcDbEntity
  8
DEFAULT
  0
SPLINE
  5
61
330
1F
100
AcDbEntity
  8
MAKE2D VISIBLE LINES
100
AcDbSpline
210
0.0
220
0.0
230
1.0
 70
    24
 71
     2
 72
     6
 73
     3
 74
     0
 42
0.0000000001
 43
0.0000000001
 40
2.821132600868461
 40
2.821132600868461
 40
2.821132600868461
 40
3.011957463465237
 40
3.011957463465237
 40
3.011957463465237
 10
-7.124577589778049
 20
0.1512501142300215
 30
0.0
 10
-7.219990021076438
 20
0.1512501142300222
 30
0.0
 10
-7.315402452374826
 20
0.1512501142300229
 30
0.0
  0
POLYLINE
  5
62
330
1F
100
AcDbEntity
  8
DEFAULT
100
AcDb2dPolyline
 66
     1
 10
0.0
 20
0.0
 30
0.0
  0
VERTEX
  5
63
330
62
100
AcDbEntity
  8
DEFAULT
100
AcDbVertex
100
AcDb2dVertex
 10
-6.28549758977804
 20
0.1785619999999994
 30
0.0
  0
VERTEX
  5
64
330
62
100
AcDbEntity
  8
DEFAULT
100
AcDbVertex
100
AcDb2dVertex
 10
-6.275953589778049
 20
0.3691449999999996
 30
0.0
  0
SEQEND
  5
65
330
62
100
AcDbEntity
  8
DEFAULT
  0
SPLINE
  5
66
330
1F
100
AcDbEntity
  8
DEFAULT
100
AcDbSpline
210
0.0
220
0.0
230
1.0
 70
     8
 71
     3
 72
     9
 73
     5
 74
     0
 42
0.0000000001
 43
0.0000000001
 40
0.0
 40
0.0
 40
0.0
 40
0.0
 40
1.00013200463856
 40
2.0
 40
2.0
 40
2.0
 40
2.0
 10
-7.429335589778042
 20
0.1785619999999994
 30
0.0
 10
-7.424236951539618
 20
0.1279681907624237
 30
0.0
 10
-7.368423267892039
 20
0.0360901241377221
 30
0.0
 10
-7.268364133584877
 20
-0.0002156336131574
 30
0.0
 10
-7.217868589778043
 20
0.0
 30
0.0
  0
SPLINE
  5
67
330
1F
100
AcDbEntity
  8
DEFAULT
100
AcDbSpline
210
0.0
220
0.0
230
1.0
 70
    24
 71
     2
 72
     6
 73
     3
 74
     0
 42
0.0000000001
 43
0.0000000001
 40
0.0
 40
0.0
 40
0.0
 40
1.0
 40
1.0
 40
1.0
 10
-7.217868589778043
 20
0.0
 30
0.0
 10
-6.857416589778045
 20
0.0
 30
0.0
 10
-6.496964589778046
 20
0.0
 30
0.0
  0
SPLINE
  5
68
330
1F
100
AcDbEntity
  8
DEFAULT
100
AcDbSpline
210
0.0
220
0.0
230
1.0
 70
     8
 71
     3
 72
     9
 73
     5
 74
     0
 42
0.0000000001
 43
0.0000000001
 40
0.0
 40
0.0
 40
0.0
 40
0.0
 40
1.0
 40
2.0
 40
2.0
 40
2.0
 40
2.0
 10
-6.275953589778049
 20
0.3691449999999996
 30
0.0
 10
-6.2753414245773
 20
0.4069781815378963
 30
0.0
 10
-6.295139486375366
 20
0.4800029507338683
 30
0.0
 10
-6.351685434923483
 20
0.5387967596443879
 30
0.0
 10
-6.391024589778049
 20
0.5399999999999991
 30
0.0
  0
SPLINE
  5
69
330
1F
100
AcDbEntity
  8
DEFAULT
100
AcDbSpline
210
0.0
220
0.0
230
1.0
 70
     8
 71
     3
 72
     9
 73
     5
 74
     0
 42
0.0000000001
 43
0.0000000001
 40
0.0
 40
0.0
 40
0.0
 40
0.0
 40
1.0
 40
2.0
 40
2.0
 40
2.0
 40
2.0
 10
-6.955231589778045
 20
0.476500999999999
 30
0.0
 10
-6.94161888488824
 20
0.4102882117338016
 30
0.0
 10
-6.935259373611435
 20
0.2605219232419342
 30
0.0
 10
-7.05592792449866
 20
0.1619357994266721
 30
0.0
 10
-7.12457758977805
 20
0.152076000000001
 30
0.0
  0
SPLINE
  5
6A
330
1F
100
AcDbEntity
  8
DEFAULT
100
AcDbSpline
210
0.0
220
0.0
230
1.0
 70
     8
 71
     3
 72
     9
 73
     5
 74
     0
 42
0.0000000001
 43
0.0000000001
 40
0.0
 40
0.0
 40
0.0
 40
0.0
 40
1.0
 40
2.0
 40
2.0
 40
2.0
 40
2.0
 10
-6.878097589778045
 20
0.5399999999999991
 30
0.0
 10
-6.896845745275002
 20
0.539813182384794
 30
0.0
 10
-6.934918666532046
 20
0.5305228869241274
 30
0.0
 10
-6.958872118606736
 20
0.4959688931459194
 30
0.0
 10
-6.955231589778045
 20
0.476500999999999
 30
0.0
  0
SPLINE
  5
6B
330
1F
100
AcDbEntity
  8
DEFAULT
100
AcDbSpline
210
0.0
220
0.0
230
1.0
 70
     8
 71
     3
 72
     9
 73
     5
 74
     0
 42
0.0000000001
 43
0.0000000001
 40
0.0
 40
0.0
 40
0.0
 40
0.0
 40
0.9998679956127423
 40
2.0
 40
2.0
 40
2.0
 40
2.0
 10
-6.496964589778046
 20
0.0
 30
0.0
 10
-6.446468947551891
 20
-0.0002153589979574
 30
0.0
 10
-6.346410416847702
 20
0.0360904233114914
 30
0.0
 10
-6.290594283839584
 20
0.1279675581613811
 30
0.0
 10
-6.28549758977804
 20
0.1785619999999994
 30
0.0
  0
SPLINE
  5
6C
330
1F
100
AcDbEntity
  8
DEFAULT
100
AcDbSpline
210
0.0
220
0.0
230
1.0
 70
     8
 71
     3
 72
     9
 73
     5
 74
     0
 42
0.0000000001
 43
0.0000000001
 40
0.0
 40
0.0
 40
0.0
 40
0.0
 40
0.9998429731343175
 40
2.0
 40
2.0
 40
2.0
 40
2.0
 10
-5.489188089778048
 20
0.0
 30
0.0
 10
-5.443025124698194
 20
-0.0000743340474934
 30
0.0
 10
-5.351330647140601
 20
0.0293991053384071
 30
0.0
 10
-5.29227884352549
 20
0.1064948221851614
 30
0.0
 10
-5.280130589778048
 20
0.151250000000001
 30
0.0
  0
SPLINE
  5
6D
330
1F
100
AcDbEntity
  8
DEFAULT
100
AcDbSpline
210
0.0
220
0.0
230
1.0
 70
     8
 71
     3
 72
     9
 73
     5
 74
     0
 42
0.0000000001
 43
0.0000000001
 40
0.0
 40
0.0
 40
0.0
 40
0.0
 40
1.000373856788114
 40
2.0
 40
2.0
 40
2.0
 40
2.0
 10
-6.386934589778044
 20
0.0295769999999997
 30
0.0
 10
-6.370130471285885
 20
0.019882016393634
 30
0.0
 10
-6.333896032831
 20
0.0051089922280383
 30
0.0
 10
-6.29513819535619
 20
0.0001462416121552
 30
0.0
 10
-6.275754089778048
 20
0.0
 30
0.0
  0
SPLINE
  5
6E
330
1F
100
AcDbEntity
  8
DEFAULT
100
AcDbSpline
210
0.0
220
0.0
230
1.0
 70
    24
 71
     2
 72
     6
 73
     3
 74
     0
 42
0.0000000001
 43
0.0000000001
 40
-1.0
 40
-1.0
 40
-1.0
 40
0.0
 40
0.0
 40
0.0
 10
-6.275754089778048
 20
0.0
 30
0.0
 10
-5.882471089778048
 20
0.0
 30
0.0
 10
-5.489188089778048
 20
0.0
 30
0.0
  0
SPLINE
  5
6F
330
1F
100
AcDbEntity
  8
DEFAULT
100
AcDbSpline
210
0.0
220
0.0
230
1.0
 70
    24
 71
     2
 72
     6
 73
     3
 74
     0
 42
0.0000000001
 43
0.0000000001
 40
0.0
 40
0.0
 40
0.0
 40
1.0
 40
1.0
 40
1.0
 10
-6.391024589778049
 20
0.5399999999999991
 30
0.0
 10
-6.634561089778047
 20
0.5399999999999991
 30
0.0
 10
-6.878097589778045
 20
0.5399999999999991
 30
0.0
  0
SPLINE
  5
70
330
1F
100
AcDbEntity
  8
DEFAULT
100
AcDbSpline
210
0.0
220
0.0
230
1.0
 70
    24
 71
     2
 72
     6
 73
     3
 74
     0
 42
0.0000000001
 43
0.0000000001
 40
-1.0
 40
-1.0
 40
-1.0
 40
0.0
 40
0.0
 40
0.0
 10
6.275754089778048
 20
0.0
 30
0.0
 10
5.882471089778048
 20
0.0
 30
0.0
 10
5.489188089778048
 20
0.0
 30
0.0
  0
SPLINE
  5
71
330
1F
100
AcDbEntity
  8
DEFAULT
100
AcDbSpline
210
0.0
220
0.0
230
1.0
 70
     8
 71
     3
 72
     9
 73
     5
 74
     0
 42
0.0000000001
 43
0.0000000001
 40
0.0
 40
0.0
 40
0.0
 40
0.0
 40
1.000373856788114
 40
2.0
 40
2.0
 40
2.0
 40
2.0
 10
6.386934589778044
 20
0.0295769999999997
 30
0.0
 10
6.370130471285885
 20
0.019882016393634
 30
0.0
 10
6.333896032831
 20
0.0051089922280383
 30
0.0
 10
6.29513819535619
 20
0.0001462416121552
 30
0.0
 10
6.275754089778048
 20
0.0
 30
0.0
  0
SPLINE
  5
72
330
1F
100
AcDbEntity
  8
DEFAULT
100
AcDbSpline
210
0.0
220
0.0
230
1.0
 70
     8
 71
     3
 72
     9
 73
     5
 74
     0
 42
0.0000000001
 43
0.0000000001
 40
0.0
 40
0.0
 40
0.0
 40
0.0
 40
0.9998429731343175
 40
2.0
 40
2.0
 40
2.0
 40
2.0
 10
5.489188089778048
 20
0.0
 30
0.0
 10
5.443025124698194
 20
-0.0000743340474934
 30
0.0
 10
5.351330647140601
 20
0.0293991053384071
 30
0.0
 10
5.29227884352549
 20
0.1064948221851614
 30
0.0
 10
5.280130589778048
 20
0.151250000000001
 30
0.0
  0
SPLINE
  5
73
330
1F
100
AcDbEntity
  8
DEFAULT
100
AcDbSpline
210
0.0
220
0.0
230
1.0
 70
     8
 71
     3
 72
     9
 73
     5
 74
     0
 42
0.0000000001
 43
0.0000000001
 40
0.0
 40
0.0
 40
0.0
 40
0.0
 40
0.9998679956127423
 40
2.0
 40
2.0
 40
2.0
 40
2.0
 10
6.496964589778046
 20
0.0
 30
0.0
 10
6.446468947551891
 20
-0.0002153589979574
 30
0.0
 10
6.346410416847702
 20
0.0360904233114914
 30
0.0
 10
6.290594283839584
 20
0.1279675581613811
 30
0.0
 10
6.28549758977804
 20
0.1785619999999994
 30
0.0
  0
SPLINE
  5
74
330
1F
100
AcDbEntity
  8
DEFAULT
100
AcDbSpline
210
0.0
220
0.0
230
1.0
 70
     8
 71
     3
 72
     9
 73
     5
 74
     0
 42
0.0000000001
 43
0.0000000001
 40
0.0
 40
0.0
 40
0.0
 40
0.0
 40
1.0
 40
2.0
 40
2.0
 40
2.0
 40
2.0
 10
6.878097589778045
 20
0.5399999999999991
 30
0.0
 10
6.896845745275002
 20
0.539813182384794
 30
0.0
 10
6.934918666532046
 20
0.5305228869241274
 30
0.0
 10
6.958872118606736
 20
0.4959688931459194
 30
0.0
 10
6.955231589778045
 20
0.476500999999999
 30
0.0
  0
SPLINE
  5
75
330
1F
100
AcDbEntity
  8
DEFAULT
100
AcDbSpline
210
0.0
220
0.0
230
1.0
 70
     8
 71
     3
 72
     9
 73
     5
 74
     0
 42
0.0000000001
 43
0.0000000001
 40
0.0
 40
0.0
 40
0.0
 40
0.0
 40
1.0
 40
2.0
 40
2.0
 40
2.0
 40
2.0
 10
6.955231589778045
 20
0.476500999999999
 30
0.0
 10
6.94161888488824
 20
0.4102882117338016
 30
0.0
 10
6.935259373611435
 20
0.2605219232419342
 30
0.0
 10
7.05592792449866
 20
0.1619357994266721
 30
0.0
 10
7.12457758977805
 20
0.152076000000001
 30
0.0
  0
SPLINE
  5
76
330
1F
100
AcDbEntity
  8
DEFAULT
100
AcDbSpline
210
0.0
220
0.0
230
1.0
 70
     8
 71
     3
 72
     9
 73
     5
 74
     0
 42
0.0000000001
 43
0.0000000001
 40
0.0
 40
0.0
 40
0.0
 40
0.0
 40
1.0
 40
2.0
 40
2.0
 40
2.0
 40
2.0
 10
6.275953589778049
 20
0.3691449999999996
 30
0.0
 10
6.2753414245773
 20
0.4069781815378963
 30
0.0
 10
6.295139486375366
 20
0.4800029507338683
 30
0.0
 10
6.351685434923483
 20
0.5387967596443879
 30
0.0
 10
6.391024589778049
 20
0.5399999999999991
 30
0.0
  0
SPLINE
  5
77
330
1F
100
AcDbEntity
  8
DEFAULT
100
AcDbSpline
210
0.0
220
0.0
230
1.0
 70
    24
 71
     2
 72
     6
 73
     3
 74
     0
 42
0.0000000001
 43
0.0000000001
 40
0.0
 40
0.0
 40
0.0
 40
1.0
 40
1.0
 40
1.0
 10
7.217868589778043
 20
0.0
 30
0.0
 10
6.857416589778045
 20
0.0
 30
0.0
 10
6.496964589778046
 20
0.0
 30
0.0
  0
SPLINE
  5
78
330
1F
100
AcDbEntity
  8
DEFAULT
100
AcDbSpline
210
0.0
220
0.0
230
1.0
 70
     8
 71
     3
 72
     9
 73
     5
 74
     0
 42
0.0000000001
 43
0.0000000001
 40
0.0
 40
0.0
 40
0.0
 40
0.0
 40
1.00013200463856
 40
2.0
 40
2.0
 40
2.0
 40
2.0
 10
7.429335589778042
 20
0.1785619999999994
 30
0.0
 10
7.424236951539618
 20
0.1279681907624237
 30
0.0
 10
7.368423267892039
 20
0.0360901241377221
 30
0.0
 10
7.268364133584877
 20
-0.0002156336131574
 30
0.0
 10
7.217868589778043
 20
0.0
 30
0.0
  0
POLYLINE
  5
79
330
1F
100
AcDbEntity
  8
DEFAULT
100
AcDb2dPolyline
 66
     1
 10
0.0
 20
0.0
 30
0.0
  0
VERTEX
  5
7A
330
79
100
AcDbEntity
  8
DEFAULT
100
AcDbVertex
100
AcDb2dVertex
 10
6.28549758977804
 20
0.1785619999999994
 30
0.0
  0
VERTEX
  5
7B
330
79
100
AcDbEntity
  8
DEFAULT
100
AcDbVertex
100
AcDb2dVertex
 10
6.275953589778049
 20
0.3691449999999996
 30
0.0
  0
SEQEND
  5
7C
330
79
100
AcDbEntity
  8
DEFAULT
  0
SPLINE
  5
7D
330
1F
100
AcDbEntity
  8
DEFAULT
100
AcDbSpline
210
0.0
220
0.0
230
1.0
 70
    24
 71
     2
 72
     6
 73
     3
 74
     0
 42
0.0000000001
 43
0.0000000001
 40
0.0
 40
0.0
 40
0.0
 40
1.0
 40
1.0
 40
1.0
 10
6.391024589778049
 20
0.5399999999999991
 30
0.0
 10
6.634561089778047
 20
0.5399999999999991
 30
0.0
 10
6.878097589778045
 20
0.5399999999999991
 30
0.0
  0
POLYLINE
  5
7E
330
1F
100
AcDbEntity
  8
DEFAULT
100
AcDb2dPolyline
 66
     1
 10
0.0
 20
0.0
 30
0.0
  0
VERTEX
  5
7F
330
7E
100
AcDbEntity
  8
DEFAULT
100
AcDbVertex
100
AcDb2dVertex
 10
5.768986763554713
 20
7.80839059859084
 30
0.0
  0
VERTEX
  5
80
330
7E
100
AcDbEntity
  8
DEFAULT
100
AcDbVertex
100
AcDb2dVertex
 10
6.333391291885448
 20
0.943405744306081
 30
0.0
  0
SEQEND
  5
81
330
7E
100
AcDbEntity
  8
DEFAULT
  0
POLYLINE
  5
82
330
1F
100
AcDbEntity
  8
DEFAULT
100
AcDb2dPolyline
 66
     1
 10
0.0
 20
0.0
 30
0.0
  0
VERTEX
  5
83
330
82
100
AcDbEntity
  8
DEFAULT
100
AcDbVertex
100
AcDb2dVertex
 10
4.587678539054366
 20
22.17692001741351
 30
0.0
  0
VERTEX
  5
84
330
82
100
AcDbEntity
  8
DEFAULT
100
AcDbVertex
100
AcDb2dVertex
 10
5.733164136185058
 20
8.244109629869158
 30
0.0
  0
SEQEND
  5
85
330
82
100
AcDbEntity
  8
DEFAULT
  0
POLYLINE
  5
86
330
1F
100
AcDbEntity
  8
DEFAULT
100
AcDb2dPolyline
 66
     1
 10
0.0
 20
0.0
 30
0.0
  0
VERTEX
  5
87
330
86
100
AcDbEntity
  8
DEFAULT
100
AcDbVertex
100
AcDb2dVertex
 10
-5.768943024982984
 20
7.808390598590842
 30
0.0
  0
VERTEX
  5
88
330
86
100
AcDbEntity
  8
DEFAULT
100
AcDbVertex
100
AcDb2dVertex
 10
-6.333347553645268
 20
0.9434057338720931
 30
0.0
  0
SEQEND
  5
89
330
86
100
AcDbEntity
  8
DEFAULT
  0
POLYLINE
  5
8A
330
1F
100
AcDbEntity
  8
DEFAULT
100
AcDb2dPolyline
 66
     1
 10
0.0
 20
0.0
 30
0.0
  0
VERTEX
  5
8B
330
8A
100
AcDbEntity
  8
DEFAULT
100
AcDbVertex
100
AcDb2dVertex
 10
-4.587634801562274
 20
22.17692001767964
 30
0.0
  0
VERTEX
  5
8C
330
8A
100
AcDbEntity
  8
DEFAULT
100
AcDbVertex
100
AcDb2dVertex
 10
-5.733120397646733
 20
8.244109629869158
 30
0.0
  0
SEQEND
  5
8D
330
8A
100
AcDbEntity
  8
DEFAULT
  0
SPLINE
  5
8E
330
1F
100
AcDbEntity
  8
MAKE2D VISIBLE LINES
100
AcDbSpline
210
0.0
220
0.0
230
1.0
 70
    12
 71
     2
 72
     6
 73
     3
 74
     0
 42
0.0000000001
 43
0.0000000001
 40
0.0
 40
0.0
 40
0.0
 40
0.359799466330593
 40
0.359799466330593
 40
0.359799466330593
 10
-6.333347553645268
 20
0.9434057338720931
 30
0.0
 41
1.0
 10
-6.344295011228553
 20
0.7616752100514784
 30
0.0
 41
0.9822964358444121
 10
-6.287591194749254
 20
0.5886708537122955
 30
0.0
 41
1.0
  0
SPLINE
  5
8F
330
1F
100
AcDbEntity
  8
MAKE2D VISIBLE LINES
100
AcDbSpline
210
0.0
220
0.0
230
1.0
 70
    12
 71
     2
 72
     6
 73
     3
 74
     0
 42
0.0000000001
 43
0.0000000001
 40
0.0
 40
0.0
 40
0.0
 40
0.3597989845957775
 40
0.3597989845957775
 40
0.3597989845957775
 10
6.287646654163296
 20
0.5886708542582644
 30
0.0
 41
1.0
 10
6.344352858590956
 20
0.7616752696468081
 30
0.0
 41
0.9822880296304424
 10
6.333391291885448
 20
0.943405744306081
 30
0.0
 41
1.0
  0
SPLINE
  5
90
330
1F
100
AcDbEntity
  8
MAKE2D VISIBLE LINES
100
AcDbSpline
210
0.0
220
0.0
230
1.0
 70
    24
 71
     2
 72
     6
 73
     3
 74
     0
 42
0.0000000001
 43
0.0000000001
 40
0.0
 40
0.0
 40
0.0
 40
0.945367429600882
 40
0.945367429600882
 40
0.945367429600882
 10
3.352521869548923
 20
0.5887501142299998
 30
0.0
 10
3.825205584349362
 20
0.5887501142299998
 30
0.0
 10
4.297889299149801
 20
0.5887501142299998
 30
0.0
  0
SPLINE
  5
91
330
1F
100
AcDbEntity
  8
MAKE2D VISIBLE LINES
100
AcDbSpline
210
0.0
220
0.0
230
1.0
 70
    24
 71
     2
 72
     6
 73
     3
 74
     0
 42
0.0000000001
 43
0.0000000001
 40
0.0
 40
0.0
 40
0.0
 40
0.9453674296404246
 40
0.9453674296404246
 40
0.9453674296404246
 10
-4.297845560091503
 20
0.5887501142299998
 30
0.0
 10
-3.825161845271296
 20
0.5887501142299998
 30
0.0
 10
-3.35247813045109
 20
0.5887501142299998
 30
0.0
  0
SPLINE
  5
92
330
1F
100
AcDbEntity
  8
MAKE2D VISIBLE LINES
100
AcDbSpline
210
0.0
220
0.0
230
1.0
 70
    24
 71
     2
 72
     6
 73
     3
 74
     0
 42
0.0000000001
 43
0.0000000001
 40
0.0
 40
0.0
 40
0.0
 40
6.705000000000002
 40
6.705000000000002
 40
6.705000000000002
 10
-3.35247813045109
 20
0.5887501142299998
 30
0.0
 10
0.0000218695489167
 20
0.5887501142299998
 30
0.0
 10
3.352521869548923
 20
0.5887501142299998
 30
0.0
  0
SPLINE
  5
93
330
1F
100
AcDbEntity
  8
MAKE2D VISIBLE LINES
100
AcDbSpline
210
0.0
220
0.0
230
1.0
 70
     8
 71
     3
 72
    12
 73
     8
 74
     0
 42
0.0000000001
 43
0.0000000001
 40
0.0
 40
0.0
 40
0.0
 40
0.0
 40
0.0840957311292652
 40
0.1691701999937681
 40
0.3636299122467008
 40
0.6598598707395102
 40
0.9877191093451322
 40
0.9877191093451322
 40
0.9877191093451322
 40
0.9877191093451322
 10
-7.322459834810914
 20
0.1513500189404899
 30
0.0
 10
-7.351014098101672
 20
0.1523078839204423
 30
0.0
 10
-7.405706664420791
 20
0.163075838673209
 30
0.0
 10
-7.51397587998369
 20
0.2256904902909648
 30
0.0
 10
-7.61555630638307
 20
0.3940225952966656
 30
0.0
 10
-7.674038188766033
 20
0.6618931747685943
 30
0.0
 10
-7.689019653592425
 20
0.8698501574769187
 30
0.0
 10
-7.681533116489732
 20
0.9791986187495463
 30
0.0
  0
SPLINE
  5
94
330
1F
100
AcDbEntity
  8
MAKE2D VISIBLE LINES
100
AcDbSpline
210
0.0
220
0.0
230
1.0
 70
    12
 71
     2
 72
     6
 73
     3
 74
     0
 42
0.0000000001
 43
0.0000000001
 40
0.0
 40
0.0
 40
0.0
 40
1.177692666151269
 40
1.177692666151269
 40
1.177692666151269
 10
-5.033478456306085
 20
24.25950011422854
 30
0.0
 41
1.0
 10
-5.76672466444813
 20
24.25947077517094
 30
0.0
 41
0.7291676134666174
 10
-5.813161795674631
 20
23.52769649613476
 30
0.0
 41
1.0
  0
SPLINE
  5
95
330
1F
100
AcDbEntity
  8
MAKE2D VISIBLE LINES
100
AcDbSpline
210
0.0
220
0.0
230
1.0
 70
    12
 71
     2
 72
     6
 73
     3
 74
     0
 42
0.0000000001
 43
0.0000000001
 40
0.0
 40
0.0
 40
0.0
 40
1.177714700093261
 40
1.177714700093261
 40
1.177714700093261
 10
5.81320553452899
 20
23.52769649997083
 30
0.0
 41
1.0
 10
5.766816937962701
 20
24.25952281542012
 30
0.0
 41
0.7291191885386149
 10
5.033521869548807
 20
24.25950011422703
 30
0.0
 41
1.0
  0
SPLINE
  5
96
330
1F
100
AcDbEntity
  8
MAKE2D VISIBLE LINES
100
AcDbSpline
210
0.0
220
0.0
230
1.0
 70
     8
 71
     3
 72
    11
 73
     7
 74
     0
 42
0.0000000001
 43
0.0000000001
 40
0.0
 40
0.0
 40
0.0
 40
0.0
 40
0.0357084445728121
 40
0.0848376385361249
 40
0.1993397006942264
 40
0.4317393954263604
 40
0.4317393954263604
 40
0.4317393954263604
 40
0.4317393954263604
 10
7.181872791091877
 20
0.5279654182566711
 30
0.0
 10
7.187589772528781
 20
0.5384284879970291
 30
0.0
 10
7.197978946202511
 20
0.5647609937738631
 30
0.0
 10
7.217212357648009
 20
0.628469461005587
 30
0.0
 10
7.24226224561383
 20
0.7581700337317946
 30
0.0
 10
7.249521090450429
 20
0.8741311726988735
 30
0.0
 10
7.244953949828371
 20
0.9515094879011412
 30
0.0
  0
SPLINE
  5
97
330
1F
100
AcDbEntity
  8
MAKE2D VISIBLE LINES
100
AcDbSpline
210
0.0
220
0.0
230
1.0
 70
    12
 71
     2
 72
     6
 73
     3
 74
     0
 42
0.0000000001
 43
0.0000000001
 40
0.0
 40
0.0
 40
0.0
 40
0.0056002687918441
 40
0.0056002687918441
 40
0.0056002687918441
 10
-7.31540245235766
 20
0.1512501142299937
 30
0.0
 41
1.0
 10
-7.31820270482865
 20
0.1512500634201914
 30
0.0
 41
0.9999367521599424
 10
-7.321002250025174
 20
0.1513129966895717
 30
0.0
 41
1.0
  0
SPLINE
  5
98
330
1F
100
AcDbEntity
  8
MAKE2D VISIBLE LINES
100
AcDbSpline
210
0.0
220
0.0
230
1.0
 70
    24
 71
     2
 72
     6
 73
     3
 74
     0
 42
0.0000000001
 43
0.0000000001
 40
0.0
 40
0.0
 40
0.0
 40
22.62154219020955
 40
22.62154219020955
 40
22.62154219020955
 10
-5.813161795431014
 20
23.52769649997338
 30
0.0
 10
-6.529036036219324
 20
12.23960246965837
 30
0.0
 10
-7.244910277007634
 20
0.9515084393433533
 30
0.0
  0
SPLINE
  5
99
330
1F
100
AcDbEntity
  8
MAKE2D VISIBLE LINES
100
AcDbSpline
210
0.0
220
0.0
230
1.0
 70
    24
 71
     2
 72
     6
 73
     3
 74
     0
 42
0.0000000001
 43
0.0000000001
 40
0.0
 40
0.0
 40
0.0
 40
10.067000325855
 40
10.067000325855
 40
10.067000325855
 10
5.03352186954892
 20
24.25950011423
 30
0.0
 10
0.0000217066214176
 20
24.25950011423
 30
0.0
 10
-5.033478456306085
 20
24.25950011423
 30
0.0
  0
SPLINE
  5
9A
330
1F
100
AcDbEntity
  8
MAKE2D VISIBLE LINES
100
AcDbSpline
210
0.0
220
0.0
230
1.0
 70
    24
 71
     2
 72
     6
 73
     3
 74
     0
 42
0.0000000001
 43
0.0000000001
 40
0.0
 40
0.0
 40
0.0
 40
22.62154113955921
 40
22.62154113955921
 40
22.62154113955921
 10
7.244953949608899
 20
0.9515094878872217
 30
0.0
 10
6.529079742069136
 20
12.23960299393029
 30
0.0
 10
5.813205534529374
 20
23.52769649997336
 30
0.0
  0
SPLINE
  5
9B
330
1F
100
AcDbEntity
  8
MAKE2D VISIBLE LINES
100
AcDbSpline
210
0.0
220
0.0
230
1.0
 70
    24
 71
     2
 72
     6
 73
     3
 74
     0
 42
0.0000000001
 43
0.0000000001
 40
0.0
 40
0.0
 40
0.0
 40
22.62154151227266
 40
22.62154151227266
 40
22.62154151227266
 10
6.249828386918296
 20
23.55538647598928
 30
0.0
 10
6.965702606252819
 20
12.26729278396311
 30
0.0
 10
7.681576825587342
 20
0.9791990919369358
 30
0.0
  0
SPLINE
  5
9C
330
1F
100
AcDbEntity
  8
MAKE2D VISIBLE LINES
100
AcDbSpline
210
0.0
220
0.0
230
1.0
 70
     8
 71
     3
 72
    12
 73
     8
 74
     0
 42
0.0000000001
 43
0.0000000001
 40
0.0
 40
0.0
 40
0.0
 40
0.0
 40
0.1578983587133018
 40
0.3223253826112917
 40
0.6231780522485643
 40
0.8181179450752142
 40
0.987709514028084
 40
0.987709514028084
 40
0.987709514028084
 40
0.987709514028084
 10
7.681576825495682
 20
0.9791990919311209
 30
0.0
 10
7.684317178377256
 20
0.9267234595058115
 30
0.0
 10
7.686054892052525
 20
0.8189404820118775
 30
0.0
 10
7.662592043688122
 20
0.6124166543219751
 30
0.0
 10
7.616764202412696
 20
0.3961147953367775
 30
0.0
 10
7.499488237969899
 20
0.2013260792711457
 30
0.0
 10
7.37826827234484
 20
0.1519427228666938
 30
0.0
 10
7.322510474472836
 20
0.1513501144002598
 30
0.0
  0
SPLINE
  5
9D
330
1F
100
AcDbEntity
  8
MAKE2D VISIBLE LINES
100
AcDbSpline
210
0.0
220
0.0
230
1.0
 70
    12
 71
     2
 72
     6
 73
     3
 74
     0
 42
0.0000000001
 43
0.0000000001
 40
0.0
 40
0.0
 40
0.0
 40
0.118168470559679
 40
0.118168470559679
 40
0.118168470559679
 10
-7.241740354207252
 20
7.91396700493963
 30
0.0
 41
1.0
 10
-7.273162043793705
 20
7.965713588256865
 30
0.0
 41
0.9643294987532793
 10
-7.273762447498342
 20
8.026250114229757
 30
0.0
 41
1.0
  0
SPLINE
  5
9E
330
1F
100
AcDbEntity
  8
MAKE2D VISIBLE LINES
100
AcDbSpline
210
0.0
220
0.0
230
1.0
 70
    24
 71
     2
 72
     6
 73
     3
 74
     0
 42
0.0000000001
 43
0.0000000001
 40
0.0
 40
0.0
 40
0.0
 40
0.2862633749123145
 40
0.2862633749123145
 40
0.2862633749123145
 10
6.810100683316236
 20
7.808390598590838
 30
0.0
 10
6.666968995860081
 20
7.808390598590838
 30
0.0
 10
6.523837308403927
 20
7.808390598590839
 30
0.0
  0
SPLINE
  5
9F
330
1F
100
AcDbEntity
  8
MAKE2D VISIBLE LINES
100
AcDbSpline
210
0.0
220
0.0
230
1.0
 70
    24
 71
     2
 72
     6
 73
     3
 74
     0
 42
0.0000000001
 43
0.0000000001
 40
0.0
 40
0.0
 40
0.0
 40
13.04763087771
 40
13.04763087771
 40
13.04763087771
 10
6.523837308403927
 20
7.808390598590839
 30
0.0
 10
0.0000218695489238
 20
7.808390598590839
 30
0.0
 10
-6.523793569306079
 20
7.808390598590839
 30
0.0
  0
SPLINE
  5
A0
330
1F
100
AcDbEntity
  8
MAKE2D VISIBLE LINES
100
AcDbSpline
210
0.0
220
0.0
230
1.0
 70
    24
 71
     2
 72
     6
 73
     3
 74
     0
 42
0.0000000001
 43
0.0000000001
 40
0.0
 40
0.0
 40
0.0
 40
13.04763085426673
 40
13.04763085426673
 40
13.04763085426673
 10
-6.523793569306079
 20
8.244109629869158
 30
0.0
 10
0.000021857827285
 20
8.244109629869158
 30
0.0
 10
6.523837284960649
 20
8.244109629869158
 30
0.0
  0
SPLINE
  5
A1
330
1F
100
AcDbEntity
  8
MAKE2D VISIBLE LINES
100
AcDbSpline
210
0.0
220
0.0
230
1.0
 70
    12
 71
     2
 72
     6
 73
     3
 74
     0
 42
0.0000000001
 43
0.0000000001
 40
0.0
 40
0.0
 40
0.0
 40
0.1459312178473574
 40
0.1459312178473574
 40
0.1459312178473574
 10
7.226090602642302
 20
8.161426085176846
 30
0.0
 41
1.0
 10
7.272844053083443
 20
8.101920007346685
 30
0.0
 41
0.9471320000469134
 10
7.273806187489328
 20
8.026250114230159
 30
0.0
 41
1.0
  0
SPLINE
  5
A2
330
1F
100
AcDbEntity
  8
MAKE2D VISIBLE LINES
100
AcDbSpline
210
0.0
220
0.0
230
1.0
 70
    12
 71
     2
 72
     6
 73
     3
 74
     0
 42
0.0000000001
 43
0.0000000001
 40
0.0
 40
0.0
 40
0.0
 40
0.1459642386271981
 40
0.1459642386271981
 40
0.1459642386271981
 10
-7.273762447498356
 20
8.026250114229999
 30
0.0
 41
1.0
 10
-7.272832402199946
 20
8.10194404965315
 30
0.0
 41
0.947011463176603
 10
-7.226045119947145
 20
8.16145360404149
 30
0.0
 41
1.0
  0
SPLINE
  5
A3
330
1F
100
AcDbEntity
  8
MAKE2D VISIBLE LINES
100
AcDbSpline
210
0.0
220
0.0
230
1.0
 70
    24
 71
     2
 72
     6
 73
     3
 74
     0
 42
0.0000000001
 43
0.0000000001
 40
0.0
 40
0.0
 40
0.0
 40
2.907178946824136
 40
2.907178946824136
 40
2.907178946824136
 10
-4.297845560081697
 20
0.5886708536373417
 30
0.0
 10
-5.751435033493763
 20
0.5886708536267586
 30
0.0
 10
-7.205024506905829
 20
0.5886708536161754
 30
0.0
  0
SPLINE
  5
A4
330
1F
100
AcDbEntity
  8
MAKE2D VISIBLE LINES
100
AcDbSpline
210
0.0
220
0.0
230
1.0
 70
    24
 71
     2
 72
     6
 73
     3
 74
     0
 42
0.0000000001
 43
0.0000000001
 40
0.0
 40
0.0
 40
0.0
 40
1.669412907329566
 40
1.669412907329566
 40
1.669412907329566
 10
3.910411926127537
 20
24.25950011422736
 30
0.0
 10
3.280602994402194
 20
23.71170857238995
 30
0.0
 10
2.650794062676852
 20
23.16391703055253
 30
0.0
  0
SPLINE
  5
A5
330
1F
100
AcDbEntity
  8
MAKE2D VISIBLE LINES
100
AcDbSpline
210
0.0
220
0.0
230
1.0
 70
    24
 71
     2
 72
     6
 73
     3
 74
     0
 42
0.0000000001
 43
0.0000000001
 40
0.0
 40
0.0
 40
0.0
 40
1.669412907329235
 40
1.669412907329235
 40
1.669412907329235
 10
4.667129332020465
 20
24.25950011422714
 30
0.0
 10
4.037320400295243
 20
23.71170857238983
 30
0.0
 10
3.407511468570021
 20
23.16391703055252
 30
0.0
  0
SPLINE
  5
A6
330
1F
100
AcDbEntity
  8
MAKE2D VISIBLE LINES
100
AcDbSpline
210
0.0
220
0.0
230
1.0
 70
    24
 71
     2
 72
     6
 73
     3
 74
     0
 42
0.0000000001
 43
0.0000000001
 40
0.0
 40
0.0
 40
0.0
 40
1.669412907333442
 40
1.669412907333442
 40
1.669412907333442
 10
-4.667085592925801
 20
24.2595001142299
 30
0.0
 10
-4.037276661198987
 20
23.71170857239121
 30
0.0
 10
-3.407467729472174
 20
23.16391703055252
 30
0.0
  0
SPLINE
  5
A7
330
1F
100
AcDbEntity
  8
MAKE2D VISIBLE LINES
100
AcDbSpline
210
0.0
220
0.0
230
1.0
 70
    24
 71
     2
 72
     6
 73
     3
 74
     0
 42
0.0000000001
 43
0.0000000001
 40
0.0
 40
0.0
 40
0.0
 40
2.907162152877374
 40
2.907162152877374
 40
2.907162152877374
 10
7.205051452056878
 20
0.5886708536161755
 30
0.0
 10
5.75147037561819
 20
0.5886708536267591
 30
0.0
 10
4.297889299179502
 20
0.5886708536373426
 30
0.0
  0
SPLINE
  5
A8
330
1F
100
AcDbEntity
  8
MAKE2D VISIBLE LINES
100
AcDbSpline
210
0.0
220
0.0
230
1.0
 70
    12
 71
     3
 72
    11
 73
     7
 74
     0
 42
0.0000000001
 43
0.0000000001
 40
-1.0
 40
-1.0
 40
-1.0
 40
-1.0
 40
-0.75
 40
-0.5
 40
-0.25
 40
0.0
 40
0.0
 40
0.0
 40
0.0
 10
2.650794062676852
 20
23.16391703055253
 30
0.0
 41
1.0
 10
2.650440484651483
 20
23.18534308920328
 30
0.0
 41
1.0
 10
2.648913417243108
 20
23.22468038916903
 30
0.0
 41
1.0
 10
2.644279970562906
 20
23.27592032768005
 30
0.0
 41
1.0
 10
2.637532454440333
 20
23.31210422781598
 30
0.0
 41
1.0
 10
2.632455611293508
 20
23.32619180399066
 30
0.0
 41
1.0
 10
2.629301129024327
 20
23.32982420928332
 30
0.0
 41
1.0
  0
SPLINE
  5
A9
330
1F
100
AcDbEntity
  8
MAKE2D VISIBLE LINES
100
AcDbSpline
210
0.0
220
0.0
230
1.0
 70
    12
 71
     2
 72
     6
 73
     3
 74
     0
 42
0.0000000001
 43
0.0000000001
 40
0.0
 40
0.0
 40
0.0
 40
0.1682868028676273
 40
0.1682868028676273
 40
0.1682868028676273
 10
-2.629257389926494
 20
23.32982420928332
 30
0.0
 41
1.0
 10
-2.655815436024711
 20
23.24891897748047
 30
0.0
 41
0.9823148432064798
 10
-2.650750323579004
 20
23.16391703055253
 30
0.0
 41
1.0
  0
SPLINE
  5
AA
330
1F
100
AcDbEntity
  8
MAKE2D VISIBLE LINES
100
AcDbSpline
210
0.0
220
0.0
230
1.0
 70
    24
 71
     2
 72
     6
 73
     3
 74
     0
 42
0.0000000001
 43
0.0000000001
 40
0.0
 40
0.0
 40
0.0
 40
0.7567174058931734
 40
0.7567174058931734
 40
0.7567174058931734
 10
3.407511468570021
 20
23.16391703055252
 30
0.0
 10
3.029152765623436
 20
23.16391703055253
 30
0.0
 10
2.650794062676852
 20
23.16391703055253
 30
0.0
  0
SPLINE
  5
AB
330
1F
100
AcDbEntity
  8
MAKE2D VISIBLE LINES
100
AcDbSpline
210
0.0
220
0.0
230
1.0
 70
    24
 71
     2
 72
     6
 73
     3
 74
     0
 42
0.0000000001
 43
0.0000000001
 40
0.0
 40
0.0
 40
0.0
 40
1.415646325402319
 40
1.415646325402319
 40
1.415646325402319
 10
2.629301129024327
 20
23.32982420928332
 30
0.0
 10
3.163098194956561
 20
23.79466216175537
 30
0.0
 10
3.696895260888795
 20
24.25950011422742
 30
0.0
  0
SPLINE
  5
AC
330
1F
100
AcDbEntity
  8
MAKE2D VISIBLE LINES
100
AcDbSpline
210
0.0
220
0.0
230
1.0
 70
    24
 71
     2
 72
     6
 73
     3
 74
     0
 42
0.0000000001
 43
0.0000000001
 40
0.0
 40
0.0
 40
0.0
 40
0.7567174058931698
 40
0.7567174058931698
 40
0.7567174058931698
 10
-2.650750323579004
 20
23.16391703055253
 30
0.0
 10
-3.029109026525589
 20
23.16391703055253
 30
0.0
 10
-3.407467729472174
 20
23.16391703055252
 30
0.0
  0
SPLINE
  5
AD
330
1F
100
AcDbEntity
  8
MAKE2D VISIBLE LINES
100
AcDbSpline
210
0.0
220
0.0
230
1.0
 70
    24
 71
     2
 72
     6
 73
     3
 74
     0
 42
0.0000000001
 43
0.0000000001
 40
0.0
 40
0.0
 40
0.0
 40
6.852577250802412
 40
6.852577250802412
 40
6.852577250802412
 10
-6.207902753148431
 20
7.808390598590839
 30
0.0
 10
-6.488647733249884
 20
4.393623256486619
 30
0.0
 10
-6.769392713351337
 20
0.9788559143823994
 30
0.0
  0
SPLINE
  5
AE
330
1F
100
AcDbEntity
  8
MAKE2D VISIBLE LINES
100
AcDbSpline
210
0.0
220
0.0
230
1.0
 70
    24
 71
     2
 72
     6
 73
     3
 74
     0
 42
0.0000000001
 43
0.0000000001
 40
0.0
 40
0.0
 40
0.0
 40
1.669412907333085
 40
1.669412907333085
 40
1.669412907333085
 10
-3.910368187032361
 20
24.25950011422967
 30
0.0
 10
-3.280559255305683
 20
23.7117085723911
 30
0.0
 10
-2.650750323579004
 20
23.16391703055253
 30
0.0
  0
SPLINE
  5
AF
330
1F
100
AcDbEntity
  8
MAKE2D VISIBLE LINES
100
AcDbSpline
210
0.0
220
0.0
230
1.0
 70
    24
 71
     2
 72
     6
 73
     3
 74
     0
 42
0.0000000001
 43
0.0000000001
 40
0.0
 40
0.0
 40
0.0
 40
1.415646325406246
 40
1.415646325406246
 40
1.415646325406246
 10
-2.629257389926494
 20
23.32982420928332
 30
0.0
 10
-3.163054455860212
 20
23.79466216175666
 30
0.0
 10
-3.696851521793931
 20
24.25950011423
 30
0.0
  0
SPLINE
  5
B0
330
1F
100
AcDbEntity
  8
MAKE2D VISIBLE LINES
100
AcDbSpline
210
0.0
220
0.0
230
1.0
 70
    12
 71
     2
 72
     6
 73
     3
 74
     0
 42
0.0000000001
 43
0.0000000001
 40
0.0
 40
0.0
 40
0.0
 40
0.0056002636067569
 40
0.0056002636067569
 40
0.0056002636067569
 10
7.321045990196183
 20
0.1513129328710204
 30
0.0
 41
1.0
 10
7.318246446422372
 20
0.1512500617974456
 30
0.0
 41
0.9999368736477319
 10
7.315446196770893
 20
0.1512501142299989
 30
0.0
 41
1.0
  0
SPLINE
  5
B1
330
1F
100
AcDbEntity
  8
MAKE2D VISIBLE LINES
100
AcDbSpline
210
0.0
220
0.0
230
1.0
 70
    24
 71
     2
 72
     6
 73
     3
 74
     0
 42
0.0000000001
 43
0.0000000001
 40
0.0
 40
0.0
 40
0.0
 40
0.2862633786799627
 40
0.2862633786799627
 40
0.2862633786799627
 10
-6.81005694421755
 20
7.808390598590886
 30
0.0
 10
-6.666925254877569
 20
7.808390598590863
 30
0.0
 10
-6.523793565537588
 20
7.808390598590839
 30
0.0
  0
SPLINE
  5
B2
330
1F
100
AcDbEntity
  8
MAKE2D VISIBLE LINES
100
AcDbSpline
210
0.0
220
0.0
230
1.0
 70
    12
 71
     2
 72
     6
 73
     3
 74
     0
 42
0.0000000001
 43
0.0000000001
 40
0.0
 40
0.0
 40
0.0
 40
1.81442736810527
 40
1.81442736810527
 40
1.81442736810527
 10
3.809088477823636
 20
23.33125900000559
 30
0.0
 41
1.0
 10
4.931737949795939
 20
23.3312448485742
 30
0.0
 41
0.7355146087088088
 10
5.023740102678346
 20
22.21237155772088
 30
0.0
 41
1.0
  0
SPLINE
  5
B3
330
1F
100
AcDbEntity
  8
MAKE2D VISIBLE LINES
100
AcDbSpline
210
0.0
220
0.0
230
1.0
 70
    24
 71
     2
 72
     6
 73
     3
 74
     0
 42
0.0000000001
 43
0.0000000001
 40
0.0
 40
0.0
 40
0.0
 40
0.2586307413385818
 40
0.2586307413385818
 40
0.2586307413385818
 10
6.523837284960649
 20
8.244109629869158
 30
0.0
 10
6.653152655629938
 20
8.244109629869182
 30
0.0
 10
6.782468026299227
 20
8.24410962986921
 30
0.0
  0
SPLINE
  5
B4
330
1F
100
AcDbEntity
  8
MAKE2D VISIBLE LINES
100
AcDbSpline
210
0.0
220
0.0
230
1.0
 70
    12
 71
     2
 72
     6
 73
     3
 74
     0
 42
0.0000000001
 43
0.0000000001
 40
0.0
 40
0.0
 40
0.0
 40
0.1181990726800454
 40
0.1181990726800454
 40
0.1181990726800454
 10
7.273806187489328
 20
8.026250114229999
 30
0.0
 41
1.0
 10
7.273220932111016
 20
7.965695898109228
 30
0.0
 41
0.9642854237677805
 10
7.241786003811555
 20
7.91393683226887
 30
0.0
 41
1.0
  0
SPLINE
  5
B5
330
1F
100
AcDbEntity
  8
MAKE2D VISIBLE LINES
100
AcDbSpline
210
0.0
220
0.0
230
1.0
 70
    12
 71
     2
 72
     6
 73
     3
 74
     0
 42
0.0000000001
 43
0.0000000001
 40
0.0
 40
0.0
 40
0.0
 40
0.3925482940439251
 40
0.3925482940439251
 40
0.3925482940439251
 10
6.769452677605727
 20
0.9788572420334596
 30
0.0
 41
1.0
 10
6.782920880036611
 20
0.7817208733229154
 30
0.0
 41
0.9899963662015538
 10
6.740780279214704
 20
0.5886708536195573
 30
0.0
 41
1.0
  0
SPLINE
  5
B6
330
1F
100
AcDbEntity
  8
MAKE2D VISIBLE LINES
100
AcDbSpline
210
0.0
220
0.0
230
1.0
 70
    12
 71
     2
 72
     6
 73
     3
 74
     0
 42
0.0000000001
 43
0.0000000001
 40
0.0
 40
0.0
 40
0.0
 40
1.16271852063699
 40
1.16271852063699
 40
1.16271852063699
 10
4.587678539054366
 20
22.17692001741351
 30
0.0
 41
1.0
 10
4.528416428744465
 20
22.89380268509731
 30
0.0
 41
0.7356374299225548
 10
3.809088440247251
 20
22.89375900000626
 30
0.0
 41
1.0
  0
SPLINE
  5
B7
330
1F
100
AcDbEntity
  8
MAKE2D VISIBLE LINES
100
AcDbSpline
210
0.0
220
0.0
230
1.0
 70
    24
 71
     2
 72
     6
 73
     3
 74
     0
 42
0.0000000001
 43
0.0000000001
 40
0.0
 40
0.0
 40
0.0
 40
5.25715838592741
 40
5.25715838592741
 40
5.25715838592741
 10
-2.627857256903084
 20
23.331259
 30
0.0
 10
0.0007219360606214
 20
23.331259
 30
0.0
 10
2.629301129024327
 20
23.331259
 30
0.0
  0
SPLINE
  5
B8
330
1F
100
AcDbEntity
  8
MAKE2D VISIBLE LINES
100
AcDbSpline
210
0.0
220
0.0
230
1.0
 70
    24
 71
     2
 72
     6
 73
     3
 74
     0
 42
0.0000000001
 43
0.0000000001
 40
0.0
 40
0.0
 40
0.0
 40
0.2091797865732818
 40
0.2091797865732818
 40
0.2091797865732818
 10
-3.809044548422079
 20
23.331259
 30
0.0
 10
-3.704454655135436
 20
23.331259
 30
0.0
 10
-3.599864761848792
 20
23.331259
 30
0.0
  0
SPLINE
  5
B9
330
1F
100
AcDbEntity
  8
MAKE2D VISIBLE LINES
100
AcDbSpline
210
0.0
220
0.0
230
1.0
 70
    24
 71
     2
 72
     6
 73
     3
 74
     0
 42
0.0000000001
 43
0.0000000001
 40
0.0
 40
0.0
 40
0.0
 40
22.62154198641014
 40
22.62154198641014
 40
22.62154198641014
 10
-7.681533116497803
 20
0.979198618750057
 30
0.0
 10
-6.965658882158863
 20
12.26729254736966
 30
0.0
 10
-6.249784647819922
 20
23.55538647598927
 30
0.0
  0
SPLINE
  5
BA
330
1F
100
AcDbEntity
  8
MAKE2D VISIBLE LINES
100
AcDbSpline
210
0.0
220
0.0
230
1.0
 70
    24
 71
     2
 72
     6
 73
     3
 74
     0
 42
0.0000000001
 43
0.0000000001
 40
0.0
 40
0.0
 40
0.0
 40
10.06700038359
 40
10.06700038359
 40
10.06700038359
 10
-5.033478514041079
 20
24.69700011423
 30
0.0
 10
0.0000216777539208
 20
24.69700011423
 30
0.0
 10
5.03352186954892
 20
24.69700011423
 30
0.0
  0
SPLINE
  5
BB
330
1F
100
AcDbEntity
  8
MAKE2D VISIBLE LINES
100
AcDbSpline
210
0.0
220
0.0
230
1.0
 70
    12
 71
     2
 72
     6
 73
     3
 74
     0
 42
0.0000000001
 43
0.0000000001
 40
0.0
 40
0.0
 40
0.0
 40
1.837222956560164
 40
1.837222956560164
 40
1.837222956560164
 10
5.033521869548565
 20
24.69700011423226
 30
0.0
 41
1.0
 10
6.177435392147972
 20
24.69700699051171
 30
0.0
 41
0.7291362611428002
 10
6.249828386983353
 20
23.55538647495856
 30
0.0
 41
1.0
  0
SPLINE
  5
BC
330
1F
100
AcDbEntity
  8
MAKE2D VISIBLE LINES
100
AcDbSpline
210
0.0
220
0.0
230
1.0
 70
    24
 71
     2
 72
     6
 73
     3
 74
     0
 42
0.0000000001
 43
0.0000000001
 40
0.0
 40
0.0
 40
0.0
 40
0.2091799748797829
 40
0.2091799748797829
 40
0.2091799748797829
 10
3.59990850094664
 20
23.331259
 30
0.0
 10
3.704498488386534
 20
23.331259
 30
0.0
 10
3.809088475826428
 20
23.331259
 30
0.0
  0
SPLINE
  5
BD
330
1F
100
AcDbEntity
  8
MAKE2D VISIBLE LINES
100
AcDbSpline
210
0.0
220
0.0
230
1.0
 70
    12
 71
     2
 72
     6
 73
     3
 74
     0
 42
0.0000000001
 43
0.0000000001
 40
0.0
 40
0.0
 40
0.0
 40
1.83721997897842
 40
1.83721997897842
 40
1.83721997897842
 10
-6.249784647809676
 20
23.55538647615788
 30
0.0
 41
1.0
 10
-6.177386001390104
 20
24.6970005312559
 30
0.0
 41
0.7291400028255534
 10
-5.03347856859645
 20
24.69700011422755
 30
0.0
 41
1.0
  0
SPLINE
  5
BE
330
1F
100
AcDbEntity
  8
MAKE2D VISIBLE LINES
100
AcDbSpline
210
0.0
220
0.0
230
1.0
 70
    12
 71
     2
 72
     6
 73
     3
 74
     0
 42
0.0000000001
 43
0.0000000001
 40
0.0
 40
0.0
 40
0.0
 40
0.3925518488018015
 40
0.3925518488018015
 40
0.3925518488018015
 10
-6.740726349262147
 20
0.5886708536195586
 30
0.0
 41
1.0
 10
-6.782902136441065
 20
0.7817179351033394
 30
0.0
 41
0.9899750264136749
 10
-6.769408938042943
 20
0.9788572419159486
 30
0.0
 41
1.0
  0
SPLINE
  5
BF
330
1F
100
AcDbEntity
  8
MAKE2D VISIBLE LINES
100
AcDbSpline
210
0.0
220
0.0
230
1.0
 70
    12
 71
     2
 72
     6
 73
     3
 74
     0
 42
0.0000000001
 43
0.0000000001
 40
0.0
 40
0.0
 40
0.0
 40
1.814422464366426
 40
1.814422464366426
 40
1.814422464366426
 10
-5.023696363607215
 20
22.21237155739649
 30
0.0
 41
1.0
 10
-4.931682933961632
 20
23.33123279729098
 30
0.0
 41
0.7355219344683895
 10
-3.809044548422108
 20
23.331259000007
 30
0.0
 41
1.0
  0
SPLINE
  5
C0
330
1F
100
AcDbEntity
  8
MAKE2D VISIBLE LINES
100
AcDbSpline
210
0.0
220
0.0
230
1.0
 70
    12
 71
     2
 72
     6
 73
     3
 74
     0
 42
0.0000000001
 43
0.0000000001
 40
0.0
 40
0.0
 40
0.0
 40
1.16268806638795
 40
1.16268806638795
 40
1.16268806638795
 10
-3.809044548422065
 20
22.89375900000613
 30
0.0
 41
1.0
 10
-4.528305031148596
 20
22.89372935162675
 30
0.0
 41
0.7357065522762891
 10
-4.587634801562274
 20
22.17692001767964
 30
0.0
 41
1.0
  0
SPLINE
  5
C1
330
1F
100
AcDbEntity
  8
MAKE2D VISIBLE LINES
100
AcDbSpline
210
0.0
220
0.0
230
1.0
 70
    24
 71
     2
 72
     6
 73
     3
 74
     0
 42
0.0000000001
 43
0.0000000001
 40
0.0
 40
0.0
 40
0.0
 40
14.01499100621983
 40
14.01499100621983
 40
14.01499100621983
 10
-5.023712666398822
 20
22.21197364258637
 30
0.0
 10
-5.597896397155374
 20
15.22804163622776
 30
0.0
 10
-6.172080127911926
 20
8.244109629869158
 30
0.0
  0
SPLINE
  5
C2
330
1F
100
AcDbEntity
  8
MAKE2D VISIBLE LINES
100
AcDbSpline
210
0.0
220
0.0
230
1.0
 70
    24
 71
     2
 72
     6
 73
     3
 74
     0
 42
0.0000000001
 43
0.0000000001
 40
0.0
 40
0.0
 40
0.0
 40
14.01499100621983
 40
14.01499100621983
 40
14.01499100621983
 10
6.172123867010086
 20
8.244109629869158
 30
0.0
 10
5.597940136253527
 20
15.22804163622776
 30
0.0
 10
5.023756405496968
 20
22.21197364258637
 30
0.0
  0
SPLINE
  5
C3
330
1F
100
AcDbEntity
  8
MAKE2D VISIBLE LINES
100
AcDbSpline
210
0.0
220
0.0
230
1.0
 70
    24
 71
     2
 72
     6
 73
     3
 74
     0
 42
0.0000000001
 43
0.0000000001
 40
0.0
 40
0.0
 40
0.0
 40
6.852577250802377
 40
6.852577250802377
 40
6.852577250802377
 10
6.769436452449497
 20
0.978855914382434
 30
0.0
 10
6.488691472348044
 20
4.393623256486636
 30
0.0
 10
6.207946492246592
 20
7.808390598590839
 30
0.0
  0
SPLINE
  5
C4
330
1F
100
AcDbEntity
  8
MAKE2D VISIBLE LINES
100
AcDbSpline
210
0.0
220
0.0
230
1.0
 70
    24
 71
     2
 72
     6
 73
     3
 74
     0
 42
0.0000000001
 43
0.0000000001
 40
0.0
 40
0.0
 40
0.0
 40
0.2586307216632686
 40
0.2586307216632686
 40
0.2586307216632686
 10
-6.782424287200854
 20
8.244109629869206
 30
0.0
 10
-6.653108926369214
 20
8.244109629869182
 30
0.0
 10
-6.523793565537574
 20
8.244109629869158
 30
0.0
  0
SPLINE
  5
C5
330
1F
100
AcDbEntity
  8
MAKE2D VISIBLE LINES
100
AcDbSpline
210
0.0
220
0.0
230
1.0
 70
     8
 71
     3
 72
    11
 73
     7
 74
     0
 42
0.0000000001
 43
0.0000000001
 40
0.0
 40
0.0
 40
0.0
 40
0.0
 40
0.1083440437763834
 40
0.2298328572904526
 40
0.3451171607521566
 40
0.4318444747085896
 40
0.4318444747085896
 40
0.4318444747085896
 40
0.4318444747085896
 10
-7.244910276993792
 20
0.9515084392497835
 30
0.0
 10
-7.247184481761806
 20
0.9154369706176514
 30
0.0
 10
-7.246980307448709
 20
0.8387849359807813
 30
0.0
 10
-7.235778426013269
 20
0.7240850834822636
 30
0.0
 10
-7.214976214727145
 20
0.6182395243717083
 30
0.0
 10
-7.194879056555379
 20
0.5537025482689273
 30
0.0
 10
-7.181781688420131
 20
0.5278694616564836
 30
0.0
  0
SPLINE
  5
C6
330
1F
100
AcDbEntity
  8
MAKE2D VISIBLE LINES
100
AcDbSpline
210
0.0
220
0.0
230
1.0
 70
     8
 71
     3
 72
     8
 73
     4
 74
     0
 42
0.0000000001
 43
0.0000000001
 40
1.188914191248809
 40
1.188914191248809
 40
1.188914191248809
 40
1.188914191248809
 40
1.207483108093818
 40
1.207483108093818
 40
1.207483108093818
 40
1.207483108093818
 10
15.93046840844569
 20
0.1508376566343879
 30
0.0
 10
15.93666606406377
 20
0.1506120759844908
 30
0.0
 10
15.9428749903288
 20
0.1505100871132232
 30
0.0
 10
15.94909293270214
 20
0.150535421424093
 30
0.0
  0
SPLINE
  5
C7
330
1F
100
AcDbEntity
  8
MAKE2D VISIBLE LINES
100
AcDbSpline
210
0.0
220
0.0
230
1.0
 70
     8
 71
     3
 72
    12
 73
     8
 74
     0
 42
0.0000000001
 43
0.0000000001
 40
0.0
 40
0.0
 40
0.0
 40
0.0
 40
0.1388963287627613
 40
0.2895152272447044
 40
0.6119044289149888
 40
0.9297421704497608
 40
1.188914191248809
 40
1.188914191248809
 40
1.188914191248809
 40
1.188914191248809
 10
15.26152213187902
 20
0.9932617188834518
 30
0.0
 10
15.25464880180315
 20
0.9473755090355279
 30
0.0
 10
15.25269294785995
 20
0.8504611151044454
 30
0.0
 10
15.29631344696044
 20
0.6494023893983613
 30
0.0
 10
15.42802411461219
 20
0.4167079905026865
 30
0.0
 10
15.65626832426293
 20
0.214598667813206
 30
0.0
 10
15.84396584374788
 20
0.1539861543833408
 30
0.0
 10
15.93046840844569
 20
0.1508376566343879
 30
0.0
  0
SPLINE
  5
C8
330
1F
100
AcDbEntity
  8
MAKE2D VISIBLE LINES
100
AcDbSpline
210
0.0
220
0.0
230
1.0
 70
    24
 71
     2
 72
     6
 73
     3
 74
     0
 42
0.0000000001
 43
0.0000000001
 40
2.008331013689998
 40
2.008331013689998
 40
2.008331013689998
 40
5.497301168112187
 40
5.497301168112187
 40
5.497301168112187
 10
17.95742400835698
 20
0.1505354214240703
 30
0.0
 10
19.70190908556807
 20
0.1505354214240694
 30
0.0
 10
21.44639416277917
 20
0.1505354214240686
 30
0.0
  0
SPLINE
  5
C9
330
1F
100
AcDbEntity
  8
MAKE2D VISIBLE LINES
100
AcDbSpline
210
0.0
220
0.0
230
1.0
 70
    24
 71
     2
 72
     6
 73
     3
 74
     0
 42
0.0000000001
 43
0.0000000001
 40
0.0
 40
0.0
 40
0.0
 40
0.0771915831659945
 40
0.0771915831659945
 40
0.0771915831659945
 10
15.94909299466698
 20
0.1505354214240713
 30
0.0
 10
15.98768878624998
 20
0.1505354214240713
 30
0.0
 10
16.02628457783297
 20
0.1505354214240713
 30
0.0
  0
SPLINE
  5
CA
330
1F
100
AcDbEntity
  8
MAKE2D VISIBLE LINES
100
AcDbSpline
210
0.0
220
0.0
230
1.0
 70
     8
 71
     3
 72
    12
 73
     8
 74
     0
 42
0.0000000001
 43
0.0000000001
 40
0.0278306462876786
 40
0.0278306462876786
 40
0.0278306462876786
 40
0.0278306462876786
 40
0.1354178725411416
 40
0.2819915297365138
 40
0.6099961731568206
 40
0.9347144600942024
 40
1.223535074358965
 40
1.223535074358965
 40
1.223535074358965
 40
1.223535074358965
 10
32.50641444660646
 20
0.1513362198540447
 30
0.0
 10
32.54222884070451
 20
0.1533079980330323
 30
0.0
 10
32.62614187862872
 20
0.1664861231376915
 30
0.0
 10
32.80827739457747
 20
0.2388041616029598
 30
0.0
 10
33.01559678044769
 20
0.4127051868188249
 30
0.0
 10
33.1799693791631
 20
0.6855561962336686
 30
0.0
 10
33.21295673400119
 20
0.8920563799831243
 30
0.0
 10
33.20238130091831
 20
0.988112085566119
 30
0.0
  0
SPLINE
  5
CB
330
1F
100
AcDbEntity
  8
MAKE2D VISIBLE LINES
100
AcDbSpline
210
0.0
220
0.0
230
1.0
 70
     8
 71
     3
 72
     8
 73
     4
 74
     0
 42
0.0000000001
 43
0.0000000001
 40
0.0
 40
0.0
 40
0.0
 40
0.0
 40
0.0278306462876786
 40
0.0278306462876786
 40
0.0278306462876786
 40
0.0278306462876786
 10
32.47857065542804
 20
0.1505354214240668
 30
0.0
 10
32.48786587024967
 20
0.1505574359046259
 30
0.0
 10
32.49714998493327
 20
0.1508261605935905
 30
0.0
 10
32.50641444660646
 20
0.1513362198540447
 30
0.0
  0
SPLINE
  5
CC
330
1F
100
AcDbEntity
  8
MAKE2D VISIBLE LINES
100
AcDbSpline
210
0.0
220
0.0
230
1.0
 70
    24
 71
     2
 72
     6
 73
     3
 74
     0
 42
0.0000000001
 43
0.0000000001
 40
9.192773304126616
 40
9.192773304126616
 40
9.192773304126616
 40
9.260712681860014
 40
9.260712681860014
 40
9.260712681860014
 10
32.41063127769547
 20
0.1505354214240696
 30
0.0
 10
32.44460096656216
 20
0.1505354214240696
 30
0.0
 10
32.47857065542886
 20
0.1505354214240695
 30
0.0
  0
SPLINE
  5
CD
330
1F
100
AcDbEntity
  8
MAKE2D VISIBLE LINES
100
AcDbSpline
210
0.0
220
0.0
230
1.0
 70
    24
 71
     2
 72
     6
 73
     3
 74
     0
 42
0.0000000001
 43
0.0000000001
 40
0.0
 40
0.0
 40
0.0
 40
7.261633873602609
 40
7.261633873602609
 40
7.261633873602609
 10
23.21785797356884
 20
0.1505354214240855
 30
0.0
 10
26.84867491037015
 20
0.1505354214240792
 30
0.0
 10
30.47949184717146
 20
0.1505354214240729
 30
0.0
  0
SPLINE
  5
CE
330
1F
100
AcDbEntity
  8
DEFAULT
100
AcDbSpline
210
0.0
220
0.0
230
1.0
 70
     8
 71
     3
 72
     9
 73
     5
 74
     0
 42
0.0000000001
 43
0.0000000001
 40
-2.0
 40
-2.0
 40
-2.0
 40
-2.0
 40
-1.0
 40
0.0
 40
0.0
 40
0.0
 40
0.0
 10
30.68809727769547
 20
-0.0007099061563487
 30
0.0
 10
30.63741553462648
 20
-0.0014480079597465
 30
0.0
 10
30.53736608907904
 20
0.0353242572977353
 30
0.0
 10
30.48008001237385
 20
0.1261081493921807
 30
0.0
 10
30.47441627769546
 20
0.1768430938436509
 30
0.0
  0
SPLINE
  5
CF
330
1F
100
AcDbEntity
  8
DEFAULT
100
AcDbSpline
210
0.0
220
0.0
230
1.0
 70
    24
 71
     2
 72
     6
 73
     3
 74
     0
 42
0.0000000001
 43
0.0000000001
 40
-1.0
 40
-1.0
 40
-1.0
 40
0.0
 40
0.0
 40
0.0
 10
32.29745527769546
 20
-0.0007099061563487
 30
0.0
 10
31.49277627769547
 20
-0.0007099061563487
 30
0.0
 10
30.68809727769547
 20
-0.0007099061563487
 30
0.0
  0
SPLINE
  5
D0
330
1F
100
AcDbEntity
  8
DEFAULT
100
AcDbSpline
210
0.0
220
0.0
230
1.0
 70
     8
 71
     3
 72
     9
 73
     5
 74
     0
 42
0.0000000001
 43
0.0000000001
 40
0.0
 40
0.0
 40
0.0
 40
0.0
 40
1.000023671052881
 40
2.0
 40
2.0
 40
2.0
 40
2.0
 10
30.46482227769546
 20
0.3734640938436513
 30
0.0
 10
30.46795804295839
 20
0.4194505530587671
 30
0.0
 10
30.51557376415191
 20
0.504599246706543
 30
0.0
 10
30.60616573821028
 20
0.5393205628975783
 30
0.0
 10
30.65193077769547
 20
0.5392900938436505
 30
0.0
  0
SPLINE
  5
D1
330
1F
100
AcDbEntity
  8
DEFAULT
100
AcDbSpline
210
0.0
220
0.0
230
1.0
 70
     8
 71
     3
 72
     9
 73
     5
 74
     0
 42
0.0000000001
 43
0.0000000001
 40
0.0
 40
0.0
 40
0.0
 40
0.0
 40
1.0
 40
2.0
 40
2.0
 40
2.0
 40
2.0
 10
32.17349127769546
 20
0.5392900938436505
 30
0.0
 10
32.22157150103877
 20
0.5394848061904609
 30
0.0
 10
32.32847835874988
 20
0.506288007974554
 30
0.0
 10
32.35170655872169
 20
0.397054203824184
 30
0.0
 10
32.35410840579546
 20
0.3493139714736522
 30
0.0
  0
SPLINE
  5
D2
330
1F
100
AcDbEntity
  8
DEFAULT
100
AcDbSpline
210
0.0
220
0.0
230
1.0
 70
     8
 71
     3
 72
     9
 73
     5
 74
     0
 42
0.0000000001
 43
0.0000000001
 40
0.0
 40
0.0
 40
0.0
 40
0.0
 40
1.0
 40
2.0
 40
2.0
 40
2.0
 40
2.0
 10
32.50645827769546
 20
0.1505400938436523
 30
0.0
 10
32.49435887920005
 20
0.1056830311620702
 30
0.0
 10
32.43516550638795
 20
0.0291098850346883
 30
0.0
 10
32.343730847918
 20
-0.0015099323981556
 30
0.0
 10
32.29745527769546
 20
-0.0007099061563487
 30
0.0
  0
POLYLINE
  5
D3
330
1F
100
AcDbEntity
  8
DEFAULT
100
AcDb2dPolyline
 66
     1
 10
0.0
 20
0.0
 30
0.0
  0
VERTEX
  5
D4
330
D3
100
AcDbEntity
  8
DEFAULT
100
AcDbVertex
100
AcDb2dVertex
 10
30.47441627769546
 20
0.1768430938436509
 30
0.0
  0
VERTEX
  5
D5
330
D3
100
AcDbEntity
  8
DEFAULT
100
AcDbVertex
100
AcDb2dVertex
 10
30.46482227769546
 20
0.3734640938436513
 30
0.0
  0
SEQEND
  5
D6
330
D3
100
AcDbEntity
  8
DEFAULT
  0
SPLINE
  5
D7
330
1F
100
AcDbEntity
  8
DEFAULT
100
AcDbSpline
210
0.0
220
0.0
230
1.0
 70
    24
 71
     2
 72
     6
 73
     3
 74
     0
 42
0.0000000001
 43
0.0000000001
 40
-1.0
 40
-1.0
 40
-1.0
 40
0.0
 40
0.0
 40
0.0
 10
30.65193077769547
 20
0.5392900938436505
 30
0.0
 10
31.41271102769547
 20
0.5392900938436505
 30
0.0
 10
32.17349127769546
 20
0.5392900938436505
 30
0.0
  0
ARC
  5
D8
330
1F
100
AcDbEntity
  8
DEFAULT
100
AcDbCircle
 10
32.8094453074393
 20
0.3526539773287842
 30
0.0
 40
0.455349151352799
100
AcDbArc
 50
180.4202708065835
 51
200.7469682870709
  0
ARC
  5
D9
330
1F
100
AcDbEntity
  8
DEFAULT
100
AcDbCircle
 10
32.51851946107612
 20
0.2512802870738469
 30
0.0
 40
0.1476091008211769
100
AcDbArc
 50
203.95406523744
 51
223.0377092802884
  0
SPLINE
  5
DA
330
1F
100
AcDbEntity
  8
DEFAULT
100
AcDbSpline
210
0.0
220
0.0
230
1.0
 70
    24
 71
     2
 72
     6
 73
     3
 74
     0
 42
0.0000000001
 43
0.0000000001
 40
-1.0
 40
-1.0
 40
-1.0
 40
0.0
 40
0.0
 40
0.0
 10
16.13946057783297
 20
-0.0007099061563487
 30
0.0
 10
16.94413957783297
 20
-0.0007099061563487
 30
0.0
 10
17.74881857783297
 20
-0.0007099061563487
 30
0.0
  0
SPLINE
  5
DB
330
1F
100
AcDbEntity
  8
DEFAULT
100
AcDbSpline
210
0.0
220
0.0
230
1.0
 70
     8
 71
     3
 72
     9
 73
     5
 74
     0
 42
0.0000000001
 43
0.0000000001
 40
-2.0
 40
-2.0
 40
-2.0
 40
-2.0
 40
-1.0
 40
0.0
 40
0.0
 40
0.0
 40
0.0
 10
17.74881857783297
 20
-0.0007099061563487
 30
0.0
 10
17.79950032090195
 20
-0.0014480079597465
 30
0.0
 10
17.89954976644939
 20
0.0353242572977353
 30
0.0
 10
17.95683584315458
 20
0.1261081493921807
 30
0.0
 10
17.96249957783297
 20
0.1768430938436509
 30
0.0
  0
SPLINE
  5
DC
330
1F
100
AcDbEntity
  8
DEFAULT
100
AcDbSpline
210
0.0
220
0.0
230
1.0
 70
    24
 71
     2
 72
     6
 73
     3
 74
     0
 42
0.0000000001
 43
0.0000000001
 40
-1.0
 40
-1.0
 40
-1.0
 40
0.0
 40
0.0
 40
0.0
 10
17.78498507783297
 20
0.5392900938436505
 30
0.0
 10
17.02420482783297
 20
0.5392900938436505
 30
0.0
 10
16.26342457783297
 20
0.5392900938436505
 30
0.0
  0
SPLINE
  5
DD
330
1F
100
AcDbEntity
  8
DEFAULT
100
AcDbSpline
210
0.0
220
0.0
230
1.0
 70
     8
 71
     3
 72
     9
 73
     5
 74
     0
 42
0.0000000001
 43
0.0000000001
 40
0.0
 40
0.0
 40
0.0
 40
0.0
 40
1.000023671052881
 40
2.0
 40
2.0
 40
2.0
 40
2.0
 10
17.97209357783297
 20
0.3734640938436513
 30
0.0
 10
17.96895781257005
 20
0.4194505530587671
 30
0.0
 10
17.92134209137653
 20
0.504599246706543
 30
0.0
 10
17.83075011731815
 20
0.5393205628975783
 30
0.0
 10
17.78498507783297
 20
0.5392900938436505
 30
0.0
  0
SPLINE
  5
DE
330
1F
100
AcDbEntity
  8
DEFAULT
100
AcDbSpline
210
0.0
220
0.0
230
1.0
 70
     8
 71
     3
 72
     9
 73
     5
 74
     0
 42
0.0000000001
 43
0.0000000001
 40
0.0
 40
0.0
 40
0.0
 40
0.0
 40
1.0
 40
2.0
 40
2.0
 40
2.0
 40
2.0
 10
15.93045757783298
 20
0.1505400938436523
 30
0.0
 10
15.94255697632838
 20
0.1056830311620702
 30
0.0
 10
16.00175034914049
 20
0.0291098850346883
 30
0.0
 10
16.09318500761043
 20
-0.0015099323981556
 30
0.0
 10
16.13946057783297
 20
-0.0007099061563487
 30
0.0
  0
POLYLINE
  5
DF
330
1F
100
AcDbEntity
  8
DEFAULT
100
AcDb2dPolyline
 66
     1
 10
0.0
 20
0.0
 30
0.0
  0
VERTEX
  5
E0
330
DF
100
AcDbEntity
  8
DEFAULT
100
AcDbVertex
100
AcDb2dVertex
 10
17.96249957783297
 20
0.1768430938436509
 30
0.0
  0
VERTEX
  5
E1
330
DF
100
AcDbEntity
  8
DEFAULT
100
AcDbVertex
100
AcDb2dVertex
 10
17.97209357783297
 20
0.3734640938436513
 30
0.0
  0
SEQEND
  5
E2
330
DF
100
AcDbEntity
  8
DEFAULT
  0
ARC
  5
E3
330
1F
100
AcDbEntity
  8
DEFAULT
100
AcDbCircle
 10
15.62747054808915
 20
0.3526539773287842
 30
0.0
 40
0.455349151352799
100
AcDbArc
 50
339.2530317129289
 51
359.5797291934165
  0
SPLINE
  5
E4
330
1F
100
AcDbEntity
  8
DEFAULT
100
AcDbSpline
210
0.0
220
0.0
230
1.0
 70
     8
 71
     3
 72
     9
 73
     5
 74
     0
 42
0.0000000001
 43
0.0000000001
 40
0.0
 40
0.0
 40
0.0
 40
0.0
 40
1.0
 40
2.0
 40
2.0
 40
2.0
 40
2.0
 10
16.26342457783297
 20
0.5392900938436505
 30
0.0
 10
16.21534435448966
 20
0.5394848061904609
 30
0.0
 10
16.10843749677855
 20
0.506288007974554
 30
0.0
 10
16.08520929680674
 20
0.397054203824184
 30
0.0
 10
16.08280744973298
 20
0.3493139714736522
 30
0.0
  0
ARC
  5
E5
330
1F
100
AcDbEntity
  8
DEFAULT
100
AcDbCircle
 10
15.91839639445231
 20
0.2512802870738469
 30
0.0
 40
0.1476091008211769
100
AcDbArc
 50
316.9622907197125
 51
336.0459347625595
  0
SPLINE
  5
E6
330
1F
100
AcDbEntity
  8
MAKE2D VISIBLE LINES
100
AcDbSpline
210
0.0
220
0.0
230
1.0
 70
    12
 71
     2
 72
     8
 73
     5
 74
     0
 42
0.0000000001
 43
0.0000000001
 40
0.0
 40
0.0
 40
0.0
 40
0.3436116975991822
 40
0.3436116975991822
 40
0.6186748666303505
 40
0.6186748666303505
 40
0.6186748666303505
 10
30.64716146406664
 20
24.5661203239035
 30
0.0
 41
1.0
 10
30.55857656113638
 20
24.76613101851693
 30
0.0
 41
0.7071067793873745
 10
30.35856586697374
 20
24.67754611456886
 30
0.0
 41
1.0
 10
30.21312815154562
 20
24.61313162860566
 30
0.0
 41
0.8087834127353323
 10
30.22957295762641
 20
24.45491998736576
 30
0.0
 41
1.0
  0
SPLINE
  5
E7
330
1F
100
AcDbEntity
  8
MAKE2D VISIBLE LINES
100
AcDbSpline
210
0.0
220
0.0
230
1.0
 70
    12
 71
     2
 72
     6
 73
     3
 74
     0
 42
0.0000000001
 43
0.0000000001
 40
0.0
 40
0.0
 40
0.0
 40
0.0176227124896056
 40
0.0176227124896056
 40
0.0176227124896056
 10
18.85379745154629
 20
23.32809446141524
 30
0.0
 41
1.0
 10
18.8450800610631
 20
23.32941019726359
 30
0.0
 41
0.9991888509204928
 10
18.83628506118093
 20
23.3300201437626
 30
0.0
 41
1.0
  0
SPLINE
  5
E8
330
1F
100
AcDbEntity
  8
MAKE2D VISIBLE LINES
100
AcDbSpline
210
0.0
220
0.0
230
1.0
 70
    12
 71
     2
 72
     6
 73
     3
 74
     0
 42
0.0000000001
 43
0.0000000001
 40
0.0
 40
0.0
 40
0.0
 40
0.0637007894605046
 40
0.0637007894605046
 40
0.0637007894605046
 10
31.980226134309
 20
8.234618028640737
 30
0.0
 41
1.0
 10
31.9494013616741
 20
8.24342913761968
 30
0.0
 41
0.9902517322044848
 10
31.9173420248164
 20
8.243394937063226
 30
0.0
 41
1.0
  0
SPLINE
  5
E9
330
1F
100
AcDbEntity
  8
MAKE2D VISIBLE LINES
100
AcDbSpline
210
0.0
220
0.0
230
1.0
 70
    24
 71
     2
 72
     6
 73
     3
 74
     0
 42
0.0000000001
 43
0.0000000001
 40
0.0
 40
0.0
 40
0.0
 40
0.4926498366626504
 40
0.4926498366626504
 40
0.4926498366626504
 10
17.35912400493519
 20
8.243394937063226
 30
0.0
 10
17.11279908660387
 20
8.243394937063226
 30
0.0
 10
16.86647416827254
 20
8.243394937063226
 30
0.0
  0
SPLINE
  5
EA
330
1F
100
AcDbEntity
  8
MAKE2D VISIBLE LINES
100
AcDbSpline
210
0.0
220
0.0
230
1.0
 70
    24
 71
     2
 72
     6
 73
     3
 74
     0
 42
0.0000000001
 43
0.0000000001
 40
0.0
 40
0.0
 40
0.0
 40
13.98842172559898
 40
13.98842172559898
 40
13.98842172559898
 10
17.35912400508161
 20
7.807675905784907
 30
0.0
 10
24.3533348678811
 20
7.807675905784907
 30
0.0
 10
31.34754573068059
 20
7.807675905784907
 30
0.0
  0
SPLINE
  5
EB
330
1F
100
AcDbEntity
  8
MAKE2D VISIBLE LINES
100
AcDbSpline
210
0.0
220
0.0
230
1.0
 70
    24
 71
     2
 72
     6
 73
     3
 74
     0
 42
0.0000000001
 43
0.0000000001
 40
0.0
 40
0.0
 40
0.0
 40
22.70730067487582
 40
22.70730067487582
 40
22.70730067487582
 10
30.33076266862637
 20
23.51735346159899
 30
0.0
 10
31.54908505345048
 20
12.22925944394303
 30
0.0
 10
32.7674074382746
 20
0.9411654262870589
 30
0.0
  0
SPLINE
  5
EC
330
1F
100
AcDbEntity
  8
MAKE2D VISIBLE LINES
100
AcDbSpline
210
0.0
220
0.0
230
1.0
 70
    12
 71
     2
 72
     6
 73
     3
 74
     0
 42
0.0000000001
 43
0.0000000001
 40
0.0
 40
0.0
 40
0.0
 40
0.0058740296880988
 40
0.0058740296880988
 40
0.0058740296880988
 10
22.52126262673609
 20
0.1506146820386709
 30
0.0
 41
1.0
 10
22.52419875383013
 20
0.1505356209882415
 30
0.0
 41
0.9999098678688683
 10
22.52713594516242
 20
0.1505354219264441
 30
0.0
 41
1.0
  0
SPLINE
  5
ED
330
1F
100
AcDbEntity
  8
MAKE2D VISIBLE LINES
100
AcDbSpline
210
0.0
220
0.0
230
1.0
 70
    24
 71
     2
 72
     6
 73
     3
 74
     0
 42
0.0000000001
 43
0.0000000001
 40
0.0
 40
0.0
 40
0.0
 40
13.98842172559821
 40
13.98842172559821
 40
13.98842172559821
 10
31.34754573068059
 20
8.243394937063226
 30
0.0
 10
24.35333486788149
 20
8.243394937063226
 30
0.0
 10
17.35912400508238
 20
8.243394937063226
 30
0.0
  0
SPLINE
  5
EE
330
1F
100
AcDbEntity
  8
MAKE2D VISIBLE LINES
100
AcDbSpline
210
0.0
220
0.0
230
1.0
 70
    12
 71
     2
 72
     6
 73
     3
 74
     0
 42
0.0000000001
 43
0.0000000001
 40
0.0
 40
0.0
 40
0.0
 40
0.9429961844902365
 40
0.9429961844902365
 40
0.9429961844902365
 10
30.22957452209524
 20
24.45490493375648
 30
0.0
 41
1.0
 10
30.28016579111706
 20
23.98612889502027
 30
0.0
 41
0.9999999999821076
 10
30.33076266863545
 20
23.51735346159564
 30
0.0
 41
1.0
  0
SPLINE
  5
EF
330
1F
100
AcDbEntity
  8
MAKE2D VISIBLE LINES
100
AcDbSpline
210
0.0
220
0.0
230
1.0
 70
     8
 71
     3
 72
    12
 73
     8
 74
     0
 42
0.0000000001
 43
0.0000000001
 40
0.0
 40
0.0
 40
0.0
 40
0.0
 40
0.0492150642316004
 40
0.1089139580638761
 40
0.2464351435185596
 40
0.3844581841410906
 40
0.4891929951470506
 40
0.4891929951470506
 40
0.4891929951470506
 40
0.4891929951470506
 10
32.76740743827589
 20
0.9411654262652593
 30
0.0
 10
32.76898381479281
 20
0.924858733005522
 30
0.0
 10
32.7660466498969
 20
0.8882372070374581
 30
0.0
 10
32.74067822358665
 20
0.8098752137088093
 30
0.0
 10
32.6811402994555
 20
0.7135938478595978
 30
0.0
 10
32.58825734857552
 20
0.6264812191948986
 30
0.0
 10
32.51388620528042
 20
0.5899620199669185
 30
0.0
 10
32.47857064985546
 20
0.588035421424074
 30
0.0
  0
SPLINE
  5
F0
330
1F
100
AcDbEntity
  8
MAKE2D VISIBLE LINES
100
AcDbSpline
210
0.0
220
0.0
230
1.0
 70
    24
 71
     2
 72
     6
 73
     3
 74
     0
 42
0.0000000001
 43
0.0000000001
 40
0.0
 40
0.0
 40
0.0
 40
22.70730068279533
 40
22.70730068279533
 40
22.70730068279533
 10
33.20238130091757
 20
0.9881120855660394
 30
0.0
 10
31.98405891566855
 20
12.2762061071589
 30
0.0
 10
30.76573653041952
 20
23.56430012875176
 30
0.0
  0
SPLINE
  5
F1
330
1F
100
AcDbEntity
  8
MAKE2D VISIBLE LINES
100
AcDbSpline
210
0.0
220
0.0
230
1.0
 70
    24
 71
     2
 72
     6
 73
     3
 74
     0
 42
0.0000000001
 43
0.0000000001
 40
0.0
 40
0.0
 40
0.0
 40
21.47360695915598
 40
21.47360695915598
 40
21.47360695915598
 10
18.46628547919807
 20
22.22637947988647
 30
0.0
 10
16.86390380923665
 20
11.6098206238894
 30
0.0
 10
15.26152213927524
 20
0.993261767892335
 30
0.0
  0
SPLINE
  5
F2
330
1F
100
AcDbEntity
  8
MAKE2D VISIBLE LINES
100
AcDbSpline
210
0.0
220
0.0
230
1.0
 70
    12
 71
     2
 72
     8
 73
     5
 74
     0
 42
0.0000000001
 43
0.0000000001
 40
0.0
 40
0.0
 40
0.0
 40
0.1747502757427152
 40
0.1747502757427152
 40
0.3439549515352803
 40
0.3439549515352803
 40
0.3439549515352803
 10
22.30840077047108
 20
0.3692854214217336
 30
0.0
 41
1.0
 10
22.3084007704701
 20
0.4616242917686842
 30
0.0
 41
0.9212831232737239
 10
22.37456713593171
 20
0.5260329795254695
 30
0.0
 41
1.0
 10
22.43840492439042
 20
0.588174947808543
 30
0.0
 41
0.9261384483740142
 10
22.52749402537679
 20
0.588035152112058
 30
0.0
 41
1.0
  0
SPLINE
  5
F3
330
1F
100
AcDbEntity
  8
MAKE2D VISIBLE LINES
100
AcDbSpline
210
0.0
220
0.0
230
1.0
 70
     8
 71
     3
 72
    12
 73
     8
 74
     0
 42
0.0000000001
 43
0.0000000001
 40
0.0
 40
0.0
 40
0.0
 40
0.0
 40
0.0420163103987107
 40
0.0967656452751756
 40
0.2265039241021237
 40
0.353977060944218
 40
0.4546339632519822
 40
0.4546339632519822
 40
0.4546339632519822
 40
0.4546339632519822
 10
15.94909292284541
 20
0.5880354214239905
 30
0.0
 10
15.93502232015602
 20
0.5886276820395571
 30
0.0
 10
15.903971181515
 20
0.5987279819103386
 30
0.0
 10
15.839558833028
 20
0.6387564271748278
 30
0.0
 10
15.76646049225885
 20
0.7143362928343036
 30
0.0
 10
15.70723268957288
 20
0.8187660351363666
 30
0.0
 10
15.69012095911586
 20
0.8943331169918272
 30
0.0
 10
15.69412240728763
 20
0.9279681380901503
 30
0.0
  0
SPLINE
  5
F4
330
1F
100
AcDbEntity
  8
MAKE2D VISIBLE LINES
100
AcDbSpline
210
0.0
220
0.0
230
1.0
 70
    24
 71
     2
 72
     6
 73
     3
 74
     0
 42
0.0000000001
 43
0.0000000001
 40
0.0
 40
0.0
 40
0.0
 40
0.6432566076916828
 40
0.6432566076916828
 40
0.6432566076916828
 10
21.44639416277908
 20
0.1505354214240677
 30
0.0
 10
21.76802246662492
 20
0.1505354214240677
 30
0.0
 10
22.08965077047077
 20
0.1505354214240677
 30
0.0
  0
SPLINE
  5
F5
330
1F
100
AcDbEntity
  8
MAKE2D VISIBLE LINES
100
AcDbSpline
210
0.0
220
0.0
230
1.0
 70
    24
 71
     2
 72
     6
 73
     3
 74
     0
 42
0.0000000001
 43
0.0000000001
 40
0.0
 40
0.0
 40
0.0
 40
21.47360695915708
 40
21.47360695915708
 40
21.47360695915708
 10
15.69412244795495
 20
0.9279684073552463
 30
0.0
 10
17.29650411791646
 20
11.54452726335286
 30
0.0
 10
18.89888578787796
 20
22.16108611935047
 30
0.0
  0
SPLINE
  5
F6
330
1F
100
AcDbEntity
  8
MAKE2D VISIBLE LINES
100
AcDbSpline
210
0.0
220
0.0
230
1.0
 70
    12
 71
     2
 72
     6
 73
     3
 74
     0
 42
0.0000000001
 43
0.0000000001
 40
0.0
 40
0.0
 40
0.0
 40
0.0176306038967351
 40
0.0176306038967351
 40
0.0176306038967351
 10
18.87110576014303
 20
23.32476393298187
 30
0.0
 41
1.0
 10
18.86251874988392
 20
23.3267781357454
 30
0.0
 41
0.9991881243950386
 10
18.85379745154629
 20
23.32809446141523
 30
0.0
 41
1.0
  0
SPLINE
  5
F7
330
1F
100
AcDbEntity
  8
MAKE2D VISIBLE LINES
100
AcDbSpline
210
0.0
220
0.0
230
1.0
 70
    24
 71
     2
 72
     6
 73
     3
 74
     0
 42
0.0000000001
 43
0.0000000001
 40
0.0
 40
0.0
 40
0.0
 40
9.260712663320554
 40
9.260712663320554
 40
9.260712663320554
 10
32.47857063689036
 20
0.588035421424066
 30
0.0
 10
27.84821430523009
 20
0.5880354214240544
 30
0.0
 10
23.21785797356981
 20
0.5880354214240429
 30
0.0
  0
SPLINE
  5
F8
330
1F
100
AcDbEntity
  8
MAKE2D VISIBLE LINES
100
AcDbSpline
210
0.0
220
0.0
230
1.0
 70
     8
 71
     3
 72
    11
 73
     7
 74
     0
 42
0.0000000001
 43
0.0000000001
 40
0.0
 40
0.0
 40
0.0
 40
0.0
 40
0.9294399948600052
 40
0.9675000528872606
 40
1.111656031722823
 40
1.254427708816437
 40
1.254427708816437
 40
1.254427708816437
 40
1.254427708816437
 10
18.8988857878777
 20
22.16108611935051
 30
0.0
 10
18.94374730895575
 20
22.46765064553176
 30
0.0
 10
18.99529745835101
 20
22.78599064844076
 30
0.0
 10
19.04754635480232
 20
23.15288010886614
 30
0.0
 10
18.99880230448319
 20
23.26121460424629
 30
0.0
 10
18.9192313064443
 20
23.31377762479623
 30
0.0
 10
18.871105760244
 20
23.32476393295097
 30
0.0
  0
SPLINE
  5
F9
330
1F
100
AcDbEntity
  8
MAKE2D VISIBLE LINES
100
AcDbSpline
210
0.0
220
0.0
230
1.0
 70
     8
 71
     3
 72
    13
 73
     9
 74
     0
 42
0.0000000001
 43
0.0000000001
 40
0.0
 40
0.0
 40
0.0
 40
0.0
 40
0.0700192831149014
 40
0.1447457403630657
 40
0.2874083968972826
 40
0.3249963253309799
 40
0.3305005791937177
 40
1.254390051931796
 40
1.254390051931796
 40
1.254390051931796
 40
1.254390051931796
 10
18.83627968420165
 20
23.33002051636254
 30
0.0
 10
18.81295614880279
 20
23.33164658811064
 30
0.0
 10
18.7644158573602
 20
23.32698294709522
 30
0.0
 10
18.67545135137962
 20
23.28758048794206
 30
0.0
 10
18.62101696923265
 20
23.21641326375659
 30
0.0
 10
18.6065624894326
 20
23.15594132842282
 30
0.0
 10
18.55852254599757
 20
22.83721971810185
 30
0.0
 10
18.51222074288807
 20
22.53089490679108
 30
0.0
 10
18.46628547919792
 20
22.22637947988489
 30
0.0
  0
SPLINE
  5
FA
330
1F
100
AcDbEntity
  8
MAKE2D VISIBLE LINES
100
AcDbSpline
210
0.0
220
0.0
230
1.0
 70
    24
 71
     2
 72
     6
 73
     3
 74
     0
 42
0.0000000001
 43
0.0000000001
 40
0.0
 40
0.0
 40
0.0
 40
0.6432566046324766
 40
0.6432566046324766
 40
0.6432566046324766
 10
22.08965076741162
 20
0.5880354214240677
 30
0.0
 10
21.76802246509538
 20
0.5880354214240677
 30
0.0
 10
21.44639416277914
 20
0.5880354214240677
 30
0.0
  0
SPLINE
  5
FB
330
1F
100
AcDbEntity
  8
MAKE2D VISIBLE LINES
100
AcDbSpline
210
0.0
220
0.0
230
1.0
 70
    24
 71
     2
 72
     6
 73
     3
 74
     0
 42
0.0000000001
 43
0.0000000001
 40
0.0
 40
0.0
 40
0.0
 40
0.6903643224772367
 40
0.6903643224772367
 40
0.6903643224772367
 10
23.21785797356974
 20
0.5880354214240677
 30
0.0
 10
22.87267581233112
 20
0.5880354214240677
 30
0.0
 10
22.5274936510925
 20
0.5880354214240677
 30
0.0
  0
SPLINE
  5
FC
330
1F
100
AcDbEntity
  8
MAKE2D VISIBLE LINES
100
AcDbSpline
210
0.0
220
0.0
230
1.0
 70
    12
 71
     2
 72
     6
 73
     3
 74
     0
 42
0.0000000001
 43
0.0000000001
 40
0.0
 40
0.0
 40
0.0
 40
0.3377228414872811
 40
0.3377228414872811
 40
0.3377228414872811
 10
22.52126262673609
 20
0.1506146820386709
 30
0.0
 41
1.0
 10
22.30840077047334
 20
0.1563464100645247
 30
0.0
 41
0.7165602656139033
 10
22.30840077047108
 20
0.3692854214217336
 30
0.0
 41
1.0
  0
SPLINE
  5
FD
330
1F
100
AcDbEntity
  8
MAKE2D VISIBLE LINES
100
AcDbSpline
210
0.0
220
0.0
230
1.0
 70
    12
 71
     2
 72
     6
 73
     3
 74
     0
 42
0.0000000001
 43
0.0000000001
 40
0.0
 40
0.0
 40
0.0
 40
0.0709678151118894
 40
0.0709678151118894
 40
0.0709678151118894
 10
16.79661045755871
 20
8.23248833627452
 30
0.0
 41
1.0
 10
16.83066708758932
 20
8.24344550280397
 30
0.0
 41
0.9878031320583174
 10
16.86644293126159
 20
8.243394936667482
 30
0.0
 41
1.0
  0
SPLINE
  5
FE
330
1F
100
AcDbEntity
  8
MAKE2D VISIBLE LINES
100
AcDbSpline
210
0.0
220
0.0
230
1.0
 70
    24
 71
     2
 72
     6
 73
     3
 74
     0
 42
0.0000000001
 43
0.0000000001
 40
0.0
 40
0.0
 40
0.0
 40
5.497301168112195
 40
5.497301168112195
 40
5.497301168112195
 10
21.44639416277914
 20
0.588035421424066
 30
0.0
 10
18.69774357872304
 20
0.5880354214240597
 30
0.0
 10
15.94909299466694
 20
0.5880354214240535
 30
0.0
  0
SPLINE
  5
FF
330
1F
100
AcDbEntity
  8
MAKE2D VISIBLE LINES
100
AcDbSpline
210
0.0
220
0.0
230
1.0
 70
    12
 71
     2
 72
     6
 73
     3
 74
     0
 42
0.0000000001
 43
0.0000000001
 40
0.0
 40
0.0
 40
0.0
 40
0.1363605544026532
 40
0.1363605544026532
 40
0.1363605544026532
 10
16.86644293126158
 20
7.80767590618065
 30
0.0
 41
1.0
 10
16.79589769511493
 20
7.807004185787464
 30
0.0
 41
0.950400546893758
 10
16.73860425854386
 20
7.848169021231683
 30
0.0
 41
1.0
  0
SPLINE
  5
100
330
1F
100
AcDbEntity
  8
MAKE2D VISIBLE LINES
100
AcDbSpline
210
0.0
220
0.0
230
1.0
 70
    24
 71
     2
 72
     6
 73
     3
 74
     0
 42
0.0000000001
 43
0.0000000001
 40
0.0
 40
0.0
 40
0.0
 40
0.569774500595905
 40
0.569774500595905
 40
0.569774500595905
 10
31.91732094479273
 20
8.243394937063226
 30
0.0
 10
31.63243369449478
 20
8.243394937063227
 30
0.0
 10
31.34754644419683
 20
8.24339493706323
 30
0.0
  0
SPLINE
  5
101
330
1F
100
AcDbEntity
  8
MAKE2D VISIBLE LINES
100
AcDbSpline
210
0.0
220
0.0
230
1.0
 70
    24
 71
     2
 72
     6
 73
     3
 74
     0
 42
0.0000000001
 43
0.0000000001
 40
0.0
 40
0.0
 40
0.0
 40
0.4926498366598864
 40
0.4926498366598864
 40
0.4926498366598864
 10
16.86647416827568
 20
7.807675905784907
 30
0.0
 10
17.11279908660563
 20
7.807675905784907
 30
0.0
 10
17.35912400493557
 20
7.807675905784907
 30
0.0
  0
SPLINE
  5
102
330
1F
100
AcDbEntity
  8
MAKE2D VISIBLE LINES
100
AcDbSpline
210
0.0
220
0.0
230
1.0
 70
    12
 71
     2
 72
     6
 73
     3
 74
     0
 42
0.0000000001
 43
0.0000000001
 40
0.0
 40
0.0
 40
0.0
 40
0.0730168212957441
 40
0.0730168212957441
 40
0.0730168212957441
 10
22.30840077047109
 20
0.3692854214217336
 30
0.0
 41
1.0
 10
22.30840077047068
 20
0.3324342209115978
 30
0.0
 41
0.9861052279730796
 10
22.29632731074846
 20
0.2976169471904395
 30
0.0
 41
1.0
  0
SPLINE
  5
103
330
1F
100
AcDbEntity
  8
MAKE2D VISIBLE LINES
100
AcDbSpline
210
0.0
220
0.0
230
1.0
 70
    12
 71
     2
 72
     8
 73
     5
 74
     0
 42
0.0000000001
 43
0.0000000001
 40
0.0
 40
0.0
 40
0.0
 40
0.0363039314129101
 40
0.0363039314129101
 40
0.3434072172514385
 40
0.3434072172514385
 40
0.3434072172514385
 10
22.08985524967859
 20
0.5880353258543409
 30
0.0
 41
1.0
 10
22.10804898580484
 20
0.5880183190320788
 30
0.0
 41
0.9965591005024589
 10
22.1259899319535
 20
0.5849959400427818
 30
0.0
 41
1.0
 10
22.30840077047306
 20
0.5542665302784782
 30
0.0
 41
0.7635842720525269
 10
22.30840077047108
 20
0.3692854214217336
 30
0.0
 41
1.0
  0
SPLINE
  5
104
330
1F
100
AcDbEntity
  8
MAKE2D VISIBLE LINES
100
AcDbSpline
210
0.0
220
0.0
230
1.0
 70
    24
 71
     2
 72
     6
 73
     3
 74
     0
 42
0.0000000001
 43
0.0000000001
 40
0.0
 40
0.0
 40
0.0
 40
11.271605416409
 40
11.271605416409
 40
11.271605416409
 10
30.228402
 20
24.47826884997486
 30
0.0
 10
24.63108816362195
 20
23.82073559386073
 30
0.0
 10
19.03377432724391
 20
23.16320233774659
 30
0.0
  0
SPLINE
  5
105
330
1F
100
AcDbEntity
  8
MAKE2D VISIBLE LINES
100
AcDbSpline
210
0.0
220
0.0
230
1.0
 70
    24
 71
     2
 72
     6
 73
     3
 74
     0
 42
0.0000000001
 43
0.0000000001
 40
0.0
 40
0.0
 40
0.0
 40
0.569774500589812
 40
0.569774500589812
 40
0.569774500589812
 10
31.34754644419672
 20
7.807675905784907
 30
0.0
 10
31.63243369449163
 20
7.807675905784907
 30
0.0
 10
31.91732094478654
 20
7.807675905784907
 30
0.0
  0
SPLINE
  5
106
330
1F
100
AcDbEntity
  8
MAKE2D VISIBLE LINES
100
AcDbSpline
210
0.0
220
0.0
230
1.0
 70
     8
 71
     3
 72
    10
 73
     6
 74
     0
 42
0.0000000001
 43
0.0000000001
 40
0.0
 40
0.0
 40
0.0
 40
0.0
 40
0.9442396304986073
 40
0.9756190367975962
 40
1.009564901011935
 40
1.009564901011935
 40
1.009564901011935
 40
1.009564901011935
 10
30.76573653042
 20
23.56430012875225
 30
0.0
 10
30.73184350424068
 20
23.87721553580123
 30
0.0
 10
30.69724391488863
 20
24.20057865119806
 30
0.0
 10
30.6608770293657
 20
24.53512749457448
 30
0.0
 10
30.65069206416284
 20
24.55538874169166
 30
0.0
 10
30.64727033125703
 20
24.56587410995079
 30
0.0
  0
SPLINE
  5
107
330
1F
100
AcDbEntity
  8
MAKE2D VISIBLE LINES
100
AcDbSpline
210
0.0
220
0.0
230
1.0
 70
    24
 71
     2
 72
     6
 73
     3
 74
     0
 42
0.0000000001
 43
0.0000000001
 40
0.0
 40
0.0
 40
0.0
 40
11.60178179196455
 40
11.60178179196455
 40
11.60178179196455
 10
18.853537693686
 20
23.33030482879441
 30
0.0
 10
24.61478249458085
 20
24.00735248683041
 30
0.0
 10
30.37602729547571
 20
24.68440014486641
 30
0.0
  0
SPLINE
  5
108
330
1F
100
AcDbEntity
  8
MAKE2D VISIBLE LINES
100
AcDbSpline
210
0.0
220
0.0
230
1.0
 70
    24
 71
     2
 72
     6
 73
     3
 74
     0
 42
0.0000000001
 43
0.0000000001
 40
0.0
 40
0.0
 40
0.0
 40
0.6907072030969204
 40
0.6907072030969204
 40
0.6907072030969204
 10
22.527150770473
 20
0.1505354214240677
 30
0.0
 10
22.87250437202146
 20
0.1505354214240677
 30
0.0
 10
23.21785797356992
 20
0.1505354214240677
 30
0.0
  0
SPLINE
  5
109
330
1F
100
AcDbEntity
  8
MAKE2D VISIBLE LINES
100
AcDbSpline
210
0.0
220
0.0
230
1.0
 70
    12
 71
     2
 72
     6
 73
     3
 74
     0
 42
0.0000000001
 43
0.0000000001
 40
0.0
 40
0.0
 40
0.0
 40
0.1105110306480459
 40
0.1105110306480459
 40
0.1105110306480459
 10
31.91735816492965
 20
7.807675906346216
 30
0.0
 41
1.0
 10
31.97380081163664
 20
7.807373965510542
 30
0.0
 41
0.9687271403323939
 10
32.02343852164124
 20
7.834243302701072
 30
0.0
 41
1.0
  0
SPLINE
  5
10A
330
1F
100
AcDbEntity
  8
MAKE2D VISIBLE LINES
100
AcDbSpline
210
0.0
220
0.0
230
1.0
 70
    12
 71
     2
 72
     6
 73
     3
 74
     0
 42
0.0000000001
 43
0.0000000001
 40
0.0
 40
0.0
 40
0.0
 40
0.2705942303538899
 40
0.2705942303538899
 40
0.2705942303538899
 10
22.29632731074846
 20
0.2976169471904395
 30
0.0
 41
1.0
 10
22.24532454266905
 20
0.1505358803205144
 30
0.0
 41
0.8147484568554696
 10
22.08965141530551
 20
0.1505354214250171
 30
0.0
 41
1.0
  0
POLYLINE
  5
10B
330
1F
100
AcDbEntity
  8
DEFAULT
100
AcDb2dPolyline
 66
     1
 10
0.0
 20
0.0
 30
0.0
  0
VERTEX
  5
10C
330
10B
100
AcDbEntity
  8
DEFAULT
100
AcDbVertex
100
AcDb2dVertex
 10
18.99436273208001
 20
23.75926848038486
 30
0.0
  0
VERTEX
  5
10D
330
10B
100
AcDbEntity
  8
DEFAULT
100
AcDbVertex
100
AcDb2dVertex
 10
18.852476
 20
23.33069384997487
 30
0.0
  0
SEQEND
  5
10E
330
10B
100
AcDbEntity
  8
DEFAULT
  0
SPLINE
  5
10F
330
1F
100
AcDbEntity
  8
DEFAULT
100
AcDbSpline
210
0.0
220
0.0
230
1.0
 70
     8
 71
     3
 72
    10
 73
     6
 74
     0
 42
0.0000000001
 43
0.0000000001
 40
0.0
 40
0.0
 40
0.0
 40
0.0
 40
0.9999996859130797
 40
1.99999984295654
 40
3.0
 40
3.0
 40
3.0
 40
3.0
 10
20.68127430068
 20
24.87361407531987
 30
0.0
 10
20.43319098265246
 20
24.87487250284355
 30
0.0
 10
19.95127692097621
 20
24.80720816408576
 30
0.0
 10
19.23565139602856
 20
24.48645715522085
 30
0.0
 10
19.06600757563567
 20
23.99021798789634
 30
0.0
 10
18.99436273208001
 20
23.75926848038486
 30
0.0
  0
POLYLINE
  5
110
330
1F
100
AcDbEntity
  8
DEFAULT
100
AcDb2dPolyline
 66
     1
 10
0.0
 20
0.0
 30
0.0
  0
VERTEX
  5
111
330
110
100
AcDbEntity
  8
DEFAULT
100
AcDbVertex
100
AcDb2dVertex
 10
31.521365
 20
24.81894584997486
 30
0.0
  0
VERTEX
  5
112
330
110
100
AcDbEntity
  8
DEFAULT
100
AcDbVertex
100
AcDb2dVertex
 10
20.68127430068
 20
24.87361407531987
 30
0.0
  0
SEQEND
  5
113
330
110
100
AcDbEntity
  8
DEFAULT
  0
SPLINE
  5
114
330
1F
100
AcDbEntity
  8
DEFAULT
100
AcDbSpline
210
0.0
220
0.0
230
1.0
 70
    24
 71
     2
 72
     6
 73
     3
 74
     0
 42
0.0000000001
 43
0.0000000001
 40
0.0
 40
0.0
 40
0.0
 40
1.0
 40
1.0
 40
1.0
 10
17.854460974405
 20
24.22181509495987
 30
0.0
 10
17.7669319872025
 20
23.95808897246737
 30
0.0
 10
17.679403
 20
23.69436284997487
 30
0.0
  0
SPLINE
  5
115
330
1F
100
AcDbEntity
  8
DEFAULT
100
AcDbSpline
210
0.0
220
0.0
230
1.0
 70
     8
 71
     3
 72
    16
 73
    12
 74
     0
 42
0.0000000001
 43
0.0000000001
 40
-9.0
 40
-9.0
 40
-9.0
 40
-9.0
 40
-8.000024712968937
 40
-7.000021623847821
 40
-6.000018534726704
 40
-5.000015445605587
 40
-4.000012356484469
 40
-3.000009267363351
 40
-2.000006178242234
 40
-1.000003089121117
 40
0.0
 40
0.0
 40
0.0
 40
0.0
 10
15.582637089065
 20
27.28619075344987
 30
0.0
 10
15.73339469135349
 20
27.25084067220582
 30
0.0
 10
15.99396237435585
 20
27.07314858902937
 30
0.0
 10
16.36228258173984
 20
26.79219614284801
 30
0.0
 10
16.72881946460746
 20
26.5044992497784
 30
0.0
 10
17.095910845894
 20
26.2193732630296
 30
0.0
 10
17.46257112664967
 20
25.93070537311092
 30
0.0
 10
17.74752067401086
 20
25.55722825666206
 30
0.0
 10
17.94612643051611
 20
25.13594968636172
 30
0.0
 10
18.02704099193174
 20
24.66321410585707
 30
0.0
 10
17.8992280669475
 20
24.36879811110467
 30
0.0
 10
17.854460974405
 20
24.22181509495987
 30
0.0
  0
SPLINE
  5
116
330
1F
100
AcDbEntity
  8
DEFAULT
100
AcDbSpline
210
0.0
220
0.0
230
1.0
 70
    24
 71
     2
 72
     6
 73
     3
 74
     0
 42
0.0000000001
 43
0.0000000001
 40
0.0
 40
0.0
 40
0.0
 40
1.0
 40
1.0
 40
1.0
 10
15.149224
 20
27.20512484997487
 30
0.0
 10
15.3659305445325
 20
27.24565780171237
 30
0.0
 10
15.582637089065
 20
27.28619075344987
 30
0.0
  0
SPLINE
  5
117
330
1F
100
AcDbEntity
  8
DEFAULT
100
AcDbSpline
210
0.0
220
0.0
230
1.0
 70
    24
 71
     2
 72
     6
 73
     3
 74
     0
 42
0.0000000001
 43
0.0000000001
 40
0.0
 40
0.0
 40
0.0
 40
1.0
 40
1.0
 40
1.0
 10
17.679403
 20
23.69436284997487
 30
0.0
 10
16.4143135
 20
25.44974384997487
 30
0.0
 10
15.149224
 20
27.20512484997487
 30
0.0
  0
SPLINE
  5
118
330
1F
100
AcDbEntity
  8
DEFAULT
100
AcDbSpline
210
0.0
220
0.0
230
1.0
 70
    24
 71
     2
 72
     6
 73
     3
 74
     0
 42
0.0000000001
 43
0.0000000001
 40
0.0
 40
0.0
 40
0.0
 40
1.0
 40
1.0
 40
1.0
 10
18.84850800000001
 20
23.33022784997486
 30
0.0
 10
18.26395550000001
 20
23.51229534997487
 30
0.0
 10
17.679403
 20
23.69436284997487
 30
0.0
  0
SPLINE
  5
119
330
1F
100
AcDbEntity
  8
DEFAULT
100
AcDbSpline
210
0.0
220
0.0
230
1.0
 70
    24
 71
     2
 72
     6
 73
     3
 74
     0
 42
0.0000000001
 43
0.0000000001
 40
0.0
 40
0.0
 40
0.0
 40
1.0
 40
1.0
 40
1.0
 10
7.260359999999999
 20
25.85846284997487
 30
0.0
 10
7.385437999999997
 20
25.83335234997487
 30
0.0
 10
7.510515999999996
 20
25.80824184997487
 30
0.0
  0
POLYLINE
  5
11A
330
1F
100
AcDbEntity
  8
DEFAULT
100
AcDb2dPolyline
 66
     1
 10
0.0
 20
0.0
 30
0.0
  0
VERTEX
  5
11B
330
11A
100
AcDbEntity
  8
DEFAULT
100
AcDbVertex
100
AcDb2dVertex
 10
6.504993509599998
 20
27.66666054691486
 30
0.0
  0
VERTEX
  5
11C
330
11A
100
AcDbEntity
  8
DEFAULT
100
AcDbVertex
100
AcDb2dVertex
 10
7.260359999999999
 20
25.85846284997487
 30
0.0
  0
SEQEND
  5
11D
330
11A
100
AcDbEntity
  8
DEFAULT
  0
SPLINE
  5
11E
330
1F
100
AcDbEntity
  8
DEFAULT
100
AcDbSpline
210
0.0
220
0.0
230
1.0
 70
     8
 71
     3
 72
     8
 73
     4
 74
     0
 42
0.0000000001
 43
0.0000000001
 40
0.0
 40
0.0
 40
0.0
 40
0.0
 40
1.0
 40
1.0
 40
1.0
 40
1.0
 10
5.506911560919995
 20
28.04924284625486
 30
0.0
 10
5.865908047186312
 20
28.07303659470443
 30
0.0
 10
6.322590510065338
 20
28.02524177992685
 30
0.0
 10
6.504993509599998
 20
27.66666054691486
 30
0.0
  0
ARC
  5
11F
330
1F
100
AcDbEntity
  8
DEFAULT
100
AcDbCircle
 10
0.0000000000000002
 20
214.0817150935029
 30
0.0
 40
186.1139618764882
100
AcDbArc
 50
268.3044321564039
 51
271.695567843596
  0
SPLINE
  5
120
330
1F
100
AcDbEntity
  8
DEFAULT
100
AcDbSpline
210
0.0
220
0.0
230
1.0
 70
     8
 71
     3
 72
     8
 73
     4
 74
     0
 42
0.0000000001
 43
0.0000000001
 40
-1.0
 40
-1.0
 40
-1.0
 40
-1.0
 40
0.0
 40
0.0
 40
0.0
 40
0.0
 10
-6.504993509599998
 20
27.66666054691486
 30
0.0
 10
-6.322590510065338
 20
28.02524177992685
 30
0.0
 10
-5.865908047186312
 20
28.07303659470443
 30
0.0
 10
-5.506911560919995
 20
28.04924284625486
 30
0.0
  0
POLYLINE
  5
121
330
1F
100
AcDbEntity
  8
DEFAULT
100
AcDb2dPolyline
 66
     1
 10
0.0
 20
0.0
 30
0.0
  0
VERTEX
  5
122
330
121
100
AcDbEntity
  8
DEFAULT
100
AcDbVertex
100
AcDb2dVertex
 10
-7.260359999999999
 20
25.85846284997487
 30
0.0
  0
VERTEX
  5
123
330
121
100
AcDbEntity
  8
DEFAULT
100
AcDbVertex
100
AcDb2dVertex
 10
-6.504993509599998
 20
27.66666054691486
 30
0.0
  0
SEQEND
  5
124
330
121
100
AcDbEntity
  8
DEFAULT
  0
SPLINE
  5
125
330
1F
100
AcDbEntity
  8
DEFAULT
100
AcDbSpline
210
0.0
220
0.0
230
1.0
 70
    24
 71
     2
 72
     6
 73
     3
 74
     0
 42
0.0000000001
 43
0.0000000001
 40
-1.0
 40
-1.0
 40
-1.0
 40
0.0
 40
0.0
 40
0.0
 10
-7.510515999999996
 20
25.80824184997487
 30
0.0
 10
-7.385437999999997
 20
25.83335234997487
 30
0.0
 10
-7.260359999999999
 20
25.85846284997487
 30
0.0
  0
SPLINE
  5
126
330
1F
100
AcDbEntity
  8
DEFAULT
100
AcDbSpline
210
0.0
220
0.0
230
1.0
 70
    24
 71
     2
 72
     6
 73
     3
 74
     0
 42
0.0000000001
 43
0.0000000001
 40
0.0
 40
0.0
 40
0.0
 40
1.0
 40
1.0
 40
1.0
 10
-7.510642156024996
 20
25.80816437883987
 30
0.0
 10
-7.511425078012495
 20
25.31610561440737
 30
0.0
 10
-7.512207999999994
 20
24.82404684997487
 30
0.0
  0
SPLINE
  5
127
330
1F
100
AcDbEntity
  8
DEFAULT
100
AcDbSpline
210
0.0
220
0.0
230
1.0
 70
     8
 71
     3
 72
     8
 73
     4
 74
     0
 42
0.0000000001
 43
0.0000000001
 40
-1.0
 40
-1.0
 40
-1.0
 40
-1.0
 40
0.0
 40
0.0
 40
0.0
 40
0.0
 10
7.510815797695003
 20
25.80816437883987
 30
0.0
 10
2.503795249306683
 20
25.80035834917799
 30
0.0
 10
-2.50362170600693
 20
25.80035834909487
 30
0.0
 10
-7.510642156024996
 20
25.80816437883987
 30
0.0
  0
SPLINE
  5
128
330
1F
100
AcDbEntity
  8
DEFAULT
100
AcDbSpline
210
0.0
220
0.0
230
1.0
 70
    24
 71
     2
 72
     6
 73
     3
 74
     0
 42
0.0000000001
 43
0.0000000001
 40
0.0
 40
0.0
 40
0.0
 40
1.0
 40
1.0
 40
1.0
 10
7.512381000000005
 20
24.82404684997487
 30
0.0
 10
7.511598398847504
 20
25.31610561440737
 30
0.0
 10
7.510815797695003
 20
25.80816437883987
 30
0.0
  0
SPLINE
  5
129
330
1F
100
AcDbEntity
  8
DEFAULT
100
AcDbSpline
210
0.0
220
0.0
230
1.0
 70
     8
 71
     3
 72
     8
 73
     4
 74
     0
 42
0.0000000001
 43
0.0000000001
 40
0.0
 40
0.0
 40
0.0
 40
0.0
 40
1.0
 40
1.0
 40
1.0
 40
1.0
 10
-5.974472999999996
 20
25.85344984997487
 30
0.0
 10
-1.992345880237736
 20
25.95989540366029
 30
0.0
 10
1.992345906373931
 20
25.9598954026276
 30
0.0
 10
5.974472999999996
 20
25.85344984997487
 30
0.0
  0
POLYLINE
  5
12A
330
1F
100
AcDbEntity
  8
DEFAULT
100
AcDb2dPolyline
 66
     1
 10
0.0
 20
0.0
 30
0.0
  0
VERTEX
  5
12B
330
12A
100
AcDbEntity
  8
DEFAULT
100
AcDbVertex
100
AcDb2dVertex
 10
-4.472353658629999
 20
23.33042197535486
 30
0.0
  0
VERTEX
  5
12C
330
12A
100
AcDbEntity
  8
DEFAULT
100
AcDbVertex
100
AcDb2dVertex
 10
-3.599423999999999
 20
23.33022784997486
 30
0.0
  0
SEQEND
  5
12D
330
12A
100
AcDbEntity
  8
DEFAULT
  0
SPLINE
  5
12E
330
1F
100
AcDbEntity
  8
DEFAULT
100
AcDbSpline
210
0.0
220
0.0
230
1.0
 70
     8
 71
     3
 72
     8
 73
     4
 74
     0
 42
0.0000000001
 43
0.0000000001
 40
-1.0
 40
-1.0
 40
-1.0
 40
-1.0
 40
0.0
 40
0.0
 40
0.0
 40
0.0
 10
-5.61340532877
 20
23.66550098085987
 30
0.0
 10
-5.273297226987326
 20
23.4520919128548
 30
0.0
 10
-4.873523549378695
 20
23.3364857618299
 30
0.0
 10
-4.472353658629999
 20
23.33042197535486
 30
0.0
  0
SPLINE
  5
12F
330
1F
100
AcDbEntity
  8
DEFAULT
100
AcDbSpline
210
0.0
220
0.0
230
1.0
 70
     8
 71
     2
 72
     8
 73
     5
 74
     0
 42
0.0000000001
 43
0.0000000001
 40
0.0
 40
0.0
 40
0.0
 40
1.0
 40
1.0
 40
2.0
 40
2.0
 40
2.0
 10
-5.746634
 20
23.74984984997487
 30
0.0
 10
-5.709826
 20
23.72652384997487
 30
0.0
 10
-5.673017999999999
 20
23.70319784997487
 30
0.0
 10
-5.643211664384999
 20
23.68434941541737
 30
0.0
 10
-5.61340532877
 20
23.66550098085987
 30
0.0
  0
POLYLINE
  5
130
330
1F
100
AcDbEntity
  8
DEFAULT
100
AcDb2dPolyline
 66
     1
 10
0.0
 20
0.0
 30
0.0
  0
VERTEX
  5
131
330
130
100
AcDbEntity
  8
DEFAULT
100
AcDbVertex
100
AcDb2dVertex
 10
4.472353658629999
 20
23.33042197535486
 30
0.0
  0
VERTEX
  5
132
330
130
100
AcDbEntity
  8
DEFAULT
100
AcDbVertex
100
AcDb2dVertex
 10
3.599423999999999
 20
23.33022784997486
 30
0.0
  0
SEQEND
  5
133
330
130
100
AcDbEntity
  8
DEFAULT
  0
SPLINE
  5
134
330
1F
100
AcDbEntity
  8
DEFAULT
100
AcDbSpline
210
0.0
220
0.0
230
1.0
 70
     8
 71
     3
 72
     8
 73
     4
 74
     0
 42
0.0000000001
 43
0.0000000001
 40
-1.0
 40
-1.0
 40
-1.0
 40
-1.0
 40
0.0
 40
0.0
 40
0.0
 40
0.0
 10
5.61340532877
 20
23.66550098085987
 30
0.0
 10
5.273297226987326
 20
23.4520919128548
 30
0.0
 10
4.873523549378695
 20
23.3364857618299
 30
0.0
 10
4.472353658629999
 20
23.33042197535486
 30
0.0
  0
SPLINE
  5
135
330
1F
100
AcDbEntity
  8
DEFAULT
100
AcDbSpline
210
0.0
220
0.0
230
1.0
 70
     8
 71
     2
 72
     8
 73
     5
 74
     0
 42
0.0000000001
 43
0.0000000001
 40
0.0
 40
0.0
 40
0.0
 40
1.0
 40
1.0
 40
2.0
 40
2.0
 40
2.0
 10
5.746634
 20
23.74984984997487
 30
0.0
 10
5.709826
 20
23.72652384997487
 30
0.0
 10
5.673017999999999
 20
23.70319784997487
 30
0.0
 10
5.643211664384999
 20
23.68434941541737
 30
0.0
 10
5.61340532877
 20
23.66550098085987
 30
0.0
  0
LINE
  5
136
330
1F
100
AcDbEntity
  8
DEFAULT
100
AcDbLine
 10
-7.512008494034998
 20
24.82396154646987
 30
0.0
 11
-6.121794092569763
 21
23.98442380340331
 31
0.0
  0
SPLINE
  5
137
330
1F
100
AcDbEntity
  8
DEFAULT
100
AcDbSpline
210
0.0
220
0.0
230
1.0
 70
     8
 71
     3
 72
    10
 73
     6
 74
     0
 42
0.0000000001
 43
0.0000000001
 40
0.0
 40
0.0
 40
0.0
 40
0.0
 40
1.0
 40
2.0
 40
3.0
 40
3.0
 40
3.0
 40
3.0
 10
7.512095135705
 20
24.82396154646987
 30
0.0
 10
5.842755244063992
 20
24.81610744049815
 30
0.0
 10
2.504062064957406
 20
24.81989257063363
 30
0.0
 10
-2.503888482888323
 20
24.81989257063372
 30
0.0
 10
-5.842582036619759
 20
24.81610744049826
 30
0.0
 10
-7.512008494034998
 20
24.82396154646987
 30
0.0
  0
LINE
  5
138
330
1F
100
AcDbEntity
  8
DEFAULT
100
AcDbLine
 10
6.121794092569763
 20
23.98442380340331
 30
0.0
 11
7.512095135705
 21
24.82396154646987
 31
0.0
  0
ARC
  5
139
330
1F
100
AcDbEntity
  8
DEFAULT
100
AcDbCircle
 10
16.80394444037162
 20
-2684.734225781624
 30
0.0
 40
2710.576942798543
100
AcDbArc
 50
89.6889161510711
 51
89.71113808975655
  0
LINE
  5
13A
330
1F
100
AcDbEntity
  8
DEFAULT
100
AcDbLine
 10
20.513013846385
 20
25.85846546390487
 30
0.0
 11
30.469508
 21
25.80826884997487
 31
0.0
  0
SPLINE
  5
13B
330
1F
100
AcDbEntity
  8
DEFAULT
100
AcDbSpline
210
0.0
220
0.0
230
1.0
 70
     8
 71
     3
 72
    12
 73
     8
 74
     0
 42
0.0000000001
 43
0.0000000001
 40
0.0
 40
0.0
 40
0.0
 40
0.0
 40
0.9999999969434313
 40
1.999999997707573
 40
2.999999998471716
 40
3.999999999235858
 40
5.0
 40
5.0
 40
5.0
 40
5.0
 10
16.858558884365
 20
27.66666069844486
 30
0.0
 10
17.07710038066486
 20
27.49402117437827
 30
0.0
 10
17.52029416737173
 20
27.15691696921285
 30
0.0
 10
18.16216860514212
 20
26.62060378294003
 30
0.0
 10
18.87843910206371
 20
26.18376461946668
 30
0.0
 10
19.67905905761853
 20
25.92576576281564
 30
0.0
 10
20.23433834941679
 20
25.85967177979589
 30
0.0
 10
20.513013846385
 20
25.85846546390487
 30
0.0
  0
SPLINE
  5
13C
330
1F
100
AcDbEntity
  8
DEFAULT
100
AcDbSpline
210
0.0
220
0.0
230
1.0
 70
     8
 71
     3
 72
    12
 73
     8
 74
     0
 42
0.0000000001
 43
0.0000000001
 40
0.0
 40
0.0
 40
0.0
 40
0.0
 40
1.000000002800794
 40
2.000000005601589
 40
3.000000008402383
 40
4.000000011203178
 40
5.0
 40
5.0
 40
5.0
 40
5.0
 10
16.191965153785
 20
28.04924284811487
 30
0.0
 10
16.24463338511449
 20
28.06187915291756
 30
0.0
 10
16.34193390670296
 20
28.01354561120426
 30
0.0
 10
16.47635808922134
 20
27.93776817967871
 30
0.0
 10
16.60711269332941
 20
27.85146032214171
 30
0.0
 10
16.73454314878591
 20
27.76153848589573
 30
0.0
 10
16.81756510610979
 20
27.69869388811262
 30
0.0
 10
16.858558884365
 20
27.66666069844486
 30
0.0
  0
SPLINE
  5
13D
330
1F
100
AcDbEntity
  8
DEFAULT
100
AcDbSpline
210
0.0
220
0.0
230
1.0
 70
    24
 71
     2
 72
     6
 73
     3
 74
     0
 42
0.0000000001
 43
0.0000000001
 40
-1.0
 40
-1.0
 40
-1.0
 40
0.0
 40
0.0
 40
0.0
 10
15.75584300000001
 20
27.96766684997487
 30
0.0
 10
15.9739040768925
 20
28.00845484904487
 30
0.0
 10
16.191965153785
 20
28.04924284811487
 30
0.0
  0
ARC
  5
13E
330
1F
100
AcDbEntity
  8
DEFAULT
100
AcDbCircle
 10
30.96904277491109
 20
24.39258860569663
 30
0.0
 40
1.51421301638513
100
AcDbArc
 50
68.65611190161421
 51
82.97187932813854
  0
SPLINE
  5
13F
330
1F
100
AcDbEntity
  8
DEFAULT
100
AcDbSpline
210
0.0
220
0.0
230
1.0
 70
     8
 71
     3
 72
     8
 73
     4
 74
     0
 42
0.0000000001
 43
0.0000000001
 40
0.0
 40
0.0
 40
0.0
 40
0.0
 40
1.0
 40
1.0
 40
1.0
 40
1.0
 10
29.67483691766
 20
25.92441070404486
 30
0.0
 10
30.1678429790688
 20
25.93790264373578
 30
0.0
 10
30.66354951757125
 20
25.9559272829689
 30
0.0
 10
31.15431653243
 20
25.89542415683487
 30
0.0
  0
ARC
  5
140
330
1F
100
AcDbEntity
  8
DEFAULT
100
AcDbCircle
 10
32.27609006147425
 20
-69.12741998432995
 30
0.0
 40
95.08741785919774
100
AcDbArc
 50
91.56760406304866
 51
93.05674276008538
  0
SPLINE
  5
141
330
1F
100
AcDbEntity
  8
DEFAULT
100
AcDbSpline
210
0.0
220
0.0
230
1.0
 70
    24
 71
     2
 72
     6
 73
     3
 74
     0
 42
0.0000000001
 43
0.0000000001
 40
0.0
 40
0.0
 40
0.0
 40
1.0
 40
1.0
 40
1.0
 10
15.149224
 20
27.20512484997487
 30
0.0
 10
15.4525335
 20
27.58639584997487
 30
0.0
 10
15.75584300000001
 20
27.96766684997487
 30
0.0
  0
SPLINE
  5
142
330
1F
100
AcDbEntity
  8
DEFAULT
100
AcDbSpline
210
0.0
220
0.0
230
1.0
 70
    24
 71
     2
 72
     6
 73
     3
 74
     0
 42
0.0000000001
 43
0.0000000001
 40
0.0
 40
0.0
 40
0.0
 40
1.0
 40
1.0
 40
1.0
 10
31.520163
 20
25.80294584997486
 30
0.0
 10
31.520764
 20
25.31094584997486
 30
0.0
 10
31.521365
 20
24.81894584997486
 30
0.0
  0
SPLINE
  5
143
330
1F
100
AcDbEntity
  8
DEFAULT
100
AcDbSpline
210
0.0
220
0.0
230
1.0
 70
     8
 71
     3
 72
    10
 73
     6
 74
     0
 42
0.0000000001
 43
0.0000000001
 40
0.0
 40
0.0
 40
0.0
 40
0.0
 40
1.0
 40
2.0
 40
3.0
 40
3.0
 40
3.0
 40
3.0
 10
6.417189522605
 20
51.65734193904487
 30
0.0
 10
6.522650659049621
 20
51.30845671358338
 30
0.0
 10
6.755821209634023
 20
50.61722122221922
 30
0.0
 10
7.013048560099028
 20
49.55334822345299
 30
0.0
 10
7.138326037228493
 20
48.83482332998054
 30
0.0
 10
7.17948345944
 20
48.47252905669487
 30
0.0
  0
SPLINE
  5
144
330
1F
100
AcDbEntity
  8
DEFAULT
100
AcDbSpline
210
0.0
220
0.0
230
1.0
 70
     8
 71
     3
 72
    10
 73
     6
 74
     0
 42
0.0000000001
 43
0.0000000001
 40
-3.0
 40
-3.0
 40
-3.0
 40
-3.0
 40
-2.000000351301168
 40
-1.000000175650584
 40
0.0
 40
0.0
 40
0.0
 40
0.0
 10
5.549921849689998
 20
52.30258825160487
 30
0.0
 10
5.674467075853888
 20
52.28291146980587
 30
0.0
 10
5.917567495878239
 20
52.20728927712691
 30
0.0
 10
6.234762358070965
 20
51.99225487800473
 30
0.0
 10
6.379437383797774
 20
51.77823369098718
 30
0.0
 10
6.417189522605
 20
51.65734193904487
 30
0.0
  0
SPLINE
  5
145
330
1F
100
AcDbEntity
  8
DEFAULT
100
AcDbSpline
210
0.0
220
0.0
230
1.0
 70
     8
 71
     3
 72
    10
 73
     6
 74
     0
 42
0.0000000001
 43
0.0000000001
 40
0.0
 40
0.0
 40
0.0
 40
0.0
 40
0.9999689401906351
 40
1.999984525038409
 40
3.0
 40
3.0
 40
3.0
 40
3.0
 10
0.0
 20
52.73602647424487
 30
0.0
 10
0.6191418503953218
 20
52.73595904735632
 30
0.0
 10
1.857458259816333
 20
52.70380093507168
 30
0.0
 10
3.709930215009681
 20
52.55918136305707
 30
0.0
 10
4.938251719035928
 20
52.39866942022918
 30
0.0
 10
5.549921849689998
 20
52.30258825160487
 30
0.0
  0
SPLINE
  5
146
330
1F
100
AcDbEntity
  8
DEFAULT
100
AcDbSpline
210
0.0
220
0.0
230
1.0
 70
     8
 71
     3
 72
    10
 73
     6
 74
     0
 42
0.0000000001
 43
0.0000000001
 40
-3.0
 40
-3.0
 40
-3.0
 40
-3.0
 40
-1.999984525038409
 40
-0.9999689401906351
 40
0.0
 40
0.0
 40
0.0
 40
0.0
 10
-5.549921849689998
 20
52.30258825160487
 30
0.0
 10
-4.938251719035928
 20
52.39866942022918
 30
0.0
 10
-3.709930215009681
 20
52.55918136305707
 30
0.0
 10
-1.857458259816333
 20
52.70380093507168
 30
0.0
 10
-0.6191418503953218
 20
52.73595904735632
 30
0.0
 10
0.0
 20
52.73602647424487
 30
0.0
  0
SPLINE
  5
147
330
1F
100
AcDbEntity
  8
DEFAULT
100
AcDbSpline
210
0.0
220
0.0
230
1.0
 70
     8
 71
     3
 72
    10
 73
     6
 74
     0
 42
0.0000000001
 43
0.0000000001
 40
0.0
 40
0.0
 40
0.0
 40
0.0
 40
1.000000175650584
 40
2.000000351301168
 40
3.0
 40
3.0
 40
3.0
 40
3.0
 10
-6.417189522605
 20
51.65734193904487
 30
0.0
 10
-6.379437383797774
 20
51.77823369098718
 30
0.0
 10
-6.234762358070965
 20
51.99225487800473
 30
0.0
 10
-5.917567495878239
 20
52.20728927712691
 30
0.0
 10
-5.674467075853888
 20
52.28291146980587
 30
0.0
 10
-5.549921849689998
 20
52.30258825160487
 30
0.0
  0
SPLINE
  5
148
330
1F
100
AcDbEntity
  8
DEFAULT
100
AcDbSpline
210
0.0
220
0.0
230
1.0
 70
     8
 71
     3
 72
    10
 73
     6
 74
     0
 42
0.0000000001
 43
0.0000000001
 40
-3.0
 40
-3.0
 40
-3.0
 40
-3.0
 40
-2.0
 40
-1.0
 40
0.0
 40
0.0
 40
0.0
 40
0.0
 10
-7.17948345944
 20
48.47252905669487
 30
0.0
 10
-7.138326037228493
 20
48.83482332998054
 30
0.0
 10
-7.013048560099028
 20
49.55334822345299
 30
0.0
 10
-6.755821209634023
 20
50.61722122221922
 30
0.0
 10
-6.522650659049621
 20
51.30845671358338
 30
0.0
 10
-6.417189522605
 20
51.65734193904487
 30
0.0
  0
ARC
  5
149
330
1F
100
AcDbEntity
  8
DEFAULT
100
AcDbCircle
 10
3.96871381923228
 20
49.18520119897415
 30
0.0
 40
0.3285647922270821
100
AcDbArc
 50
329.1737465744241
 51
342.1761268265704
  0
ARC
  5
14A
330
1F
100
AcDbEntity
  8
DEFAULT
100
AcDbCircle
 10
3.932303609476925
 20
49.21635707984616
 30
0.0
 40
0.3758837709241417
100
AcDbArc
 50
269.6238842677213
 51
327.9395173296146
  0
SPLINE
  5
14B
330
1F
100
AcDbEntity
  8
DEFAULT
100
AcDbSpline
210
0.0
220
0.0
230
1.0
 70
     8
 71
     3
 72
     8
 73
     4
 74
     0
 42
0.0000000001
 43
0.0000000001
 40
0.0
 40
0.0
 40
0.0
 40
0.0
 40
1.0
 40
1.0
 40
1.0
 40
1.0
 10
-3.929836154009998
 20
48.84048140770487
 30
0.0
 10
-1.309946744436764
 20
48.83707990979172
 30
0.0
 10
1.309946587128078
 20
48.837079834532
 30
0.0
 10
3.929836154009997
 20
48.84048140770487
 30
0.0
  0
ARC
  5
14C
330
1F
100
AcDbEntity
  8
DEFAULT
100
AcDbCircle
 10
-3.932303609476925
 20
49.21635707984616
 30
0.0
 40
0.3758837709241417
100
AcDbArc
 50
212.0604826703853
 51
270.3761157322786
  0
ARC
  5
14D
330
1F
100
AcDbEntity
  8
DEFAULT
100
AcDbCircle
 10
-3.96871381923228
 20
49.18520119897415
 30
0.0
 40
0.3285647922270821
100
AcDbArc
 50
197.8238731734296
 51
210.8262534255759
  0
SPLINE
  5
14E
330
1F
100
AcDbEntity
  8
DEFAULT
100
AcDbSpline
210
0.0
220
0.0
230
1.0
 70
     8
 71
     3
 72
     8
 73
     4
 74
     0
 42
0.0000000001
 43
0.0000000001
 40
-1.0
 40
-1.0
 40
-1.0
 40
-1.0
 40
0.0
 40
0.0
 40
0.0
 40
0.0
 10
4.023248500000001
 20
49.22448784997487
 30
0.0
 10
4.15101683199912
 20
49.22645867686808
 30
0.0
 10
4.305532470469571
 20
49.14113314972325
 30
0.0
 10
4.299900000000001
 20
48.99613184997487
 30
0.0
  0
SPLINE
  5
14F
330
1F
100
AcDbEntity
  8
DEFAULT
100
AcDbSpline
210
0.0
220
0.0
230
1.0
 70
     8
 71
     3
 72
     8
 73
     4
 74
     0
 42
0.0000000001
 43
0.0000000001
 40
0.0
 40
0.0
 40
0.0
 40
0.0
 40
1.0
 40
1.0
 40
1.0
 40
1.0
 10
-4.023161499999997
 20
49.22448784997487
 30
0.0
 10
-1.34102840453105
 20
49.22956081487315
 30
0.0
 10
1.341115738932793
 20
49.22956086909817
 30
0.0
 10
4.023248500000001
 20
49.22448784997487
 30
0.0
  0
SPLINE
  5
150
330
1F
100
AcDbEntity
  8
DEFAULT
100
AcDbSpline
210
0.0
220
0.0
230
1.0
 70
     8
 71
     3
 72
     8
 73
     4
 74
     0
 42
0.0000000001
 43
0.0000000001
 40
0.0
 40
0.0
 40
0.0
 40
0.0
 40
1.0
 40
1.0
 40
1.0
 40
1.0
 10
-4.299900000000001
 20
48.99613184997487
 30
0.0
 10
-4.305533740845434
 20
49.14116585404941
 30
0.0
 10
-4.150947123375858
 20
49.22649716333381
 30
0.0
 10
-4.023161499999997
 20
49.22448784997487
 30
0.0
  0
ARC
  5
151
330
1F
100
AcDbEntity
  8
DEFAULT
100
AcDbCircle
 10
0.0009400308761523
 20
17.15221704367248
 30
0.0
 40
34.97724024576412
100
AcDbArc
 50
80.94303553207021
 51
90.0015398528141
  0
ARC
  5
152
330
1F
100
AcDbEntity
  8
DEFAULT
100
AcDbCircle
 10
-0.0009400308761918
 20
17.15221704367297
 30
0.0
 40
34.97724024576362
100
AcDbArc
 50
89.99846014718582
 51
99.05696446792984
  0
SPLINE
  5
153
330
1F
100
AcDbEntity
  8
DEFAULT
100
AcDbSpline
210
0.0
220
0.0
230
1.0
 70
     8
 71
     3
 72
    14
 73
    10
 74
     0
 42
0.0000000001
 43
0.0000000001
 40
-7.0
 40
-7.0
 40
-7.0
 40
-7.0
 40
-6.0
 40
-5.0
 40
-4.0
 40
-3.0
 40
-2.0
 40
-1.0
 40
0.0
 40
0.0
 40
0.0
 40
0.0
 10
-6.504993254799999
 20
51.02664199776487
 30
0.0
 10
-6.487009108711996
 20
51.0842670876759
 30
0.0
 10
-6.435369406088114
 20
51.19435886038908
 30
0.0
 10
-6.322249195916698
 20
51.33703841665237
 30
0.0
 10
-6.183429542136524
 20
51.45433273974954
 30
0.0
 10
-6.028213296492567
 20
51.54838614225989
 30
0.0
 10
-5.861330635828324
 20
51.61970606636498
 30
0.0
 10
-5.68611135711967
 20
51.66682110103574
 30
0.0
 10
-5.566497056995694
 20
51.68383174806662
 30
0.0
 10
-5.506930034724553
 20
51.69337234119289
 30
0.0
  0
SPLINE
  5
154
330
1F
100
AcDbEntity
  8
DEFAULT
100
AcDbSpline
210
0.0
220
0.0
230
1.0
 70
     8
 71
     3
 72
    14
 73
    10
 74
     0
 42
0.0000000001
 43
0.0000000001
 40
-7.0
 40
-7.0
 40
-7.0
 40
-7.0
 40
-6.0
 40
-5.0
 40
-4.0
 40
-3.0
 40
-2.0
 40
-1.0
 40
0.0
 40
0.0
 40
0.0
 40
0.0
 10
-7.510515731074996
 20
37.41569271743487
 30
0.0
 10
-7.493880849462231
 20
38.06830032989878
 30
0.0
 10
-7.461868797810664
 20
39.37354760759168
 30
0.0
 10
-7.411731014070822
 20
41.33143377133376
 30
0.0
 10
-7.364024455594796
 20
43.28913949987766
 30
0.0
 10
-7.309810228842633
 20
45.24758003776389
 30
0.0
 10
-7.279244274326569
 20
47.20326272426392
 30
0.0
 10
-7.160577861821945
 20
49.16924269769212
 30
0.0
 10
-6.686469254305753
 20
50.40141605046785
 30
0.0
 10
-6.504993254799999
 20
51.02664199776487
 30
0.0
  0
SPLINE
  5
155
330
1F
100
AcDbEntity
  8
DEFAULT
100
AcDbSpline
210
0.0
220
0.0
230
1.0
 70
     8
 71
     3
 72
     9
 73
     5
 74
     0
 42
0.0000000001
 43
0.0000000001
 40
-2.0
 40
-2.0
 40
-2.0
 40
-2.0
 40
-1.0
 40
0.0
 40
0.0
 40
0.0
 40
0.0
 10
-6.509599708989995
 20
36.36533133564486
 30
0.0
 10
-6.777926207703766
 20
36.37246341518426
 30
0.0
 10
-7.307450964644678
 20
36.60814283955212
 30
0.0
 10
-7.520000361682202
 20
37.14635189039694
 30
0.0
 10
-7.510515731074996
 20
37.41569271743487
 30
0.0
  0
POLYLINE
  5
156
330
1F
100
AcDbEntity
  8
DEFAULT
100
AcDb2dPolyline
 66
     1
 10
0.0
 20
0.0
 30
0.0
  0
VERTEX
  5
157
330
156
100
AcDbEntity
  8
DEFAULT
100
AcDbVertex
100
AcDb2dVertex
 10
6.509599708989995
 20
36.36533133564486
 30
0.0
  0
VERTEX
  5
158
330
156
100
AcDbEntity
  8
DEFAULT
100
AcDbVertex
100
AcDb2dVertex
 10
-6.509599708989995
 20
36.36533133564486
 30
0.0
  0
SEQEND
  5
159
330
156
100
AcDbEntity
  8
DEFAULT
  0
SPLINE
  5
15A
330
1F
100
AcDbEntity
  8
DEFAULT
100
AcDbSpline
210
0.0
220
0.0
230
1.0
 70
     8
 71
     3
 72
     9
 73
     5
 74
     0
 42
0.0000000001
 43
0.0000000001
 40
0.0
 40
0.0
 40
0.0
 40
0.0
 40
1.0
 40
2.0
 40
2.0
 40
2.0
 40
2.0
 10
7.510515731074996
 20
37.41569271743487
 30
0.0
 10
7.520000361682202
 20
37.14635189039694
 30
0.0
 10
7.307450964644678
 20
36.60814283955212
 30
0.0
 10
6.777926207703766
 20
36.37246341518426
 30
0.0
 10
6.509599708989995
 20
36.36533133564486
 30
0.0
  0
SPLINE
  5
15B
330
1F
100
AcDbEntity
  8
DEFAULT
100
AcDbSpline
210
0.0
220
0.0
230
1.0
 70
     8
 71
     3
 72
    14
 73
    10
 74
     0
 42
0.0000000001
 43
0.0000000001
 40
0.0
 40
0.0
 40
0.0
 40
0.0
 40
1.0
 40
2.0
 40
3.0
 40
4.0
 40
5.0
 40
6.0
 40
7.0
 40
7.0
 40
7.0
 40
7.0
 10
6.504993254799999
 20
51.02664199776487
 30
0.0
 10
6.686469254305753
 20
50.40141605046785
 30
0.0
 10
7.160577861821945
 20
49.16924269769212
 30
0.0
 10
7.279244274326569
 20
47.20326272426392
 30
0.0
 10
7.309810228842633
 20
45.24758003776389
 30
0.0
 10
7.364024455594796
 20
43.28913949987766
 30
0.0
 10
7.411731014070822
 20
41.33143377133376
 30
0.0
 10
7.461868797810664
 20
39.37354760759168
 30
0.0
 10
7.493880849462231
 20
38.06830032989878
 30
0.0
 10
7.510515731074996
 20
37.41569271743487
 30
0.0
  0
SPLINE
  5
15C
330
1F
100
AcDbEntity
  8
DEFAULT
100
AcDbSpline
210
0.0
220
0.0
230
1.0
 70
     8
 71
     3
 72
    14
 73
    10
 74
     0
 42
0.0000000001
 43
0.0000000001
 40
0.0
 40
0.0
 40
0.0
 40
0.0
 40
1.0
 40
2.0
 40
3.0
 40
4.0
 40
5.0
 40
6.0
 40
7.0
 40
7.0
 40
7.0
 40
7.0
 10
5.506930034724553
 20
51.69337234119289
 30
0.0
 10
5.566497056995694
 20
51.68383174806662
 30
0.0
 10
5.68611135711967
 20
51.66682110103574
 30
0.0
 10
5.861330635828324
 20
51.61970606636498
 30
0.0
 10
6.028213296492567
 20
51.54838614225989
 30
0.0
 10
6.183429542136524
 20
51.45433273974954
 30
0.0
 10
6.322249195916698
 20
51.33703841665237
 30
0.0
 10
6.435369406088114
 20
51.19435886038908
 30
0.0
 10
6.487009108711996
 20
51.0842670876759
 30
0.0
 10
6.504993254799999
 20
51.02664199776487
 30
0.0
  0
SPLINE
  5
15D
330
1F
100
AcDbEntity
  8
DEFAULT
100
AcDbSpline
210
0.0
220
0.0
230
1.0
 70
    24
 71
     2
 72
     6
 73
     3
 74
     0
 42
0.0000000001
 43
0.0000000001
 40
0.0
 40
0.0
 40
0.0
 40
1.0
 40
1.0
 40
1.0
 10
3.8090665
 20
22.893759
 30
0.0
 10
0.0000219459125717
 20
22.893759
 30
0.0
 10
-3.809022608174857
 20
22.893759
 30
0.0
  0
ENDSEC
  0
SECTION
  2
OBJECTS
  0
DICTIONARY
  5
C
330
0
100
AcDbDictionary
281
     1
  3
ACAD_GROUP
350
D
  3
ACAD_LAYOUT
350
1A
  3
ACAD_MLEADERSTYLE
350
15F
  3
ACAD_MLINESTYLE
350
17
  3
ACAD_PLOTSETTINGS
350
19
  3
ACAD_PLOTSTYLENAME
350
E
  3
ACAD_TABLESTYLE
350
15E
  3
ACAD_VISUALSTYLE
350
2A
  0
DICTIONARY
  5
D
102
{ACAD_REACTORS
330
C
102
}
330
C
100
AcDbDictionary
281
     1
  0
DICTIONARY
  5
1A
102
{ACAD_REACTORS
330
C
102
}
330
C
100
AcDbDictionary
281
     1
  3
Layout1
350
1E
  3
Layout2
350
26
  3
Model
350
22
  0
DICTIONARY
  5
15F
102
{ACAD_REACTORS
330
C
102
}
330
C
100
AcDbDictionary
281
     1
  0
DICTIONARY
  5
17
102
{ACAD_REACTORS
330
C
102
}
330
C
100
AcDbDictionary
281
     1
  3
Standard
350
18
  0
DICTIONARY
  5
19
102
{ACAD_REACTORS
330
C
102
}
330
C
100
AcDbDictionary
281
     1
  0
ACDBDICTIONARYWDFLT
  5
E
102
{ACAD_REACTORS
330
C
102
}
330
C
100
AcDbDictionary
281
     1
  3
Normal
350
F
100
AcDbDictionaryWithDefault
340
F
  0
DICTIONARY
  5
15E
102
{ACAD_REACTORS
330
C
102
}
330
C
100
AcDbDictionary
281
     1
  0
DICTIONARY
  5
2A
102
{ACAD_REACTORS
330
C
102
}
330
C
100
AcDbDictionary
281
     1
  3
2dWireframe
350
2F
  3
3D Hidden
350
31
  3
3dWireframe
350
30
  3
Basic
350
32
  3
Brighten
350
36
  3
ColorChange
350
3A
  3
Conceptual
350
34
  3
Dim
350
35
  3
Facepattern
350
39
  3
Flat
350
2B
  3
FlatWithEdges
350
2C
  3
Gouraud
350
2D
  3
GouraudWithEdges
350
2E
  3
Linepattern
350
38
  3
Realistic
350
33
  3
Thicken
350
37
  0
LAYOUT
  5
1E
102
{ACAD_REACTORS
330
1A
102
}
330
1A
100
AcDbPlotSettings
  1

  2
none_device
  4

  6

 40
0.0
 41
0.0
 42
0.0
 43
0.0
 44
0.0
 45
0.0
 46
0.0
 47
0.0
 48
0.0
 49
0.0
140
0.0
141
0.0
142
1.0
143
1.0
 70
   688
 72
     0
 73
     0
 74
     5
  7

 75
    16
 76
     0
 77
     2
 78
   300
147
1.0
148
0.0
149
0.0
100
AcDbLayout
  1
Layout1
 70
     1
 71
     1
 10
0.0
 20
0.0
 11
12.0
 21
9.0
 12
0.0
 22
0.0
 32
0.0
 14
1.000000000000000E+20
 24
1.000000000000000E+20
 34
1.000000000000000E+20
 15
-1.000000000000000E+20
 25
-1.000000000000000E+20
 35
-1.000000000000000E+20
146
0.0
 13
0.0
 23
0.0
 33
0.0
 16
1.0
 26
0.0
 36
0.0
 17
0.0
 27
1.0
 37
0.0
 76
     0
330
1B
  0
LAYOUT
  5
26
102
{ACAD_REACTORS
330
1A
102
}
330
1A
100
AcDbPlotSettings
  1

  2
none_device
  4

  6

 40
0.0
 41
0.0
 42
0.0
 43
0.0
 44
0.0
 45
0.0
 46
0.0
 47
0.0
 48
0.0
 49
0.0
140
0.0
141
0.0
142
1.0
143
1.0
 70
   688
 72
     0
 73
     0
 74
     5
  7

 75
    16
 76
     0
 77
     2
 78
   300
147
1.0
148
0.0
149
0.0
100
AcDbLayout
  1
Layout2
 70
     1
 71
     2
 10
0.0
 20
0.0
 11
0.0
 21
0.0
 12
0.0
 22
0.0
 32
0.0
 14
0.0
 24
0.0
 34
0.0
 15
0.0
 25
0.0
 35
0.0
146
0.0
 13
0.0
 23
0.0
 33
0.0
 16
1.0
 26
0.0
 36
0.0
 17
0.0
 27
1.0
 37
0.0
 76
     0
330
23
  0
LAYOUT
  5
22
102
{ACAD_REACTORS
330
1A
102
}
330
1A
100
AcDbPlotSettings
  1

  2
none_device
  4

  6

 40
0.0
 41
0.0
 42
0.0
 43
0.0
 44
0.0
 45
0.0
 46
0.0
 47
0.0
 48
0.0
 49
0.0
140
0.0
141
0.0
142
1.0
143
1.0
 70
  1712
 72
     0
 73
     0
 74
     0
  7

 75
     0
 76
     0
 77
     2
 78
   300
147
1.0
148
0.0
149
0.0
100
AcDbLayout
  1
Model
 70
     1
 71
     0
 10
0.0
 20
0.0
 11
12.0
 21
9.0
 12
0.0
 22
0.0
 32
0.0
 14
-7.684261574716183
 24
-0.0007099061565887
 34
0.0
 15
33.20238130092929
 25
52.73602647424487
 35
0.0
146
0.0
 13
0.0
 23
0.0
 33
0.0
 16
1.0
 26
0.0
 36
0.0
 17
0.0
 27
1.0
 37
0.0
 76
     0
330
1F
331
29
  0
MLINESTYLE
  5
18
102
{ACAD_REACTORS
330
17
102
}
330
17
100
AcDbMlineStyle
  2
Standard
 70
     0
  3

 62
   256
 51
90.0
 52
90.0
 71
     2
 49
0.5
 62
   256
  6
BYLAYER
 49
-0.5
 62
   256
  6
BYLAYER
  0
ACDBPLACEHOLDER
  5
F
102
{ACAD_REACTORS
330
E
102
}
330
E
  0
VISUALSTYLE
  5
2F
102
{ACAD_REACTORS
330
2A
102
}
330
2A
100
AcDbVisualStyle
  2
2dWireframe
 70
     4
 71
     0
 72
     2
 73
     0
 90
        0
 40
-0.6
 41
-30.0
 62
     5
 63
     7
421
 16777215
 74
     1
 91
        4
 64
     7
 65
   257
 75
     1
175
     1
 42
1.0
 92
        0
 66
   257
 43
1.0
 76
     1
 77
     6
 78
     2
 67
     7
 79
     5
170
     0
171
     0
290
     0
174
     0
 93
        1
 44
0.0
173
     0
291
     0
 45
0.0
1001
ACAD
1000
AcDbSavedByObjectVersion
1070
     0
  0
VISUALSTYLE
  5
31
102
{ACAD_REACTORS
330
2A
102
}
330
2A
100
AcDbVisualStyle
  2
3D Hidden
 70
     6
 71
     1
 72
     2
 73
     2
 90
        0
 40
-0.6
 41
-30.0
 62
     5
 63
     7
421
 16777215
 74
     2
 91
        2
 64
     7
 65
   257
 75
     2
175
     1
 42
40.0
 92
        0
 66
   257
 43
1.0
 76
     1
 77
     6
 78
     2
 67
     7
 79
     3
170
     0
171
     0
290
     0
174
     0
 93
        1
 44
0.0
173
     0
291
     0
 45
0.0
1001
ACAD
1000
AcDbSavedByObjectVersion
1070
     0
  0
VISUALSTYLE
  5
30
102
{ACAD_REACTORS
330
2A
102
}
330
2A
100
AcDbVisualStyle
  2
3dWireframe
 70
     5
 71
     0
 72
     2
 73
     0
 90
        0
 40
-0.6
 41
-30.0
 62
     5
 63
     7
421
 16777215
 74
     1
 91
        4
 64
     7
 65
   257
 75
     1
175
     1
 42
1.0
 92
        0
 66
   257
 43
1.0
 76
     1
 77
     6
 78
     2
 67
     7
 79
     5
170
     0
171
     0
290
     0
174
     0
 93
        1
 44
0.0
173
     0
291
     0
 45
0.0
1001
ACAD
1000
AcDbSavedByObjectVersion
1070
     0
  0
VISUALSTYLE
  5
32
102
{ACAD_REACTORS
330
2A
102
}
330
2A
100
AcDbVisualStyle
  2
Basic
 70
     7
 71
     1
 72
     0
 73
     1
 90
        0
 40
-0.6
 41
-30.0
 62
     5
 63
     7
421
 16777215
 74
     0
 91
        4
 64
     7
 65
   257
 75
     1
175
     1
 42
1.0
 92
        8
 66
     7
 43
1.0
 76
     1
 77
     6
 78
     2
 67
     7
 79
     5
170
     0
171
     0
290
     0
174
     0
 93
        1
 44
0.0
173
     0
291
     1
 45
0.0
1001
ACAD
1000
AcDbSavedByObjectVersion
1070
     0
  0
VISUALSTYLE
  5
36
102
{ACAD_REACTORS
330
2A
102
}
330
2A
100
AcDbVisualStyle
  2
Brighten
 70
    12
 71
     2
 72
     2
 73
     0
 90
        0
 40
-0.6
 41
-30.0
 62
     5
 63
     7
421
 16777215
 74
     1
 91
        4
 64
     7
 65
   257
 75
     1
175
     1
 42
1.0
 92
        8
 66
     7
 43
1.0
 76
     1
 77
     6
 78
     2
 67
     7
 79
     5
170
     0
171
     0
290
     0
174
     0
 93
        1
 44
50.0
173
     0
291
     1
 45
0.0
1001
ACAD
1000
AcDbSavedByObjectVersion
1070
     0
  0
VISUALSTYLE
  5
3A
102
{ACAD_REACTORS
330
2A
102
}
330
2A
100
AcDbVisualStyle
  2
ColorChange
 70
    16
 71
     2
 72
     2
 73
     3
 90
        0
 40
-0.6
 41
-30.0
 62
     5
 63
     8
421
  8421504
 74
     1
 91
        4
 64
     7
 65
   257
 75
     1
175
     1
 42
1.0
 92
        8
 66
     8
424
  8421504
 43
1.0
 76
     1
 77
     6
 78
     2
 67
     7
 79
     5
170
     0
171
     0
290
     0
174
     0
 93
        1
 44
0.0
173
     0
291
     1
 45
0.0
1001
ACAD
1000
AcDbSavedByObjectVersion
1070
     0
  0
VISUALSTYLE
  5
34
102
{ACAD_REACTORS
330
2A
102
}
330
2A
100
AcDbVisualStyle
  2
Conceptual
 70
     9
 71
     3
 72
     2
 73
     0
 90
        0
 40
-0.6
 41
-30.0
 62
     5
 63
     7
421
 16777215
 74
     2
 91
        2
 64
     7
 65
   257
 75
     1
175
     1
 42
40.0
 92
        8
 66
     7
 43
1.0
 76
     1
 77
     6
 78
     2
 67
     7
 79
     3
170
     0
171
     0
290
     0
174
     0
 93
        1
 44
0.0
173
     0
291
     0
 45
0.0
1001
ACAD
1000
AcDbSavedByObjectVersion
1070
     0
  0
VISUALSTYLE
  5
35
102
{ACAD_REACTORS
330
2A
102
}
330
2A
100
AcDbVisualStyle
  2
Dim
 70
    11
 71
     2
 72
     2
 73
     0
 90
        0
 40
-0.6
 41
-30.0
 62
     5
 63
     7
421
 16777215
 74
     1
 91
        4
 64
     7
 65
   257
 75
     1
175
     1
 42
1.0
 92
        8
 66
     7
 43
1.0
 76
     1
 77
     6
 78
     2
 67
     7
 79
     5
170
     0
171
     0
290
     0
174
     0
 93
        1
 44
-50.0
173
     0
291
     1
 45
0.0
1001
ACAD
1000
AcDbSavedByObjectVersion
1070
     0
  0
VISUALSTYLE
  5
39
102
{ACAD_REACTORS
330
2A
102
}
330
2A
100
AcDbVisualStyle
  2
Facepattern
 70
    15
 71
     2
 72
     2
 73
     0
 90
        0
 40
-0.6
 41
-30.0
 62
     5
 63
     7
421
 16777215
 74
     1
 91
        4
 64
     7
 65
   257
 75
     1
175
     1
 42
1.0
 92
        8
 66
     7
 43
1.0
 76
     1
 77
     6
 78
     2
 67
     7
 79
     5
170
     0
171
     0
290
     0
174
     0
 93
        1
 44
0.0
173
     0
291
     1
 45
0.0
1001
ACAD
1000
AcDbSavedByObjectVersion
1070
     0
  0
VISUALSTYLE
  5
2B
102
{ACAD_REACTORS
330
2A
102
}
330
2A
100
AcDbVisualStyle
  2
Flat
 70
     0
 71
     2
 72
     1
 73
     1
 90
        2
 40
-0.6
 41
30.0
 62
     5
 63
     7
421
 16777215
 74
     0
 91
        4
 64
     7
 65
   257
 75
     1
175
     1
 42
1.0
 92
        8
 66
     7
 43
1.0
 76
     1
 77
     6
 78
     2
 67
     7
 79
     5
170
     0
171
     0
290
     0
174
     0
 93
       13
 44
0.0
173
     0
291
     1
 45
0.0
1001
ACAD
1000
AcDbSavedByObjectVersion
1070
     0
  0
VISUALSTYLE
  5
2C
102
{ACAD_REACTORS
330
2A
102
}
330
2A
100
AcDbVisualStyle
  2
FlatWithEdges
 70
     1
 71
     2
 72
     1
 73
     1
 90
        2
 40
-0.6
 41
30.0
 62
     5
 63
     7
421
 16777215
 74
     1
 91
        4
 64
     7
 65
   257
 75
     1
175
     1
 42
1.0
 92
        0
 66
   257
 43
1.0
 76
     1
 77
     6
 78
     2
 67
     7
 79
     5
170
     0
171
     0
290
     0
174
     0
 93
       13
 44
0.0
173
     0
291
     1
 45
0.0
1001
ACAD
1000
AcDbSavedByObjectVersion
1070
     0
  0
VISUALSTYLE
  5
2D
102
{ACAD_REACTORS
330
2A
102
}
330
2A
100
AcDbVisualStyle
  2
Gouraud
 70
     2
 71
     2
 72
     2
 73
     1
 90
        2
 40
-0.6
 41
30.0
 62
     5
 63
     7
421
 16777215
 74
     0
 91
        4
 64
     7
 65
   257
 75
     1
175
     1
 42
1.0
 92
        0
 66
     7
 43
1.0
 76
     1
 77
     6
 78
     2
 67
     7
 79
     5
170
     0
171
     0
290
     0
174
     0
 93
       13
 44
0.0
173
     0
291
     1
 45
0.0
1001
ACAD
1000
AcDbSavedByObjectVersion
1070
     0
  0
VISUALSTYLE
  5
2E
102
{ACAD_REACTORS
330
2A
102
}
330
2A
100
AcDbVisualStyle
  2
GouraudWithEdges
 70
     3
 71
     2
 72
     2
 73
     1
 90
        2
 40
-0.6
 41
30.0
 62
     5
 63
     7
421
 16777215
 74
     1
 91
        4
 64
     7
 65
   257
 75
     1
175
     1
 42
1.0
 92
        0
 66
   257
 43
1.0
 76
     1
 77
     6
 78
     2
 67
     7
 79
     5
170
     0
171
     0
290
     0
174
     0
 93
       13
 44
0.0
173
     0
291
     1
 45
0.0
1001
ACAD
1000
AcDbSavedByObjectVersion
1070
     0
  0
VISUALSTYLE
  5
38
102
{ACAD_REACTORS
330
2A
102
}
330
2A
100
AcDbVisualStyle
  2
Linepattern
 70
    14
 71
     2
 72
     2
 73
     0
 90
        0
 40
-0.6
 41
-30.0
 62
     5
 63
     7
421
 16777215
 74
     1
 91
        4
 64
     7
 65
   257
 75
     7
175
     7
 42
1.0
 92
        8
 66
     7
 43
1.0
 76
     1
 77
     6
 78
     2
 67
     7
 79
     5
170
     0
171
     0
290
     0
174
     0
 93
        1
 44
0.0
173
     0
291
     1
 45
0.0
1001
ACAD
1000
AcDbSavedByObjectVersion
1070
     0
  0
VISUALSTYLE
  5
33
102
{ACAD_REACTORS
330
2A
102
}
330
2A
100
AcDbVisualStyle
  2
Realistic
 70
     8
 71
     2
 72
     2
 73
     0
 90
        0
 40
-0.6
 41
-30.0
 62
     5
 63
     7
421
 16777215
 74
     1
 91
        0
 64
     7
 65
   257
 75
     1
175
     1
 42
1.0
 92
        8
 66
     8
424
  7895160
 43
1.0
 76
     1
 77
     6
 78
     2
 67
     7
 79
     5
170
     0
171
     0
290
     0
174
     0
 93
       13
 44
0.0
173
     0
291
     0
 45
0.0
1001
ACAD
1000
AcDbSavedByObjectVersion
1070
     0
  0
VISUALSTYLE
  5
37
102
{ACAD_REACTORS
330
2A
102
}
330
2A
100
AcDbVisualStyle
  2
Thicken
 70
    13
 71
     2
 72
     2
 73
     0
 90
        0
 40
-0.6
 41
-30.0
 62
     5
 63
     7
421
 16777215
 74
     1
 91
        4
 64
     7
 65
   257
 75
     1
175
     1
 42
1.0
 92
       12
 66
     7
 43
1.0
 76
     1
 77
     6
 78
     2
 67
     7
 79
     5
170
     0
171
     0
290
     0
174
     0
 93
        1
 44
0.0
173
     0
291
     1
 45
0.0
1001
ACAD
1000
AcDbSavedByObjectVersion
1070
     0
  0
ENDSEC
  0
EOF
