  0
SECTION
  2
HEADER
  9
$ACADVER
  1
AC1018
  9
$ACADMAINTVER
 70
     0
  9
$DWGCODEPAGE
  3
ANSI_1252
  9
$INSBASE
 10
0.0
 20
0.0
 30
0.0
  9
$EXTMIN
 10
-8.19920900052669
 20
-0.000091746358541
 30
0.0
  9
$EXTMAX
 10
32.77222749476601
 20
58.39814436486868
 30
0.0
  9
$LIMMIN
 10
0.0
 20
0.0
  9
$LIMMAX
 10
12.0
 20
9.0
  9
$ORTHOMODE
 70
     0
  9
$REGENMODE
 70
     1
  9
$FILLMODE
 70
     1
  9
$QTEXTMODE
 70
     0
  9
$MIRRTEXT
 70
     1
  9
$LTSCALE
 40
0.0393700787401575
  9
$ATTMODE
 70
     1
  9
$TEXTSIZE
 40
0.2
  9
$TRACEWID
 40
0.05
  9
$TEXTSTYLE
  7
Standard
  9
$CLAYER
  8
DEFAULT
  9
$CELTYPE
  6
ByLayer
  9
$CECOLOR
 62
   256
  9
$CELTSCALE
 40
1.0
  9
$DISPSILH
 70
     0
  9
$DIMSCALE
 40
1.0
  9
$DIMASZ
 40
0.18
  9
$DIMEXO
 40
0.0625
  9
$DIMDLI
 40
0.38
  9
$DIMRND
 40
0.0
  9
$DIMDLE
 40
0.0
  9
$DIMEXE
 40
0.18
  9
$DIMTP
 40
0.0
  9
$DIMTM
 40
0.0
  9
$DIMTXT
 40
0.18
  9
$DIMCEN
 40
0.09
  9
$DIMTSZ
 40
0.0
  9
$DIMTOL
 70
     0
  9
$DIMLIM
 70
     0
  9
$DIMTIH
 70
     1
  9
$DIMTOH
 70
     1
  9
$DIMSE1
 70
     0
  9
$DIMSE2
 70
     0
  9
$DIMTAD
 70
     0
  9
$DIMZIN
 70
     0
  9
$DIMBLK
  1

  9
$DIMASO
 70
     1
  9
$DIMSHO
 70
     1
  9
$DIMPOST
  1

  9
$DIMAPOST
  1

  9
$DIMALT
 70
     0
  9
$DIMALTD
 70
     2
  9
$DIMALTF
 40
25.4
  9
$DIMLFAC
 40
1.0
  9
$DIMTOFL
 70
     0
  9
$DIMTVP
 40
0.0
  9
$DIMTIX
 70
     0
  9
$DIMSOXD
 70
     0
  9
$DIMSAH
 70
     0
  9
$DIMBLK1
  1

  9
$DIMBLK2
  1

  9
$DIMSTYLE
  2
Standard
  9
$DIMCLRD
 70
     0
  9
$DIMCLRE
 70
     0
  9
$DIMCLRT
 70
     0
  9
$DIMTFAC
 40
1.0
  9
$DIMGAP
 40
0.09
  9
$DIMJUST
 70
     0
  9
$DIMSD1
 70
     0
  9
$DIMSD2
 70
     0
  9
$DIMTOLJ
 70
     1
  9
$DIMTZIN
 70
     0
  9
$DIMALTZ
 70
     0
  9
$DIMALTTZ
 70
     0
  9
$DIMUPT
 70
     0
  9
$DIMDEC
 70
     4
  9
$DIMTDEC
 70
     4
  9
$DIMALTU
 70
     2
  9
$DIMALTTD
 70
     2
  9
$DIMTXSTY
  7
Standard
  9
$DIMAUNIT
 70
     0
  9
$DIMADEC
 70
     0
  9
$DIMALTRND
 40
0.0
  9
$DIMAZIN
 70
     0
  9
$DIMDSEP
 70
    46
  9
$DIMATFIT
 70
     3
  9
$DIMFRAC
 70
     0
  9
$DIMLDRBLK
  1

  9
$DIMLUNIT
 70
     2
  9
$DIMLWD
 70
    -2
  9
$DIMLWE
 70
    -2
  9
$DIMTMOVE
 70
     2
  9
$LUNITS
 70
     2
  9
$LUPREC
 70
     3
  9
$SKETCHINC
 40
0.1
  9
$FILLETRAD
 40
0.5
  9
$AUNITS
 70
     0
  9
$AUPREC
 70
     0
  9
$MENU
  1
.
  9
$ELEVATION
 40
0.0
  9
$PELEVATION
 40
0.0
  9
$THICKNESS
 40
0.0
  9
$LIMCHECK
 70
     0
  9
$CHAMFERA
 40
0.5
  9
$CHAMFERB
 40
0.5
  9
$CHAMFERC
 40
1.0
  9
$CHAMFERD
 40
0.0
  9
$SKPOLY
 70
     0
  9
$TDCREATE
 40
2456071.494618704
  9
$TDUCREATE
 40
2456071.661285371
  9
$TDUPDATE
 40
2456071.494618715
  9
$TDUUPDATE
 40
2456071.661285382
  9
$TDINDWG
 40
0.0000000116
  9
$TDUSRTIMER
 40
0.0000000116
  9
$USRTIMER
 70
     1
  9
$ANGBASE
 50
0.0
  9
$ANGDIR
 70
     0
  9
$PDMODE
 70
     0
  9
$PDSIZE
 40
0.0
  9
$PLINEWID
 40
0.0
  9
$SPLFRAME
 70
     0
  9
$SPLINETYPE
 70
     6
  9
$SPLINESEGS
 70
     8
  9
$HANDSEED
  5
168
  9
$SURFTAB1
 70
     6
  9
$SURFTAB2
 70
     6
  9
$SURFTYPE
 70
     6
  9
$SURFU
 70
     6
  9
$SURFV
 70
     6
  9
$UCSBASE
  2

  9
$UCSNAME
  2

  9
$UCSORG
 10
0.0
 20
0.0
 30
0.0
  9
$UCSXDIR
 10
1.0
 20
0.0
 30
0.0
  9
$UCSYDIR
 10
0.0
 20
1.0
 30
0.0
  9
$UCSORTHOREF
  2

  9
$UCSORTHOVIEW
 70
     0
  9
$UCSORGTOP
 10
0.0
 20
0.0
 30
0.0
  9
$UCSORGBOTTOM
 10
0.0
 20
0.0
 30
0.0
  9
$UCSORGLEFT
 10
0.0
 20
0.0
 30
0.0
  9
$UCSORGRIGHT
 10
0.0
 20
0.0
 30
0.0
  9
$UCSORGFRONT
 10
0.0
 20
0.0
 30
0.0
  9
$UCSORGBACK
 10
0.0
 20
0.0
 30
0.0
  9
$PUCSBASE
  2

  9
$PUCSNAME
  2

  9
$PUCSORG
 10
0.0
 20
0.0
 30
0.0
  9
$PUCSXDIR
 10
1.0
 20
0.0
 30
0.0
  9
$PUCSYDIR
 10
0.0
 20
1.0
 30
0.0
  9
$PUCSORTHOREF
  2

  9
$PUCSORTHOVIEW
 70
     0
  9
$PUCSORGTOP
 10
0.0
 20
0.0
 30
0.0
  9
$PUCSORGBOTTOM
 10
0.0
 20
0.0
 30
0.0
  9
$PUCSORGLEFT
 10
0.0
 20
0.0
 30
0.0
  9
$PUCSORGRIGHT
 10
0.0
 20
0.0
 30
0.0
  9
$PUCSORGFRONT
 10
0.0
 20
0.0
 30
0.0
  9
$PUCSORGBACK
 10
0.0
 20
0.0
 30
0.0
  9
$USERI1
 70
     0
  9
$USERI2
 70
     0
  9
$USERI3
 70
     0
  9
$USERI4
 70
     0
  9
$USERI5
 70
     0
  9
$USERR1
 40
0.0
  9
$USERR2
 40
0.0
  9
$USERR3
 40
0.0
  9
$USERR4
 40
0.0
  9
$USERR5
 40
0.0
  9
$WORLDVIEW
 70
     1
  9
$SHADEDGE
 70
     3
  9
$SHADEDIF
 70
    70
  9
$TILEMODE
 70
     1
  9
$MAXACTVP
 70
    64
  9
$PINSBASE
 10
0.0
 20
0.0
 30
0.0
  9
$PLIMCHECK
 70
     0
  9
$PEXTMIN
 10
1.000000000000000E+20
 20
1.000000000000000E+20
 30
1.000000000000000E+20
  9
$PEXTMAX
 10
-1.000000000000000E+20
 20
-1.000000000000000E+20
 30
-1.000000000000000E+20
  9
$PLIMMIN
 10
0.0
 20
0.0
  9
$PLIMMAX
 10
12.0
 20
9.0
  9
$UNITMODE
 70
     0
  9
$VISRETAIN
 70
     1
  9
$PLINEGEN
 70
     0
  9
$PSLTSCALE
 70
     1
  9
$TREEDEPTH
 70
  3020
  9
$CMLSTYLE
  2
Standard
  9
$CMLJUST
 70
     0
  9
$CMLSCALE
 40
1.0
  9
$PROXYGRAPHICS
 70
     1
  9
$MEASUREMENT
 70
     0
  9
$CELWEIGHT
370
    -1
  9
$ENDCAPS
280
     0
  9
$JOINSTYLE
280
     0
  9
$LWDISPLAY
290
     0
  9
$INSUNITS
 70
     1
  9
$HYPERLINKBASE
  1

  9
$STYLESHEET
  1

  9
$XEDIT
290
     1
  9
$CEPSNTYPE
380
     0
  9
$PSTYLEMODE
290
     1
  9
$FINGERPRINTGUID
  2
{BB73D373-18B6-4B3B-8925-567A30389FEE}
  9
$VERSIONGUID
  2
{FAEB1C32-E019-11D5-929B-00C0DF256EC4}
  9
$EXTNAMES
290
     1
  9
$PSVPSCALE
 40
0.0
  9
$OLESTARTUP
290
     0
  9
$SORTENTS
280
   127
  9
$INDEXCTL
280
     0
  9
$HIDETEXT
280
     1
  9
$XCLIPFRAME
290
     0
  9
$HALOGAP
280
     0
  9
$OBSCOLOR
 70
   257
  9
$OBSLTYPE
280
     0
  9
$INTERSECTIONDISPLAY
280
     0
  9
$INTERSECTIONCOLOR
 70
   257
  9
$DIMASSOC
280
     2
  9
$PROJECTNAME
  1

  0
ENDSEC
  0
SECTION
  2
CLASSES
  0
CLASS
  1
ACDBDICTIONARYWDFLT
  2
AcDbDictionaryWithDefault
  3
ObjectDBX Classes
 90
        0
 91
        4
280
     0
281
     0
  0
CLASS
  1
VISUALSTYLE
  2
AcDbVisualStyle
  3
ObjectDBX Classes
 90
     4095
 91
        4
280
     0
281
     0
  0
ENDSEC
  0
SECTION
  2
TABLES
  0
TABLE
  2
VPORT
  5
8
330
0
100
AcDbSymbolTable
 70
     1
  0
VPORT
  5
29
330
8
100
AcDbSymbolTableRecord
100
AcDbViewportTableRecord
  2
*Active
 70
     0
 10
0.0
 20
0.0
 11
1.0
 21
1.0
 12
12.28650924711966
 22
29.19902630925507
 13
0.0
 23
0.0
 14
0.5
 24
0.5
 15
0.5
 25
0.5
 16
0.0
 26
0.0
 36
1.0
 17
0.0
 27
0.0
 37
0.0
 40
59.56620083345177
 41
0.7015868838445247
 42
50.0
 43
0.0
 44
0.0
 50
0.0
 51
0.0
 71
     0
 72
   100
 73
     1
 74
     3
 75
     0
 76
     0
 77
     0
 78
     0
281
     0
 65
     1
110
0.0
120
0.0
130
0.0
111
1.0
121
0.0
131
0.0
112
0.0
122
1.0
132
0.0
 79
     0
146
0.0
  0
ENDTAB
  0
TABLE
  2
LTYPE
  5
5
330
0
100
AcDbSymbolTable
 70
     1
  0
LTYPE
  5
14
330
5
100
AcDbSymbolTableRecord
100
AcDbLinetypeTableRecord
  2
ByBlock
 70
     0
  3

 72
    65
 73
     0
 40
0.0
  0
LTYPE
  5
15
330
5
100
AcDbSymbolTableRecord
100
AcDbLinetypeTableRecord
  2
ByLayer
 70
     0
  3

 72
    65
 73
     0
 40
0.0
  0
LTYPE
  5
16
330
5
100
AcDbSymbolTableRecord
100
AcDbLinetypeTableRecord
  2
Continuous
 70
     0
  3
Solid line
 72
    65
 73
     0
 40
0.0
  0
ENDTAB
  0
TABLE
  2
LAYER
  5
2
330
0
100
AcDbSymbolTable
 70
     3
  0
LAYER
  5
10
330
2
100
AcDbSymbolTableRecord
100
AcDbLayerTableRecord
  2
0
 70
     0
 62
     7
  6
Continuous
370
    -3
390
F
  0
LAYER
  5
3B
330
2
100
AcDbSymbolTableRecord
100
AcDbLayerTableRecord
  2
MAKE2D VISIBLE LINES
 70
     0
 62
     7
  6
Continuous
370
    -3
390
F
  0
LAYER
  5
3E
330
2
100
AcDbSymbolTableRecord
100
AcDbLayerTableRecord
  2
DEFAULT
 70
     0
 62
     7
  6
Continuous
370
    -3
390
F
  0
ENDTAB
  0
TABLE
  2
STYLE
  5
3
330
0
100
AcDbSymbolTable
 70
     1
  0
STYLE
  5
11
330
3
100
AcDbSymbolTableRecord
100
AcDbTextStyleTableRecord
  2
Standard
 70
     0
 40
0.0
 41
1.0
 50
0.0
 71
     0
 42
0.2
  3
txt
  4

  0
ENDTAB
  0
TABLE
  2
VIEW
  5
6
330
0
100
AcDbSymbolTable
 70
     0
  0
ENDTAB
  0
TABLE
  2
UCS
  5
7
330
0
100
AcDbSymbolTable
 70
     0
  0
ENDTAB
  0
TABLE
  2
APPID
  5
9
330
0
100
AcDbSymbolTable
 70
     1
  0
APPID
  5
12
330
9
100
AcDbSymbolTableRecord
100
AcDbRegAppTableRecord
  2
ACAD
 70
     0
  0
ENDTAB
  0
TABLE
  2
DIMSTYLE
  5
A
330
0
100
AcDbSymbolTable
 70
     1
100
AcDbDimStyleTable
  0
DIMSTYLE
105
27
330
A
100
AcDbSymbolTableRecord
100
AcDbDimStyleTableRecord
  2
Standard
 70
     0
340
11
  0
ENDTAB
  0
TABLE
  2
BLOCK_RECORD
  5
1
330
0
100
AcDbSymbolTable
 70
     1
  0
BLOCK_RECORD
  5
1F
330
1
100
AcDbSymbolTableRecord
100
AcDbBlockTableRecord
  2
*Model_Space
340
22
  0
BLOCK_RECORD
  5
1B
330
1
100
AcDbSymbolTableRecord
100
AcDbBlockTableRecord
  2
*Paper_Space
340
1E
  0
BLOCK_RECORD
  5
23
330
1
100
AcDbSymbolTableRecord
100
AcDbBlockTableRecord
  2
*Paper_Space0
340
26
  0
ENDTAB
  0
ENDSEC
  0
SECTION
  2
BLOCKS
  0
BLOCK
  5
20
330
1F
100
AcDbEntity
  8
0
100
AcDbBlockBegin
  2
*Model_Space
 70
     0
 10
0.0
 20
0.0
 30
0.0
  3
*Model_Space
  1

  0
ENDBLK
  5
21
330
1F
100
AcDbEntity
  8
0
100
AcDbBlockEnd
  0
BLOCK
  5
1C
330
1B
100
AcDbEntity
 67
     1
  8
0
100
AcDbBlockBegin
  2
*Paper_Space
 70
     0
 10
0.0
 20
0.0
 30
0.0
  3
*Paper_Space
  1

  0
ENDBLK
  5
1D
330
1B
100
AcDbEntity
 67
     1
  8
0
100
AcDbBlockEnd
  0
BLOCK
  5
24
330
23
100
AcDbEntity
  8
0
100
AcDbBlockBegin
  2
*Paper_Space0
 70
     0
 10
0.0
 20
0.0
 30
0.0
  3
*Paper_Space0
  1

  0
ENDBLK
  5
25
330
23
100
AcDbEntity
  8
0
100
AcDbBlockEnd
  0
ENDSEC
  0
SECTION
  2
ENTITIES
  0
SPLINE
  5
3C
330
1F
100
AcDbEntity
  8
MAKE2D VISIBLE LINES
100
AcDbSpline
210
0.0
220
0.0
230
1.0
 70
     8
 71
     3
 72
    12
 73
     8
 74
     0
 42
0.0000000001
 43
0.0000000001
 40
0.0088594611624005
 40
0.0088594611624005
 40
0.0088594611624005
 40
0.0088594611624005
 40
0.2643304558879399
 40
0.3822032446746742
 40
0.4709243882361252
 40
0.534338104635223
 40
0.5808283047959564
 40
0.5808283047959564
 40
0.5808283047959564
 40
0.5808283047959564
 10
-6.901342675887455
 20
57.63577362037909
 30
0.0
 10
-6.930701182154933
 20
57.71571650035818
 30
0.0
 10
-6.972743925307905
 20
57.83282518171939
 30
0.0
 10
-7.023751319594478
 20
57.97819683169182
 30
0.0
 10
-7.052377314990167
 20
58.06346536747678
 30
0.0
 10
-7.07296263872837
 20
58.12650753396498
 30
0.0
 10
-7.077841986501222
 20
58.16302254250878
 30
0.0
 10
-7.077713644297445
 20
58.17854524982017
 30
0.0
  0
SPLINE
  5
3D
330
1F
100
AcDbEntity
  8
MAKE2D VISIBLE LINES
100
AcDbSpline
210
0.0
220
0.0
230
1.0
 70
    24
 71
     2
 72
     6
 73
     3
 74
     0
 42
0.0000000001
 43
0.0000000001
 40
0.5896235712096191
 40
0.5896235712096191
 40
0.5896235712096191
 40
0.8154543470312949
 40
0.8154543470312949
 40
0.8154543470312949
 10
-6.552942796992054
 20
56.70003626080972
 30
0.0
 10
-6.513981484906012
 20
56.59405559753765
 30
0.0
 10
-6.475020172819971
 20
56.48807493426557
 30
0.0
  0
SPLINE
  5
3F
330
1F
100
AcDbEntity
  8
DEFAULT
100
AcDbSpline
210
0.0
220
0.0
230
1.0
 70
    24
 71
     2
 72
     6
 73
     3
 74
     0
 42
0.0000000001
 43
0.0000000001
 40
0.0
 40
0.0
 40
0.0
 40
1.0
 40
1.0
 40
1.0
 10
-6.580983736147362
 20
56.68801086862834
 30
0.0
 10
-6.567057352407826
 20
56.69318428449716
 30
0.0
 10
-6.553130968668289
 20
56.69835770036597
 30
0.0
  0
LINE
  5
40
330
1F
100
AcDbEntity
  8
DEFAULT
100
AcDbLine
 10
-6.553130968668289
 20
56.69835770036597
 30
0.0
 11
-6.546995975137327
 21
56.75308409527168
 31
0.0
  0
SPLINE
  5
41
330
1F
100
AcDbEntity
  8
DEFAULT
100
AcDbSpline
210
0.0
220
0.0
230
1.0
 70
     8
 71
     3
 72
     9
 73
     5
 74
     0
 42
0.0000000001
 43
0.0000000001
 40
0.0
 40
0.0
 40
0.0
 40
0.0
 40
1.000000136391296
 40
2.0
 40
2.0
 40
2.0
 40
2.0
 10
-6.546995975137327
 20
56.75308409527168
 30
0.0
 10
-6.546535150685306
 20
56.7571990318509
 30
0.0
 10
-6.546745041133493
 20
56.76554267973543
 30
0.0
 10
-6.549041684627817
 20
56.77354635403748
 30
0.0
 10
-6.550427318915133
 20
56.77747547972586
 30
0.0
  0
LINE
  5
42
330
1F
100
AcDbEntity
  8
DEFAULT
100
AcDbLine
 10
-6.550427318915133
 20
56.77747547972586
 30
0.0
 11
-6.847641092833754
 21
57.57760790329041
 31
0.0
  0
SPLINE
  5
43
330
1F
100
AcDbEntity
  8
DEFAULT
100
AcDbSpline
210
0.0
220
0.0
230
1.0
 70
     8
 71
     3
 72
     9
 73
     5
 74
     0
 42
0.0000000001
 43
0.0000000001
 40
-2.0
 40
-2.0
 40
-2.0
 40
-2.0
 40
-1.0
 40
0.0
 40
0.0
 40
0.0
 40
0.0
 10
-6.847641092833754
 20
57.57760790329041
 30
0.0
 10
-6.849156732270925
 20
57.58148873536935
 30
0.0
 10
-6.852642095714551
 20
57.58905085377738
 30
0.0
 10
-6.857930123158368
 20
57.59550819833819
 30
0.0
 10
-6.860965569488677
 20
57.59832442414631
 30
0.0
  0
LINE
  5
44
330
1F
100
AcDbEntity
  8
DEFAULT
100
AcDbLine
 10
-6.860965569488677
 20
57.59832442414631
 30
0.0
 11
-6.901340095689936
 21
57.6357745787391
 31
0.0
  0
SPLINE
  5
45
330
1F
100
AcDbEntity
  8
DEFAULT
100
AcDbSpline
210
0.0
220
0.0
230
1.0
 70
    24
 71
     2
 72
     6
 73
     3
 74
     0
 42
0.0000000001
 43
0.0000000001
 40
-1.0
 40
-1.0
 40
-1.0
 40
0.0
 40
0.0
 40
0.0
 10
-6.901340095689936
 20
57.6357745787391
 30
0.0
 10
-6.915266725564409
 20
57.63060182549233
 30
0.0
 10
-6.929193355438881
 20
57.62542907224556
 30
0.0
  0
SPLINE
  5
46
330
1F
100
AcDbEntity
  8
DEFAULT
100
AcDbSpline
210
0.0
220
0.0
230
1.0
 70
     8
 71
     3
 72
     9
 73
     5
 74
     0
 42
0.0000000001
 43
0.0000000001
 40
-2.0
 40
-2.0
 40
-2.0
 40
-2.0
 40
-1.0
 40
0.0
 40
0.0
 40
0.0
 40
0.0
 10
-6.929193355438881
 20
57.62542907224556
 30
0.0
 10
-6.943854943796675
 20
57.62002077791185
 30
0.0
 10
-6.969620523271574
 20
57.59826680491186
 30
0.0
 10
-6.97230274330435
 20
57.56433020042773
 30
0.0
 10
-6.966678760833785
 20
57.54961657031724
 30
0.0
  0
LINE
  5
47
330
1F
100
AcDbEntity
  8
DEFAULT
100
AcDbLine
 10
-6.966678760833785
 20
57.54961657031724
 30
0.0
 11
-6.658871643014455
 21
56.72096726110212
 31
0.0
  0
SPLINE
  5
48
330
1F
100
AcDbEntity
  8
DEFAULT
100
AcDbSpline
210
0.0
220
0.0
230
1.0
 70
     8
 71
     3
 72
     9
 73
     5
 74
     0
 42
0.0000000001
 43
0.0000000001
 40
0.0
 40
0.0
 40
0.0
 40
0.0
 40
1.0
 40
2.0
 40
2.0
 40
2.0
 40
2.0
 10
-6.658871643014455
 20
56.72096726110212
 30
0.0
 10
-6.653526566952894
 20
56.70615002953138
 30
0.0
 10
-6.629339806198703
 20
56.68219406926185
 30
0.0
 10
-6.595620620814773
 20
56.68253606927071
 30
0.0
 10
-6.580983736147362
 20
56.68801086862834
 30
0.0
  0
SPLINE
  5
49
330
1F
100
AcDbEntity
  8
MAKE2D VISIBLE LINES
100
AcDbSpline
210
0.0
220
0.0
230
1.0
 70
     8
 71
     3
 72
    12
 73
     8
 74
     0
 42
0.0000000001
 43
0.0000000001
 40
0.0
 40
0.0
 40
0.0
 40
0.0
 40
0.0230264449136501
 40
0.0465954427963026
 40
0.1104945657555365
 40
0.316798474767921
 40
0.5719716470589072
 40
0.5719716470589072
 40
0.5719716470589072
 40
0.5719716470589072
 10
7.077714725456536
 20
58.17854970163612
 30
0.0
 10
7.07748481263704
 20
58.17088658260032
 30
0.0
 10
7.076922390057568
 20
58.15533621789935
 30
0.0
 10
7.070459919615956
 20
58.11897615429855
 30
0.0
 10
7.040212587826494
 20
58.02576048559024
 30
0.0
 10
6.982723411182028
 20
57.8603927449733
 30
0.0
 10
6.930637398133577
 20
57.71561915341914
 30
0.0
 10
6.901340095689937
 20
57.6357745787391
 30
0.0
  0
SPLINE
  5
4A
330
1F
100
AcDbEntity
  8
MAKE2D VISIBLE LINES
100
AcDbSpline
210
0.0
220
0.0
230
1.0
 70
    24
 71
     2
 72
     6
 73
     3
 74
     0
 42
0.0000000001
 43
0.0000000001
 40
0.5454551048061029
 40
0.5454551048061029
 40
0.5454551048061029
 40
0.7712858806278804
 40
0.7712858806278804
 40
0.7712858806278804
 10
6.475020172819899
 20
56.4880749342658
 30
0.0
 10
6.513981484905958
 20
56.59405559753792
 30
0.0
 10
6.552942796992017
 20
56.70003626081004
 30
0.0
  0
SPLINE
  5
4B
330
1F
100
AcDbEntity
  8
DEFAULT
100
AcDbSpline
210
0.0
220
0.0
230
1.0
 70
    24
 71
     2
 72
     6
 73
     3
 74
     0
 42
0.0000000001
 43
0.0000000001
 40
0.0
 40
0.0
 40
0.0
 40
1.0
 40
1.0
 40
1.0
 10
6.580983736147362
 20
56.68801086862834
 30
0.0
 10
6.567057352407826
 20
56.69318428449716
 30
0.0
 10
6.553130968668289
 20
56.69835770036597
 30
0.0
  0
LINE
  5
4C
330
1F
100
AcDbEntity
  8
DEFAULT
100
AcDbLine
 10
6.553130968668289
 20
56.69835770036597
 30
0.0
 11
6.546995975137327
 21
56.75308409527168
 31
0.0
  0
SPLINE
  5
4D
330
1F
100
AcDbEntity
  8
DEFAULT
100
AcDbSpline
210
0.0
220
0.0
230
1.0
 70
     8
 71
     3
 72
     9
 73
     5
 74
     0
 42
0.0000000001
 43
0.0000000001
 40
0.0
 40
0.0
 40
0.0
 40
0.0
 40
1.000000136391296
 40
2.0
 40
2.0
 40
2.0
 40
2.0
 10
6.546995975137327
 20
56.75308409527168
 30
0.0
 10
6.546535150685306
 20
56.7571990318509
 30
0.0
 10
6.546745041133493
 20
56.76554267973543
 30
0.0
 10
6.549041684627817
 20
56.77354635403748
 30
0.0
 10
6.550427318915133
 20
56.77747547972586
 30
0.0
  0
LINE
  5
4E
330
1F
100
AcDbEntity
  8
DEFAULT
100
AcDbLine
 10
6.550427318915133
 20
56.77747547972586
 30
0.0
 11
6.847641092833754
 21
57.57760790329041
 31
0.0
  0
SPLINE
  5
4F
330
1F
100
AcDbEntity
  8
DEFAULT
100
AcDbSpline
210
0.0
220
0.0
230
1.0
 70
     8
 71
     3
 72
     9
 73
     5
 74
     0
 42
0.0000000001
 43
0.0000000001
 40
-2.0
 40
-2.0
 40
-2.0
 40
-2.0
 40
-1.0
 40
0.0
 40
0.0
 40
0.0
 40
0.0
 10
6.847641092833754
 20
57.57760790329041
 30
0.0
 10
6.849156732270925
 20
57.58148873536935
 30
0.0
 10
6.852642095714551
 20
57.58905085377738
 30
0.0
 10
6.857930123158368
 20
57.59550819833819
 30
0.0
 10
6.860965569488677
 20
57.59832442414631
 30
0.0
  0
LINE
  5
50
330
1F
100
AcDbEntity
  8
DEFAULT
100
AcDbLine
 10
6.860965569488677
 20
57.59832442414631
 30
0.0
 11
6.901340095689936
 21
57.6357745787391
 31
0.0
  0
SPLINE
  5
51
330
1F
100
AcDbEntity
  8
DEFAULT
100
AcDbSpline
210
0.0
220
0.0
230
1.0
 70
    24
 71
     2
 72
     6
 73
     3
 74
     0
 42
0.0000000001
 43
0.0000000001
 40
-1.0
 40
-1.0
 40
-1.0
 40
0.0
 40
0.0
 40
0.0
 10
6.901340095689936
 20
57.6357745787391
 30
0.0
 10
6.915266725564409
 20
57.63060182549233
 30
0.0
 10
6.929193355438881
 20
57.62542907224556
 30
0.0
  0
SPLINE
  5
52
330
1F
100
AcDbEntity
  8
DEFAULT
100
AcDbSpline
210
0.0
220
0.0
230
1.0
 70
     8
 71
     3
 72
     9
 73
     5
 74
     0
 42
0.0000000001
 43
0.0000000001
 40
-2.0
 40
-2.0
 40
-2.0
 40
-2.0
 40
-1.0
 40
0.0
 40
0.0
 40
0.0
 40
0.0
 10
6.929193355438881
 20
57.62542907224556
 30
0.0
 10
6.943854943796675
 20
57.62002077791185
 30
0.0
 10
6.969620523271574
 20
57.59826680491186
 30
0.0
 10
6.97230274330435
 20
57.56433020042773
 30
0.0
 10
6.966678760833785
 20
57.54961657031724
 30
0.0
  0
LINE
  5
53
330
1F
100
AcDbEntity
  8
DEFAULT
100
AcDbLine
 10
6.966678760833785
 20
57.54961657031724
 30
0.0
 11
6.658871643014455
 21
56.72096726110212
 31
0.0
  0
SPLINE
  5
54
330
1F
100
AcDbEntity
  8
DEFAULT
100
AcDbSpline
210
0.0
220
0.0
230
1.0
 70
     8
 71
     3
 72
     9
 73
     5
 74
     0
 42
0.0000000001
 43
0.0000000001
 40
0.0
 40
0.0
 40
0.0
 40
0.0
 40
1.0
 40
2.0
 40
2.0
 40
2.0
 40
2.0
 10
6.658871643014455
 20
56.72096726110212
 30
0.0
 10
6.653526566952894
 20
56.70615002953138
 30
0.0
 10
6.629339806198703
 20
56.68219406926185
 30
0.0
 10
6.595620620814773
 20
56.68253606927071
 30
0.0
 10
6.580983736147362
 20
56.68801086862834
 30
0.0
  0
SPLINE
  5
55
330
1F
100
AcDbEntity
  8
MAKE2D VISIBLE LINES
100
AcDbSpline
210
0.0
220
0.0
230
1.0
 70
    24
 71
     2
 72
     6
 73
     3
 74
     0
 42
0.0000000001
 43
0.0000000001
 40
0.1528267238412757
 40
0.1528267238412757
 40
0.1528267238412757
 40
0.3750000000006558
 40
0.3750000000006558
 40
0.3750000000006558
 10
7.973978098285443
 20
41.15561830548057
 30
0.0
 10
8.008305757300038
 20
41.04996863446155
 30
0.0
 10
8.042633416314633
 20
40.94431896344254
 30
0.0
  0
SPLINE
  5
56
330
1F
100
AcDbEntity
  8
MAKE2D VISIBLE LINES
100
AcDbSpline
210
0.0
220
0.0
230
1.0
 70
    24
 71
     2
 72
     6
 73
     3
 74
     0
 42
0.0000000001
 43
0.0000000001
 40
0.8149252372360769
 40
0.8149252372360769
 40
0.8149252372360769
 40
1.32282970339303
 40
1.32282970339303
 40
1.32282970339303
 10
7.663722721568283
 20
42.09865140783407
 30
0.0
 10
7.585247165787628
 20
42.34017433393107
 30
0.0
 10
7.506771610006973
 20
42.58169726002809
 30
0.0
  0
SPLINE
  5
57
330
1F
100
AcDbEntity
  8
DEFAULT
100
AcDbSpline
210
0.0
220
0.0
230
1.0
 70
    24
 71
     2
 72
     6
 73
     3
 74
     0
 42
0.0000000001
 43
0.0000000001
 40
0.0
 40
0.0
 40
0.0
 40
1.0
 40
1.0
 40
1.0
 10
7.693219167044298
 20
42.11585716630145
 30
0.0
 10
7.679090135475901
 20
42.1112659940381
 30
0.0
 10
7.664961103907503
 20
42.10667482177475
 30
0.0
  0
LINE
  5
58
330
1F
100
AcDbEntity
  8
DEFAULT
100
AcDbLine
 10
7.664961103907503
 20
42.10667482177475
 30
0.0
 11
7.656560859631837
 21
42.05225008161818
 31
0.0
  0
SPLINE
  5
59
330
1F
100
AcDbEntity
  8
DEFAULT
100
AcDbSpline
210
0.0
220
0.0
230
1.0
 70
     8
 71
     3
 72
     9
 73
     5
 74
     0
 42
0.0000000001
 43
0.0000000001
 40
0.0
 40
0.0
 40
0.0
 40
0.0
 40
1.000000136391296
 40
2.0
 40
2.0
 40
2.0
 40
2.0
 10
7.656560859631837
 20
42.05225008161818
 30
0.0
 10
7.655929708129719
 20
42.0481578071885
 30
0.0
 10
7.655793249808354
 20
42.03981263534198
 30
0.0
 10
7.657755852873445
 20
42.03172056744297
 30
0.0
 10
7.658977279324853
 20
42.02773733653363
 30
0.0
  0
LINE
  5
5A
330
1F
100
AcDbEntity
  8
DEFAULT
100
AcDbLine
 10
7.658977279324853
 20
42.02773733653363
 30
0.0
 11
7.922738598284953
 21
41.21596280548042
 31
0.0
  0
SPLINE
  5
5B
330
1F
100
AcDbEntity
  8
DEFAULT
100
AcDbSpline
210
0.0
220
0.0
230
1.0
 70
     8
 71
     3
 72
     9
 73
     5
 74
     0
 42
0.0000000001
 43
0.0000000001
 40
-2.0
 40
-2.0
 40
-2.0
 40
-2.0
 40
-1.0
 40
0.0
 40
0.0
 40
0.0
 40
0.0
 10
7.922738598284953
 20
41.21596280548042
 30
0.0
 10
7.924091921592222
 20
41.21202243283886
 30
0.0
 10
7.927260540711243
 20
41.20432222206058
 30
0.0
 10
7.932276107435595
 20
41.19765104349476
 30
0.0
 10
7.935192098284952
 20
41.19471130548042
 30
0.0
  0
LINE
  5
5C
330
1F
100
AcDbEntity
  8
DEFAULT
100
AcDbLine
 10
7.935192098284952
 20
41.19471130548042
 30
0.0
 11
7.973978098284954
 21
41.15561830548041
 31
0.0
  0
SPLINE
  5
5D
330
1F
100
AcDbEntity
  8
DEFAULT
100
AcDbSpline
210
0.0
220
0.0
230
1.0
 70
    24
 71
     2
 72
     6
 73
     3
 74
     0
 42
0.0000000001
 43
0.0000000001
 40
-1.0
 40
-1.0
 40
-1.0
 40
0.0
 40
0.0
 40
0.0
 10
7.973978098284954
 20
41.15561830548041
 30
0.0
 10
7.988107348284957
 20
41.16020880548041
 30
0.0
 10
8.002236598284957
 20
41.16479930548041
 30
0.0
  0
SPLINE
  5
5E
330
1F
100
AcDbEntity
  8
DEFAULT
100
AcDbSpline
210
0.0
220
0.0
230
1.0
 70
     8
 71
     3
 72
     9
 73
     5
 74
     0
 42
0.0000000001
 43
0.0000000001
 40
-2.0
 40
-2.0
 40
-2.0
 40
-2.0
 40
-1.0
 40
0.0
 40
0.0
 40
0.0
 40
0.0
 10
8.002236598284957
 20
41.16479930548041
 30
0.0
 10
8.017109946266004
 20
41.16959465120393
 30
0.0
 10
8.043755887284536
 20
41.19026091003805
 30
0.0
 10
8.04784378728051
 20
41.22405701191148
 30
0.0
 10
8.042835098284955
 20
41.23899130548042
 30
0.0
  0
LINE
  5
5F
330
1F
100
AcDbEntity
  8
DEFAULT
100
AcDbLine
 10
8.042835098284955
 20
41.23899130548042
 30
0.0
 11
7.769672688364476
 21
42.07969767351231
 31
0.0
  0
SPLINE
  5
60
330
1F
100
AcDbEntity
  8
DEFAULT
100
AcDbSpline
210
0.0
220
0.0
230
1.0
 70
     8
 71
     3
 72
     9
 73
     5
 74
     0
 42
0.0000000001
 43
0.0000000001
 40
0.0
 40
0.0
 40
0.0
 40
0.0
 40
1.0
 40
2.0
 40
2.0
 40
2.0
 40
2.0
 10
7.769672688364476
 20
42.07969767351231
 30
0.0
 10
7.76494696393234
 20
42.09472390784152
 30
0.0
 10
7.741774933097987
 20
42.11966272127015
 30
0.0
 10
7.708070591820122
 20
42.12071998471277
 30
0.0
 10
7.693219167044298
 20
42.11585716630145
 30
0.0
  0
SPLINE
  5
61
330
1F
100
AcDbEntity
  8
DEFAULT
100
AcDbSpline
210
0.0
220
0.0
230
1.0
 70
    24
 71
     2
 72
     6
 73
     3
 74
     0
 42
0.0000000001
 43
0.0000000001
 40
0.0
 40
0.0
 40
0.0
 40
1.0
 40
1.0
 40
1.0
 10
-7.693219167044298
 20
42.11585716630145
 30
0.0
 10
-7.679090135475901
 20
42.1112659940381
 30
0.0
 10
-7.664961103907503
 20
42.10667482177475
 30
0.0
  0
LINE
  5
62
330
1F
100
AcDbEntity
  8
DEFAULT
100
AcDbLine
 10
-7.664961103907503
 20
42.10667482177475
 30
0.0
 11
-7.656560859631837
 21
42.05225008161818
 31
0.0
  0
SPLINE
  5
63
330
1F
100
AcDbEntity
  8
DEFAULT
100
AcDbSpline
210
0.0
220
0.0
230
1.0
 70
     8
 71
     3
 72
     9
 73
     5
 74
     0
 42
0.0000000001
 43
0.0000000001
 40
0.0
 40
0.0
 40
0.0
 40
0.0
 40
1.000000136391296
 40
2.0
 40
2.0
 40
2.0
 40
2.0
 10
-7.656560859631837
 20
42.05225008161818
 30
0.0
 10
-7.655929708129719
 20
42.0481578071885
 30
0.0
 10
-7.655793249808354
 20
42.03981263534198
 30
0.0
 10
-7.657755852873445
 20
42.03172056744297
 30
0.0
 10
-7.658977279324853
 20
42.02773733653363
 30
0.0
  0
LINE
  5
64
330
1F
100
AcDbEntity
  8
DEFAULT
100
AcDbLine
 10
-7.658977279324853
 20
42.02773733653363
 30
0.0
 11
-7.922738598284953
 21
41.21596280548042
 31
0.0
  0
SPLINE
  5
65
330
1F
100
AcDbEntity
  8
DEFAULT
100
AcDbSpline
210
0.0
220
0.0
230
1.0
 70
     8
 71
     3
 72
     9
 73
     5
 74
     0
 42
0.0000000001
 43
0.0000000001
 40
-2.0
 40
-2.0
 40
-2.0
 40
-2.0
 40
-1.0
 40
0.0
 40
0.0
 40
0.0
 40
0.0
 10
-7.922738598284953
 20
41.21596280548042
 30
0.0
 10
-7.924091921592222
 20
41.21202243283886
 30
0.0
 10
-7.927260540711243
 20
41.20432222206058
 30
0.0
 10
-7.932276107435595
 20
41.19765104349476
 30
0.0
 10
-7.935192098284952
 20
41.19471130548042
 30
0.0
  0
LINE
  5
66
330
1F
100
AcDbEntity
  8
DEFAULT
100
AcDbLine
 10
-7.935192098284952
 20
41.19471130548042
 30
0.0
 11
-7.973978098284954
 21
41.15561830548041
 31
0.0
  0
SPLINE
  5
67
330
1F
100
AcDbEntity
  8
DEFAULT
100
AcDbSpline
210
0.0
220
0.0
230
1.0
 70
    24
 71
     2
 72
     6
 73
     3
 74
     0
 42
0.0000000001
 43
0.0000000001
 40
-1.0
 40
-1.0
 40
-1.0
 40
0.0
 40
0.0
 40
0.0
 10
-7.973978098284954
 20
41.15561830548041
 30
0.0
 10
-7.988107348284957
 20
41.16020880548041
 30
0.0
 10
-8.002236598284957
 20
41.16479930548041
 30
0.0
  0
SPLINE
  5
68
330
1F
100
AcDbEntity
  8
DEFAULT
100
AcDbSpline
210
0.0
220
0.0
230
1.0
 70
     8
 71
     3
 72
     9
 73
     5
 74
     0
 42
0.0000000001
 43
0.0000000001
 40
-2.0
 40
-2.0
 40
-2.0
 40
-2.0
 40
-1.0
 40
0.0
 40
0.0
 40
0.0
 40
0.0
 10
-8.002236598284957
 20
41.16479930548041
 30
0.0
 10
-8.017109946266004
 20
41.16959465120393
 30
0.0
 10
-8.043755887284536
 20
41.19026091003805
 30
0.0
 10
-8.04784378728051
 20
41.22405701191148
 30
0.0
 10
-8.042835098284955
 20
41.23899130548042
 30
0.0
  0
LINE
  5
69
330
1F
100
AcDbEntity
  8
DEFAULT
100
AcDbLine
 10
-8.042835098284955
 20
41.23899130548042
 30
0.0
 11
-7.769672688364476
 21
42.07969767351231
 31
0.0
  0
SPLINE
  5
6A
330
1F
100
AcDbEntity
  8
DEFAULT
100
AcDbSpline
210
0.0
220
0.0
230
1.0
 70
     8
 71
     3
 72
     9
 73
     5
 74
     0
 42
0.0000000001
 43
0.0000000001
 40
0.0
 40
0.0
 40
0.0
 40
0.0
 40
1.0
 40
2.0
 40
2.0
 40
2.0
 40
2.0
 10
-7.769672688364476
 20
42.07969767351231
 30
0.0
 10
-7.76494696393234
 20
42.09472390784152
 30
0.0
 10
-7.741774933097987
 20
42.11966272127015
 30
0.0
 10
-7.708070591820122
 20
42.12071998471277
 30
0.0
 10
-7.693219167044298
 20
42.11585716630145
 30
0.0
  0
SPLINE
  5
6B
330
1F
100
AcDbEntity
  8
MAKE2D VISIBLE LINES
100
AcDbSpline
210
0.0
220
0.0
230
1.0
 70
    24
 71
     2
 72
     6
 73
     3
 74
     0
 42
0.0000000001
 43
0.0000000001
 40
0.252170296607472
 40
0.252170296607472
 40
0.252170296607472
 40
0.7600747627642446
 40
0.7600747627642446
 40
0.7600747627642446
 10
-7.506771610006984
 20
42.58169726002763
 30
0.0
 10
-7.585247165787612
 20
42.3401743339307
 30
0.0
 10
-7.663722721568239
 20
42.09865140783378
 30
0.0
  0
SPLINE
  5
6C
330
1F
100
AcDbEntity
  8
MAKE2D VISIBLE LINES
100
AcDbSpline
210
0.0
220
0.0
230
1.0
 70
    24
 71
     2
 72
     6
 73
     3
 74
     0
 42
0.0000000001
 43
0.0000000001
 40
0.0
 40
0.0
 40
0.0
 40
0.2221732761593788
 40
0.2221732761593788
 40
0.2221732761593788
 10
-8.042633416314146
 20
40.94431896344238
 30
0.0
 10
-8.00830575729955
 20
41.04996863446139
 30
0.0
 10
-7.973978098284954
 20
41.15561830548041
 30
0.0
  0
SPLINE
  5
6D
330
1F
100
AcDbEntity
  8
MAKE2D VISIBLE LINES
100
AcDbSpline
210
0.0
220
0.0
230
1.0
 70
    12
 71
     2
 72
     6
 73
     3
 74
     0
 42
0.0000000001
 43
0.0000000001
 40
0.0
 40
0.0
 40
0.0
 40
0.2458562151604948
 40
0.2458562151604948
 40
0.2458562151604948
 10
7.172113953949935
 20
41.50051577263608
 30
0.0
 41
1.0
 10
7.232468779690653
 20
41.60900693056163
 30
0.0
 41
0.9766771268390115
 10
7.254633118634517
 20
41.73116166201892
 30
0.0
 41
0.9800511782063652
  0
SPLINE
  5
6E
330
1F
100
AcDbEntity
  8
MAKE2D VISIBLE LINES
100
AcDbSpline
210
0.0
220
0.0
230
1.0
 70
    24
 71
     2
 72
     6
 73
     3
 74
     0
 42
0.0000000001
 43
0.0000000001
 40
0.0
 40
0.0
 40
0.0
 40
1.668896450699774
 40
1.668896450699774
 40
1.668896450699774
 10
7.819879916828373
 20
40.19847930521773
 30
0.0
 10
7.240659372324795
 20
40.79915176306356
 30
0.0
 10
6.661438827821216
 20
41.39982422090939
 30
0.0
  0
SPLINE
  5
6F
330
1F
100
AcDbEntity
  8
MAKE2D VISIBLE LINES
100
AcDbSpline
210
0.0
220
0.0
230
1.0
 70
    24
 71
     2
 72
     6
 73
     3
 74
     0
 42
0.0000000001
 43
0.0000000001
 40
1.108076081789535
 40
1.108076081789535
 40
1.108076081789535
 40
2.777187563153902
 40
2.777187563153902
 40
2.777187563153902
 10
-6.661438827821131
 20
41.39982422090938
 30
0.0
 10
-7.240734002586277
 20
40.79907436880835
 30
0.0
 10
-7.820029177351422
 20
40.19832451670732
 30
0.0
  0
SPLINE
  5
70
330
1F
100
AcDbEntity
  8
MAKE2D VISIBLE LINES
100
AcDbSpline
210
0.0
220
0.0
230
1.0
 70
    24
 71
     2
 72
     6
 73
     3
 74
     0
 42
0.0000000001
 43
0.0000000001
 40
3.034298861987385
 40
3.034298861987385
 40
3.034298861987385
 40
4.336136281161343
 40
4.336136281161343
 40
4.336136281161343
 10
6.089573937461147
 20
57.10249826379482
 30
0.0
 10
6.374739241260065
 20
57.68762723761141
 30
0.0
 10
6.659904545058984
 20
58.27275621142799
 30
0.0
  0
SPLINE
  5
71
330
1F
100
AcDbEntity
  8
MAKE2D VISIBLE LINES
100
AcDbSpline
210
0.0
220
0.0
230
1.0
 70
    24
 71
     2
 72
     6
 73
     3
 74
     0
 42
0.0000000001
 43
0.0000000001
 40
0.0
 40
0.0
 40
0.0
 40
1.301837419174633
 40
1.301837419174633
 40
1.301837419174633
 10
-6.65990454505963
 20
58.27275621142833
 30
0.0
 10
-6.37473924126059
 20
57.68762723761143
 30
0.0
 10
-6.089573937461549
 20
57.10249826379453
 30
0.0
  0
SPLINE
  5
72
330
1F
100
AcDbEntity
  8
MAKE2D VISIBLE LINES
100
AcDbSpline
210
0.0
220
0.0
230
1.0
 70
    24
 71
     2
 72
     6
 73
     3
 74
     0
 42
0.0000000001
 43
0.0000000001
 40
0.0
 40
0.0
 40
0.0
 40
0.6387564384328361
 40
0.6387564384328361
 40
0.6387564384328361
 10
-7.506417542230743
 20
41.19067675421545
 30
0.0
 10
-7.407724244859616
 20
41.49442349076395
 30
0.0
 10
-7.309030947488489
 20
41.79817022731245
 30
0.0
  0
SPLINE
  5
73
330
1F
100
AcDbEntity
  8
MAKE2D VISIBLE LINES
100
AcDbSpline
210
0.0
220
0.0
230
1.0
 70
    24
 71
     2
 72
     6
 73
     3
 74
     0
 42
0.0000000001
 43
0.0000000001
 40
0.0
 40
0.0
 40
0.0
 40
1.502796435995408
 40
1.502796435995408
 40
1.502796435995408
 10
-8.134960879909784
 20
40.50200901207
 30
0.0
 10
-7.613388334429017
 20
41.04289842942889
 30
0.0
 10
-7.091815788948249
 20
41.58378784678778
 30
0.0
  0
SPLINE
  5
74
330
1F
100
AcDbEntity
  8
MAKE2D VISIBLE LINES
100
AcDbSpline
210
0.0
220
0.0
230
1.0
 70
    24
 71
     2
 72
     6
 73
     3
 74
     0
 42
0.0000000001
 43
0.0000000001
 40
0.1473741880561881
 40
0.1473741880561881
 40
0.1473741880561881
 40
0.7861306264891247
 40
0.7861306264891247
 40
0.7861306264891247
 10
7.309030947488586
 20
41.79817022731258
 30
0.0
 10
7.407724244859727
 20
41.49442349076404
 30
0.0
 10
7.506417542230869
 20
41.19067675421548
 30
0.0
  0
SPLINE
  5
75
330
1F
100
AcDbEntity
  8
MAKE2D VISIBLE LINES
100
AcDbSpline
210
0.0
220
0.0
230
1.0
 70
    12
 71
     2
 72
     6
 73
     3
 74
     0
 42
0.0000000001
 43
0.0000000001
 40
0.0
 40
0.0
 40
0.0
 40
0.2458617105659203
 40
0.2458617105659203
 40
0.2458617105659203
 10
-7.172118478680709
 20
41.50051108032817
 30
0.0
 41
1.0
 10
-7.232472160180544
 20
41.60900600234494
 30
0.0
 41
0.9766783889061615
 10
-7.254634998426139
 20
41.73116378381999
 30
0.0
 41
0.9800526540022844
  0
SPLINE
  5
76
330
1F
100
AcDbEntity
  8
MAKE2D VISIBLE LINES
100
AcDbSpline
210
0.0
220
0.0
230
1.0
 70
    24
 71
     2
 72
     6
 73
     3
 74
     0
 42
0.0000000001
 43
0.0000000001
 40
0.0
 40
0.0
 40
0.0
 40
1.499294891301189
 40
1.499294891301189
 40
1.499294891301189
 10
7.053185491319502
 20
58.08108892859536
 30
0.0
 10
6.724767459340271
 20
57.40720994165383
 30
0.0
 10
6.396349427361041
 20
56.73333095471229
 30
0.0
  0
SPLINE
  5
77
330
1F
100
AcDbEntity
  8
MAKE2D VISIBLE LINES
100
AcDbSpline
210
0.0
220
0.0
230
1.0
 70
    24
 71
     2
 72
     6
 73
     3
 74
     0
 42
0.0000000001
 43
0.0000000001
 40
2.89948844024619
 40
2.89948844024619
 40
2.89948844024619
 40
4.398783331547454
 40
4.398783331547454
 40
4.398783331547454
 10
-6.396349427361253
 20
56.73333095471179
 30
0.0
 10
-6.724767459340498
 20
57.40720994165336
 30
0.0
 10
-7.053185491319743
 20
58.08108892859493
 30
0.0
  0
SPLINE
  5
78
330
1F
100
AcDbEntity
  8
MAKE2D VISIBLE LINES
100
AcDbSpline
210
0.0
220
0.0
230
1.0
 70
    24
 71
     2
 72
     6
 73
     3
 74
     0
 42
0.0000000001
 43
0.0000000001
 40
1.328811682659018
 40
1.328811682659018
 40
1.328811682659018
 40
2.831217820550854
 40
2.831217820550854
 40
2.831217820550854
 10
7.091815788948243
 20
41.58378784678777
 30
0.0
 10
7.613252874448847
 20
41.04303890628174
 30
0.0
 10
8.134689959949451
 20
40.5022899657757
 30
0.0
  0
SPLINE
  5
79
330
1F
100
AcDbEntity
  8
MAKE2D VISIBLE LINES
100
AcDbSpline
210
0.0
220
0.0
230
1.0
 70
    24
 71
     2
 72
     6
 73
     3
 74
     0
 42
0.0000000001
 43
0.0000000001
 40
0.0
 40
0.0
 40
0.0
 40
13.03336259689948
 40
13.03336259689948
 40
13.03336259689948
 10
-6.516681298464084
 20
41.11511345777501
 30
0.0
 10
-0.0000000000143459
 20
41.115113457775
 30
0.0
 10
6.516681298435392
 20
41.115113457775
 30
0.0
  0
SPLINE
  5
7A
330
1F
100
AcDbEntity
  8
MAKE2D VISIBLE LINES
100
AcDbSpline
210
0.0
220
0.0
230
1.0
 70
    12
 71
     2
 72
     6
 73
     3
 74
     0
 42
0.0000000001
 43
0.0000000001
 40
0.0
 40
0.0
 40
0.0
 40
0.2468408629757576
 40
0.2468408629757576
 40
0.2468408629757576
 10
8.046884332732912
 20
40.141195625603
 30
0.0
 41
1.0
 10
7.915407612854819
 20
40.09860786653348
 30
0.0
 41
0.8470215983660345
 10
7.819879993707591
 20
40.19847937935135
 30
0.0
 41
1.0
  0
SPLINE
  5
7B
330
1F
100
AcDbEntity
  8
MAKE2D VISIBLE LINES
100
AcDbSpline
210
0.0
220
0.0
230
1.0
 70
     8
 71
     3
 72
    13
 73
     9
 74
     0
 42
0.0000000001
 43
0.0000000001
 40
0.0
 40
0.0
 40
0.0
 40
0.0
 40
0.2166698947418226
 40
0.4184425283688194
 40
0.5433441399756639
 40
0.6108491222300931
 40
0.7521405243424414
 40
0.8917886361450199
 40
0.8917886361450199
 40
0.8917886361450199
 40
0.8917886361450199
 10
8.042633416314597
 20
40.94431896344248
 30
0.0
 10
8.06484327540506
 20
40.87556986659006
 30
0.0
 10
8.106470392674023
 20
40.74251982862316
 30
0.0
 10
8.155796077371672
 20
40.56809174627581
 30
0.0
 10
8.188890211452176
 20
40.44109103938413
 30
0.0
 10
8.206540702227144
 20
40.33070219521271
 30
0.0
 10
8.1706639230948
 20
40.21363923325973
 30
0.0
 10
8.0911619954793
 20
40.15553366070877
 30
0.0
 10
8.046884332731814
 20
40.14119562560274
 30
0.0
  0
SPLINE
  5
7C
330
1F
100
AcDbEntity
  8
MAKE2D VISIBLE LINES
100
AcDbSpline
210
0.0
220
0.0
230
1.0
 70
    12
 71
     2
 72
     6
 73
     3
 74
     0
 42
0.0000000001
 43
0.0000000001
 40
0.0
 40
0.0
 40
0.0
 40
0.3534412414689479
 40
0.3534412414689479
 40
0.3534412414689479
 10
6.516681298435392
 20
41.115113457775
 30
0.0
 41
1.0
 10
6.696751939500085
 20
41.11506053647796
 30
0.0
 41
0.9723262532835424
 10
6.857189515966851
 20
41.19682374722449
 30
0.0
 41
1.0
  0
SPLINE
  5
7D
330
1F
100
AcDbEntity
  8
MAKE2D VISIBLE LINES
100
AcDbSpline
210
0.0
220
0.0
230
1.0
 70
    12
 71
     2
 72
     8
 73
     5
 74
     0
 42
0.0000000001
 43
0.0000000001
 40
0.0
 40
0.0
 40
0.0
 40
0.2972986709220036
 40
0.2972986709220036
 40
0.5945973418440073
 40
0.5945973418440073
 40
0.5945973418440073
 10
6.659941133676723
 20
58.2728312500093
 30
0.0
 41
1.0
 10
6.734546019086025
 20
58.43290276586408
 30
0.0
 41
0.778635719812935
 10
6.906817087251067
 20
58.39402528924511
 30
0.0
 41
1.0
 10
7.079088155416112
 20
58.35514781262616
 30
0.0
 41
0.778635719812935
 10
7.077714725456621
 20
58.17854970163646
 30
0.0
 41
1.0
  0
SPLINE
  5
7E
330
1F
100
AcDbEntity
  8
MAKE2D VISIBLE LINES
100
AcDbSpline
210
0.0
220
0.0
230
1.0
 70
    24
 71
     2
 72
     6
 73
     3
 74
     0
 42
0.0000000001
 43
0.0000000001
 40
0.0
 40
0.0
 40
0.0
 40
0.0259181085733003
 40
0.0259181085733003
 40
0.0259181085733003
 10
-7.510664817544299
 20
41.16577022201446
 30
0.0
 10
-7.514669385549901
 20
41.15344542899012
 30
0.0
 10
-7.518673953555503
 20
41.14112063596578
 30
0.0
  0
SPLINE
  5
7F
330
1F
100
AcDbEntity
  8
MAKE2D VISIBLE LINES
100
AcDbSpline
210
0.0
220
0.0
230
1.0
 70
    12
 71
     3
 72
    12
 73
     8
 74
     0
 42
0.0000000001
 43
0.0000000001
 40
0.0
 40
0.0
 40
0.0
 40
0.0
 40
0.6043999877114606
 40
0.6043999877114606
 40
0.8607002080060051
 40
0.8607002080060051
 40
1.0
 40
1.0
 40
1.0
 40
1.0
 10
-7.511153932324703
 20
41.16592914503993
 30
0.0
 41
1.0
 10
-7.511444774844712
 20
41.16602364550288
 30
0.0
 41
1.0
 10
-7.51159060519749
 20
41.16698601494213
 30
0.0
 41
1.0
 10
-7.511085238696104
 20
41.17114517323347
 30
0.0
 41
1.0
 10
-7.51121950790035
 20
41.1708357270123
 30
0.0
 41
1.0
 10
-7.509852181652363
 20
41.17836125030954
 30
0.0
 41
1.0
 10
-7.508866804743661
 20
41.1831386993012
 30
0.0
 41
1.0
 10
-7.506417542230743
 20
41.19067675421545
 30
0.0
 41
1.0
  0
SPLINE
  5
80
330
1F
100
AcDbEntity
  8
MAKE2D VISIBLE LINES
100
AcDbSpline
210
0.0
220
0.0
230
1.0
 70
    24
 71
     2
 72
     6
 73
     3
 74
     0
 42
0.0000000001
 43
0.0000000001
 40
0.0
 40
0.0
 40
0.0
 40
0.0259181085744318
 40
0.0259181085744318
 40
0.0259181085744318
 10
7.518673953556338
 20
41.14112063596485
 30
0.0
 10
7.514669385550562
 20
41.15344542898973
 30
0.0
 10
7.510664817544786
 20
41.16577022201461
 30
0.0
  0
SPLINE
  5
81
330
1F
100
AcDbEntity
  8
MAKE2D VISIBLE LINES
100
AcDbSpline
210
0.0
220
0.0
230
1.0
 70
    12
 71
     3
 72
    12
 73
     8
 74
     0
 42
0.0000000001
 43
0.0000000001
 40
0.0
 40
0.0
 40
0.0
 40
0.0
 40
0.1393645920632348
 40
0.1393645920632348
 40
0.394414942526025
 40
0.394414942526025
 40
1.0
 40
1.0
 40
1.0
 40
1.0
 10
7.506417542230869
 20
41.19067675421548
 30
0.0
 41
1.0
 10
7.508866398464077
 20
41.18313994970168
 30
0.0
 41
1.0
 10
7.509852100831187
 20
41.17836828993538
 30
0.0
 41
1.0
 10
7.511217615202126
 20
41.17084251261651
 30
0.0
 41
1.0
 10
7.511083004134539
 20
41.17114897151176
 30
0.0
 41
1.0
 10
7.511588285991428
 20
41.166993982301
 30
0.0
 41
1.0
 10
7.51144485332699
 20
41.16602367100345
 30
0.0
 41
1.0
 10
7.511153932324829
 20
41.16592914503997
 30
0.0
 41
1.0
  0
SPLINE
  5
82
330
1F
100
AcDbEntity
  8
MAKE2D VISIBLE LINES
100
AcDbSpline
210
0.0
220
0.0
230
1.0
 70
    12
 71
     2
 72
     8
 73
     5
 74
     0
 42
0.0000000001
 43
0.0000000001
 40
0.0
 40
0.0
 40
0.0
 40
0.2973270102805082
 40
0.2973270102805082
 40
0.5946540205610165
 40
0.5946540205610165
 40
0.5946540205610165
 10
-7.077713644297402
 20
58.17854524981971
 30
0.0
 41
1.0
 10
-7.079081702711876
 20
58.35516596172793
 30
0.0
 41
0.7786002000980337
 10
-6.906783008147961
 20
58.39402348751598
 30
0.0
 41
1.0
 10
-6.734484313584048
 20
58.43288101330401
 30
0.0
 41
0.7786002000980337
 10
-6.659911177032546
 20
58.27276981830609
 30
0.0
 41
1.0
  0
SPLINE
  5
83
330
1F
100
AcDbEntity
  8
MAKE2D VISIBLE LINES
100
AcDbSpline
210
0.0
220
0.0
230
1.0
 70
    12
 71
     2
 72
     6
 73
     3
 74
     0
 42
0.0000000001
 43
0.0000000001
 40
0.0
 40
0.0
 40
0.0
 40
0.2464388938183079
 40
0.2464388938183079
 40
0.2464388938183079
 10
-7.820162890496619
 20
40.19818597474774
 30
0.0
 41
1.0
 10
-7.915680427565912
 20
40.09869583504181
 30
0.0
 41
0.8475271295048415
 10
-8.04689047009252
 20
40.14119068798492
 30
0.0
 41
1.0
  0
SPLINE
  5
84
330
1F
100
AcDbEntity
  8
MAKE2D VISIBLE LINES
100
AcDbSpline
210
0.0
220
0.0
230
1.0
 70
     8
 71
     3
 72
    13
 73
     9
 74
     0
 42
0.0000000001
 43
0.0000000001
 40
0.0
 40
0.0
 40
0.0
 40
0.0
 40
0.0699058355507211
 40
0.139613551665996
 40
0.2808709128293696
 40
0.348426689601435
 40
0.4711795948539846
 40
0.8917911788761087
 40
0.8917911788761087
 40
0.8917911788761087
 40
0.8917911788761087
 10
-8.046890471640303
 20
40.14119068848738
 30
0.0
 10
-8.06912161168409
 20
40.14831759654063
 30
0.0
 10
-8.110836291872504
 20
40.17003176746594
 30
0.0
 10
-8.17796784943762
 20
40.23707088335795
 30
0.0
 10
-8.206451782990374
 20
40.33066183342893
 30
0.0
 10
-8.189076298885263
 20
40.44034448172341
 30
0.0
 10
-8.137887653230905
 20
40.63731904062326
 30
0.0
 10
-8.085847867707564
 20
40.81098781151985
 30
0.0
 10
-8.042633416314615
 20
40.94431896344287
 30
0.0
  0
SPLINE
  5
85
330
1F
100
AcDbEntity
  8
MAKE2D VISIBLE LINES
100
AcDbSpline
210
0.0
220
0.0
230
1.0
 70
    12
 71
     2
 72
     6
 73
     3
 74
     0
 42
0.0000000001
 43
0.0000000001
 40
0.0
 40
0.0
 40
0.0
 40
0.3534465446927115
 40
0.3534465446927115
 40
0.3534465446927115
 10
-6.516681298464084
 20
41.11511345777501
 30
0.0
 41
1.0
 10
-6.696754824279616
 20
41.11505495883001
 30
0.0
 41
0.9723247692337701
 10
-6.857196465938229
 20
41.1968165497126
 30
0.0
 41
1.0
  0
SPLINE
  5
86
330
1F
100
AcDbEntity
  8
DEFAULT
100
AcDbSpline
210
0.0
220
0.0
230
1.0
 70
    24
 71
     2
 72
     6
 73
     3
 74
     0
 42
0.0000000001
 43
0.0000000001
 40
0.0
 40
0.0
 40
0.0
 40
1.037696894118196
 40
1.037696894118196
 40
1.037696894118196
 10
7.83467633039232
 20
0.1512611142300386
 30
0.0
 10
7.739560936092131
 20
0.1512611142300372
 30
0.0
 10
7.644445541791941
 20
0.1512611142300358
 30
0.0
  0
SPLINE
  5
87
330
1F
100
AcDbEntity
  8
DEFAULT
100
AcDbSpline
210
0.0
220
0.0
230
1.0
 70
    24
 71
     2
 72
     6
 73
     3
 74
     0
 42
0.0000000001
 43
0.0000000001
 40
14.63165576666645
 40
14.63165576666645
 40
14.63165576666645
 40
15.66917971955431
 40
15.66917971955431
 40
15.66917971955431
 10
-7.644042999999996
 20
0.1512611142299988
 30
0.0
 10
-7.739273194580996
 20
0.1512611142299974
 30
0.0
 10
-7.834503389161996
 20
0.151261114229996
 30
0.0
  0
POLYLINE
  5
88
330
1F
100
AcDbEntity
  8
DEFAULT
100
AcDb2dPolyline
 66
     1
 10
0.0
 20
0.0
 30
0.0
  0
VERTEX
  5
89
330
88
100
AcDbEntity
  8
DEFAULT
100
AcDbVertex
100
AcDb2dVertex
 10
6.796979436274124
 20
0.1512611142300358
 30
0.0
  0
VERTEX
  5
8A
330
88
100
AcDbEntity
  8
DEFAULT
100
AcDbVertex
100
AcDb2dVertex
 10
-6.796979436274133
 20
0.1512611142299988
 30
0.0
  0
SEQEND
  5
8B
330
88
100
AcDbEntity
  8
DEFAULT
  0
SPLINE
  5
8C
330
1F
100
AcDbEntity
  8
DEFAULT
100
AcDbSpline
210
0.0
220
0.0
230
1.0
 70
     8
 71
     3
 72
    10
 73
     6
 74
     0
 42
0.0000000001
 43
0.0000000001
 40
-3.0
 40
-3.0
 40
-3.0
 40
-3.0
 40
-2.0
 40
-1.0
 40
0.0
 40
0.0
 40
0.0
 40
0.0
 10
7.644445541791941
 20
0.1523540000000025
 30
0.0
 10
7.599210354195916
 20
0.1595471350557922
 30
0.0
 10
7.514920882973593
 20
0.2074310429217877
 30
0.0
 10
7.457572066496581
 20
0.3386172527616739
 30
0.0
 10
7.468732495639337
 20
0.4319315575910811
 30
0.0
 10
7.476993541791938
 20
0.4765950000000032
 30
0.0
  0
SPLINE
  5
8D
330
1F
100
AcDbEntity
  8
DEFAULT
100
AcDbSpline
210
0.0
220
0.0
230
1.0
 70
     8
 71
     3
 72
    10
 73
     6
 74
     0
 42
0.0000000001
 43
0.0000000001
 40
-3.0
 40
-3.0
 40
-3.0
 40
-3.0
 40
-2.0
 40
-1.0
 40
0.0
 40
0.0
 40
0.0
 40
0.0
 10
7.476993541791938
 20
0.4765950000000032
 30
0.0
 10
7.479333938981556
 20
0.4888330568686007
 30
0.0
 10
7.470145096369649
 20
0.5133226320259535
 30
0.0
 10
7.438911736008376
 20
0.534481980653909
 30
0.0
 10
7.411080083278603
 20
0.5400000000000027
 30
0.0
 10
7.39887054179194
 20
0.5400000000000027
 30
0.0
  0
SPLINE
  5
8E
330
1F
100
AcDbEntity
  8
DEFAULT
100
AcDbSpline
210
0.0
220
0.0
230
1.0
 70
    24
 71
     2
 72
     6
 73
     3
 74
     0
 42
0.0000000001
 43
0.0000000001
 40
-1.0
 40
-1.0
 40
-1.0
 40
0.0
 40
0.0
 40
0.0
 10
7.39887054179194
 20
0.5400000000000027
 30
0.0
 10
7.14856654179194
 20
0.5400000000000027
 30
0.0
 10
6.89826254179194
 20
0.5400000000000027
 30
0.0
  0
SPLINE
  5
8F
330
1F
100
AcDbEntity
  8
DEFAULT
100
AcDbSpline
210
0.0
220
0.0
230
1.0
 70
     8
 71
     3
 72
     8
 73
     4
 74
     0
 42
0.0000000001
 43
0.0000000001
 40
0.0
 40
0.0
 40
0.0
 40
0.0
 40
1.0
 40
1.0
 40
1.0
 40
1.0
 10
6.89826254179194
 20
0.5400000000000027
 30
0.0
 10
6.829400521776874
 20
0.5400000000000027
 30
0.0
 10
6.778620510954836
 20
0.4379109941797663
 30
0.0
 10
6.782140541791943
 20
0.3691390000000041
 30
0.0
  0
POLYLINE
  5
90
330
1F
100
AcDbEntity
  8
DEFAULT
100
AcDb2dPolyline
 66
     1
 10
0.0
 20
0.0
 30
0.0
  0
VERTEX
  5
91
330
90
100
AcDbEntity
  8
DEFAULT
100
AcDbVertex
100
AcDb2dVertex
 10
6.782140541791943
 20
0.3691390000000041
 30
0.0
  0
VERTEX
  5
92
330
90
100
AcDbEntity
  8
DEFAULT
100
AcDbVertex
100
AcDb2dVertex
 10
6.791905541791937
 20
0.1783570000000019
 30
0.0
  0
SEQEND
  5
93
330
90
100
AcDbEntity
  8
DEFAULT
  0
SPLINE
  5
94
330
1F
100
AcDbEntity
  8
DEFAULT
100
AcDbSpline
210
0.0
220
0.0
230
1.0
 70
     8
 71
     2
 72
    52
 73
    49
 74
     0
 42
0.0000000001
 43
0.0000000001
 40
-24.0
 40
-24.0
 40
-24.0
 40
-22.99983973162942
 40
-22.99983973162942
 40
-21.99967946325884
 40
-21.99967946325884
 40
-20.99951919488825
 40
-20.99951919488825
 40
-19.99935892651767
 40
-19.99935892651767
 40
-18.99919865814709
 40
-18.99919865814709
 40
-17.99903838977651
 40
-17.99903838977651
 40
-16.99887812140593
 40
-16.99887812140593
 40
-15.99871785303535
 40
-15.99871785303535
 40
-14.99855758466477
 40
-14.99855758466477
 40
-13.99839731629418
 40
-13.99839731629418
 40
-12.9982370479236
 40
-12.9982370479236
 40
-11.99807677955302
 40
-11.99807677955302
 40
-10.99791651118244
 40
-10.99791651118244
 40
-9.997756242811857
 40
-9.997756242811857
 40
-8.997595974441277
 40
-8.997595974441277
 40
-7.997435706070695
 40
-7.997435706070695
 40
-6.997275437700113
 40
-6.997275437700113
 40
-5.997115169329532
 40
-5.997115169329532
 40
-4.99695490095895
 40
-4.99695490095895
 40
-3.996794632588369
 40
-3.996794632588369
 40
-2.996634364217787
 40
-2.996634364217787
 40
-1.996474095847206
 40
-1.996474095847206
 40
-0.9963138274766242
 40
-0.9963138274766242
 40
0.0
 40
0.0
 40
0.0
 10
6.791905541791937
 20
0.1783570000000019
 30
0.0
 10
6.792344541791937
 20
0.1748300000000018
 30
0.0
 10
6.792783541791938
 20
0.1713030000000018
 30
0.0
 10
6.79375504179194
 20
0.1658650000000019
 30
0.0
 10
6.794726541791942
 20
0.1604270000000021
 30
0.0
 10
6.796077041791943
 20
0.1549325000000028
 30
0.0
 10
6.797427541791944
 20
0.1494380000000035
 30
0.0
 10
6.799164541791943
 20
0.1439290000000035
 30
0.0
 10
6.800901541791941
 20
0.1384200000000035
 30
0.0
 10
6.80303104179194
 20
0.1329245000000032
 30
0.0
 10
6.805160541791938
 20
0.1274290000000029
 30
0.0
 10
6.80768854179194
 20
0.1219690000000035
 30
0.0
 10
6.810216541791942
 20
0.1165090000000042
 30
0.0
 10
6.813143041791943
 20
0.1111185000000035
 30
0.0
 10
6.816069541791943
 20
0.1057280000000027
 30
0.0
 10
6.819388041791942
 20
0.1004430000000038
 30
0.0
 10
6.822706541791941
 20
0.095158000000005
 30
0.0
 10
6.82641504179194
 20
0.0900030000000047
 30
0.0
 10
6.830123541791938
 20
0.0848480000000045
 30
0.0
 10
6.834221041791938
 20
0.0798440000000031
 30
0.0
 10
6.838318541791939
 20
0.0748400000000018
 30
0.0
 10
6.842789541791941
 20
0.0700260000000021
 30
0.0
 10
6.847260541791944
 20
0.0652120000000025
 30
0.0
 10
6.852072541791941
 20
0.0606330000000028
 30
0.0
 10
6.856884541791938
 20
0.0560540000000032
 30
0.0
 10
6.862044541791938
 20
0.0517185000000033
 30
0.0
 10
6.867204541791939
 20
0.0473830000000035
 30
0.0
 10
6.872690041791941
 20
0.0433245000000042
 30
0.0
 10
6.878175541791943
 20
0.0392660000000049
 30
0.0
 10
6.883902541791941
 20
0.0355530000000037
 30
0.0
 10
6.889629541791937
 20
0.0318400000000025
 30
0.0
 10
6.895568541791938
 20
0.0284910000000025
 30
0.0
 10
6.90150754179194
 20
0.0251420000000024
 30
0.0
 10
6.907660541791941
 20
0.022156500000003
 30
0.0
 10
6.913813541791943
 20
0.0191710000000036
 30
0.0
 10
6.920140541791941
 20
0.0165725000000041
 30
0.0
 10
6.92646754179194
 20
0.0139740000000046
 30
0.0
 10
6.932935541791942
 20
0.0117765000000034
 30
0.0
 10
6.939403541791943
 20
0.0095790000000022
 30
0.0
 10
6.946001041791941
 20
0.0077875000000027
 30
0.0
 10
6.952598541791939
 20
0.0059960000000032
 30
0.0
 10
6.959307541791939
 20
0.0046175000000037
 30
0.0
 10
6.966016541791941
 20
0.0032390000000042
 30
0.0
 10
6.972808041791939
 20
0.0022800000000043
 30
0.0
 10
6.979599541791938
 20
0.0013210000000043
 30
0.0
 10
6.98643604179194
 20
0.0007860000000033
 30
0.0
 10
6.993272541791941
 20
0.0002510000000022
 30
0.0
 10
6.998579541791942
 20
0.0001255000000029
 30
0.0
 10
7.003886541791942
 20
0.0000000000000036
 30
0.0
  0
SPLINE
  5
95
330
1F
100
AcDbEntity
  8
DEFAULT
100
AcDbSpline
210
0.0
220
0.0
230
1.0
 70
    24
 71
     2
 72
     6
 73
     3
 74
     0
 42
0.0000000001
 43
0.0000000001
 40
-1.0
 40
-1.0
 40
-1.0
 40
0.0
 40
0.0
 40
0.0
 10
7.003886541791942
 20
0.0000000000000036
 30
0.0
 10
7.370796541791941
 20
0.0000000000000036
 30
0.0
 10
7.73770654179194
 20
0.0000000000000036
 30
0.0
  0
SPLINE
  5
96
330
1F
100
AcDbEntity
  8
DEFAULT
100
AcDbSpline
210
0.0
220
0.0
230
1.0
 70
     8
 71
     2
 72
    52
 73
    49
 74
     0
 42
0.0000000001
 43
0.0000000001
 40
-24.0
 40
-24.0
 40
-24.0
 40
-23.00368617252369
 40
-23.00368617252369
 40
-22.0035259041531
 40
-22.0035259041531
 40
-21.0033656357825
 40
-21.0033656357825
 40
-20.00320536741191
 40
-20.00320536741191
 40
-19.00304509904131
 40
-19.00304509904131
 40
-18.00288483067072
 40
-18.00288483067072
 40
-17.00272456230012
 40
-17.00272456230012
 40
-16.00256429392953
 40
-16.00256429392953
 40
-15.00240402555893
 40
-15.00240402555893
 40
-14.00224375718834
 40
-14.00224375718834
 40
-13.00208348881774
 40
-13.00208348881774
 40
-12.00192322044714
 40
-12.00192322044714
 40
-11.00176295207655
 40
-11.00176295207655
 40
-10.00160268370595
 40
-10.00160268370595
 40
-9.00144241533536
 40
-9.00144241533536
 40
-8.001282146964764
 40
-8.001282146964764
 40
-7.001121878594168
 40
-7.001121878594168
 40
-6.000961610223573
 40
-6.000961610223573
 40
-5.000801341852977
 40
-5.000801341852977
 40
-4.000641073482382
 40
-4.000641073482382
 40
-3.000480805111787
 40
-3.000480805111787
 40
-2.000320536741191
 40
-2.000320536741191
 40
-1.000160268370595
 40
-1.000160268370595
 40
0.0
 40
0.0
 40
0.0
 10
7.73770654179194
 20
0.0000000000000036
 30
0.0
 10
7.743013541791939
 20
0.0001255000000029
 30
0.0
 10
7.748320541791938
 20
0.0002510000000022
 30
0.0
 10
7.755157041791939
 20
0.0007860000000033
 30
0.0
 10
7.761993541791941
 20
0.0013210000000043
 30
0.0
 10
7.76878504179194
 20
0.0022800000000043
 30
0.0
 10
7.775576541791938
 20
0.0032390000000042
 30
0.0
 10
7.78228554179194
 20
0.0046175000000037
 30
0.0
 10
7.78899454179194
 20
0.0059960000000032
 30
0.0
 10
7.795592041791942
 20
0.0077875000000027
 30
0.0
 10
7.802189541791942
 20
0.0095790000000022
 30
0.0
 10
7.80865804179194
 20
0.0117770000000021
 30
0.0
 10
7.815126541791937
 20
0.0139750000000021
 30
0.0
 10
7.821453041791937
 20
0.0165730000000028
 30
0.0
 10
7.827779541791936
 20
0.0191710000000036
 30
0.0
 10
7.833932541791938
 20
0.022156500000003
 30
0.0
 10
7.84008554179194
 20
0.0251420000000024
 30
0.0
 10
7.846024541791941
 20
0.028491500000003
 30
0.0
 10
7.851963541791942
 20
0.0318410000000036
 30
0.0
 10
7.857691041791941
 20
0.035554000000003
 30
0.0
 10
7.86341854179194
 20
0.0392670000000024
 30
0.0
 10
7.868904041791939
 20
0.0433255000000035
 30
0.0
 10
7.874389541791938
 20
0.0473840000000045
 30
0.0
 10
7.879549541791938
 20
0.0517200000000031
 30
0.0
 10
7.884709541791938
 20
0.0560560000000017
 30
0.0
 10
7.88952154179194
 20
0.0606345000000026
 30
0.0
 10
7.894333541791941
 20
0.0652130000000035
 30
0.0
 10
7.898804041791941
 20
0.0700275000000037
 30
0.0
 10
7.903274541791941
 20
0.0748420000000038
 30
0.0
 10
7.90737254179194
 20
0.0798460000000034
 30
0.0
 10
7.911470541791939
 20
0.084850000000003
 30
0.0
 10
7.915179041791941
 20
0.0900050000000032
 30
0.0
 10
7.918887541791943
 20
0.0951600000000035
 30
0.0
 10
7.922206041791942
 20
0.1004455000000029
 30
0.0
 10
7.92552454179194
 20
0.1057310000000022
 30
0.0
 10
7.928451041791941
 20
0.111121500000003
 30
0.0
 10
7.931377541791942
 20
0.1165120000000037
 30
0.0
 10
7.93390554179194
 20
0.1219720000000031
 30
0.0
 10
7.936433541791938
 20
0.1274320000000024
 30
0.0
 10
7.938562541791939
 20
0.1329275000000028
 30
0.0
 10
7.940691541791939
 20
0.1384230000000031
 30
0.0
 10
7.942428541791941
 20
0.1439320000000031
 30
0.0
 10
7.944165541791943
 20
0.149441000000003
 30
0.0
 10
7.945516041791939
 20
0.1549350000000036
 30
0.0
 10
7.946866541791938
 20
0.1604290000000042
 30
0.0
 10
7.94783804179194
 20
0.1658665000000035
 30
0.0
 10
7.948809541791942
 20
0.1713040000000028
 30
0.0
 10
7.949166041791941
 20
0.1741700000000037
 30
0.0
 10
7.949522541791939
 20
0.1770360000000046
 30
0.0
  0
SPLINE
  5
97
330
1F
100
AcDbEntity
  8
DEFAULT
100
AcDbSpline
210
0.0
220
0.0
230
1.0
 70
     8
 71
     3
 72
    10
 73
     6
 74
     0
 42
0.0000000001
 43
0.0000000001
 40
-3.0
 40
-3.0
 40
-3.0
 40
-3.0
 40
-2.0
 40
-1.0
 40
0.0
 40
0.0
 40
0.0
 40
0.0
 10
-7.644445541791941
 20
0.1523540000000025
 30
0.0
 10
-7.599210354195916
 20
0.1595471350557922
 30
0.0
 10
-7.514920882973593
 20
0.2074310429217877
 30
0.0
 10
-7.457572066496581
 20
0.3386172527616739
 30
0.0
 10
-7.468732495639337
 20
0.4319315575910811
 30
0.0
 10
-7.476993541791938
 20
0.4765950000000032
 30
0.0
  0
SPLINE
  5
98
330
1F
100
AcDbEntity
  8
DEFAULT
100
AcDbSpline
210
0.0
220
0.0
230
1.0
 70
     8
 71
     3
 72
    10
 73
     6
 74
     0
 42
0.0000000001
 43
0.0000000001
 40
-3.0
 40
-3.0
 40
-3.0
 40
-3.0
 40
-2.0
 40
-1.0
 40
0.0
 40
0.0
 40
0.0
 40
0.0
 10
-7.476993541791938
 20
0.4765950000000032
 30
0.0
 10
-7.479333938981556
 20
0.4888330568686007
 30
0.0
 10
-7.470145096369649
 20
0.5133226320259535
 30
0.0
 10
-7.438911736008376
 20
0.534481980653909
 30
0.0
 10
-7.411080083278603
 20
0.5400000000000027
 30
0.0
 10
-7.39887054179194
 20
0.5400000000000027
 30
0.0
  0
SPLINE
  5
99
330
1F
100
AcDbEntity
  8
DEFAULT
100
AcDbSpline
210
0.0
220
0.0
230
1.0
 70
    24
 71
     2
 72
     6
 73
     3
 74
     0
 42
0.0000000001
 43
0.0000000001
 40
-1.0
 40
-1.0
 40
-1.0
 40
0.0
 40
0.0
 40
0.0
 10
-7.39887054179194
 20
0.5400000000000027
 30
0.0
 10
-7.14856654179194
 20
0.5400000000000027
 30
0.0
 10
-6.89826254179194
 20
0.5400000000000027
 30
0.0
  0
SPLINE
  5
9A
330
1F
100
AcDbEntity
  8
DEFAULT
100
AcDbSpline
210
0.0
220
0.0
230
1.0
 70
     8
 71
     3
 72
     8
 73
     4
 74
     0
 42
0.0000000001
 43
0.0000000001
 40
0.0
 40
0.0
 40
0.0
 40
0.0
 40
1.0
 40
1.0
 40
1.0
 40
1.0
 10
-6.89826254179194
 20
0.5400000000000027
 30
0.0
 10
-6.829400521776874
 20
0.5400000000000027
 30
0.0
 10
-6.778620510954836
 20
0.4379109941797663
 30
0.0
 10
-6.782140541791943
 20
0.3691390000000041
 30
0.0
  0
POLYLINE
  5
9B
330
1F
100
AcDbEntity
  8
DEFAULT
100
AcDb2dPolyline
 66
     1
 10
0.0
 20
0.0
 30
0.0
  0
VERTEX
  5
9C
330
9B
100
AcDbEntity
  8
DEFAULT
100
AcDbVertex
100
AcDb2dVertex
 10
-6.782140541791943
 20
0.3691390000000041
 30
0.0
  0
VERTEX
  5
9D
330
9B
100
AcDbEntity
  8
DEFAULT
100
AcDbVertex
100
AcDb2dVertex
 10
-6.791905541791937
 20
0.1783570000000019
 30
0.0
  0
SEQEND
  5
9E
330
9B
100
AcDbEntity
  8
DEFAULT
  0
SPLINE
  5
9F
330
1F
100
AcDbEntity
  8
DEFAULT
100
AcDbSpline
210
0.0
220
0.0
230
1.0
 70
     8
 71
     2
 72
    52
 73
    49
 74
     0
 42
0.0000000001
 43
0.0000000001
 40
-24.0
 40
-24.0
 40
-24.0
 40
-22.99983973162942
 40
-22.99983973162942
 40
-21.99967946325884
 40
-21.99967946325884
 40
-20.99951919488825
 40
-20.99951919488825
 40
-19.99935892651767
 40
-19.99935892651767
 40
-18.99919865814709
 40
-18.99919865814709
 40
-17.99903838977651
 40
-17.99903838977651
 40
-16.99887812140593
 40
-16.99887812140593
 40
-15.99871785303535
 40
-15.99871785303535
 40
-14.99855758466477
 40
-14.99855758466477
 40
-13.99839731629418
 40
-13.99839731629418
 40
-12.9982370479236
 40
-12.9982370479236
 40
-11.99807677955302
 40
-11.99807677955302
 40
-10.99791651118244
 40
-10.99791651118244
 40
-9.997756242811857
 40
-9.997756242811857
 40
-8.997595974441277
 40
-8.997595974441277
 40
-7.997435706070695
 40
-7.997435706070695
 40
-6.997275437700113
 40
-6.997275437700113
 40
-5.997115169329532
 40
-5.997115169329532
 40
-4.99695490095895
 40
-4.99695490095895
 40
-3.996794632588369
 40
-3.996794632588369
 40
-2.996634364217787
 40
-2.996634364217787
 40
-1.996474095847206
 40
-1.996474095847206
 40
-0.9963138274766242
 40
-0.9963138274766242
 40
0.0
 40
0.0
 40
0.0
 10
-6.791905541791937
 20
0.1783570000000019
 30
0.0
 10
-6.792344541791937
 20
0.1748300000000018
 30
0.0
 10
-6.792783541791938
 20
0.1713030000000018
 30
0.0
 10
-6.79375504179194
 20
0.1658650000000019
 30
0.0
 10
-6.794726541791942
 20
0.1604270000000021
 30
0.0
 10
-6.796077041791943
 20
0.1549325000000028
 30
0.0
 10
-6.797427541791944
 20
0.1494380000000035
 30
0.0
 10
-6.799164541791943
 20
0.1439290000000035
 30
0.0
 10
-6.800901541791941
 20
0.1384200000000035
 30
0.0
 10
-6.80303104179194
 20
0.1329245000000032
 30
0.0
 10
-6.805160541791938
 20
0.1274290000000029
 30
0.0
 10
-6.80768854179194
 20
0.1219690000000035
 30
0.0
 10
-6.810216541791942
 20
0.1165090000000042
 30
0.0
 10
-6.813143041791943
 20
0.1111185000000035
 30
0.0
 10
-6.816069541791943
 20
0.1057280000000027
 30
0.0
 10
-6.819388041791942
 20
0.1004430000000038
 30
0.0
 10
-6.822706541791941
 20
0.095158000000005
 30
0.0
 10
-6.82641504179194
 20
0.0900030000000047
 30
0.0
 10
-6.830123541791938
 20
0.0848480000000045
 30
0.0
 10
-6.834221041791938
 20
0.0798440000000031
 30
0.0
 10
-6.838318541791939
 20
0.0748400000000018
 30
0.0
 10
-6.842789541791941
 20
0.0700260000000021
 30
0.0
 10
-6.847260541791944
 20
0.0652120000000025
 30
0.0
 10
-6.852072541791941
 20
0.0606330000000028
 30
0.0
 10
-6.856884541791938
 20
0.0560540000000032
 30
0.0
 10
-6.862044541791938
 20
0.0517185000000033
 30
0.0
 10
-6.867204541791939
 20
0.0473830000000035
 30
0.0
 10
-6.872690041791941
 20
0.0433245000000042
 30
0.0
 10
-6.878175541791943
 20
0.0392660000000049
 30
0.0
 10
-6.883902541791941
 20
0.0355530000000037
 30
0.0
 10
-6.889629541791937
 20
0.0318400000000025
 30
0.0
 10
-6.895568541791938
 20
0.0284910000000025
 30
0.0
 10
-6.90150754179194
 20
0.0251420000000024
 30
0.0
 10
-6.907660541791941
 20
0.022156500000003
 30
0.0
 10
-6.913813541791943
 20
0.0191710000000036
 30
0.0
 10
-6.920140541791941
 20
0.0165725000000041
 30
0.0
 10
-6.92646754179194
 20
0.0139740000000046
 30
0.0
 10
-6.932935541791942
 20
0.0117765000000034
 30
0.0
 10
-6.939403541791943
 20
0.0095790000000022
 30
0.0
 10
-6.946001041791941
 20
0.0077875000000027
 30
0.0
 10
-6.952598541791939
 20
0.0059960000000032
 30
0.0
 10
-6.959307541791939
 20
0.0046175000000037
 30
0.0
 10
-6.966016541791941
 20
0.0032390000000042
 30
0.0
 10
-6.972808041791939
 20
0.0022800000000043
 30
0.0
 10
-6.979599541791938
 20
0.0013210000000043
 30
0.0
 10
-6.98643604179194
 20
0.0007860000000033
 30
0.0
 10
-6.993272541791941
 20
0.0002510000000022
 30
0.0
 10
-6.998579541791942
 20
0.0001255000000029
 30
0.0
 10
-7.003886541791942
 20
0.0000000000000036
 30
0.0
  0
SPLINE
  5
A0
330
1F
100
AcDbEntity
  8
DEFAULT
100
AcDbSpline
210
0.0
220
0.0
230
1.0
 70
    24
 71
     2
 72
     6
 73
     3
 74
     0
 42
0.0000000001
 43
0.0000000001
 40
-1.0
 40
-1.0
 40
-1.0
 40
0.0
 40
0.0
 40
0.0
 10
-7.003886541791942
 20
0.0000000000000036
 30
0.0
 10
-7.370796541791941
 20
0.0000000000000036
 30
0.0
 10
-7.73770654179194
 20
0.0000000000000036
 30
0.0
  0
SPLINE
  5
A1
330
1F
100
AcDbEntity
  8
DEFAULT
100
AcDbSpline
210
0.0
220
0.0
230
1.0
 70
     8
 71
     2
 72
    52
 73
    49
 74
     0
 42
0.0000000001
 43
0.0000000001
 40
-24.0
 40
-24.0
 40
-24.0
 40
-23.00368617252369
 40
-23.00368617252369
 40
-22.0035259041531
 40
-22.0035259041531
 40
-21.0033656357825
 40
-21.0033656357825
 40
-20.00320536741191
 40
-20.00320536741191
 40
-19.00304509904131
 40
-19.00304509904131
 40
-18.00288483067072
 40
-18.00288483067072
 40
-17.00272456230012
 40
-17.00272456230012
 40
-16.00256429392953
 40
-16.00256429392953
 40
-15.00240402555893
 40
-15.00240402555893
 40
-14.00224375718834
 40
-14.00224375718834
 40
-13.00208348881774
 40
-13.00208348881774
 40
-12.00192322044714
 40
-12.00192322044714
 40
-11.00176295207655
 40
-11.00176295207655
 40
-10.00160268370595
 40
-10.00160268370595
 40
-9.00144241533536
 40
-9.00144241533536
 40
-8.001282146964764
 40
-8.001282146964764
 40
-7.001121878594168
 40
-7.001121878594168
 40
-6.000961610223573
 40
-6.000961610223573
 40
-5.000801341852977
 40
-5.000801341852977
 40
-4.000641073482382
 40
-4.000641073482382
 40
-3.000480805111787
 40
-3.000480805111787
 40
-2.000320536741191
 40
-2.000320536741191
 40
-1.000160268370595
 40
-1.000160268370595
 40
0.0
 40
0.0
 40
0.0
 10
-7.73770654179194
 20
0.0000000000000036
 30
0.0
 10
-7.743013541791939
 20
0.0001255000000029
 30
0.0
 10
-7.748320541791938
 20
0.0002510000000022
 30
0.0
 10
-7.755157041791939
 20
0.0007860000000033
 30
0.0
 10
-7.761993541791941
 20
0.0013210000000043
 30
0.0
 10
-7.76878504179194
 20
0.0022800000000043
 30
0.0
 10
-7.775576541791938
 20
0.0032390000000042
 30
0.0
 10
-7.78228554179194
 20
0.0046175000000037
 30
0.0
 10
-7.78899454179194
 20
0.0059960000000032
 30
0.0
 10
-7.795592041791942
 20
0.0077875000000027
 30
0.0
 10
-7.802189541791942
 20
0.0095790000000022
 30
0.0
 10
-7.80865804179194
 20
0.0117770000000021
 30
0.0
 10
-7.815126541791937
 20
0.0139750000000021
 30
0.0
 10
-7.821453041791937
 20
0.0165730000000028
 30
0.0
 10
-7.827779541791936
 20
0.0191710000000036
 30
0.0
 10
-7.833932541791938
 20
0.022156500000003
 30
0.0
 10
-7.84008554179194
 20
0.0251420000000024
 30
0.0
 10
-7.846024541791941
 20
0.028491500000003
 30
0.0
 10
-7.851963541791942
 20
0.0318410000000036
 30
0.0
 10
-7.857691041791941
 20
0.035554000000003
 30
0.0
 10
-7.86341854179194
 20
0.0392670000000024
 30
0.0
 10
-7.868904041791939
 20
0.0433255000000035
 30
0.0
 10
-7.874389541791938
 20
0.0473840000000045
 30
0.0
 10
-7.879549541791938
 20
0.0517200000000031
 30
0.0
 10
-7.884709541791938
 20
0.0560560000000017
 30
0.0
 10
-7.88952154179194
 20
0.0606345000000026
 30
0.0
 10
-7.894333541791941
 20
0.0652130000000035
 30
0.0
 10
-7.898804041791941
 20
0.0700275000000037
 30
0.0
 10
-7.903274541791941
 20
0.0748420000000038
 30
0.0
 10
-7.90737254179194
 20
0.0798460000000034
 30
0.0
 10
-7.911470541791939
 20
0.084850000000003
 30
0.0
 10
-7.915179041791941
 20
0.0900050000000032
 30
0.0
 10
-7.918887541791943
 20
0.0951600000000035
 30
0.0
 10
-7.922206041791942
 20
0.1004455000000029
 30
0.0
 10
-7.92552454179194
 20
0.1057310000000022
 30
0.0
 10
-7.928451041791941
 20
0.111121500000003
 30
0.0
 10
-7.931377541791942
 20
0.1165120000000037
 30
0.0
 10
-7.93390554179194
 20
0.1219720000000031
 30
0.0
 10
-7.936433541791938
 20
0.1274320000000024
 30
0.0
 10
-7.938562541791939
 20
0.1329275000000028
 30
0.0
 10
-7.940691541791939
 20
0.1384230000000031
 30
0.0
 10
-7.942428541791941
 20
0.1439320000000031
 30
0.0
 10
-7.944165541791943
 20
0.149441000000003
 30
0.0
 10
-7.945516041791939
 20
0.1549350000000036
 30
0.0
 10
-7.946866541791938
 20
0.1604290000000042
 30
0.0
 10
-7.94783804179194
 20
0.1658665000000035
 30
0.0
 10
-7.948809541791942
 20
0.1713040000000028
 30
0.0
 10
-7.949166041791941
 20
0.1741700000000037
 30
0.0
 10
-7.949522541791939
 20
0.1770360000000046
 30
0.0
  0
LINE
  5
A2
330
1F
100
AcDbEntity
  8
MAKE2D VISIBLE LINES
100
AcDbLine
 10
6.986215093484812
 20
11.8084015985936
 30
0.0
 11
-6.986042265167696
 21
11.8084015985936
 31
0.0
  0
LINE
  5
A3
330
1F
100
AcDbEntity
  8
MAKE2D VISIBLE LINES
100
AcDbLine
 10
-6.95501320615193
 20
12.24412062986642
 30
0.0
 11
6.955186034469047
 21
12.24412062986643
 31
0.0
  0
POLYLINE
  5
A4
330
1F
100
AcDbEntity
  8
DEFAULT
100
AcDb2dPolyline
 66
     1
 10
0.0
 20
0.0
 30
0.0
  0
VERTEX
  5
A5
330
A4
100
AcDbEntity
  8
DEFAULT
100
AcDbVertex
100
AcDb2dVertex
 10
-7.723698167499735
 20
0.5885408790126405
 30
0.0
  0
VERTEX
  5
A6
330
A4
100
AcDbEntity
  8
DEFAULT
100
AcDbVertex
100
AcDb2dVertex
 10
7.723859760774385
 20
0.588540879048054
 30
0.0
  0
SEQEND
  5
A7
330
A4
100
AcDbEntity
  8
DEFAULT
  0
SPLINE
  5
A8
330
1F
100
AcDbEntity
  8
MAKE2D VISIBLE LINES
100
AcDbSpline
210
0.0
220
0.0
230
1.0
 70
    12
 71
     2
 72
     6
 73
     3
 74
     0
 42
0.0000000001
 43
0.0000000001
 40
0.0
 40
0.0
 40
0.0
 40
1.825062519241644
 40
1.825062519241644
 40
1.825062519241644
 10
3.93222494291777
 20
28.34927000000717
 30
0.0
 41
1.0
 10
5.064743242861412
 20
28.34925485431976
 30
0.0
 41
0.732551942570243
 10
5.147701748113587
 20
27.219779052745
 30
0.0
 41
1.0
  0
SPLINE
  5
A9
330
1F
100
AcDbEntity
  8
MAKE2D VISIBLE LINES
100
AcDbSpline
210
0.0
220
0.0
230
1.0
 70
    12
 71
     2
 72
     6
 73
     3
 74
     0
 42
0.0000000001
 43
0.0000000001
 40
0.0
 40
0.0
 40
0.0
 40
0.3912524116217936
 40
0.3912524116217936
 40
0.3912524116217936
 10
-7.044700758699713
 20
0.5885408795915623
 30
0.0
 41
1.0
 10
-7.086444508027409
 20
0.7809201500111246
 30
0.0
 41
0.9906547679746405
 10
-7.074647067286429
 20
0.9774224265553428
 30
0.0
 41
1.0
  0
SPLINE
  5
AA
330
1F
100
AcDbEntity
  8
MAKE2D VISIBLE LINES
100
AcDbSpline
210
0.0
220
0.0
230
1.0
 70
    12
 71
     2
 72
     6
 73
     3
 74
     0
 42
0.0000000001
 43
0.0000000001
 40
0.0
 40
0.0
 40
0.0
 40
0.3912528481264757
 40
0.3912528481264757
 40
0.3912528481264757
 10
7.074819896336781
 20
0.977422426512284
 30
0.0
 41
1.0
 10
7.086624021828194
 20
0.7809197799841493
 30
0.0
 41
0.9906506234921378
 10
7.044874918414207
 20
0.588540883440615
 30
0.0
 41
1.0
  0
SPLINE
  5
AB
330
1F
100
AcDbEntity
  8
MAKE2D VISIBLE LINES
100
AcDbSpline
210
0.0
220
0.0
230
1.0
 70
    24
 71
     2
 72
     6
 73
     3
 74
     0
 42
0.0000000001
 43
0.0000000001
 40
0.0
 40
0.0
 40
0.0
 40
1.669412907337158
 40
1.669412907337158
 40
1.669412907337158
 10
4.667193876635825
 20
29.27751111423234
 30
0.0
 10
4.037384944907611
 20
28.72971957239243
 30
0.0
 10
3.407576013179398
 20
28.18192803055253
 30
0.0
  0
SPLINE
  5
AC
330
1F
100
AcDbEntity
  8
MAKE2D VISIBLE LINES
100
AcDbSpline
210
0.0
220
0.0
230
1.0
 70
    24
 71
     2
 72
     6
 73
     3
 74
     0
 42
0.0000000001
 43
0.0000000001
 40
0.0
 40
0.0
 40
0.0
 40
1.415647369024975
 40
1.415647369024975
 40
1.415647369024975
 10
2.629356364677385
 20
28.34783927097202
 30
0.0
 10
3.163155891015863
 20
28.81267519260206
 30
0.0
 10
3.696955417354342
 20
29.2775111142321
 30
0.0
  0
SPLINE
  5
AD
330
1F
100
AcDbEntity
  8
MAKE2D VISIBLE LINES
100
AcDbSpline
210
0.0
220
0.0
230
1.0
 70
    24
 71
     2
 72
     6
 73
     3
 74
     0
 42
0.0000000001
 43
0.0000000001
 40
0.0
 40
0.0
 40
0.0
 40
1.669412907333729
 40
1.669412907333729
 40
1.669412907333729
 10
-4.667021048316633
 20
29.27751111423009
 30
0.0
 10
-4.037212116589715
 20
28.72971957239131
 30
0.0
 10
-3.407403184862797
 20
28.18192803055253
 30
0.0
  0
SPLINE
  5
AE
330
1F
100
AcDbEntity
  8
MAKE2D VISIBLE LINES
100
AcDbSpline
210
0.0
220
0.0
230
1.0
 70
    12
 71
     2
 72
     6
 73
     3
 74
     0
 42
0.0000000001
 43
0.0000000001
 40
0.0
 40
0.0
 40
0.0
 40
0.001372656506039
 40
0.001372656506039
 40
0.001372656506039
 10
-2.627792712293701
 20
28.3482357292402
 30
0.0
 41
1.0
 10
-2.628479536891248
 20
28.34815438514067
 30
0.0
 41
0.9885522637299483
 10
-2.62911082595208
 20
28.34787186255396
 30
0.0
 41
1.0
  0
SPLINE
  5
AF
330
1F
100
AcDbEntity
  8
MAKE2D VISIBLE LINES
100
AcDbSpline
210
0.0
220
0.0
230
1.0
 70
    12
 71
     2
 72
     6
 73
     3
 74
     0
 42
0.0000000001
 43
0.0000000001
 40
0.0
 40
0.0
 40
0.0
 40
0.001452341036456
 40
0.001452341036456
 40
0.001452341036456
 10
2.629356364677385
 20
28.34783927097202
 30
0.0
 41
1.0
 10
2.628692747200304
 20
28.34814903929666
 30
0.0
 41
0.9873800297577373
 10
2.627965540610301
 20
28.3482357292402
 30
0.0
 41
1.0
  0
SPLINE
  5
B0
330
1F
100
AcDbEntity
  8
MAKE2D VISIBLE LINES
100
AcDbSpline
210
0.0
220
0.0
230
1.0
 70
    12
 71
     3
 72
    11
 73
     7
 74
     0
 42
0.0000000001
 43
0.0000000001
 40
-1.0
 40
-1.0
 40
-1.0
 40
-1.0
 40
-0.75
 40
-0.5
 40
-0.25
 40
0.0
 40
0.0
 40
0.0
 40
0.0
 10
2.650858607286228
 20
28.18192803055253
 30
0.0
 41
1.0
 10
2.650504944381169
 20
28.20335868304596
 30
0.0
 41
1.0
 10
2.648977301413101
 20
28.24270367240443
 30
0.0
 41
1.0
 10
2.644342497935938
 20
28.29394955998852
 30
0.0
 41
1.0
 10
2.637591366860329
 20
28.33013783581832
 30
0.0
 41
1.0
 10
2.632515959566819
 20
28.34420717416729
 30
0.0
 41
1.0
 10
2.629356364677385
 20
28.34783927097202
 30
0.0
 41
1.0
  0
SPLINE
  5
B1
330
1F
100
AcDbEntity
  8
MAKE2D VISIBLE LINES
100
AcDbSpline
210
0.0
220
0.0
230
1.0
 70
    24
 71
     2
 72
     6
 73
     3
 74
     0
 42
0.0000000001
 43
0.0000000001
 40
0.0
 40
0.0
 40
0.0
 40
1.669412907336877
 40
1.669412907336877
 40
1.669412907336877
 10
3.910476470742443
 20
29.27751111423215
 30
0.0
 10
3.280667539014336
 20
28.72971957239234
 30
0.0
 10
2.650858607286228
 20
28.18192803055253
 30
0.0
  0
SPLINE
  5
B2
330
1F
100
AcDbEntity
  8
MAKE2D VISIBLE LINES
100
AcDbSpline
210
0.0
220
0.0
230
1.0
 70
    24
 71
     2
 72
     6
 73
     3
 74
     0
 42
0.0000000001
 43
0.0000000001
 40
0.0
 40
0.0
 40
0.0
 40
0.7567174058931698
 40
0.7567174058931698
 40
0.7567174058931698
 10
3.407576013179398
 20
28.18192803055253
 30
0.0
 10
3.029217310232813
 20
28.18192803055253
 30
0.0
 10
2.650858607286228
 20
28.18192803055253
 30
0.0
  0
SPLINE
  5
B3
330
1F
100
AcDbEntity
  8
MAKE2D VISIBLE LINES
100
AcDbSpline
210
0.0
220
0.0
230
1.0
 70
    12
 71
     3
 72
     8
 73
     4
 74
     0
 42
0.0000000001
 43
0.0000000001
 40
0.0
 40
0.0
 40
0.0
 40
0.0
 40
1.0
 40
1.0
 40
1.0
 40
1.0
 10
-2.629183536360785
 20
28.34783927097202
 30
0.0
 41
1.0
 10
-2.640454423776664
 20
28.33512639530002
 30
0.0
 41
1.0
 10
-2.649287569963608
 20
28.26649648040257
 30
0.0
 41
1.0
 10
-2.650685778969628
 20
28.18192803055253
 30
0.0
 41
1.0
  0
SPLINE
  5
B4
330
1F
100
AcDbEntity
  8
MAKE2D VISIBLE LINES
100
AcDbSpline
210
0.0
220
0.0
230
1.0
 70
    24
 71
     2
 72
     6
 73
     3
 74
     0
 42
0.0000000001
 43
0.0000000001
 40
0.0
 40
0.0
 40
0.0
 40
0.7567174058931698
 40
0.7567174058931698
 40
0.7567174058931698
 10
-2.650685778969628
 20
28.18192803055253
 30
0.0
 10
-3.029044481916213
 20
28.18192803055253
 30
0.0
 10
-3.407403184862797
 20
28.18192803055253
 30
0.0
  0
SPLINE
  5
B5
330
1F
100
AcDbEntity
  8
MAKE2D VISIBLE LINES
100
AcDbSpline
210
0.0
220
0.0
230
1.0
 70
    24
 71
     2
 72
     6
 73
     3
 74
     0
 42
0.0000000001
 43
0.0000000001
 40
0.0
 40
0.0
 40
0.0
 40
10.86014528485567
 40
10.86014528485567
 40
10.86014528485567
 10
7.074806965007891
 20
0.9774214812461182
 30
0.0
 10
6.67711823440436
 20
6.392911539919861
 30
0.0
 10
6.279429503800829
 20
11.8084015985936
 30
0.0
  0
SPLINE
  5
B6
330
1F
100
AcDbEntity
  8
MAKE2D VISIBLE LINES
100
AcDbSpline
210
0.0
220
0.0
230
1.0
 70
    24
 71
     2
 72
     6
 73
     3
 74
     0
 42
0.0000000001
 43
0.0000000001
 40
0.0
 40
0.0
 40
0.0
 40
15.01562849062565
 40
15.01562849062565
 40
15.01562849062565
 10
6.247432298272004
 20
12.24412062986643
 30
0.0
 10
5.697573518576085
 20
19.73177246902893
 30
0.0
 10
5.147714738880165
 20
27.21942430819142
 30
0.0
  0
SPLINE
  5
B7
330
1F
100
AcDbEntity
  8
MAKE2D VISIBLE LINES
100
AcDbSpline
210
0.0
220
0.0
230
1.0
 70
    24
 71
     2
 72
     6
 73
     3
 74
     0
 42
0.0000000001
 43
0.0000000001
 40
0.0
 40
0.0
 40
0.0
 40
15.01562849062557
 40
15.01562849062557
 40
15.01562849062557
 10
-5.147541910563569
 20
27.21942430819134
 30
0.0
 10
-5.697400690259464
 20
19.73177246902888
 30
0.0
 10
-6.247259469955359
 20
12.24412062986642
 30
0.0
  0
SPLINE
  5
B8
330
1F
100
AcDbEntity
  8
MAKE2D VISIBLE LINES
100
AcDbSpline
210
0.0
220
0.0
230
1.0
 70
    24
 71
     2
 72
     6
 73
     3
 74
     0
 42
0.0000000001
 43
0.0000000001
 40
0.0
 40
0.0
 40
0.0
 40
10.0290003507645
 40
10.0290003507645
 40
10.0290003507645
 10
-5.0144139366062
 20
29.71501111423001
 30
0.0
 10
0.0000862387760492
 20
29.71501111423001
 30
0.0
 10
5.014586414158298
 20
29.71501111423001
 30
0.0
  0
SPLINE
  5
B9
330
1F
100
AcDbEntity
  8
MAKE2D VISIBLE LINES
100
AcDbSpline
210
0.0
220
0.0
230
1.0
 70
    24
 71
     2
 72
     6
 73
     3
 74
     0
 42
0.0000000001
 43
0.0000000001
 40
0.0
 40
0.0
 40
0.0
 40
27.67031372331013
 40
27.67031372331013
 40
27.67031372331013
 10
-8.195606035699642
 20
0.9824168225706842
 30
0.0
 10
-7.212845484185411
 20
14.78262504871672
 30
0.0
 10
-6.23008493267118
 20
28.58283327486275
 30
0.0
  0
SPLINE
  5
BA
330
1F
100
AcDbEntity
  8
MAKE2D VISIBLE LINES
100
AcDbSpline
210
0.0
220
0.0
230
1.0
 70
    12
 71
     2
 72
     6
 73
     3
 74
     0
 42
0.0000000001
 43
0.0000000001
 40
0.0
 40
0.0
 40
0.0
 40
0.0118387622852964
 40
0.0118387622852964
 40
0.0118387622852964
 10
7.84651069475019
 20
0.151540383871982
 30
0.0
 41
1.0
 10
7.840596815060676
 20
0.1512608023570256
 30
0.0
 41
0.9997204347035126
 10
7.83467633039232
 20
0.1512611142300386
 30
0.0
 41
1.0
  0
SPLINE
  5
BB
330
1F
100
AcDbEntity
  8
MAKE2D VISIBLE LINES
100
AcDbSpline
210
0.0
220
0.0
230
1.0
 70
    24
 71
     2
 72
     6
 73
     3
 74
     0
 42
0.0000000001
 43
0.0000000001
 40
0.0
 40
0.0
 40
0.0
 40
10.029000298133
 40
10.029000298133
 40
10.029000298133
 10
5.014586414158298
 20
29.27751111423001
 30
0.0
 10
0.0000862650917992
 20
29.27751111423
 30
0.0
 10
-5.0144138839747
 20
29.27751111422999
 30
0.0
  0
SPLINE
  5
BC
330
1F
100
AcDbEntity
  8
MAKE2D VISIBLE LINES
100
AcDbSpline
210
0.0
220
0.0
230
1.0
 70
    12
 71
     2
 72
     6
 73
     3
 74
     0
 42
0.0000000001
 43
0.0000000001
 40
0.0
 40
0.0
 40
0.0
 40
1.827764696491496
 40
1.827764696491496
 40
1.827764696491496
 10
5.014586414158572
 20
29.71501111422826
 30
0.0
 41
1.0
 10
6.149635475774191
 20
29.71501542426062
 30
0.0
 41
0.7317875348890805
 10
6.230257760988586
 20
28.58283327486069
 30
0.0
 41
1.0
  0
SPLINE
  5
BD
330
1F
100
AcDbEntity
  8
MAKE2D VISIBLE LINES
100
AcDbSpline
210
0.0
220
0.0
230
1.0
 70
    12
 71
     2
 72
     6
 73
     3
 74
     0
 42
0.0000000001
 43
0.0000000001
 40
0.0
 40
0.0
 40
0.0
 40
1.827763805716157
 40
1.827763805716157
 40
1.827763805716157
 10
-6.230084932668955
 20
28.58283327489701
 30
0.0
 41
1.0
 10
-6.149461583375088
 20
29.71501388000314
 30
0.0
 41
0.7317883500921752
 10
-5.014413986565964
 20
29.71501111422843
 30
0.0
 41
1.0
  0
SPLINE
  5
BE
330
1F
100
AcDbEntity
  8
MAKE2D VISIBLE LINES
100
AcDbSpline
210
0.0
220
0.0
230
1.0
 70
    12
 71
     2
 72
     6
 73
     3
 74
     0
 42
0.0000000001
 43
0.0000000001
 40
0.0
 40
0.0
 40
0.0
 40
1.171639423082584
 40
1.171639423082584
 40
1.171639423082584
 10
5.793862918536355
 20
28.55175608899221
 30
0.0
 41
1.0
 10
5.742171699039094
 20
29.27750285245061
 30
0.0
 41
0.7317978615868364
 10
5.014586414158199
 20
29.27751111423241
 30
0.0
 41
1.0
  0
SPLINE
  5
BF
330
1F
100
AcDbEntity
  8
MAKE2D VISIBLE LINES
100
AcDbSpline
210
0.0
220
0.0
230
1.0
 70
    12
 71
     2
 72
     6
 73
     3
 74
     0
 42
0.0000000001
 43
0.0000000001
 40
0.0
 40
0.0
 40
0.0
 40
1.17163859011876
 40
1.17163859011876
 40
1.17163859011876
 10
-5.014413883974701
 20
29.27751111422786
 30
0.0
 41
1.0
 10
-5.741997700209072
 20
29.27750129679445
 30
0.0
 41
0.7317991887586673
 10
-5.793690090215942
 20
28.55175608905421
 30
0.0
 41
1.0
  0
SPLINE
  5
C0
330
1F
100
AcDbEntity
  8
MAKE2D VISIBLE LINES
100
AcDbSpline
210
0.0
220
0.0
230
1.0
 70
    24
 71
     2
 72
     6
 73
     3
 74
     0
 42
0.0000000001
 43
0.0000000001
 40
0.0
 40
0.0
 40
0.0
 40
27.67031372331011
 40
27.67031372331011
 40
27.67031372331011
 10
-5.793690090219284
 20
28.55175608899584
 30
0.0
 10
-6.776450641733526
 20
14.75154786284983
 30
0.0
 10
-7.759211193247767
 20
0.951339636703807
 30
0.0
  0
SPLINE
  5
C1
330
1F
100
AcDbEntity
  8
MAKE2D VISIBLE LINES
100
AcDbSpline
210
0.0
220
0.0
230
1.0
 70
    12
 71
     2
 72
     6
 73
     3
 74
     0
 42
0.0000000001
 43
0.0000000001
 40
0.0
 40
0.0
 40
0.0
 40
0.0118280875041617
 40
0.0118280875041617
 40
0.0118280875041617
 10
-7.834503389161996
 20
0.151261114229996
 30
0.0
 41
1.0
 10
-7.840418535338239
 20
0.1512608130976959
 30
0.0
 41
0.9997204618434491
 10
-7.846327082638135
 20
0.1515401393977172
 30
0.0
 41
1.0
  0
SPLINE
  5
C2
330
1F
100
AcDbEntity
  8
MAKE2D VISIBLE LINES
100
AcDbSpline
210
0.0
220
0.0
230
1.0
 70
    12
 71
     2
 72
     6
 73
     3
 74
     0
 42
0.0000000001
 43
0.0000000001
 40
0.0
 40
0.0
 40
0.0
 40
1.169579602664165
 40
1.169579602664165
 40
1.169579602664165
 10
4.711350603307512
 20
27.18809112025443
 30
0.0
 41
1.0
 10
4.657917683882405
 20
27.91181409257073
 30
0.0
 41
0.7326559989443608
 10
3.932224900679708
 20
27.91177000000354
 30
0.0
 41
1.0
  0
SPLINE
  5
C3
330
1F
100
AcDbEntity
  8
MAKE2D VISIBLE LINES
100
AcDbSpline
210
0.0
220
0.0
230
1.0
 70
    24
 71
     2
 72
     6
 73
     3
 74
     0
 42
0.0000000001
 43
0.0000000001
 40
0.0
 40
0.0
 40
0.0
 40
10.8915628335698
 40
10.8915628335698
 40
10.8915628335698
 10
6.638442909704231
 20
0.9460883050746034
 30
0.0
 10
6.239603696787712
 20
6.377244951834104
 30
0.0
 10
5.840764483871192
 20
11.8084015985936
 30
0.0
  0
SPLINE
  5
C4
330
1F
100
AcDbEntity
  8
MAKE2D VISIBLE LINES
100
AcDbSpline
210
0.0
220
0.0
230
1.0
 70
    24
 71
     2
 72
     6
 73
     3
 74
     0
 42
0.0000000001
 43
0.0000000001
 40
0.0
 40
0.0
 40
0.0
 40
14.98385619873056
 40
14.98385619873056
 40
14.98385619873056
 10
5.808767278342369
 20
12.24412062986643
 30
0.0
 10
5.260071971334963
 20
19.71592898568814
 30
0.0
 10
4.711376664327556
 20
27.18773734150984
 30
0.0
  0
SPLINE
  5
C5
330
1F
100
AcDbEntity
  8
MAKE2D VISIBLE LINES
100
AcDbSpline
210
0.0
220
0.0
230
1.0
 70
    12
 71
     2
 72
     6
 73
     3
 74
     0
 42
0.0000000001
 43
0.0000000001
 40
0.0
 40
0.0
 40
0.0
 40
0.3621786203289306
 40
0.3621786203289306
 40
0.3621786203289306
 10
-6.638296061994502
 20
0.9457345165280131
 30
0.0
 41
1.0
 10
-6.647936629999155
 20
0.7628791587336409
 30
0.0
 41
0.9835342913327081
 10
-6.591943892387651
 20
0.5885408790577955
 30
0.0
 41
1.0
  0
SPLINE
  5
C6
330
1F
100
AcDbEntity
  8
MAKE2D VISIBLE LINES
100
AcDbSpline
210
0.0
220
0.0
230
1.0
 70
    24
 71
     2
 72
     6
 73
     3
 74
     0
 42
0.0000000001
 43
0.0000000001
 40
0.0
 40
0.0
 40
0.0
 40
14.98385619873033
 40
14.98385619873033
 40
14.98385619873033
 10
-4.711203836010757
 20
27.18773734150962
 30
0.0
 10
-5.259899143018152
 20
19.71592898568802
 30
0.0
 10
-5.808594450025547
 20
12.24412062986642
 30
0.0
  0
SPLINE
  5
C7
330
1F
100
AcDbEntity
  8
MAKE2D VISIBLE LINES
100
AcDbSpline
210
0.0
220
0.0
230
1.0
 70
     8
 71
     3
 72
    11
 73
     7
 74
     0
 42
0.0000000001
 43
0.0000000001
 40
0.0
 40
0.0
 40
0.0
 40
0.0
 40
0.0362410679492664
 40
0.085249499900407
 40
0.1991551302314762
 40
0.4312513089700031
 40
0.4312513089700031
 40
0.4312513089700031
 40
0.4312513089700031
 10
7.701282244954239
 20
0.5275830445052421
 30
0.0
 10
7.706968820278803
 20
0.538264309122809
 30
0.0
 10
7.717160937412427
 20
0.5648234889314097
 30
0.0
 10
7.735610151621092
 20
0.6286911894177507
 30
0.0
 10
7.758963323895598
 20
0.7583835427700407
 30
0.0
 10
7.764590254472127
 20
0.8741088592964559
 30
0.0
 10
7.75938400611092
 20
0.9513398539936873
 30
0.0
  0
SPLINE
  5
C8
330
1F
100
AcDbEntity
  8
MAKE2D VISIBLE LINES
100
AcDbSpline
210
0.0
220
0.0
230
1.0
 70
    24
 71
     2
 72
     6
 73
     3
 74
     0
 42
0.0000000001
 43
0.0000000001
 40
0.0
 40
0.0
 40
0.0
 40
10.86014528485571
 40
10.86014528485571
 40
10.86014528485571
 10
-6.279256675484182
 20
11.8084015985936
 30
0.0
 10
-6.676945406087698
 20
6.39291153991984
 30
0.0
 10
-7.074634136691215
 20
0.9774214812460755
 30
0.0
  0
SPLINE
  5
C9
330
1F
100
AcDbEntity
  8
MAKE2D VISIBLE LINES
100
AcDbSpline
210
0.0
220
0.0
230
1.0
 70
    24
 71
     2
 72
     6
 73
     3
 74
     0
 42
0.0000000001
 43
0.0000000001
 40
0.0
 40
0.0
 40
0.0
 40
0.3322516834402736
 40
0.3322516834402736
 40
0.3322516834402736
 10
-3.932051900679699
 20
28.34927
 30
0.0
 10
-3.765926058959562
 20
28.34927
 30
0.0
 10
-3.599800217239426
 20
28.34927
 30
0.0
  0
SPLINE
  5
CA
330
1F
100
AcDbEntity
  8
MAKE2D VISIBLE LINES
100
AcDbSpline
210
0.0
220
0.0
230
1.0
 70
    24
 71
     2
 72
     6
 73
     3
 74
     0
 42
0.0000000001
 43
0.0000000001
 40
0.0
 40
0.0
 40
0.0
 40
0.3322518951212743
 40
0.3322518951212743
 40
0.3322518951212743
 10
3.599973045556025
 20
28.34927
 30
0.0
 10
3.766098993116662
 20
28.34927
 30
0.0
 10
3.932224940677299
 20
28.34927
 30
0.0
  0
SPLINE
  5
CB
330
1F
100
AcDbEntity
  8
MAKE2D VISIBLE LINES
100
AcDbSpline
210
0.0
220
0.0
230
1.0
 70
    24
 71
     2
 72
     6
 73
     3
 74
     0
 42
0.0000000001
 43
0.0000000001
 40
0.0
 40
0.0
 40
0.0
 40
7.864276801359409
 40
7.864276801359409
 40
7.864276801359409
 10
3.93222490067971
 20
27.91177
 30
0.0
 10
0.0000865000000054
 20
27.91177
 30
0.0
 10
-3.932051900679699
 20
27.91177
 30
0.0
  0
SPLINE
  5
CC
330
1F
100
AcDbEntity
  8
MAKE2D VISIBLE LINES
100
AcDbSpline
210
0.0
220
0.0
230
1.0
 70
    12
 71
     2
 72
     6
 73
     3
 74
     0
 42
0.0000000001
 43
0.0000000001
 40
0.0
 40
0.0
 40
0.0
 40
0.3621803187537378
 40
0.3621803187537378
 40
0.3621803187537378
 10
6.592123597713682
 20
0.5885408790401954
 30
0.0
 41
1.0
 10
6.648134550874047
 20
0.7628769855220324
 30
0.0
 41
0.9835130894743418
 10
6.638468889659348
 20
0.9457345254006668
 30
0.0
 41
1.0
  0
SPLINE
  5
CD
330
1F
100
AcDbEntity
  8
MAKE2D VISIBLE LINES
100
AcDbSpline
210
0.0
220
0.0
230
1.0
 70
    24
 71
     2
 72
     6
 73
     3
 74
     0
 42
0.0000000001
 43
0.0000000001
 40
0.0
 40
0.0
 40
0.0
 40
5.261825888380886
 40
5.261825888380886
 40
5.261825888380886
 10
-2.630826530032144
 20
28.34927
 30
0.0
 10
0.0000864141582988
 20
28.34927
 30
0.0
 10
2.630999358348742
 20
28.34927
 30
0.0
  0
SPLINE
  5
CE
330
1F
100
AcDbEntity
  8
MAKE2D VISIBLE LINES
100
AcDbSpline
210
0.0
220
0.0
230
1.0
 70
     8
 71
     3
 72
    13
 73
     9
 74
     0
 42
0.0000000001
 43
0.0000000001
 40
0.0
 40
0.0
 40
0.0
 40
0.0
 40
0.0544553125602412
 40
0.1121544650433244
 40
0.2307304855870805
 40
0.3455117143379322
 40
0.3945324643074954
 40
0.4313820063571178
 40
0.4313820063571178
 40
0.4313820063571178
 40
0.4313820063571178
 10
-7.759211207157285
 20
0.9513394416142447
 30
0.0
 10
-7.760509866359438
 20
0.9332271689396379
 30
0.0
 10
-7.761956123242353
 20
0.8958718988942422
 30
0.0
 10
-7.760893865764752
 20
0.8189184995762133
 30
0.0
 10
-7.752299233496242
 20
0.7222141257079926
 30
0.0
 10
-7.735548479350727
 20
0.6294287537901937
 30
0.0
 10
-7.717136200219513
 20
0.565085455163441
 30
0.0
 10
-7.706789063920806
 20
0.5383359467803857
 30
0.0
 10
-7.701048139049173
 20
0.5274652027370195
 30
0.0
  0
SPLINE
  5
CF
330
1F
100
AcDbEntity
  8
MAKE2D VISIBLE LINES
100
AcDbSpline
210
0.0
220
0.0
230
1.0
 70
    24
 71
     2
 72
     6
 73
     3
 74
     0
 42
0.0000000001
 43
0.0000000001
 40
0.0
 40
0.0
 40
0.0
 40
27.67031350547146
 40
27.67031350547146
 40
27.67031350547146
 10
7.759384006091013
 20
0.9513398539922591
 30
0.0
 10
6.776623462313711
 20
14.75154797149409
 30
0.0
 10
5.793862918536409
 20
28.55175608899593
 30
0.0
  0
SPLINE
  5
D0
330
1F
100
AcDbEntity
  8
MAKE2D VISIBLE LINES
100
AcDbSpline
210
0.0
220
0.0
230
1.0
 70
    24
 71
     2
 72
     6
 73
     3
 74
     0
 42
0.0000000001
 43
0.0000000001
 40
0.0
 40
0.0
 40
0.0
 40
10.89156283332765
 40
10.89156283332765
 40
10.89156283332765
 10
-5.840591655554372
 20
11.8084015985936
 30
0.0
 10
-6.239430868462023
 20
6.377244951954847
 30
0.0
 10
-6.638270081369675
 20
0.9460883053160956
 30
0.0
  0
SPLINE
  5
D1
330
1F
100
AcDbEntity
  8
MAKE2D VISIBLE LINES
100
AcDbSpline
210
0.0
220
0.0
230
1.0
 70
    12
 71
     2
 72
     6
 73
     3
 74
     0
 42
0.0000000001
 43
0.0000000001
 40
0.0
 40
0.0
 40
0.0
 40
1.16955503432391
 40
1.16955503432391
 40
1.16955503432391
 10
-3.932051900679578
 20
27.91177000000472
 30
0.0
 41
1.0
 10
-4.657689870176568
 20
27.91175506646021
 30
0.0
 41
0.7327114306611661
 10
-4.711177774999903
 20
27.18809112025568
 30
0.0
 41
1.0
  0
SPLINE
  5
D2
330
1F
100
AcDbEntity
  8
MAKE2D VISIBLE LINES
100
AcDbSpline
210
0.0
220
0.0
230
1.0
 70
    12
 71
     2
 72
     6
 73
     3
 74
     0
 42
0.0000000001
 43
0.0000000001
 40
0.0
 40
0.0
 40
0.0
 40
1.82505458222777
 40
1.82505458222777
 40
1.82505458222777
 10
-5.14752891979698
 20
27.21977905275048
 30
0.0
 41
1.0
 10
-5.064552283219041
 20
28.34923555718979
 30
0.0
 41
0.7325636012591843
 10
-3.932051900679713
 20
28.34927000000245
 30
0.0
 41
1.0
  0
SPLINE
  5
D3
330
1F
100
AcDbEntity
  8
MAKE2D VISIBLE LINES
100
AcDbSpline
210
0.0
220
0.0
230
1.0
 70
     8
 71
     3
 72
    14
 73
    10
 74
     0
 42
0.0000000001
 43
0.0000000001
 40
0.0
 40
0.0
 40
0.0
 40
0.0
 40
0.1602213306095095
 40
0.3252693877002715
 40
0.4843369180955003
 40
0.620891542640281
 40
0.724784299962236
 40
0.8151986527900329
 40
0.9857692452796809
 40
0.9857692452796809
 40
0.9857692452796809
 40
0.9857692452796809
 10
8.195778853787022
 20
0.9824169660948456
 30
0.0
 10
8.19957687572472
 20
0.9291275225280344
 30
0.0
 10
8.200614346779872
 20
0.8205873113612938
 30
0.0
 10
8.18642280131689
 20
0.6595542668316483
 30
0.0
 10
8.158098821310325
 20
0.5084687771953682
 30
0.0
 10
8.118656829827735
 20
0.3809095829164519
 30
0.0
 10
8.068270321267281
 20
0.2822105063220022
 30
0.0
 10
7.987653050764578
 20
0.1895228713303112
 30
0.0
 10
7.903604344487711
 20
0.1538459024827574
 30
0.0
 10
7.846510694748289
 20
0.1515403838719038
 30
0.0
  0
SPLINE
  5
D4
330
1F
100
AcDbEntity
  8
MAKE2D VISIBLE LINES
100
AcDbSpline
210
0.0
220
0.0
230
1.0
 70
    24
 71
     2
 72
     6
 73
     3
 74
     0
 42
0.0000000001
 43
0.0000000001
 40
0.0
 40
0.0
 40
0.0
 40
27.67031357942194
 40
27.67031357942194
 40
27.67031357942194
 10
6.230257760988284
 20
28.58283327486282
 30
0.0
 10
7.213018307392078
 20
14.78262512047915
 30
0.0
 10
8.195778853795872
 20
0.9824169660954709
 30
0.0
  0
SPLINE
  5
D5
330
1F
100
AcDbEntity
  8
MAKE2D VISIBLE LINES
100
AcDbSpline
210
0.0
220
0.0
230
1.0
 70
     8
 71
     3
 72
    14
 73
    10
 74
     0
 42
0.0000000001
 43
0.0000000001
 40
0.0
 40
0.0
 40
0.0
 40
0.0
 40
0.083668590185226
 40
0.1698732281759256
 40
0.2602558866887507
 40
0.3643985524960167
 40
0.5003358833297145
 40
0.6595775231362528
 40
0.9857764670360369
 40
0.9857764670360369
 40
0.9857764670360369
 40
0.9857764670360369
 10
-7.846327084599282
 20
0.1515401394903151
 30
0.0
 10
-7.874193014353947
 20
0.1528369771593958
 30
0.0
 10
-7.930262358246448
 20
0.1650895135865866
 30
0.0
 10
-8.005501760433637
 20
0.2105525408372273
 30
0.0
 10
-8.067791691854344
 20
0.2816229142455526
 30
0.0
 10
-8.118170106511627
 20
0.3802054368974908
 30
0.0
 10
-8.157767530668643
 20
0.5076371522801253
 30
0.0
 10
-8.195920794926133
 20
0.7114300632601598
 30
0.0
 10
-8.20290036623431
 20
0.8739041101968965
 30
0.0
 10
-8.195606044870011
 20
0.9824166937056376
 30
0.0
  0
SPLINE
  5
D6
330
1F
100
AcDbEntity
  8
MAKE2D VISIBLE LINES
100
AcDbSpline
210
0.0
220
0.0
230
1.0
 70
    24
 71
     2
 72
     6
 73
     3
 74
     0
 42
0.0000000001
 43
0.0000000001
 40
0.0
 40
0.0
 40
0.0
 40
1.415517216855929
 40
1.415517216855929
 40
1.415517216855929
 10
-2.629281689567579
 20
28.34792474339019
 30
0.0
 10
-3.163032139301452
 20
28.81271792881009
 30
0.0
 10
-3.696782589035324
 20
29.27751111422999
 30
0.0
  0
SPLINE
  5
D7
330
1F
100
AcDbEntity
  8
MAKE2D VISIBLE LINES
100
AcDbSpline
210
0.0
220
0.0
230
1.0
 70
    24
 71
     2
 72
     6
 73
     3
 74
     0
 42
0.0000000001
 43
0.0000000001
 40
0.0
 40
0.0
 40
0.0
 40
1.669412907333998
 40
1.669412907333998
 40
1.669412907333998
 10
-3.910303642423671
 20
29.27751111423026
 30
0.0
 10
-3.28049471069665
 20
28.7297195723914
 30
0.0
 10
-2.650685778969628
 20
28.18192803055253
 30
0.0
  0
SPLINE
  5
D8
330
1F
100
AcDbEntity
  8
DEFAULT
100
AcDbSpline
210
0.0
220
0.0
230
1.0
 70
    24
 71
     2
 72
     6
 73
     3
 74
     0
 42
0.0000000001
 43
0.0000000001
 40
2.02060209275268
 40
2.02060209275268
 40
2.02060209275268
 40
5.733873507577298
 40
5.733873507577298
 40
5.733873507577298
 10
17.33718930127887
 20
0.1512508333286501
 30
0.0
 10
19.29975547318118
 20
0.1512510739572824
 30
0.0
 10
21.26232164508349
 20
0.1512513145859147
 30
0.0
  0
ARC
  5
D9
330
1F
100
AcDbEntity
  8
DEFAULT
100
AcDbCircle
 10
21.26232164508349
 20
0.3700007812643733
 30
0.0
 40
0.2187494666784586
100
AcDbArc
 50
270.0
 51
89.91373394370055
  0
SPLINE
  5
DA
330
1F
100
AcDbEntity
  8
DEFAULT
100
AcDbSpline
210
0.0
220
0.0
230
1.0
 70
    24
 71
     2
 72
     6
 73
     3
 74
     0
 42
0.0000000001
 43
0.0000000001
 40
0.0
 40
0.0
 40
0.0
 40
5.733873507577329
 40
5.733873507577329
 40
5.733873507577329
 10
21.26265100000001
 20
0.5887500000000045
 30
0.0
 10
18.23197631591743
 20
0.5887502857246041
 30
0.0
 10
15.20130163183485
 20
0.5887505714492036
 30
0.0
  0
SPLINE
  5
DB
330
1F
100
AcDbEntity
  8
DEFAULT
100
AcDbSpline
210
0.0
220
0.0
230
1.0
 70
    24
 71
     2
 72
     6
 73
     3
 74
     0
 42
0.0000000001
 43
0.0000000001
 40
0.1063873303792504
 40
0.1063873303792504
 40
0.1063873303792504
 40
0.2006974601551561
 40
0.2006974601551561
 40
0.2006974601551561
 10
15.31375889789289
 20
0.1512505852375041
 30
0.0
 10
15.36360439790858
 20
0.1512505913490201
 30
0.0
 10
15.41344989792427
 20
0.151250597460536
 30
0.0
  0
SPLINE
  5
DC
330
1F
100
AcDbEntity
  8
DEFAULT
100
AcDbSpline
210
0.0
220
0.0
230
1.0
 70
    24
 71
     2
 72
     6
 73
     3
 74
     0
 42
0.0000000001
 43
0.0000000001
 40
0.0
 40
0.0
 40
0.0
 40
0.1063873303792504
 40
0.1063873303792504
 40
0.1063873303792504
 10
15.20130163183486
 20
0.1512505714492107
 30
0.0
 10
15.25753026486387
 20
0.1512505783433574
 30
0.0
 10
15.31375889789289
 20
0.1512505852375041
 30
0.0
  0
SPLINE
  5
DD
330
1F
100
AcDbEntity
  8
DEFAULT
100
AcDbSpline
210
0.0
220
0.0
230
1.0
 70
    24
 71
     2
 72
     6
 73
     3
 74
     0
 42
0.0000000001
 43
0.0000000001
 40
9.875055827113176
 40
9.875055827113176
 40
9.875055827113176
 40
9.981874587410829
 40
9.981874587410829
 40
9.981874587410829
 10
31.91700090412532
 20
0.1512505618447943
 30
0.0
 10
31.97225888240983
 20
0.1512505666470025
 30
0.0
 10
32.02751686069433
 20
0.1512505714492107
 30
0.0
  0
SPLINE
  5
DE
330
1F
100
AcDbEntity
  8
DEFAULT
100
AcDbSpline
210
0.0
220
0.0
230
1.0
 70
    24
 71
     2
 72
     6
 73
     3
 74
     0
 42
0.0000000001
 43
0.0000000001
 40
9.778699885753646
 40
9.778699885753646
 40
9.778699885753646
 40
9.875055827113176
 40
9.875055827113176
 40
9.875055827113176
 10
31.81730990414757
 20
0.1512505531811233
 30
0.0
 10
31.86715540413644
 20
0.1512505575129588
 30
0.0
 10
31.91700090412532
 20
0.1512505618447943
 30
0.0
  0
SPLINE
  5
DF
330
1F
100
AcDbEntity
  8
DEFAULT
100
AcDbSpline
210
0.0
220
0.0
230
1.0
 70
    24
 71
     2
 72
     6
 73
     3
 74
     0
 42
0.0000000001
 43
0.0000000001
 40
0.0
 40
0.0
 40
0.0
 40
9.981874587410726
 40
9.981874587410726
 40
9.981874587410726
 10
32.02751686069428
 20
0.5887505714492107
 30
0.0
 10
26.86383393034713
 20
0.5887501226980796
 30
0.0
 10
21.70015099999998
 20
0.5887496739469483
 30
0.0
  0
ARC
  5
E0
330
1F
100
AcDbEntity
  8
DEFAULT
100
AcDbCircle
 10
21.70015099999998
 20
0.3699996739469412
 30
0.0
 40
0.2187500000000071
100
AcDbArc
 50
90.0
 51
269.9999999999991
  0
SPLINE
  5
E1
330
1F
100
AcDbEntity
  8
DEFAULT
100
AcDbSpline
210
0.0
220
0.0
230
1.0
 70
    24
 71
     2
 72
     6
 73
     3
 74
     0
 42
0.0000000001
 43
0.0000000001
 40
0.0
 40
0.0
 40
0.0
 40
7.91931730641241
 40
7.91931730641241
 40
7.91931730641241
 10
21.70015099999998
 20
0.1512496739469341
 30
0.0
 10
25.79686081507809
 20
0.1512500299725107
 30
0.0
 10
29.89357063015621
 20
0.1512503859980874
 30
0.0
  0
ARC
  5
E2
330
1F
100
AcDbEntity
  8
DEFAULT
100
AcDbCircle
 10
15.52340276026196
 20
0.2209160711701589
 30
0.0
 40
0.2209160711701983
100
AcDbArc
 50
198.3819956764713
 51
270.0000356953471
  0
LINE
  5
E3
330
1F
100
AcDbEntity
  8
DEFAULT
100
AcDbLine
 10
15.52340289789297
 20
0.0000000000000035
 30
0.0
 11
17.12853589789296
 21
0.0000010000000041
 31
0.0
  0
ARC
  5
E4
330
1F
100
AcDbEntity
  8
DEFAULT
100
AcDbCircle
 10
17.13448830019341
 20
0.1909653236405706
 30
0.0
 40
0.1910570699991116
100
AcDbArc
 50
268.2146553053107
 51
292.0780868461937
  0
ARC
  5
E5
330
1F
100
AcDbEntity
  8
DEFAULT
100
AcDbCircle
 10
17.13977109837139
 20
0.2083654545176903
 30
0.0
 40
0.205514054976267
100
AcDbArc
 50
288.8882772795736
 51
351.3044477105449
  0
POLYLINE
  5
E6
330
1F
100
AcDbEntity
  8
DEFAULT
100
AcDb2dPolyline
 66
     1
 10
0.0
 20
0.0
 30
0.0
  0
VERTEX
  5
E7
330
E6
100
AcDbEntity
  8
DEFAULT
100
AcDbVertex
100
AcDb2dVertex
 10
17.34292289789296
 20
0.1772950000000044
 30
0.0
  0
VERTEX
  5
E8
330
E6
100
AcDbEntity
  8
DEFAULT
100
AcDbVertex
100
AcDb2dVertex
 10
17.35283389789296
 20
0.3740400000000043
 30
0.0
  0
SEQEND
  5
E9
330
E6
100
AcDbEntity
  8
DEFAULT
  0
ARC
  5
EA
330
1F
100
AcDbEntity
  8
DEFAULT
100
AcDbCircle
 10
17.16911705467585
 20
0.3547495486001532
 30
0.0
 40
0.1847268253310072
100
AcDbArc
 50
5.99414935640844
 51
79.89876985278393
  0
ARC
  5
EB
330
1F
100
AcDbEntity
  8
DEFAULT
100
AcDbCircle
 10
17.16981500751473
 20
0.3920324198494728
 30
0.0
 40
0.1480151701935873
100
AcDbArc
 50
77.63297164007435
 51
91.45296181755431
  0
SPLINE
  5
EC
330
1F
100
AcDbEntity
  8
DEFAULT
100
AcDbSpline
210
0.0
220
0.0
230
1.0
 70
    24
 71
     2
 72
     6
 73
     3
 74
     0
 42
0.0000000001
 43
0.0000000001
 40
-1.0
 40
-1.0
 40
-1.0
 40
0.0
 40
0.0
 40
0.0
 10
17.16606189789296
 20
0.540000000000003
 30
0.0
 10
16.40876839789296
 20
0.5400000000000029
 30
0.0
 10
15.65147489789296
 20
0.5400000000000027
 30
0.0
  0
SPLINE
  5
ED
330
1F
100
AcDbEntity
  8
DEFAULT
100
AcDbSpline
210
0.0
220
0.0
230
1.0
 70
     8
 71
     3
 72
    10
 73
     6
 74
     0
 42
0.0000000001
 43
0.0000000001
 40
0.0
 40
0.0
 40
0.0
 40
0.0
 40
1.0
 40
2.0
 40
3.0
 40
3.0
 40
3.0
 40
3.0
 10
15.65147489789296
 20
0.5400000000000027
 30
0.0
 10
15.61913861235147
 20
0.5394894651261073
 30
0.0
 10
15.55018350670258
 20
0.527958637923453
 30
0.0
 10
15.48394304622644
 20
0.4494210696958312
 30
0.0
 10
15.47297322354914
 20
0.3826479405468366
 30
0.0
 10
15.47157288082296
 20
0.3500268040000041
 30
0.0
  0
SPLINE
  5
EE
330
1F
100
AcDbEntity
  8
DEFAULT
100
AcDbSpline
210
0.0
220
0.0
230
1.0
 70
     8
 71
     3
 72
    10
 73
     6
 74
     0
 42
0.0000000001
 43
0.0000000001
 40
0.0
 40
0.0
 40
0.0
 40
0.0
 40
1.0
 40
2.0
 40
3.0
 40
3.0
 40
3.0
 40
3.0
 10
15.47157288082296
 20
0.3500268040000041
 30
0.0
 10
15.47078874621389
 20
0.3265543497190603
 30
0.0
 10
15.46697527786976
 20
0.2793815723211946
 30
0.0
 10
15.45078639545641
 20
0.2110684155960281
 30
0.0
 10
15.43187955193913
 20
0.1663482004474207
 30
0.0
 10
15.41344989789296
 20
0.1515060000000048
 30
0.0
  0
ARC
  5
EF
330
1F
100
AcDbEntity
  8
DEFAULT
100
AcDbCircle
 10
31.70735704175637
 20
0.2209160711701589
 30
0.0
 40
0.2209160711701983
100
AcDbArc
 50
269.9999643046525
 51
341.6180043235284
  0
LINE
  5
F0
330
1F
100
AcDbEntity
  8
DEFAULT
100
AcDbLine
 10
31.70735690412536
 20
0.0000000000000035
 30
0.0
 11
30.10222390412537
 21
0.0000010000000041
 31
0.0
  0
ARC
  5
F1
330
1F
100
AcDbEntity
  8
DEFAULT
100
AcDbCircle
 10
30.09627150182492
 20
0.1909653236405942
 30
0.0
 40
0.1910570699991351
100
AcDbArc
 50
247.921913153808
 51
271.7853446946891
  0
ARC
  5
F2
330
1F
100
AcDbEntity
  8
DEFAULT
100
AcDbCircle
 10
30.09098870364693
 20
0.2083654545176903
 30
0.0
 40
0.205514054976267
100
AcDbArc
 50
188.6955522894551
 51
251.1117227204285
  0
POLYLINE
  5
F3
330
1F
100
AcDbEntity
  8
DEFAULT
100
AcDb2dPolyline
 66
     1
 10
0.0
 20
0.0
 30
0.0
  0
VERTEX
  5
F4
330
F3
100
AcDbEntity
  8
DEFAULT
100
AcDbVertex
100
AcDb2dVertex
 10
29.88783690412536
 20
0.1772950000000044
 30
0.0
  0
VERTEX
  5
F5
330
F3
100
AcDbEntity
  8
DEFAULT
100
AcDbVertex
100
AcDb2dVertex
 10
29.87792590412537
 20
0.3740400000000043
 30
0.0
  0
SEQEND
  5
F6
330
F3
100
AcDbEntity
  8
DEFAULT
  0
ARC
  5
F7
330
1F
100
AcDbEntity
  8
DEFAULT
100
AcDbCircle
 10
30.06164274734248
 20
0.3547495486001533
 30
0.0
 40
0.1847268253310072
100
AcDbArc
 50
100.1012301472172
 51
174.0058506435917
  0
ARC
  5
F8
330
1F
100
AcDbEntity
  8
DEFAULT
100
AcDbCircle
 10
30.06094479450359
 20
0.3920324198495569
 30
0.0
 40
0.1480151701935032
100
AcDbArc
 50
88.54703818244487
 51
102.36702835993
  0
SPLINE
  5
F9
330
1F
100
AcDbEntity
  8
DEFAULT
100
AcDbSpline
210
0.0
220
0.0
230
1.0
 70
    24
 71
     2
 72
     6
 73
     3
 74
     0
 42
0.0000000001
 43
0.0000000001
 40
-1.0
 40
-1.0
 40
-1.0
 40
0.0
 40
0.0
 40
0.0
 10
30.06469790412536
 20
0.540000000000003
 30
0.0
 10
30.82199140412537
 20
0.5400000000000029
 30
0.0
 10
31.57928490412536
 20
0.5400000000000027
 30
0.0
  0
SPLINE
  5
FA
330
1F
100
AcDbEntity
  8
DEFAULT
100
AcDbSpline
210
0.0
220
0.0
230
1.0
 70
     8
 71
     3
 72
    10
 73
     6
 74
     0
 42
0.0000000001
 43
0.0000000001
 40
0.0
 40
0.0
 40
0.0
 40
0.0
 40
1.0
 40
2.0
 40
3.0
 40
3.0
 40
3.0
 40
3.0
 10
31.57928490412536
 20
0.5400000000000027
 30
0.0
 10
31.61162118966686
 20
0.5394894651261073
 30
0.0
 10
31.68057629531574
 20
0.527958637923453
 30
0.0
 10
31.74681675579189
 20
0.4494210696958312
 30
0.0
 10
31.75778657846918
 20
0.3826479405468366
 30
0.0
 10
31.75918692119536
 20
0.3500268040000041
 30
0.0
  0
SPLINE
  5
FB
330
1F
100
AcDbEntity
  8
DEFAULT
100
AcDbSpline
210
0.0
220
0.0
230
1.0
 70
     8
 71
     3
 72
    10
 73
     6
 74
     0
 42
0.0000000001
 43
0.0000000001
 40
0.0
 40
0.0
 40
0.0
 40
0.0
 40
1.0
 40
2.0
 40
3.0
 40
3.0
 40
3.0
 40
3.0
 10
31.75918692119536
 20
0.3500268040000041
 30
0.0
 10
31.75997105580444
 20
0.3265543497190603
 30
0.0
 10
31.76378452414856
 20
0.2793815723211946
 30
0.0
 10
31.77997340656191
 20
0.2110684155960281
 30
0.0
 10
31.7988802500792
 20
0.1663482004474207
 30
0.0
 10
31.81730990412537
 20
0.1515060000000048
 30
0.0
  0
SPLINE
  5
FC
330
1F
100
AcDbEntity
  8
MAKE2D VISIBLE LINES
100
AcDbSpline
210
0.0
220
0.0
230
1.0
 70
    12
 71
     2
 72
     6
 73
     3
 74
     0
 42
0.0000000001
 43
0.0000000001
 40
-0.1594351049327111
 40
-0.1594351049327111
 40
-0.1594351049327111
 40
0.0
 40
0.0
 40
0.0
 10
16.59123155598425
 20
11.86351070681902
 30
0.0
 41
1.0
 10
16.65321276304465
 20
11.80730121658425
 30
0.0
 41
0.930575671060676
 10
16.73687870038819
 20
11.8083910558119
 30
0.0
 41
1.0
  0
SPLINE
  5
FD
330
1F
100
AcDbEntity
  8
MAKE2D VISIBLE LINES
100
AcDbSpline
210
0.0
220
0.0
230
1.0
 70
    24
 71
     2
 72
     6
 73
     3
 74
     0
 42
0.0000000001
 43
0.0000000001
 40
0.0
 40
0.0
 40
0.0
 40
14.30054381879653
 40
14.30054381879653
 40
14.30054381879653
 10
16.73687870038819
 20
11.8083910558119
 30
0.0
 10
24.13547411788296
 20
11.80839105581235
 30
0.0
 10
31.53406953537774
 20
11.80839105581279
 30
0.0
  0
SPLINE
  5
FE
330
1F
100
AcDbEntity
  8
MAKE2D VISIBLE LINES
100
AcDbSpline
210
0.0
220
0.0
230
1.0
 70
    24
 71
     2
 72
     6
 73
     3
 74
     0
 42
0.0000000001
 43
0.0000000001
 40
-0.4973203636540409
 40
-0.4973203636540409
 40
-0.4973203636540409
 40
13.77104520918677
 40
13.77104520918677
 40
13.77104520918677
 10
31.50189128942202
 20
12.24411008708562
 30
0.0
 10
24.11937791537188
 20
12.24411008687035
 30
0.0
 10
16.73686454132174
 20
12.24411008665507
 30
0.0
  0
SPLINE
  5
FF
330
1F
100
AcDbEntity
  8
MAKE2D VISIBLE LINES
100
AcDbSpline
210
0.0
220
0.0
230
1.0
 70
    12
 71
     2
 72
     6
 73
     3
 74
     0
 42
0.0000000001
 43
0.0000000001
 40
-0.0938358969207605
 40
-0.0938358969207605
 40
-0.0938358969207605
 40
0.0
 40
0.0
 40
0.0
 10
16.73686454132174
 20
12.24411008665507
 30
0.0
 41
1.0
 10
16.68924464073348
 20
12.24426723551653
 30
0.0
 41
0.9780269251330326
 10
16.64570009482366
 20
12.22499154747932
 30
0.0
 41
1.0
  0
SPLINE
  5
100
330
1F
100
AcDbEntity
  8
MAKE2D VISIBLE LINES
100
AcDbSpline
210
0.0
220
0.0
230
1.0
 70
    12
 71
     2
 72
     6
 73
     3
 74
     0
 42
0.0000000001
 43
0.0000000001
 40
0.0
 40
0.0
 40
0.0
 40
0.0178862065474951
 40
0.0178862065474951
 40
0.0178862065474951
 10
18.87130239758536
 20
28.34343286316328
 30
0.0
 41
1.0
 10
18.86259264851344
 20
28.34548434306414
 30
0.0
 41
0.9991644164489365
 10
18.85374444470449
 20
28.34681760524188
 30
0.0
 41
1.0
  0
SPLINE
  5
101
330
1F
100
AcDbEntity
  8
MAKE2D VISIBLE LINES
100
AcDbSpline
210
0.0
220
0.0
230
1.0
 70
     8
 71
     3
 72
    13
 73
     9
 74
     0
 42
0.0000000001
 43
0.0000000001
 40
0.0
 40
0.0
 40
0.0
 40
0.0
 40
0.0759322756359892
 40
0.1515578643575473
 40
0.30244902209112
 40
0.3423104222462998
 40
0.3466904692373839
 40
1.274661068606409
 40
1.274661068606409
 40
1.274661068606409
 40
1.274661068606409
 10
30.43059791304902
 20
29.71437288822529
 30
0.0
 10
30.4053257705893
 20
29.7124877624739
 30
0.0
 10
30.35572690902805
 20
29.69976696443274
 30
0.0
 10
30.27079729113497
 20
29.64247748115922
 30
0.0
 10
30.22901140000227
 20
29.55821554849065
 30
0.0
 10
30.22805054645232
 20
29.49278363384257
 30
0.0
 10
30.25194438842373
 20
29.16960306134901
 30
0.0
 10
30.27480915301269
 20
28.85965192058216
 30
0.0
 10
30.29759988233641
 20
28.55117312549119
 30
0.0
  0
SPLINE
  5
102
330
1F
100
AcDbEntity
  8
MAKE2D VISIBLE LINES
100
AcDbSpline
210
0.0
220
0.0
230
1.0
 70
    24
 71
     2
 72
     6
 73
     3
 74
     0
 42
0.0000000001
 43
0.0000000001
 40
0.0
 40
0.0
 40
0.0
 40
27.67557979844113
 40
27.67557979844113
 40
27.67557979844113
 10
30.29759988217171
 20
28.55117312772919
 30
0.0
 10
31.31675778427599
 20
14.75096492402628
 30
0.0
 10
32.33591568638028
 20
0.9507567203233691
 30
0.0
  0
SPLINE
  5
103
330
1F
100
AcDbEntity
  8
MAKE2D VISIBLE LINES
100
AcDbSpline
210
0.0
220
0.0
230
1.0
 70
     8
 71
     3
 72
    11
 73
     7
 74
     0
 42
0.0000000001
 43
0.0000000001
 40
0.0
 40
0.0
 40
0.0
 40
0.0
 40
0.9337558260077932
 40
0.9509034549687244
 40
0.9666217035202229
 40
0.9990451439829838
 40
0.9990451439829838
 40
0.9990451439829838
 40
0.9990451439829838
 10
30.7339116874071
 20
28.58339514833388
 30
0.0
 10
30.71093410169553
 20
28.89379737564034
 30
0.0
 10
30.68772045992654
 20
29.20991505939678
 30
0.0
 10
30.66388026197166
 20
29.53123828513444
 30
0.0
 10
30.65852445280683
 20
29.55250049627694
 30
0.0
 10
30.65432898534553
 20
29.56788955756868
 30
0.0
 10
30.65009166673046
 20
29.57789954649231
 30
0.0
  0
SPLINE
  5
104
330
1F
100
AcDbEntity
  8
MAKE2D VISIBLE LINES
100
AcDbSpline
210
0.0
220
0.0
230
1.0
 70
     8
 71
     3
 72
    13
 73
     9
 74
     0
 42
0.0000000001
 43
0.0000000001
 40
0.0
 40
0.0
 40
0.0
 40
0.0
 40
0.051996678237625
 40
0.1142847769683003
 40
0.258418246303139
 40
0.4006103350316572
 40
0.4614259301944139
 40
0.509634510667273
 40
0.509634510667273
 40
0.509634510667273
 40
0.509634510667273
 10
32.33591568638067
 20
0.9507567203233975
 30
0.0
 10
32.33704139101843
 20
0.9334312699749674
 30
0.0
 10
32.33296479280064
 20
0.8952656041838836
 30
0.0
 10
32.30466011674334
 20
0.813400095891275
 30
0.0
 10
32.24055370727038
 20
0.7151728868764806
 30
0.0
 10
32.15394967820393
 20
0.6367347153747644
 30
0.0
 10
32.07930359225281
 20
0.5976899546722763
 30
0.0
 10
32.04364247726275
 20
0.5890341874513041
 30
0.0
 10
32.02751687958015
 20
0.5887505714492107
 30
0.0
  0
SPLINE
  5
105
330
1F
100
AcDbEntity
  8
MAKE2D VISIBLE LINES
100
AcDbSpline
210
0.0
220
0.0
230
1.0
 70
     8
 71
     3
 72
    12
 73
     8
 74
     0
 42
0.0000000001
 43
0.0000000001
 40
0.0
 40
0.0
 40
0.0
 40
0.0
 40
0.1368486750721495
 40
0.2849584761159106
 40
0.6062939053282788
 40
0.935104902282093
 40
1.229208422777194
 40
1.229208422777194
 40
1.229208422777194
 40
1.229208422777194
 10
32.02751686456547
 20
0.1512505714492107
 30
0.0
 10
32.07321927008428
 20
0.1513253221302833
 30
0.0
 10
32.16787692798648
 20
0.1637076327325531
 30
0.0
 10
32.35790020112444
 20
0.2375679555601309
 30
0.0
 10
32.5678658027894
 20
0.4073143620623867
 30
0.0
 10
32.73978384865276
 20
0.6764269487730914
 30
0.0
 10
32.77960541172362
 20
0.8849071156197681
 30
0.0
 10
32.77222749401837
 20
0.9829787083945334
 30
0.0
  0
SPLINE
  5
106
330
1F
100
AcDbEntity
  8
MAKE2D VISIBLE LINES
100
AcDbSpline
210
0.0
220
0.0
230
1.0
 70
    24
 71
     2
 72
     6
 73
     3
 74
     0
 42
0.0000000001
 43
0.0000000001
 40
0.0
 40
0.0
 40
0.0
 40
27.67557984344959
 40
27.67557984344959
 40
27.67557984344959
 10
32.77222749476601
 20
0.9829786982759217
 30
0.0
 10
31.75306959100429
 20
14.78318692442194
 30
0.0
 10
30.73391168724256
 20
28.58339515056796
 30
0.0
  0
SPLINE
  5
107
330
1F
100
AcDbEntity
  8
MAKE2D VISIBLE LINES
100
AcDbSpline
210
0.0
220
0.0
230
1.0
 70
     8
 71
     3
 72
    13
 73
     9
 74
     0
 42
0.0000000001
 43
0.0000000001
 40
0.0
 40
0.0
 40
0.0
 40
0.0
 40
0.0711784115167025
 40
0.1426370978680107
 40
0.2885527612559777
 40
0.3252558157368066
 40
0.3303662169974917
 40
1.263153827324839
 40
1.263153827324839
 40
1.263153827324839
 40
1.263153827324839
 10
18.83617779601799
 20
28.34874270627862
 30
0.0
 10
18.81246838864716
 20
28.35042502160349
 30
0.0
 10
18.76464042672758
 20
28.34574681088592
 30
0.0
 10
18.67534447062737
 20
28.30630142386874
 30
0.0
 10
18.62087312720358
 20
28.23536519276751
 30
0.0
 10
18.60648802511949
 20
28.17418377048013
 30
0.0
 10
18.55815156678819
 20
27.85294372657052
 30
0.0
 10
18.5114972457419
 20
27.54379846775014
 30
0.0
 10
18.46519659892356
 20
27.23634131529818
 30
0.0
  0
SPLINE
  5
108
330
1F
100
AcDbEntity
  8
MAKE2D VISIBLE LINES
100
AcDbSpline
210
0.0
220
0.0
230
1.0
 70
     8
 71
     3
 72
    12
 73
     8
 74
     0
 42
0.0000000001
 43
0.0000000001
 40
0.0
 40
0.0
 40
0.0
 40
0.0
 40
0.1417878483352673
 40
0.2929664563604516
 40
0.6178663736816074
 40
0.9329943108043947
 40
1.209909053374727
 40
1.209909053374727
 40
1.209909053374727
 40
1.209909053374727
 10
14.51100763303247
 20
0.9943384647927687
 30
0.0
 10
14.50402183798173
 20
0.9475303958344128
 30
0.0
 10
14.50222481720118
 20
0.8493241415312269
 30
0.0
 10
14.54735976308761
 20
0.6466810660354056
 30
0.0
 10
14.68049120663225
 20
0.4145192508431492
 30
0.0
 10
14.91455527489824
 20
0.2100911555561709
 30
0.0
 10
15.10856567261334
 20
0.1508687268210807
 30
0.0
 10
15.20130159036832
 20
0.1512505714492107
 30
0.0
  0
SPLINE
  5
109
330
1F
100
AcDbEntity
  8
MAKE2D VISIBLE LINES
100
AcDbSpline
210
0.0
220
0.0
230
1.0
 70
    12
 71
     2
 72
     6
 73
     3
 74
     0
 42
0.0000000001
 43
0.0000000001
 40
0.0
 40
0.0
 40
0.0
 40
0.0176766418953267
 40
0.0176766418953267
 40
0.0176766418953267
 10
18.85374444470449
 20
28.34681760524188
 30
0.0
 41
1.0
 10
18.84500002490826
 20
28.34813522907067
 30
0.0
 41
0.9991838794086841
 10
18.83617778141121
 20
28.34874270730551
 30
0.0
 41
1.0
  0
SPLINE
  5
10A
330
1F
100
AcDbEntity
  8
MAKE2D VISIBLE LINES
100
AcDbSpline
210
0.0
220
0.0
230
1.0
 70
    24
 71
     2
 72
     6
 73
     3
 74
     0
 42
0.0000000001
 43
0.0000000001
 40
0.0
 40
0.0
 40
0.0
 40
11.271605416409
 40
11.271605416409
 40
11.271605416409
 10
30.228402
 20
29.496984
 30
0.0
 10
24.63108816362195
 20
28.83945074388587
 30
0.0
 10
19.03377432724391
 20
28.18191748777173
 30
0.0
  0
SPLINE
  5
10B
330
1F
100
AcDbEntity
  8
MAKE2D VISIBLE LINES
100
AcDbSpline
210
0.0
220
0.0
230
1.0
 70
    24
 71
     2
 72
     6
 73
     3
 74
     0
 42
0.0000000001
 43
0.0000000001
 40
0.0
 40
0.0
 40
0.0
 40
11.60924116483178
 40
11.60924116483178
 40
11.60924116483178
 10
18.8461282622098
 20
28.34815820851631
 30
0.0
 10
24.61107777884276
 20
29.02563675170393
 30
0.0
 10
30.37602729547571
 20
29.70311529489155
 30
0.0
  0
SPLINE
  5
10C
330
1F
100
AcDbEntity
  8
MAKE2D VISIBLE LINES
100
AcDbSpline
210
0.0
220
0.0
230
1.0
 70
    24
 71
     2
 72
     6
 73
     3
 74
     0
 42
0.0000000001
 43
0.0000000001
 40
0.0
 40
0.0
 40
0.0
 40
26.53824264565094
 40
26.53824264565094
 40
26.53824264565094
 10
18.46519660092446
 20
27.23634132858385
 30
0.0
 10
16.48810211975411
 20
14.11533991510983
 30
0.0
 10
14.51100763858375
 20
0.9943385016358164
 30
0.0
  0
SPLINE
  5
10D
330
1F
100
AcDbEntity
  8
MAKE2D VISIBLE LINES
100
AcDbSpline
210
0.0
220
0.0
230
1.0
 70
     8
 71
     3
 72
    12
 73
     8
 74
     0
 42
0.0000000001
 43
0.0000000001
 40
0.0
 40
0.0
 40
0.0
 40
0.0
 40
0.9378527842875879
 40
0.9563141206920398
 40
0.9753363315687551
 40
1.120510196434907
 40
1.262688953504959
 40
1.262688953504959
 40
1.262688953504959
 40
1.262688953504959
 10
18.89781289496387
 20
27.17115396682826
 30
0.0
 10
18.94419443919881
 20
27.48030778842437
 30
0.0
 10
18.99218737848836
 20
27.7954558675599
 30
0.0
 10
19.04022891701991
 20
28.11699152293619
 30
0.0
 10
19.04058925086511
 20
28.17809703041582
 30
0.0
 10
19.00378896553132
 20
28.2789361768408
 30
0.0
 10
18.91752597829268
 20
28.33260887886552
 30
0.0
 10
18.87154866361354
 20
28.34337470770943
 30
0.0
  0
SPLINE
  5
10E
330
1F
100
AcDbEntity
  8
MAKE2D VISIBLE LINES
100
AcDbSpline
210
0.0
220
0.0
230
1.0
 70
    24
 71
     2
 72
     6
 73
     3
 74
     0
 42
0.0000000001
 43
0.0000000001
 40
0.0
 40
0.0
 40
0.0
 40
26.53824264565089
 40
26.53824264565089
 40
26.53824264565089
 10
14.94362393462442
 20
0.9291511531695846
 30
0.0
 10
16.92071841579478
 20
14.05015256664358
 30
0.0
 10
18.89781289696515
 20
27.17115398011757
 30
0.0
  0
SPLINE
  5
10F
330
1F
100
AcDbEntity
  8
MAKE2D VISIBLE LINES
100
AcDbSpline
210
0.0
220
0.0
230
1.0
 70
     8
 71
     3
 72
    13
 73
     9
 74
     0
 42
0.0000000001
 43
0.0000000001
 40
0.0
 40
0.0
 40
0.0
 40
0.0
 40
0.041846038899824
 40
0.0960209766777814
 40
0.2261946400039462
 40
0.3552786245317504
 40
0.411713326024296
 40
0.4571351603463116
 40
0.4571351603463116
 40
0.4571351603463116
 40
0.4571351603463116
 10
15.20130158264843
 20
0.5887505714491397
 30
0.0
 10
15.18728119607206
 20
0.5892813284026985
 30
0.0
 10
15.15639969709711
 20
0.5989372738188905
 30
0.0
 10
15.09157788396204
 20
0.638277500590597
 30
0.0
 10
15.01772865026307
 20
0.713578145062904
 30
0.0
 10
14.96461034921545
 20
0.8055264865170599
 30
0.0
 10
14.9432894683904
 20
0.8799362392005889
 30
0.0
 10
14.94153900488758
 20
0.9141180526115846
 30
0.0
 10
14.94362390417639
 20
0.9291509512264184
 30
0.0
  0
SPLINE
  5
110
330
1F
100
AcDbEntity
  8
MAKE2D VISIBLE LINES
100
AcDbSpline
210
0.0
220
0.0
230
1.0
 70
    12
 71
     2
 72
     6
 73
     3
 74
     0
 42
0.0000000001
 43
0.0000000001
 40
0.0
 40
0.0
 40
0.0
 40
0.0058652810470086
 40
0.0058652810470086
 40
0.0058652810470086
 10
30.27755246675553
 20
29.63440981969459
 30
0.0
 41
1.0
 10
30.27940478989029
 20
29.63668365127353
 30
0.0
 41
0.9999101361462435
 10
30.28131740751686
 20
29.63890700568959
 30
0.0
 41
1.0
  0
SPLINE
  5
111
330
1F
100
AcDbEntity
  8
MAKE2D VISIBLE LINES
100
AcDbSpline
210
0.0
220
0.0
230
1.0
 70
    12
 71
     2
 72
     6
 73
     3
 74
     0
 42
0.0000000001
 43
0.0000000001
 40
0.0
 40
0.0
 40
0.0
 40
0.2763560493015547
 40
0.2763560493015547
 40
0.2763560493015547
 10
30.43059788904649
 20
29.7143733914742
 30
0.0
 41
1.0
 10
30.59019336683843
 20
29.72648475616361
 30
0.0
 41
0.8070419375825792
 10
30.65003571240696
 20
29.57803848519956
 30
0.0
 41
1.0
  0
SPLINE
  5
112
330
1F
100
AcDbEntity
  8
MAKE2D VISIBLE LINES
100
AcDbSpline
210
0.0
220
0.0
230
1.0
 70
    12
 71
     2
 72
     6
 73
     3
 74
     0
 42
0.0000000001
 43
0.0000000001
 40
0.0
 40
0.0
 40
0.0
 40
0.0069028752882043
 40
0.0069028752882043
 40
0.0069028752882043
 10
30.2676753255205
 20
29.62131106544634
 30
0.0
 41
1.0
 10
30.26964869383354
 20
29.62414306414316
 30
0.0
 41
0.9998755299298003
 10
30.27171043143032
 20
29.62691139165264
 30
0.0
 41
1.0
  0
ARC
  5
113
330
1F
100
AcDbEntity
  8
DEFAULT
100
AcDbCircle
 10
30.96904277491109
 20
29.41130375572176
 30
0.0
 40
1.51421301638513
100
AcDbArc
 50
68.65611190161421
 51
82.97187932813854
  0
SPLINE
  5
114
330
1F
100
AcDbEntity
  8
DEFAULT
100
AcDbSpline
210
0.0
220
0.0
230
1.0
 70
     8
 71
     3
 72
     8
 73
     4
 74
     0
 42
0.0000000001
 43
0.0000000001
 40
0.0
 40
0.0
 40
0.0
 40
0.0
 40
1.0
 40
1.0
 40
1.0
 40
1.0
 10
29.67483691766
 20
30.94312585407
 30
0.0
 10
30.1678429790688
 20
30.95661779376091
 30
0.0
 10
30.66354951757125
 20
30.97464243299403
 30
0.0
 10
31.15431653243
 20
30.91413930686
 30
0.0
  0
ARC
  5
115
330
1F
100
AcDbEntity
  8
DEFAULT
100
AcDbCircle
 10
32.27609006147425
 20
-64.10870483430482
 30
0.0
 40
95.08741785919774
100
AcDbArc
 50
91.56760406304876
 51
93.05674276008548
  0
ARC
  5
116
330
1F
100
AcDbEntity
  8
DEFAULT
100
AcDbCircle
 10
16.80394444037162
 20
-2679.715510631599
 30
0.0
 40
2710.576942798543
100
AcDbArc
 50
89.68891615107118
 51
89.71113808975664
  0
LINE
  5
117
330
1F
100
AcDbEntity
  8
DEFAULT
100
AcDbLine
 10
20.513013846385
 20
30.87718061393
 30
0.0
 11
30.469508
 21
30.82698400000001
 31
0.0
  0
SPLINE
  5
118
330
1F
100
AcDbEntity
  8
DEFAULT
100
AcDbSpline
210
0.0
220
0.0
230
1.0
 70
     8
 71
     3
 72
    12
 73
     8
 74
     0
 42
0.0000000001
 43
0.0000000001
 40
0.0
 40
0.0
 40
0.0
 40
0.0
 40
0.9999999969434313
 40
1.999999997707573
 40
2.999999998471716
 40
3.999999999235858
 40
5.0
 40
5.0
 40
5.0
 40
5.0
 10
16.858558884365
 20
32.68537584847
 30
0.0
 10
17.07710038066486
 20
32.51273632440341
 30
0.0
 10
17.52029416737173
 20
32.17563211923799
 30
0.0
 10
18.16216860514212
 20
31.63931893296517
 30
0.0
 10
18.87843910206371
 20
31.20247976949182
 30
0.0
 10
19.67905905761853
 20
30.94448091284078
 30
0.0
 10
20.23433834941679
 20
30.87838692982103
 30
0.0
 10
20.513013846385
 20
30.87718061393
 30
0.0
  0
SPLINE
  5
119
330
1F
100
AcDbEntity
  8
DEFAULT
100
AcDbSpline
210
0.0
220
0.0
230
1.0
 70
     8
 71
     3
 72
    12
 73
     8
 74
     0
 42
0.0000000001
 43
0.0000000001
 40
0.0
 40
0.0
 40
0.0
 40
0.0
 40
1.000000002800794
 40
2.000000005601589
 40
3.000000008402383
 40
4.000000011203178
 40
5.0
 40
5.0
 40
5.0
 40
5.0
 10
16.191965153785
 20
33.06795799814
 30
0.0
 10
16.24463338511449
 20
33.08059430294269
 30
0.0
 10
16.34193390670296
 20
33.0322607612294
 30
0.0
 10
16.47635808922134
 20
32.95648332970384
 30
0.0
 10
16.60711269332941
 20
32.87017547216685
 30
0.0
 10
16.73454314878591
 20
32.78025363592086
 30
0.0
 10
16.81756510610979
 20
32.71740903813775
 30
0.0
 10
16.858558884365
 20
32.68537584847
 30
0.0
  0
SPLINE
  5
11A
330
1F
100
AcDbEntity
  8
DEFAULT
100
AcDbSpline
210
0.0
220
0.0
230
1.0
 70
    24
 71
     2
 72
     6
 73
     3
 74
     0
 42
0.0000000001
 43
0.0000000001
 40
-1.0
 40
-1.0
 40
-1.0
 40
0.0
 40
0.0
 40
0.0
 10
15.75584300000001
 20
32.98638200000001
 30
0.0
 10
15.9739040768925
 20
33.02716999907
 30
0.0
 10
16.191965153785
 20
33.06795799814
 30
0.0
  0
SPLINE
  5
11B
330
1F
100
AcDbEntity
  8
DEFAULT
100
AcDbSpline
210
0.0
220
0.0
230
1.0
 70
    24
 71
     2
 72
     6
 73
     3
 74
     0
 42
0.0000000001
 43
0.0000000001
 40
0.0
 40
0.0
 40
0.0
 40
1.0
 40
1.0
 40
1.0
 10
17.854460974405
 20
29.240530244985
 30
0.0
 10
17.7669319872025
 20
28.9768041224925
 30
0.0
 10
17.679403
 20
28.71307800000001
 30
0.0
  0
SPLINE
  5
11C
330
1F
100
AcDbEntity
  8
DEFAULT
100
AcDbSpline
210
0.0
220
0.0
230
1.0
 70
     8
 71
     3
 72
    16
 73
    12
 74
     0
 42
0.0000000001
 43
0.0000000001
 40
-9.0
 40
-9.0
 40
-9.0
 40
-9.0
 40
-8.000024712968937
 40
-7.000021623847821
 40
-6.000018534726704
 40
-5.000015445605587
 40
-4.000012356484469
 40
-3.000009267363351
 40
-2.000006178242234
 40
-1.000003089121117
 40
0.0
 40
0.0
 40
0.0
 40
0.0
 10
15.582637089065
 20
32.304905903475
 30
0.0
 10
15.73339469135349
 20
32.26955582223096
 30
0.0
 10
15.99396237435585
 20
32.0918637390545
 30
0.0
 10
16.36228258173984
 20
31.81091129287315
 30
0.0
 10
16.72881946460746
 20
31.52321439980354
 30
0.0
 10
17.095910845894
 20
31.23808841305474
 30
0.0
 10
17.46257112664967
 20
30.94942052313606
 30
0.0
 10
17.74752067401086
 20
30.57594340668719
 30
0.0
 10
17.94612643051611
 20
30.15466483638686
 30
0.0
 10
18.02704099193174
 20
29.68192925588221
 30
0.0
 10
17.8992280669475
 20
29.3875132611298
 30
0.0
 10
17.854460974405
 20
29.240530244985
 30
0.0
  0
SPLINE
  5
11D
330
1F
100
AcDbEntity
  8
DEFAULT
100
AcDbSpline
210
0.0
220
0.0
230
1.0
 70
    24
 71
     2
 72
     6
 73
     3
 74
     0
 42
0.0000000001
 43
0.0000000001
 40
0.0
 40
0.0
 40
0.0
 40
1.0
 40
1.0
 40
1.0
 10
15.149224
 20
32.22384000000001
 30
0.0
 10
15.3659305445325
 20
32.26437295173751
 30
0.0
 10
15.582637089065
 20
32.304905903475
 30
0.0
  0
POLYLINE
  5
11E
330
1F
100
AcDbEntity
  8
DEFAULT
100
AcDb2dPolyline
 66
     1
 10
0.0
 20
0.0
 30
0.0
  0
VERTEX
  5
11F
330
11E
100
AcDbEntity
  8
DEFAULT
100
AcDbVertex
100
AcDb2dVertex
 10
18.99436273208001
 20
28.77798363041
 30
0.0
  0
VERTEX
  5
120
330
11E
100
AcDbEntity
  8
DEFAULT
100
AcDbVertex
100
AcDb2dVertex
 10
18.852476
 20
28.349409
 30
0.0
  0
SEQEND
  5
121
330
11E
100
AcDbEntity
  8
DEFAULT
  0
SPLINE
  5
122
330
1F
100
AcDbEntity
  8
DEFAULT
100
AcDbSpline
210
0.0
220
0.0
230
1.0
 70
     8
 71
     3
 72
    10
 73
     6
 74
     0
 42
0.0000000001
 43
0.0000000001
 40
0.0
 40
0.0
 40
0.0
 40
0.0
 40
0.9999996859130797
 40
1.99999984295654
 40
3.0
 40
3.0
 40
3.0
 40
3.0
 10
20.68127430068
 20
29.89232922534501
 30
0.0
 10
20.43319098265246
 20
29.89358765286869
 30
0.0
 10
19.95127692097621
 20
29.8259233141109
 30
0.0
 10
19.23565139602856
 20
29.50517230524598
 30
0.0
 10
19.06600757563567
 20
29.00893313792147
 30
0.0
 10
18.99436273208001
 20
28.77798363041
 30
0.0
  0
POLYLINE
  5
123
330
1F
100
AcDbEntity
  8
DEFAULT
100
AcDb2dPolyline
 66
     1
 10
0.0
 20
0.0
 30
0.0
  0
VERTEX
  5
124
330
123
100
AcDbEntity
  8
DEFAULT
100
AcDbVertex
100
AcDb2dVertex
 10
31.521365
 20
29.837661
 30
0.0
  0
VERTEX
  5
125
330
123
100
AcDbEntity
  8
DEFAULT
100
AcDbVertex
100
AcDb2dVertex
 10
20.68127430068
 20
29.89232922534501
 30
0.0
  0
SEQEND
  5
126
330
123
100
AcDbEntity
  8
DEFAULT
  0
SPLINE
  5
127
330
1F
100
AcDbEntity
  8
DEFAULT
100
AcDbSpline
210
0.0
220
0.0
230
1.0
 70
    24
 71
     2
 72
     6
 73
     3
 74
     0
 42
0.0000000001
 43
0.0000000001
 40
0.0
 40
0.0
 40
0.0
 40
1.0
 40
1.0
 40
1.0
 10
17.679403
 20
28.71307800000001
 30
0.0
 10
16.4143135
 20
30.46845900000001
 30
0.0
 10
15.149224
 20
32.22384000000001
 30
0.0
  0
SPLINE
  5
128
330
1F
100
AcDbEntity
  8
DEFAULT
100
AcDbSpline
210
0.0
220
0.0
230
1.0
 70
    24
 71
     2
 72
     6
 73
     3
 74
     0
 42
0.0000000001
 43
0.0000000001
 40
0.0
 40
0.0
 40
0.0
 40
1.0
 40
1.0
 40
1.0
 10
18.84850800000001
 20
28.348943
 30
0.0
 10
18.26395550000001
 20
28.5310105
 30
0.0
 10
17.679403
 20
28.71307800000001
 30
0.0
  0
SPLINE
  5
129
330
1F
100
AcDbEntity
  8
DEFAULT
100
AcDbSpline
210
0.0
220
0.0
230
1.0
 70
    24
 71
     2
 72
     6
 73
     3
 74
     0
 42
0.0000000001
 43
0.0000000001
 40
0.0
 40
0.0
 40
0.0
 40
1.0
 40
1.0
 40
1.0
 10
7.260359999999999
 20
30.877178
 30
0.0
 10
7.385437999999997
 20
30.8520675
 30
0.0
 10
7.510515999999996
 20
30.826957
 30
0.0
  0
POLYLINE
  5
12A
330
1F
100
AcDbEntity
  8
DEFAULT
100
AcDb2dPolyline
 66
     1
 10
0.0
 20
0.0
 30
0.0
  0
VERTEX
  5
12B
330
12A
100
AcDbEntity
  8
DEFAULT
100
AcDbVertex
100
AcDb2dVertex
 10
6.504993509599998
 20
32.68537569694
 30
0.0
  0
VERTEX
  5
12C
330
12A
100
AcDbEntity
  8
DEFAULT
100
AcDbVertex
100
AcDb2dVertex
 10
7.260359999999999
 20
30.877178
 30
0.0
  0
SEQEND
  5
12D
330
12A
100
AcDbEntity
  8
DEFAULT
  0
SPLINE
  5
12E
330
1F
100
AcDbEntity
  8
DEFAULT
100
AcDbSpline
210
0.0
220
0.0
230
1.0
 70
     8
 71
     3
 72
     8
 73
     4
 74
     0
 42
0.0000000001
 43
0.0000000001
 40
0.0
 40
0.0
 40
0.0
 40
0.0
 40
1.0
 40
1.0
 40
1.0
 40
1.0
 10
5.506911560919995
 20
33.06795799628
 30
0.0
 10
5.865908047186312
 20
33.09175174472957
 30
0.0
 10
6.322590510065338
 20
33.04395692995199
 30
0.0
 10
6.504993509599998
 20
32.68537569694
 30
0.0
  0
ARC
  5
12F
330
1F
100
AcDbEntity
  8
DEFAULT
100
AcDbCircle
 10
0.0000000000000002
 20
219.1004302435281
 30
0.0
 40
186.1139618764882
100
AcDbArc
 50
268.304432156404
 51
271.695567843596
  0
SPLINE
  5
130
330
1F
100
AcDbEntity
  8
DEFAULT
100
AcDbSpline
210
0.0
220
0.0
230
1.0
 70
     8
 71
     3
 72
     8
 73
     4
 74
     0
 42
0.0000000001
 43
0.0000000001
 40
-1.0
 40
-1.0
 40
-1.0
 40
-1.0
 40
0.0
 40
0.0
 40
0.0
 40
0.0
 10
-6.504993509599998
 20
32.68537569694
 30
0.0
 10
-6.322590510065338
 20
33.04395692995199
 30
0.0
 10
-5.865908047186312
 20
33.09175174472957
 30
0.0
 10
-5.506911560919995
 20
33.06795799628
 30
0.0
  0
POLYLINE
  5
131
330
1F
100
AcDbEntity
  8
DEFAULT
100
AcDb2dPolyline
 66
     1
 10
0.0
 20
0.0
 30
0.0
  0
VERTEX
  5
132
330
131
100
AcDbEntity
  8
DEFAULT
100
AcDbVertex
100
AcDb2dVertex
 10
-7.260359999999999
 20
30.877178
 30
0.0
  0
VERTEX
  5
133
330
131
100
AcDbEntity
  8
DEFAULT
100
AcDbVertex
100
AcDb2dVertex
 10
-6.504993509599998
 20
32.68537569694
 30
0.0
  0
SEQEND
  5
134
330
131
100
AcDbEntity
  8
DEFAULT
  0
SPLINE
  5
135
330
1F
100
AcDbEntity
  8
DEFAULT
100
AcDbSpline
210
0.0
220
0.0
230
1.0
 70
    24
 71
     2
 72
     6
 73
     3
 74
     0
 42
0.0000000001
 43
0.0000000001
 40
-1.0
 40
-1.0
 40
-1.0
 40
0.0
 40
0.0
 40
0.0
 10
-7.510515999999996
 20
30.826957
 30
0.0
 10
-7.385437999999997
 20
30.8520675
 30
0.0
 10
-7.260359999999999
 20
30.877178
 30
0.0
  0
SPLINE
  5
136
330
1F
100
AcDbEntity
  8
DEFAULT
100
AcDbSpline
210
0.0
220
0.0
230
1.0
 70
     8
 71
     3
 72
     8
 73
     4
 74
     0
 42
0.0000000001
 43
0.0000000001
 40
0.0
 40
0.0
 40
0.0
 40
0.0
 40
1.0
 40
1.0
 40
1.0
 40
1.0
 10
-5.974472999999996
 20
30.87216500000001
 30
0.0
 10
-1.992345880237736
 20
30.97861055368542
 30
0.0
 10
1.992345906373931
 20
30.97861055265274
 30
0.0
 10
5.974472999999996
 20
30.87216500000001
 30
0.0
  0
SPLINE
  5
137
330
1F
100
AcDbEntity
  8
DEFAULT
100
AcDbSpline
210
0.0
220
0.0
230
1.0
 70
    24
 71
     2
 72
     6
 73
     3
 74
     0
 42
0.0000000001
 43
0.0000000001
 40
0.0
 40
0.0
 40
0.0
 40
1.0
 40
1.0
 40
1.0
 10
-7.510642156024996
 20
30.82687952886501
 30
0.0
 10
-7.511425078012495
 20
30.33482076443251
 30
0.0
 10
-7.512207999999994
 20
29.842762
 30
0.0
  0
SPLINE
  5
138
330
1F
100
AcDbEntity
  8
DEFAULT
100
AcDbSpline
210
0.0
220
0.0
230
1.0
 70
     8
 71
     3
 72
     8
 73
     4
 74
     0
 42
0.0000000001
 43
0.0000000001
 40
-1.0
 40
-1.0
 40
-1.0
 40
-1.0
 40
0.0
 40
0.0
 40
0.0
 40
0.0
 10
7.510815797695003
 20
30.82687952886501
 30
0.0
 10
2.503795249306683
 20
30.81907349920312
 30
0.0
 10
-2.50362170600693
 20
30.81907349912001
 30
0.0
 10
-7.510642156024996
 20
30.82687952886501
 30
0.0
  0
SPLINE
  5
139
330
1F
100
AcDbEntity
  8
DEFAULT
100
AcDbSpline
210
0.0
220
0.0
230
1.0
 70
    24
 71
     2
 72
     6
 73
     3
 74
     0
 42
0.0000000001
 43
0.0000000001
 40
0.0
 40
0.0
 40
0.0
 40
1.0
 40
1.0
 40
1.0
 10
7.512381000000005
 20
29.842762
 30
0.0
 10
7.511598398847504
 20
30.33482076443251
 30
0.0
 10
7.510815797695003
 20
30.82687952886501
 30
0.0
  0
POLYLINE
  5
13A
330
1F
100
AcDbEntity
  8
DEFAULT
100
AcDb2dPolyline
 66
     1
 10
0.0
 20
0.0
 30
0.0
  0
VERTEX
  5
13B
330
13A
100
AcDbEntity
  8
DEFAULT
100
AcDbVertex
100
AcDb2dVertex
 10
4.472353658629999
 20
28.34913712538
 30
0.0
  0
VERTEX
  5
13C
330
13A
100
AcDbEntity
  8
DEFAULT
100
AcDbVertex
100
AcDb2dVertex
 10
3.599423999999999
 20
28.348943
 30
0.0
  0
SEQEND
  5
13D
330
13A
100
AcDbEntity
  8
DEFAULT
  0
SPLINE
  5
13E
330
1F
100
AcDbEntity
  8
DEFAULT
100
AcDbSpline
210
0.0
220
0.0
230
1.0
 70
     8
 71
     3
 72
     8
 73
     4
 74
     0
 42
0.0000000001
 43
0.0000000001
 40
-1.0
 40
-1.0
 40
-1.0
 40
-1.0
 40
0.0
 40
0.0
 40
0.0
 40
0.0
 10
5.61340532877
 20
28.68421613088501
 30
0.0
 10
5.273297226987326
 20
28.47080706287994
 30
0.0
 10
4.873523549378695
 20
28.35520091185504
 30
0.0
 10
4.472353658629999
 20
28.34913712538
 30
0.0
  0
SPLINE
  5
13F
330
1F
100
AcDbEntity
  8
DEFAULT
100
AcDbSpline
210
0.0
220
0.0
230
1.0
 70
     8
 71
     2
 72
     8
 73
     5
 74
     0
 42
0.0000000001
 43
0.0000000001
 40
0.0
 40
0.0
 40
0.0
 40
1.0
 40
1.0
 40
2.0
 40
2.0
 40
2.0
 10
5.746634
 20
28.76856500000001
 30
0.0
 10
5.709826
 20
28.74523900000001
 30
0.0
 10
5.673017999999999
 20
28.721913
 30
0.0
 10
5.643211664384999
 20
28.7030645654425
 30
0.0
 10
5.61340532877
 20
28.68421613088501
 30
0.0
  0
POLYLINE
  5
140
330
1F
100
AcDbEntity
  8
DEFAULT
100
AcDb2dPolyline
 66
     1
 10
0.0
 20
0.0
 30
0.0
  0
VERTEX
  5
141
330
140
100
AcDbEntity
  8
DEFAULT
100
AcDbVertex
100
AcDb2dVertex
 10
-4.472353658629999
 20
28.34913712538
 30
0.0
  0
VERTEX
  5
142
330
140
100
AcDbEntity
  8
DEFAULT
100
AcDbVertex
100
AcDb2dVertex
 10
-3.599423999999999
 20
28.348943
 30
0.0
  0
SEQEND
  5
143
330
140
100
AcDbEntity
  8
DEFAULT
  0
SPLINE
  5
144
330
1F
100
AcDbEntity
  8
DEFAULT
100
AcDbSpline
210
0.0
220
0.0
230
1.0
 70
     8
 71
     3
 72
     8
 73
     4
 74
     0
 42
0.0000000001
 43
0.0000000001
 40
-1.0
 40
-1.0
 40
-1.0
 40
-1.0
 40
0.0
 40
0.0
 40
0.0
 40
0.0
 10
-5.61340532877
 20
28.68421613088501
 30
0.0
 10
-5.273297226987326
 20
28.47080706287994
 30
0.0
 10
-4.873523549378695
 20
28.35520091185504
 30
0.0
 10
-4.472353658629999
 20
28.34913712538
 30
0.0
  0
SPLINE
  5
145
330
1F
100
AcDbEntity
  8
DEFAULT
100
AcDbSpline
210
0.0
220
0.0
230
1.0
 70
     8
 71
     2
 72
     8
 73
     5
 74
     0
 42
0.0000000001
 43
0.0000000001
 40
0.0
 40
0.0
 40
0.0
 40
1.0
 40
1.0
 40
2.0
 40
2.0
 40
2.0
 10
-5.746634
 20
28.76856500000001
 30
0.0
 10
-5.709826
 20
28.74523900000001
 30
0.0
 10
-5.673017999999999
 20
28.721913
 30
0.0
 10
-5.643211664384999
 20
28.7030645654425
 30
0.0
 10
-5.61340532877
 20
28.68421613088501
 30
0.0
  0
LINE
  5
146
330
1F
100
AcDbEntity
  8
DEFAULT
100
AcDbLine
 10
-7.512008494034998
 20
29.842676696495
 30
0.0
 11
-6.121794092569763
 21
29.00313895342845
 31
0.0
  0
SPLINE
  5
147
330
1F
100
AcDbEntity
  8
DEFAULT
100
AcDbSpline
210
0.0
220
0.0
230
1.0
 70
     8
 71
     3
 72
    10
 73
     6
 74
     0
 42
0.0000000001
 43
0.0000000001
 40
0.0
 40
0.0
 40
0.0
 40
0.0
 40
1.0
 40
2.0
 40
3.0
 40
3.0
 40
3.0
 40
3.0
 10
7.512095135705
 20
29.842676696495
 30
0.0
 10
5.842755244063992
 20
29.83482259052329
 30
0.0
 10
2.504062064957406
 20
29.83860772065877
 30
0.0
 10
-2.503888482888323
 20
29.83860772065886
 30
0.0
 10
-5.842582036619759
 20
29.83482259052339
 30
0.0
 10
-7.512008494034998
 20
29.842676696495
 30
0.0
  0
LINE
  5
148
330
1F
100
AcDbEntity
  8
DEFAULT
100
AcDbLine
 10
6.121794092569763
 20
29.00313895342845
 30
0.0
 11
7.512095135705
 21
29.842676696495
 31
0.0
  0
SPLINE
  5
149
330
1F
100
AcDbEntity
  8
DEFAULT
100
AcDbSpline
210
0.0
220
0.0
230
1.0
 70
    24
 71
     2
 72
     6
 73
     3
 74
     0
 42
0.0000000001
 43
0.0000000001
 40
0.0
 40
0.0
 40
0.0
 40
1.0
 40
1.0
 40
1.0
 10
31.520163
 20
30.821661
 30
0.0
 10
31.520764
 20
30.329661
 30
0.0
 10
31.521365
 20
29.837661
 30
0.0
  0
SPLINE
  5
14A
330
1F
100
AcDbEntity
  8
DEFAULT
100
AcDbSpline
210
0.0
220
0.0
230
1.0
 70
    24
 71
     2
 72
     6
 73
     3
 74
     0
 42
0.0000000001
 43
0.0000000001
 40
0.0
 40
0.0
 40
0.0
 40
1.0
 40
1.0
 40
1.0
 10
31.521365
 20
29.837661
 30
0.0
 10
25.1869205
 20
29.093535
 30
0.0
 10
18.852476
 20
28.349409
 30
0.0
  0
SPLINE
  5
14B
330
1F
100
AcDbEntity
  8
DEFAULT
100
AcDbSpline
210
0.0
220
0.0
230
1.0
 70
    24
 71
     2
 72
     6
 73
     3
 74
     0
 42
0.0000000001
 43
0.0000000001
 40
0.0
 40
0.0
 40
0.0
 40
1.0
 40
1.0
 40
1.0
 10
15.149224
 20
32.22384000000001
 30
0.0
 10
15.4525335
 20
32.60511100000001
 30
0.0
 10
15.75584300000001
 20
32.98638200000001
 30
0.0
  0
ARC
  5
14C
330
1F
100
AcDbEntity
  8
DEFAULT
100
AcDbCircle
 10
3.96871381923228
 20
54.20391634899929
 30
0.0
 40
0.3285647922270821
100
AcDbArc
 50
329.1737465744241
 51
342.1761268265704
  0
ARC
  5
14D
330
1F
100
AcDbEntity
  8
DEFAULT
100
AcDbCircle
 10
3.932303609476925
 20
54.2350722298713
 30
0.0
 40
0.3758837709241417
100
AcDbArc
 50
269.6238842677213
 51
327.9395173296146
  0
SPLINE
  5
14E
330
1F
100
AcDbEntity
  8
DEFAULT
100
AcDbSpline
210
0.0
220
0.0
230
1.0
 70
     8
 71
     3
 72
     8
 73
     4
 74
     0
 42
0.0000000001
 43
0.0000000001
 40
0.0
 40
0.0
 40
0.0
 40
0.0
 40
1.0
 40
1.0
 40
1.0
 40
1.0
 10
-3.929836154009998
 20
53.85919655773001
 30
0.0
 10
-1.309946744436764
 20
53.85579505981686
 30
0.0
 10
1.309946587128078
 20
53.85579498455714
 30
0.0
 10
3.929836154009997
 20
53.85919655773001
 30
0.0
  0
ARC
  5
14F
330
1F
100
AcDbEntity
  8
DEFAULT
100
AcDbCircle
 10
-3.932303609476925
 20
54.2350722298713
 30
0.0
 40
0.3758837709241417
100
AcDbArc
 50
212.0604826703853
 51
270.3761157322786
  0
ARC
  5
150
330
1F
100
AcDbEntity
  8
DEFAULT
100
AcDbCircle
 10
-3.96871381923228
 20
54.20391634899929
 30
0.0
 40
0.3285647922270821
100
AcDbArc
 50
197.8238731734296
 51
210.8262534255759
  0
SPLINE
  5
151
330
1F
100
AcDbEntity
  8
DEFAULT
100
AcDbSpline
210
0.0
220
0.0
230
1.0
 70
     8
 71
     3
 72
     8
 73
     4
 74
     0
 42
0.0000000001
 43
0.0000000001
 40
-1.0
 40
-1.0
 40
-1.0
 40
-1.0
 40
0.0
 40
0.0
 40
0.0
 40
0.0
 10
4.023248500000001
 20
54.24320300000001
 30
0.0
 10
4.15101683199912
 20
54.24517382689322
 30
0.0
 10
4.305532470469571
 20
54.15984829974838
 30
0.0
 10
4.299900000000001
 20
54.014847
 30
0.0
  0
SPLINE
  5
152
330
1F
100
AcDbEntity
  8
DEFAULT
100
AcDbSpline
210
0.0
220
0.0
230
1.0
 70
     8
 71
     3
 72
     8
 73
     4
 74
     0
 42
0.0000000001
 43
0.0000000001
 40
0.0
 40
0.0
 40
0.0
 40
0.0
 40
1.0
 40
1.0
 40
1.0
 40
1.0
 10
-4.023161499999997
 20
54.24320300000001
 30
0.0
 10
-1.34102840453105
 20
54.24827596489828
 30
0.0
 10
1.341115738932793
 20
54.24827601912331
 30
0.0
 10
4.023248500000001
 20
54.24320300000001
 30
0.0
  0
SPLINE
  5
153
330
1F
100
AcDbEntity
  8
DEFAULT
100
AcDbSpline
210
0.0
220
0.0
230
1.0
 70
     8
 71
     3
 72
     8
 73
     4
 74
     0
 42
0.0000000001
 43
0.0000000001
 40
0.0
 40
0.0
 40
0.0
 40
0.0
 40
1.0
 40
1.0
 40
1.0
 40
1.0
 10
-4.299900000000001
 20
54.014847
 30
0.0
 10
-4.305533740845434
 20
54.15988100407455
 30
0.0
 10
-4.150947123375858
 20
54.24521231335895
 30
0.0
 10
-4.023161499999997
 20
54.24320300000001
 30
0.0
  0
ARC
  5
154
330
1F
100
AcDbEntity
  8
DEFAULT
100
AcDbCircle
 10
0.0009400308761523
 20
22.17093219369761
 30
0.0
 40
34.97724024576412
100
AcDbArc
 50
80.94303553207021
 51
90.0015398528141
  0
ARC
  5
155
330
1F
100
AcDbEntity
  8
DEFAULT
100
AcDbCircle
 10
-0.0009400308761918
 20
22.17093219369811
 30
0.0
 40
34.97724024576362
100
AcDbArc
 50
89.99846014718584
 51
99.05696446792986
  0
SPLINE
  5
156
330
1F
100
AcDbEntity
  8
DEFAULT
100
AcDbSpline
210
0.0
220
0.0
230
1.0
 70
     8
 71
     3
 72
    14
 73
    10
 74
     0
 42
0.0000000001
 43
0.0000000001
 40
-7.0
 40
-7.0
 40
-7.0
 40
-7.0
 40
-6.0
 40
-5.0
 40
-4.0
 40
-3.0
 40
-2.0
 40
-1.0
 40
0.0
 40
0.0
 40
0.0
 40
0.0
 10
-6.504993254799999
 20
56.04535714779001
 30
0.0
 10
-6.487009108711996
 20
56.10298223770103
 30
0.0
 10
-6.435369406088114
 20
56.21307401041422
 30
0.0
 10
-6.322249195916698
 20
56.35575356667751
 30
0.0
 10
-6.183429542136524
 20
56.47304788977468
 30
0.0
 10
-6.028213296492567
 20
56.56710129228503
 30
0.0
 10
-5.861330635828324
 20
56.63842121639011
 30
0.0
 10
-5.68611135711967
 20
56.68553625106087
 30
0.0
 10
-5.566497056995694
 20
56.70254689809175
 30
0.0
 10
-5.506930034724553
 20
56.71208749121803
 30
0.0
  0
SPLINE
  5
157
330
1F
100
AcDbEntity
  8
DEFAULT
100
AcDbSpline
210
0.0
220
0.0
230
1.0
 70
     8
 71
     3
 72
    14
 73
    10
 74
     0
 42
0.0000000001
 43
0.0000000001
 40
-7.0
 40
-7.0
 40
-7.0
 40
-7.0
 40
-6.0
 40
-5.0
 40
-4.0
 40
-3.0
 40
-2.0
 40
-1.0
 40
0.0
 40
0.0
 40
0.0
 40
0.0
 10
-7.510515731074996
 20
42.43440786746001
 30
0.0
 10
-7.493880849462231
 20
43.08701547992391
 30
0.0
 10
-7.461868797810664
 20
44.39226275761681
 30
0.0
 10
-7.411731014070822
 20
46.35014892135889
 30
0.0
 10
-7.364024455594796
 20
48.30785464990279
 30
0.0
 10
-7.309810228842633
 20
50.26629518778903
 30
0.0
 10
-7.279244274326569
 20
52.22197787428905
 30
0.0
 10
-7.160577861821945
 20
54.18795784771726
 30
0.0
 10
-6.686469254305753
 20
55.42013120049299
 30
0.0
 10
-6.504993254799999
 20
56.04535714779001
 30
0.0
  0
SPLINE
  5
158
330
1F
100
AcDbEntity
  8
DEFAULT
100
AcDbSpline
210
0.0
220
0.0
230
1.0
 70
     8
 71
     3
 72
     9
 73
     5
 74
     0
 42
0.0000000001
 43
0.0000000001
 40
-2.0
 40
-2.0
 40
-2.0
 40
-2.0
 40
-1.0
 40
0.0
 40
0.0
 40
0.0
 40
0.0
 10
-6.509599708989995
 20
41.38404648567
 30
0.0
 10
-6.777926207703766
 20
41.3911785652094
 30
0.0
 10
-7.307450964644678
 20
41.62685798957726
 30
0.0
 10
-7.520000361682202
 20
42.16506704042208
 30
0.0
 10
-7.510515731074996
 20
42.43440786746001
 30
0.0
  0
POLYLINE
  5
159
330
1F
100
AcDbEntity
  8
DEFAULT
100
AcDb2dPolyline
 66
     1
 10
0.0
 20
0.0
 30
0.0
  0
VERTEX
  5
15A
330
159
100
AcDbEntity
  8
DEFAULT
100
AcDbVertex
100
AcDb2dVertex
 10
6.509599708989995
 20
41.38404648567
 30
0.0
  0
VERTEX
  5
15B
330
159
100
AcDbEntity
  8
DEFAULT
100
AcDbVertex
100
AcDb2dVertex
 10
-6.509599708989995
 20
41.38404648567
 30
0.0
  0
SEQEND
  5
15C
330
159
100
AcDbEntity
  8
DEFAULT
  0
SPLINE
  5
15D
330
1F
100
AcDbEntity
  8
DEFAULT
100
AcDbSpline
210
0.0
220
0.0
230
1.0
 70
     8
 71
     3
 72
     9
 73
     5
 74
     0
 42
0.0000000001
 43
0.0000000001
 40
0.0
 40
0.0
 40
0.0
 40
0.0
 40
1.0
 40
2.0
 40
2.0
 40
2.0
 40
2.0
 10
7.510515731074996
 20
42.43440786746001
 30
0.0
 10
7.520000361682202
 20
42.16506704042208
 30
0.0
 10
7.307450964644678
 20
41.62685798957726
 30
0.0
 10
6.777926207703766
 20
41.3911785652094
 30
0.0
 10
6.509599708989995
 20
41.38404648567
 30
0.0
  0
SPLINE
  5
15E
330
1F
100
AcDbEntity
  8
DEFAULT
100
AcDbSpline
210
0.0
220
0.0
230
1.0
 70
     8
 71
     3
 72
    14
 73
    10
 74
     0
 42
0.0000000001
 43
0.0000000001
 40
0.0
 40
0.0
 40
0.0
 40
0.0
 40
1.0
 40
2.0
 40
3.0
 40
4.0
 40
5.0
 40
6.0
 40
7.0
 40
7.0
 40
7.0
 40
7.0
 10
6.504993254799999
 20
56.04535714779001
 30
0.0
 10
6.686469254305753
 20
55.42013120049299
 30
0.0
 10
7.160577861821945
 20
54.18795784771726
 30
0.0
 10
7.279244274326569
 20
52.22197787428905
 30
0.0
 10
7.309810228842633
 20
50.26629518778903
 30
0.0
 10
7.364024455594796
 20
48.30785464990279
 30
0.0
 10
7.411731014070822
 20
46.35014892135889
 30
0.0
 10
7.461868797810664
 20
44.39226275761681
 30
0.0
 10
7.493880849462231
 20
43.08701547992391
 30
0.0
 10
7.510515731074996
 20
42.43440786746001
 30
0.0
  0
SPLINE
  5
15F
330
1F
100
AcDbEntity
  8
DEFAULT
100
AcDbSpline
210
0.0
220
0.0
230
1.0
 70
     8
 71
     3
 72
    14
 73
    10
 74
     0
 42
0.0000000001
 43
0.0000000001
 40
0.0
 40
0.0
 40
0.0
 40
0.0
 40
1.0
 40
2.0
 40
3.0
 40
4.0
 40
5.0
 40
6.0
 40
7.0
 40
7.0
 40
7.0
 40
7.0
 10
5.506930034724553
 20
56.71208749121803
 30
0.0
 10
5.566497056995694
 20
56.70254689809175
 30
0.0
 10
5.68611135711967
 20
56.68553625106087
 30
0.0
 10
5.861330635828324
 20
56.63842121639011
 30
0.0
 10
6.028213296492567
 20
56.56710129228503
 30
0.0
 10
6.183429542136524
 20
56.47304788977468
 30
0.0
 10
6.322249195916698
 20
56.35575356667751
 30
0.0
 10
6.435369406088114
 20
56.21307401041422
 30
0.0
 10
6.487009108711996
 20
56.10298223770103
 30
0.0
 10
6.504993254799999
 20
56.04535714779001
 30
0.0
  0
SPLINE
  5
160
330
1F
100
AcDbEntity
  8
DEFAULT
100
AcDbSpline
210
0.0
220
0.0
230
1.0
 70
     8
 71
     3
 72
    10
 73
     6
 74
     0
 42
0.0000000001
 43
0.0000000001
 40
0.0
 40
0.0
 40
0.0
 40
0.0
 40
1.0
 40
2.0
 40
3.0
 40
3.0
 40
3.0
 40
3.0
 10
6.417189522605
 20
56.67605708907001
 30
0.0
 10
6.522650659049621
 20
56.32717186360851
 30
0.0
 10
6.755821209634023
 20
55.63593637224436
 30
0.0
 10
7.013048560099028
 20
54.57206337347813
 30
0.0
 10
7.138326037228493
 20
53.85353848000567
 30
0.0
 10
7.17948345944
 20
53.49124420672001
 30
0.0
  0
SPLINE
  5
161
330
1F
100
AcDbEntity
  8
DEFAULT
100
AcDbSpline
210
0.0
220
0.0
230
1.0
 70
     8
 71
     3
 72
    10
 73
     6
 74
     0
 42
0.0000000001
 43
0.0000000001
 40
-3.0
 40
-3.0
 40
-3.0
 40
-3.0
 40
-2.000000351301168
 40
-1.000000175650584
 40
0.0
 40
0.0
 40
0.0
 40
0.0
 10
5.549921849689998
 20
57.32130340163
 30
0.0
 10
5.674467075853888
 20
57.301626619831
 30
0.0
 10
5.917567495878239
 20
57.22600442715205
 30
0.0
 10
6.234762358070965
 20
57.01097002802987
 30
0.0
 10
6.379437383797774
 20
56.79694884101232
 30
0.0
 10
6.417189522605
 20
56.67605708907001
 30
0.0
  0
SPLINE
  5
162
330
1F
100
AcDbEntity
  8
DEFAULT
100
AcDbSpline
210
0.0
220
0.0
230
1.0
 70
     8
 71
     3
 72
    10
 73
     6
 74
     0
 42
0.0000000001
 43
0.0000000001
 40
0.0
 40
0.0
 40
0.0
 40
0.0
 40
0.9999689401906351
 40
1.999984525038409
 40
3.0
 40
3.0
 40
3.0
 40
3.0
 10
0.0
 20
57.75474162427001
 30
0.0
 10
0.6191418503953218
 20
57.75467419738146
 30
0.0
 10
1.857458259816333
 20
57.72251608509681
 30
0.0
 10
3.709930215009681
 20
57.57789651308221
 30
0.0
 10
4.938251719035928
 20
57.41738457025432
 30
0.0
 10
5.549921849689998
 20
57.32130340163
 30
0.0
  0
SPLINE
  5
163
330
1F
100
AcDbEntity
  8
DEFAULT
100
AcDbSpline
210
0.0
220
0.0
230
1.0
 70
     8
 71
     3
 72
    10
 73
     6
 74
     0
 42
0.0000000001
 43
0.0000000001
 40
-3.0
 40
-3.0
 40
-3.0
 40
-3.0
 40
-1.999984525038409
 40
-0.9999689401906351
 40
0.0
 40
0.0
 40
0.0
 40
0.0
 10
-5.549921849689998
 20
57.32130340163
 30
0.0
 10
-4.938251719035928
 20
57.41738457025432
 30
0.0
 10
-3.709930215009681
 20
57.57789651308221
 30
0.0
 10
-1.857458259816333
 20
57.72251608509681
 30
0.0
 10
-0.6191418503953218
 20
57.75467419738146
 30
0.0
 10
0.0
 20
57.75474162427001
 30
0.0
  0
SPLINE
  5
164
330
1F
100
AcDbEntity
  8
DEFAULT
100
AcDbSpline
210
0.0
220
0.0
230
1.0
 70
     8
 71
     3
 72
    10
 73
     6
 74
     0
 42
0.0000000001
 43
0.0000000001
 40
0.0
 40
0.0
 40
0.0
 40
0.0
 40
1.000000175650584
 40
2.000000351301168
 40
3.0
 40
3.0
 40
3.0
 40
3.0
 10
-6.417189522605
 20
56.67605708907001
 30
0.0
 10
-6.379437383797774
 20
56.79694884101232
 30
0.0
 10
-6.234762358070965
 20
57.01097002802987
 30
0.0
 10
-5.917567495878239
 20
57.22600442715205
 30
0.0
 10
-5.674467075853888
 20
57.301626619831
 30
0.0
 10
-5.549921849689998
 20
57.32130340163
 30
0.0
  0
SPLINE
  5
165
330
1F
100
AcDbEntity
  8
DEFAULT
100
AcDbSpline
210
0.0
220
0.0
230
1.0
 70
     8
 71
     3
 72
    10
 73
     6
 74
     0
 42
0.0000000001
 43
0.0000000001
 40
-3.0
 40
-3.0
 40
-3.0
 40
-3.0
 40
-2.0
 40
-1.0
 40
0.0
 40
0.0
 40
0.0
 40
0.0
 10
-7.17948345944
 20
53.49124420672001
 30
0.0
 10
-7.138326037228493
 20
53.85353848000567
 30
0.0
 10
-7.013048560099028
 20
54.57206337347813
 30
0.0
 10
-6.755821209634023
 20
55.63593637224436
 30
0.0
 10
-6.522650659049621
 20
56.32717186360851
 30
0.0
 10
-6.417189522605
 20
56.67605708907001
 30
0.0
  0
ENDSEC
  0
SECTION
  2
OBJECTS
  0
DICTIONARY
  5
C
330
0
100
AcDbDictionary
281
     1
  3
ACAD_GROUP
350
D
  3
ACAD_LAYOUT
350
1A
  3
ACAD_MLEADERSTYLE
350
167
  3
ACAD_MLINESTYLE
350
17
  3
ACAD_PLOTSETTINGS
350
19
  3
ACAD_PLOTSTYLENAME
350
E
  3
ACAD_TABLESTYLE
350
166
  3
ACAD_VISUALSTYLE
350
2A
  0
DICTIONARY
  5
D
102
{ACAD_REACTORS
330
C
102
}
330
C
100
AcDbDictionary
281
     1
  0
DICTIONARY
  5
1A
102
{ACAD_REACTORS
330
C
102
}
330
C
100
AcDbDictionary
281
     1
  3
Layout1
350
1E
  3
Layout2
350
26
  3
Model
350
22
  0
DICTIONARY
  5
167
102
{ACAD_REACTORS
330
C
102
}
330
C
100
AcDbDictionary
281
     1
  0
DICTIONARY
  5
17
102
{ACAD_REACTORS
330
C
102
}
330
C
100
AcDbDictionary
281
     1
  3
Standard
350
18
  0
DICTIONARY
  5
19
102
{ACAD_REACTORS
330
C
102
}
330
C
100
AcDbDictionary
281
     1
  0
ACDBDICTIONARYWDFLT
  5
E
102
{ACAD_REACTORS
330
C
102
}
330
C
100
AcDbDictionary
281
     1
  3
Normal
350
F
100
AcDbDictionaryWithDefault
340
F
  0
DICTIONARY
  5
166
102
{ACAD_REACTORS
330
C
102
}
330
C
100
AcDbDictionary
281
     1
  0
DICTIONARY
  5
2A
102
{ACAD_REACTORS
330
C
102
}
330
C
100
AcDbDictionary
281
     1
  3
2dWireframe
350
2F
  3
3D Hidden
350
31
  3
3dWireframe
350
30
  3
Basic
350
32
  3
Brighten
350
36
  3
ColorChange
350
3A
  3
Conceptual
350
34
  3
Dim
350
35
  3
Facepattern
350
39
  3
Flat
350
2B
  3
FlatWithEdges
350
2C
  3
Gouraud
350
2D
  3
GouraudWithEdges
350
2E
  3
Linepattern
350
38
  3
Realistic
350
33
  3
Thicken
350
37
  0
LAYOUT
  5
1E
102
{ACAD_REACTORS
330
1A
102
}
330
1A
100
AcDbPlotSettings
  1

  2
none_device
  4

  6

 40
0.0
 41
0.0
 42
0.0
 43
0.0
 44
0.0
 45
0.0
 46
0.0
 47
0.0
 48
0.0
 49
0.0
140
0.0
141
0.0
142
1.0
143
1.0
 70
   688
 72
     0
 73
     0
 74
     5
  7

 75
    16
 76
     0
 77
     2
 78
   300
147
1.0
148
0.0
149
0.0
100
AcDbLayout
  1
Layout1
 70
     1
 71
     1
 10
0.0
 20
0.0
 11
12.0
 21
9.0
 12
0.0
 22
0.0
 32
0.0
 14
1.000000000000000E+20
 24
1.000000000000000E+20
 34
1.000000000000000E+20
 15
-1.000000000000000E+20
 25
-1.000000000000000E+20
 35
-1.000000000000000E+20
146
0.0
 13
0.0
 23
0.0
 33
0.0
 16
1.0
 26
0.0
 36
0.0
 17
0.0
 27
1.0
 37
0.0
 76
     0
330
1B
  0
LAYOUT
  5
26
102
{ACAD_REACTORS
330
1A
102
}
330
1A
100
AcDbPlotSettings
  1

  2
none_device
  4

  6

 40
0.0
 41
0.0
 42
0.0
 43
0.0
 44
0.0
 45
0.0
 46
0.0
 47
0.0
 48
0.0
 49
0.0
140
0.0
141
0.0
142
1.0
143
1.0
 70
   688
 72
     0
 73
     0
 74
     5
  7

 75
    16
 76
     0
 77
     2
 78
   300
147
1.0
148
0.0
149
0.0
100
AcDbLayout
  1
Layout2
 70
     1
 71
     2
 10
0.0
 20
0.0
 11
0.0
 21
0.0
 12
0.0
 22
0.0
 32
0.0
 14
0.0
 24
0.0
 34
0.0
 15
0.0
 25
0.0
 35
0.0
146
0.0
 13
0.0
 23
0.0
 33
0.0
 16
1.0
 26
0.0
 36
0.0
 17
0.0
 27
1.0
 37
0.0
 76
     0
330
23
  0
LAYOUT
  5
22
102
{ACAD_REACTORS
330
1A
102
}
330
1A
100
AcDbPlotSettings
  1

  2
none_device
  4

  6

 40
0.0
 41
0.0
 42
0.0
 43
0.0
 44
0.0
 45
0.0
 46
0.0
 47
0.0
 48
0.0
 49
0.0
140
0.0
141
0.0
142
1.0
143
1.0
 70
  1712
 72
     0
 73
     0
 74
     0
  7

 75
     0
 76
     0
 77
     2
 78
   300
147
1.0
148
0.0
149
0.0
100
AcDbLayout
  1
Model
 70
     1
 71
     0
 10
0.0
 20
0.0
 11
12.0
 21
9.0
 12
0.0
 22
0.0
 32
0.0
 14
-8.19920900052669
 24
-0.000091746358541
 34
0.0
 15
32.77222749476601
 25
58.39814436486868
 35
0.0
146
0.0
 13
0.0
 23
0.0
 33
0.0
 16
1.0
 26
0.0
 36
0.0
 17
0.0
 27
1.0
 37
0.0
 76
     0
330
1F
331
29
  0
MLINESTYLE
  5
18
102
{ACAD_REACTORS
330
17
102
}
330
17
100
AcDbMlineStyle
  2
Standard
 70
     0
  3

 62
   256
 51
90.0
 52
90.0
 71
     2
 49
0.5
 62
   256
  6
BYLAYER
 49
-0.5
 62
   256
  6
BYLAYER
  0
ACDBPLACEHOLDER
  5
F
102
{ACAD_REACTORS
330
E
102
}
330
E
  0
VISUALSTYLE
  5
2F
102
{ACAD_REACTORS
330
2A
102
}
330
2A
100
AcDbVisualStyle
  2
2dWireframe
 70
     4
 71
     0
 72
     2
 73
     0
 90
        0
 40
-0.6
 41
-30.0
 62
     5
 63
     7
421
 16777215
 74
     1
 91
        4
 64
     7
 65
   257
 75
     1
175
     1
 42
1.0
 92
        0
 66
   257
 43
1.0
 76
     1
 77
     6
 78
     2
 67
     7
 79
     5
170
     0
171
     0
290
     0
174
     0
 93
        1
 44
0.0
173
     0
291
     0
 45
0.0
1001
ACAD
1000
AcDbSavedByObjectVersion
1070
     0
  0
VISUALSTYLE
  5
31
102
{ACAD_REACTORS
330
2A
102
}
330
2A
100
AcDbVisualStyle
  2
3D Hidden
 70
     6
 71
     1
 72
     2
 73
     2
 90
        0
 40
-0.6
 41
-30.0
 62
     5
 63
     7
421
 16777215
 74
     2
 91
        2
 64
     7
 65
   257
 75
     2
175
     1
 42
40.0
 92
        0
 66
   257
 43
1.0
 76
     1
 77
     6
 78
     2
 67
     7
 79
     3
170
     0
171
     0
290
     0
174
     0
 93
        1
 44
0.0
173
     0
291
     0
 45
0.0
1001
ACAD
1000
AcDbSavedByObjectVersion
1070
     0
  0
VISUALSTYLE
  5
30
102
{ACAD_REACTORS
330
2A
102
}
330
2A
100
AcDbVisualStyle
  2
3dWireframe
 70
     5
 71
     0
 72
     2
 73
     0
 90
        0
 40
-0.6
 41
-30.0
 62
     5
 63
     7
421
 16777215
 74
     1
 91
        4
 64
     7
 65
   257
 75
     1
175
     1
 42
1.0
 92
        0
 66
   257
 43
1.0
 76
     1
 77
     6
 78
     2
 67
     7
 79
     5
170
     0
171
     0
290
     0
174
     0
 93
        1
 44
0.0
173
     0
291
     0
 45
0.0
1001
ACAD
1000
AcDbSavedByObjectVersion
1070
     0
  0
VISUALSTYLE
  5
32
102
{ACAD_REACTORS
330
2A
102
}
330
2A
100
AcDbVisualStyle
  2
Basic
 70
     7
 71
     1
 72
     0
 73
     1
 90
        0
 40
-0.6
 41
-30.0
 62
     5
 63
     7
421
 16777215
 74
     0
 91
        4
 64
     7
 65
   257
 75
     1
175
     1
 42
1.0
 92
        8
 66
     7
 43
1.0
 76
     1
 77
     6
 78
     2
 67
     7
 79
     5
170
     0
171
     0
290
     0
174
     0
 93
        1
 44
0.0
173
     0
291
     1
 45
0.0
1001
ACAD
1000
AcDbSavedByObjectVersion
1070
     0
  0
VISUALSTYLE
  5
36
102
{ACAD_REACTORS
330
2A
102
}
330
2A
100
AcDbVisualStyle
  2
Brighten
 70
    12
 71
     2
 72
     2
 73
     0
 90
        0
 40
-0.6
 41
-30.0
 62
     5
 63
     7
421
 16777215
 74
     1
 91
        4
 64
     7
 65
   257
 75
     1
175
     1
 42
1.0
 92
        8
 66
     7
 43
1.0
 76
     1
 77
     6
 78
     2
 67
     7
 79
     5
170
     0
171
     0
290
     0
174
     0
 93
        1
 44
50.0
173
     0
291
     1
 45
0.0
1001
ACAD
1000
AcDbSavedByObjectVersion
1070
     0
  0
VISUALSTYLE
  5
3A
102
{ACAD_REACTORS
330
2A
102
}
330
2A
100
AcDbVisualStyle
  2
ColorChange
 70
    16
 71
     2
 72
     2
 73
     3
 90
        0
 40
-0.6
 41
-30.0
 62
     5
 63
     8
421
  8421504
 74
     1
 91
        4
 64
     7
 65
   257
 75
     1
175
     1
 42
1.0
 92
        8
 66
     8
424
  8421504
 43
1.0
 76
     1
 77
     6
 78
     2
 67
     7
 79
     5
170
     0
171
     0
290
     0
174
     0
 93
        1
 44
0.0
173
     0
291
     1
 45
0.0
1001
ACAD
1000
AcDbSavedByObjectVersion
1070
     0
  0
VISUALSTYLE
  5
34
102
{ACAD_REACTORS
330
2A
102
}
330
2A
100
AcDbVisualStyle
  2
Conceptual
 70
     9
 71
     3
 72
     2
 73
     0
 90
        0
 40
-0.6
 41
-30.0
 62
     5
 63
     7
421
 16777215
 74
     2
 91
        2
 64
     7
 65
   257
 75
     1
175
     1
 42
40.0
 92
        8
 66
     7
 43
1.0
 76
     1
 77
     6
 78
     2
 67
     7
 79
     3
170
     0
171
     0
290
     0
174
     0
 93
        1
 44
0.0
173
     0
291
     0
 45
0.0
1001
ACAD
1000
AcDbSavedByObjectVersion
1070
     0
  0
VISUALSTYLE
  5
35
102
{ACAD_REACTORS
330
2A
102
}
330
2A
100
AcDbVisualStyle
  2
Dim
 70
    11
 71
     2
 72
     2
 73
     0
 90
        0
 40
-0.6
 41
-30.0
 62
     5
 63
     7
421
 16777215
 74
     1
 91
        4
 64
     7
 65
   257
 75
     1
175
     1
 42
1.0
 92
        8
 66
     7
 43
1.0
 76
     1
 77
     6
 78
     2
 67
     7
 79
     5
170
     0
171
     0
290
     0
174
     0
 93
        1
 44
-50.0
173
     0
291
     1
 45
0.0
1001
ACAD
1000
AcDbSavedByObjectVersion
1070
     0
  0
VISUALSTYLE
  5
39
102
{ACAD_REACTORS
330
2A
102
}
330
2A
100
AcDbVisualStyle
  2
Facepattern
 70
    15
 71
     2
 72
     2
 73
     0
 90
        0
 40
-0.6
 41
-30.0
 62
     5
 63
     7
421
 16777215
 74
     1
 91
        4
 64
     7
 65
   257
 75
     1
175
     1
 42
1.0
 92
        8
 66
     7
 43
1.0
 76
     1
 77
     6
 78
     2
 67
     7
 79
     5
170
     0
171
     0
290
     0
174
     0
 93
        1
 44
0.0
173
     0
291
     1
 45
0.0
1001
ACAD
1000
AcDbSavedByObjectVersion
1070
     0
  0
VISUALSTYLE
  5
2B
102
{ACAD_REACTORS
330
2A
102
}
330
2A
100
AcDbVisualStyle
  2
Flat
 70
     0
 71
     2
 72
     1
 73
     1
 90
        2
 40
-0.6
 41
30.0
 62
     5
 63
     7
421
 16777215
 74
     0
 91
        4
 64
     7
 65
   257
 75
     1
175
     1
 42
1.0
 92
        8
 66
     7
 43
1.0
 76
     1
 77
     6
 78
     2
 67
     7
 79
     5
170
     0
171
     0
290
     0
174
     0
 93
       13
 44
0.0
173
     0
291
     1
 45
0.0
1001
ACAD
1000
AcDbSavedByObjectVersion
1070
     0
  0
VISUALSTYLE
  5
2C
102
{ACAD_REACTORS
330
2A
102
}
330
2A
100
AcDbVisualStyle
  2
FlatWithEdges
 70
     1
 71
     2
 72
     1
 73
     1
 90
        2
 40
-0.6
 41
30.0
 62
     5
 63
     7
421
 16777215
 74
     1
 91
        4
 64
     7
 65
   257
 75
     1
175
     1
 42
1.0
 92
        0
 66
   257
 43
1.0
 76
     1
 77
     6
 78
     2
 67
     7
 79
     5
170
     0
171
     0
290
     0
174
     0
 93
       13
 44
0.0
173
     0
291
     1
 45
0.0
1001
ACAD
1000
AcDbSavedByObjectVersion
1070
     0
  0
VISUALSTYLE
  5
2D
102
{ACAD_REACTORS
330
2A
102
}
330
2A
100
AcDbVisualStyle
  2
Gouraud
 70
     2
 71
     2
 72
     2
 73
     1
 90
        2
 40
-0.6
 41
30.0
 62
     5
 63
     7
421
 16777215
 74
     0
 91
        4
 64
     7
 65
   257
 75
     1
175
     1
 42
1.0
 92
        0
 66
     7
 43
1.0
 76
     1
 77
     6
 78
     2
 67
     7
 79
     5
170
     0
171
     0
290
     0
174
     0
 93
       13
 44
0.0
173
     0
291
     1
 45
0.0
1001
ACAD
1000
AcDbSavedByObjectVersion
1070
     0
  0
VISUALSTYLE
  5
2E
102
{ACAD_REACTORS
330
2A
102
}
330
2A
100
AcDbVisualStyle
  2
GouraudWithEdges
 70
     3
 71
     2
 72
     2
 73
     1
 90
        2
 40
-0.6
 41
30.0
 62
     5
 63
     7
421
 16777215
 74
     1
 91
        4
 64
     7
 65
   257
 75
     1
175
     1
 42
1.0
 92
        0
 66
   257
 43
1.0
 76
     1
 77
     6
 78
     2
 67
     7
 79
     5
170
     0
171
     0
290
     0
174
     0
 93
       13
 44
0.0
173
     0
291
     1
 45
0.0
1001
ACAD
1000
AcDbSavedByObjectVersion
1070
     0
  0
VISUALSTYLE
  5
38
102
{ACAD_REACTORS
330
2A
102
}
330
2A
100
AcDbVisualStyle
  2
Linepattern
 70
    14
 71
     2
 72
     2
 73
     0
 90
        0
 40
-0.6
 41
-30.0
 62
     5
 63
     7
421
 16777215
 74
     1
 91
        4
 64
     7
 65
   257
 75
     7
175
     7
 42
1.0
 92
        8
 66
     7
 43
1.0
 76
     1
 77
     6
 78
     2
 67
     7
 79
     5
170
     0
171
     0
290
     0
174
     0
 93
        1
 44
0.0
173
     0
291
     1
 45
0.0
1001
ACAD
1000
AcDbSavedByObjectVersion
1070
     0
  0
VISUALSTYLE
  5
33
102
{ACAD_REACTORS
330
2A
102
}
330
2A
100
AcDbVisualStyle
  2
Realistic
 70
     8
 71
     2
 72
     2
 73
     0
 90
        0
 40
-0.6
 41
-30.0
 62
     5
 63
     7
421
 16777215
 74
     1
 91
        0
 64
     7
 65
   257
 75
     1
175
     1
 42
1.0
 92
        8
 66
     8
424
  7895160
 43
1.0
 76
     1
 77
     6
 78
     2
 67
     7
 79
     5
170
     0
171
     0
290
     0
174
     0
 93
       13
 44
0.0
173
     0
291
     0
 45
0.0
1001
ACAD
1000
AcDbSavedByObjectVersion
1070
     0
  0
VISUALSTYLE
  5
37
102
{ACAD_REACTORS
330
2A
102
}
330
2A
100
AcDbVisualStyle
  2
Thicken
 70
    13
 71
     2
 72
     2
 73
     0
 90
        0
 40
-0.6
 41
-30.0
 62
     5
 63
     7
421
 16777215
 74
     1
 91
        4
 64
     7
 65
   257
 75
     1
175
     1
 42
1.0
 92
       12
 66
     7
 43
1.0
 76
     1
 77
     6
 78
     2
 67
     7
 79
     5
170
     0
171
     0
290
     0
174
     0
 93
        1
 44
0.0
173
     0
291
     1
 45
0.0
1001
ACAD
1000
AcDbSavedByObjectVersion
1070
     0
  0
ENDSEC
  0
EOF
