  0
SECTION
  2
HEADER
  9
$ACADVER
  1
AC1014
  9
$ACADMAINTVER
 70
     9
  9
$DWGCODEPAGE
  3
ANSI_1252
  9
$INSBASE
 10
0.0
 20
0.0
 30
0.0
  9
$EXTMIN
 10
1.000000000000000E+20
 20
1.000000000000000E+20
 30
1.000000000000000E+20
  9
$EXTMAX
 10
-1.000000000000000E+20
 20
-1.000000000000000E+20
 30
-1.000000000000000E+20
  9
$LIMMIN
 10
0.0
 20
0.0
  9
$LIMMAX
 10
12.0
 20
9.0
  9
$ORTHOMODE
 70
     0
  9
$REGENMODE
 70
     1
  9
$FILLMODE
 70
     1
  9
$QTEXTMODE
 70
     0
  9
$MIRRTEXT
 70
     1
  9
$DRAGMODE
 70
     2
  9
$LTSCALE
 40
1.0
  9
$OSMODE
 70
    37
  9
$ATTMODE
 70
     1
  9
$TEXTSIZE
 40
0.2
  9
$TRACEWID
 40
0.05
  9
$TEXTSTYLE
  7
STANDARD
  9
$CLAYER
  8
DEFAULT
  9
$CELTYPE
  6
BYLAYER
  9
$CECOLOR
 62
   256
  9
$CELTSCALE
 40
1.0
  9
$DELOBJ
 70
     1
  9
$DISPSILH
 70
     0
  9
$DIMSCALE
 40
1.0
  9
$DIMASZ
 40
0.18
  9
$DIMEXO
 40
0.0625
  9
$DIMDLI
 40
0.38
  9
$DIMRND
 40
0.0
  9
$DIMDLE
 40
0.0
  9
$DIMEXE
 40
0.18
  9
$DIMTP
 40
0.0
  9
$DIMTM
 40
0.0
  9
$DIMTXT
 40
0.18
  9
$DIMCEN
 40
0.09
  9
$DIMTSZ
 40
0.0
  9
$DIMTOL
 70
     0
  9
$DIMLIM
 70
     0
  9
$DIMTIH
 70
     1
  9
$DIMTOH
 70
     1
  9
$DIMSE1
 70
     0
  9
$DIMSE2
 70
     0
  9
$DIMTAD
 70
     0
  9
$DIMZIN
 70
     0
  9
$DIMBLK
  1

  9
$DIMASO
 70
     1
  9
$DIMSHO
 70
     1
  9
$DIMPOST
  1

  9
$DIMAPOST
  1

  9
$DIMALT
 70
     0
  9
$DIMALTD
 70
     2
  9
$DIMALTF
 40
25.4
  9
$DIMLFAC
 40
1.0
  9
$DIMTOFL
 70
     0
  9
$DIMTVP
 40
0.0
  9
$DIMTIX
 70
     0
  9
$DIMSOXD
 70
     0
  9
$DIMSAH
 70
     0
  9
$DIMBLK1
  1

  9
$DIMBLK2
  1

  9
$DIMSTYLE
  2
STANDARD
  9
$DIMCLRD
 70
     0
  9
$DIMCLRE
 70
     0
  9
$DIMCLRT
 70
     0
  9
$DIMTFAC
 40
1.0
  9
$DIMGAP
 40
0.09
  9
$DIMJUST
 70
     0
  9
$DIMSD1
 70
     0
  9
$DIMSD2
 70
     0
  9
$DIMTOLJ
 70
     1
  9
$DIMTZIN
 70
     0
  9
$DIMALTZ
 70
     0
  9
$DIMALTTZ
 70
     0
  9
$DIMFIT
 70
     3
  9
$DIMUPT
 70
     0
  9
$DIMUNIT
 70
     2
  9
$DIMDEC
 70
     4
  9
$DIMTDEC
 70
     4
  9
$DIMALTU
 70
     2
  9
$DIMALTTD
 70
     2
  9
$DIMTXSTY
  7
STANDARD
  9
$DIMAUNIT
 70
     0
  9
$LUNITS
 70
     2
  9
$LUPREC
 70
     0
  9
$SKETCHINC
 40
0.1
  9
$FILLETRAD
 40
0.5
  9
$AUNITS
 70
     0
  9
$AUPREC
 70
     0
  9
$MENU
  1
.
  9
$ELEVATION
 40
0.0
  9
$PELEVATION
 40
0.0
  9
$THICKNESS
 40
0.0
  9
$LIMCHECK
 70
     0
  9
$CHAMFERA
 40
0.5
  9
$CHAMFERB
 40
0.5
  9
$CHAMFERC
 40
1.0
  9
$CHAMFERD
 40
0.0
  9
$SKPOLY
 70
     0
  9
$TDCREATE
 40
2453762.612013889
  9
$TDUPDATE
 40
2453762.612013901
  9
$TDINDWG
 40
0.0000000116
  9
$TDUSRTIMER
 40
0.0000000116
  9
$USRTIMER
 70
     1
  9
$ANGBASE
 50
0.0
  9
$ANGDIR
 70
     0
  9
$PDMODE
 70
     0
  9
$PDSIZE
 40
0.0
  9
$PLINEWID
 40
0.0
  9
$COORDS
 70
     1
  9
$SPLFRAME
 70
     0
  9
$SPLINETYPE
 70
     6
  9
$SPLINESEGS
 70
     8
  9
$ATTDIA
 70
     0
  9
$ATTREQ
 70
     1
  9
$HANDLING
 70
     1
  9
$HANDSEED
  5
26F
  9
$SURFTAB1
 70
     6
  9
$SURFTAB2
 70
     6
  9
$SURFTYPE
 70
     6
  9
$SURFU
 70
     6
  9
$SURFV
 70
     6
  9
$UCSNAME
  2

  9
$UCSORG
 10
0.0
 20
0.0
 30
0.0
  9
$UCSXDIR
 10
1.0
 20
0.0
 30
0.0
  9
$UCSYDIR
 10
0.0
 20
1.0
 30
0.0
  9
$PUCSNAME
  2

  9
$PUCSORG
 10
0.0
 20
0.0
 30
0.0
  9
$PUCSXDIR
 10
1.0
 20
0.0
 30
0.0
  9
$PUCSYDIR
 10
0.0
 20
1.0
 30
0.0
  9
$USERI1
 70
     0
  9
$USERI2
 70
     0
  9
$USERI3
 70
     0
  9
$USERI4
 70
     0
  9
$USERI5
 70
     0
  9
$USERR1
 40
0.0
  9
$USERR2
 40
0.0
  9
$USERR3
 40
0.0
  9
$USERR4
 40
0.0
  9
$USERR5
 40
0.0
  9
$WORLDVIEW
 70
     1
  9
$SHADEDGE
 70
     3
  9
$SHADEDIF
 70
    70
  9
$TILEMODE
 70
     1
  9
$MAXACTVP
 70
    64
  9
$PINSBASE
 10
0.0
 20
0.0
 30
0.0
  9
$PLIMCHECK
 70
     0
  9
$PEXTMIN
 10
1.000000000000000E+20
 20
1.000000000000000E+20
 30
1.000000000000000E+20
  9
$PEXTMAX
 10
-1.000000000000000E+20
 20
-1.000000000000000E+20
 30
-1.000000000000000E+20
  9
$PLIMMIN
 10
0.0
 20
0.0
  9
$PLIMMAX
 10
12.0
 20
9.0
  9
$UNITMODE
 70
     0
  9
$VISRETAIN
 70
     1
  9
$PLINEGEN
 70
     0
  9
$PSLTSCALE
 70
     1
  9
$TREEDEPTH
 70
  3020
  9
$PICKSTYLE
 70
     1
  9
$CMLSTYLE
  2
STANDARD
  9
$CMLJUST
 70
     0
  9
$CMLSCALE
 40
1.0
  9
$PROXYGRAPHICS
 70
     1
  9
$MEASUREMENT
 70
     0
  0
ENDSEC
  0
SECTION
  2
CLASSES
  0
CLASS
  1
ACDBDICTIONARYWDFLT
  2
AcDbDictionaryWithDefault
  3
ObjectDBX Classes
 90
        0
280
     0
281
     0
  0
CLASS
  1
XRECORD
  2
AcDbXrecord
  3
AutoCAD 2000
 90
        0
280
     0
281
     0
  0
CLASS
  1
LWPOLYLINE
  2
AcDbPolyline
  3
AutoCAD 2000
 90
        0
280
     0
281
     1
  0
CLASS
  1
HATCH
  2
AcDbHatch
  3
AutoCAD 2000
 90
        0
280
     0
281
     1
  0
CLASS
  1
ACDBPLACEHOLDER
  2
AcDbPlaceHolder
  3
ObjectDBX Classes
 90
        0
280
     0
281
     0
  0
CLASS
  1
LAYOUT
  2
AcDbLayout
  3
ObjectDBX Classes
 90
        0
280
     0
281
     0
  0
ENDSEC
  0
SECTION
  2
TABLES
  0
TABLE
  2
VPORT
  5
8
330
0
100
AcDbSymbolTable
 70
     2
  0
VPORT
  5
29
102
{ACAD_XDICTIONARY
360
26D
102
}
330
8
100
AcDbSymbolTableRecord
100
AcDbViewportTableRecord
  2
*ACTIVE
 70
     0
 10
0.0
 20
0.0
 11
1.0
 21
1.0
 12
35.97394255152599
 22
36.23803129817999
 13
0.0
 23
0.0
 14
0.5
 24
0.5
 15
0.5
 25
0.5
 16
0.0
 26
0.0
 36
1.0
 17
0.0
 27
0.0
 37
0.0
 40
72.4651296851394
 41
1.972972972850329
 42
50.0
 43
0.0
 44
0.0
 50
0.0
 51
0.0
 71
     0
 72
   100
 73
     1
 74
     3
 75
     0
 76
     0
 77
     0
 78
     0
  0
ENDTAB
  0
TABLE
  2
LTYPE
  5
5
330
0
100
AcDbSymbolTable
 70
     1
  0
LTYPE
  5
14
330
5
100
AcDbSymbolTableRecord
100
AcDbLinetypeTableRecord
  2
BYBLOCK
 70
     0
  3

 72
    65
 73
     0
 40
0.0
  0
LTYPE
  5
15
330
5
100
AcDbSymbolTableRecord
100
AcDbLinetypeTableRecord
  2
BYLAYER
 70
     0
  3

 72
    65
 73
     0
 40
0.0
  0
LTYPE
  5
16
330
5
100
AcDbSymbolTableRecord
100
AcDbLinetypeTableRecord
  2
CONTINUOUS
 70
     0
  3
Solid line
 72
    65
 73
     0
 40
0.0
  0
ENDTAB
  0
TABLE
  2
LAYER
  5
2
330
0
100
AcDbSymbolTable
 70
     3
  0
LAYER
  5
10
330
2
100
AcDbSymbolTableRecord
100
AcDbLayerTableRecord
  2
0
 70
     0
 62
     7
  6
CONTINUOUS
  0
LAYER
  5
2A
330
2
100
AcDbSymbolTableRecord
100
AcDbLayerTableRecord
  2
IGES_LEVEL_0
 70
     0
 62
   255
  6
CONTINUOUS
  0
LAYER
  5
42
330
2
100
AcDbSymbolTableRecord
100
AcDbLayerTableRecord
  2
DEFAULT
 70
     0
 62
     7
  6
CONTINUOUS
  0
ENDTAB
  0
TABLE
  2
STYLE
  5
3
330
0
100
AcDbSymbolTable
 70
     1
  0
STYLE
  5
11
330
3
100
AcDbSymbolTableRecord
100
AcDbTextStyleTableRecord
  2
STANDARD
 70
     0
 40
0.0
 41
1.0
 50
0.0
 71
     0
 42
0.2
  3
txt
  4

  0
ENDTAB
  0
TABLE
  2
VIEW
  5
6
330
0
100
AcDbSymbolTable
 70
     0
  0
ENDTAB
  0
TABLE
  2
UCS
  5
7
330
0
100
AcDbSymbolTable
 70
     0
  0
ENDTAB
  0
TABLE
  2
APPID
  5
9
330
0
100
AcDbSymbolTable
 70
     1
  0
APPID
  5
12
330
9
100
AcDbSymbolTableRecord
100
AcDbRegAppTableRecord
  2
ACAD
 70
     0
  0
ENDTAB
  0
TABLE
  2
DIMSTYLE
  5
A
330
0
100
AcDbSymbolTable
 70
     1
  0
DIMSTYLE
105
27
330
A
100
AcDbSymbolTableRecord
100
AcDbDimStyleTableRecord
  2
STANDARD
 70
     0
  3

  4

  5

  6

  7

 40
1.0
 41
0.18
 42
0.0625
 43
0.38
 44
0.18
 45
0.0
 46
0.0
 47
0.0
 48
0.0
140
0.18
141
0.09
142
0.0
143
25.4
144
1.0
145
0.0
146
1.0
147
0.09
 71
     0
 72
     0
 73
     1
 74
     1
 75
     0
 76
     0
 77
     0
 78
     0
170
     0
171
     2
172
     0
173
     0
174
     0
175
     0
176
     0
177
     0
178
     0
270
     2
271
     4
272
     4
273
     2
274
     2
340
11
275
     0
280
     0
281
     0
282
     0
283
     1
284
     0
285
     0
286
     0
287
     3
288
     0
  0
ENDTAB
  0
TABLE
  2
BLOCK_RECORD
  5
1
330
0
100
AcDbSymbolTable
 70
     1
  0
BLOCK_RECORD
  5
1F
330
1
100
AcDbSymbolTableRecord
100
AcDbBlockTableRecord
  2
*MODEL_SPACE
  0
BLOCK_RECORD
  5
1B
330
1
100
AcDbSymbolTableRecord
100
AcDbBlockTableRecord
  2
*PAPER_SPACE
  0
ENDTAB
  0
ENDSEC
  0
SECTION
  2
BLOCKS
  0
BLOCK
  5
20
330
1F
100
AcDbEntity
  8
0
100
AcDbBlockBegin
  2
*MODEL_SPACE
 70
     0
 71
     0
 10
0.0
 20
0.0
 30
0.0
  3
*MODEL_SPACE
  1

  0
ENDBLK
  5
21
330
1F
100
AcDbEntity
  8
0
100
AcDbBlockEnd
  0
BLOCK
  5
1C
330
1B
100
AcDbEntity
 67
     1
  8
0
100
AcDbBlockBegin
  2
*PAPER_SPACE
 70
     0
 71
     0
 10
0.0
 20
0.0
 30
0.0
  3
*PAPER_SPACE
  1

  0
ENDBLK
  5
1D
330
1B
100
AcDbEntity
 67
     1
  8
0
100
AcDbBlockEnd
  0
ENDSEC
  0
SECTION
  2
ENTITIES
  0
LINE
  5
2B
330
1F
100
AcDbEntity
  8
IGES_LEVEL_0
 62
     7
100
AcDbLine
 10
28.96495038943651
 20
70.16349023585255
 30
0.0
 11
28.95116626608851
 21
70.08479851351254
 31
0.0
  0
LINE
  5
2C
330
1F
100
AcDbEntity
  8
IGES_LEVEL_0
 62
     7
100
AcDbLine
 10
28.38678402348051
 20
70.84090680968255
 30
0.0
 11
28.4023107095175
 21
70.87515132580255
 31
0.0
  0
ARC
  5
2D
330
1F
100
AcDbEntity
  8
IGES_LEVEL_0
 62
     7
100
AcDbCircle
 10
26.13239046228543
 20
64.95507934570517
 30
0.0
 40
0.9570126733513724
100
AcDbArc
 50
302.8444063375358
 51
320.5031312669727
  0
LINE
  5
2E
330
1F
100
AcDbEntity
  8
IGES_LEVEL_0
 62
     7
100
AcDbLine
 10
26.9304409710215
 20
64.43290154332254
 30
0.0
 11
26.87087823447651
 21
64.34638478578255
 31
0.0
  0
LINE
  5
2F
330
1F
100
AcDbEntity
  8
IGES_LEVEL_0
 62
     7
100
AcDbLine
 10
26.97257203000151
 20
64.51954189587255
 30
0.0
 11
26.9304409710215
 21
64.43290154332254
 31
0.0
  0
LINE
  5
30
330
1F
100
AcDbEntity
  8
IGES_LEVEL_0
 62
     7
100
AcDbLine
 10
26.98023045671551
 20
64.53973283885256
 30
0.0
 11
26.97257203000151
 21
64.51954189587255
 31
0.0
  0
LINE
  5
31
330
1F
100
AcDbEntity
  8
IGES_LEVEL_0
 62
     7
100
AcDbLine
 10
28.41919412120351
 20
70.90104905039254
 30
0.0
 11
28.4296079986415
 21
70.91397906902255
 31
0.0
  0
ARC
  5
32
330
1F
100
AcDbEntity
  8
IGES_LEVEL_0
 62
     7
100
AcDbCircle
 10
28.77905069115875
 20
70.65884528394668
 30
0.0
 40
0.4337735033620414
100
AcDbArc
 50
112.3151061522489
 51
146.0572708768197
  0
LINE
  5
33
330
1F
100
AcDbEntity
  8
IGES_LEVEL_0
 62
     7
100
AcDbLine
 10
28.95902677021751
 20
70.83347631153255
 30
0.0
 11
28.95952196732451
 21
70.83085910887255
 31
0.0
  0
LINE
  5
34
330
1F
100
AcDbEntity
  8
IGES_LEVEL_0
 62
     7
100
AcDbLine
 10
28.9588825234385
 20
70.83422078785256
 30
0.0
 11
28.95902677021751
 21
70.83347631153255
 31
0.0
  0
LINE
  5
35
330
1F
100
AcDbEntity
  8
IGES_LEVEL_0
 62
     7
100
AcDbLine
 10
28.93714245562851
 20
70.90583727191255
 30
0.0
 11
28.9588825234385
 21
70.83422078785256
 31
0.0
  0
LINE
  5
36
330
1F
100
AcDbEntity
  8
IGES_LEVEL_0
 62
     7
100
AcDbLine
 10
28.88810983767151
 20
70.98493438024255
 30
0.0
 11
28.93714245562851
 21
70.90583727191255
 31
0.0
  0
LINE
  5
37
330
1F
100
AcDbEntity
  8
IGES_LEVEL_0
 62
     7
100
AcDbLine
 10
28.96571443038651
 20
70.18206241136255
 30
0.0
 11
28.9656575583375
 21
70.18025541972256
 31
0.0
  0
LINE
  5
38
330
1F
100
AcDbEntity
  8
IGES_LEVEL_0
 62
     7
100
AcDbLine
 10
28.9820088633695
 20
70.61618231688254
 30
0.0
 11
28.96571443038651
 21
70.18206241136255
 31
0.0
  0
LINE
  5
39
330
1F
100
AcDbEntity
  8
IGES_LEVEL_0
 62
     7
100
AcDbLine
 10
28.98133834507651
 20
70.63514815639255
 30
0.0
 11
28.9820088633695
 21
70.61618231688254
 31
0.0
  0
LINE
  5
3A
330
1F
100
AcDbEntity
  8
IGES_LEVEL_0
 62
     7
100
AcDbLine
 10
28.96099733808451
 20
70.82332194490255
 30
0.0
 11
28.98133834507651
 21
70.63514815639255
 31
0.0
  0
LINE
  5
3B
330
1F
100
AcDbEntity
  8
IGES_LEVEL_0
 62
     7
100
AcDbLine
 10
28.96075720154451
 20
70.82456357005255
 30
0.0
 11
28.96099733808451
 21
70.82332194490255
 31
0.0
  0
LINE
  5
3C
330
1F
100
AcDbEntity
  8
IGES_LEVEL_0
 62
     7
100
AcDbLine
 10
28.95951273808351
 20
70.83085757803255
 30
0.0
 11
28.96075720154451
 21
70.82456357005255
 31
0.0
  0
LINE
  5
3D
330
1F
100
AcDbEntity
  8
IGES_LEVEL_0
 62
     7
100
AcDbLine
 10
28.41267899796051
 20
70.89191480690255
 30
0.0
 11
28.41919412120351
 21
70.90104905039254
 31
0.0
  0
LINE
  5
3E
330
1F
100
AcDbEntity
  8
IGES_LEVEL_0
 62
     7
100
AcDbLine
 10
28.38629523280651
 20
70.83987005895256
 30
0.0
 11
26.42005723280651
 21
65.30708705895255
 31
0.0
  0
LINE
  5
3F
330
1F
100
AcDbEntity
  8
IGES_LEVEL_0
 62
     7
100
AcDbLine
 10
28.95165523280651
 20
70.08583505895254
 30
0.0
 11
26.98165023280651
 21
64.54245005895254
 31
0.0
  0
LINE
  5
40
330
1F
100
AcDbEntity
  8
IGES_LEVEL_0
 62
     7
100
AcDbLine
 10
28.9649532328065
 20
70.16349005895255
 30
0.0
 11
28.9649532328065
 21
70.71660805895255
 31
0.0
  0
LINE
  5
41
330
1F
100
AcDbEntity
  8
IGES_LEVEL_0
 62
     7
100
AcDbLine
 10
28.9649532328065
 20
70.16349005895255
 30
0.0
 11
28.9647702328065
 21
70.15426605895254
 31
0.0
  0
ARC
  5
43
330
1F
100
AcDbEntity
  8
DEFAULT
 62
     7
100
AcDbCircle
 10
28.69340378278876
 20
70.81202261577711
 30
0.0
 40
0.260401470999215
100
AcDbArc
 50
41.60718034690616
 51
107.6737344194648
  0
ARC
  5
44
330
1F
100
AcDbEntity
  8
IGES_LEVEL_0
 62
     7
100
AcDbCircle
 10
28.66985222159208
 20
70.70297177179673
 30
0.0
 40
0.2954132144645998
100
AcDbArc
 50
2.645609140507756
 51
68.77780880293619
  0
LINE
  5
45
330
1F
100
AcDbEntity
  8
IGES_LEVEL_0
 62
     7
100
AcDbLine
 10
28.4296079986415
 20
70.91397906902255
 30
0.0
 11
28.48392926843251
 21
70.96086136404256
 31
0.0
  0
LINE
  5
46
330
1F
100
AcDbEntity
  8
IGES_LEVEL_0
 62
     7
100
AcDbLine
 10
28.48529891336951
 20
70.96173325272255
 30
0.0
 11
28.60160674654451
 21
71.00311203097255
 31
0.0
  0
ARC
  5
47
330
1F
100
AcDbEntity
  8
DEFAULT
 62
     7
100
AcDbCircle
 10
28.64350524202877
 20
70.66746581010084
 30
0.0
 40
0.3382511929163074
100
AcDbArc
 50
66.79428678065024
 51
97.11538835681648
  0
ARC
  5
48
330
1F
100
AcDbEntity
  8
DEFAULT
 62
     7
100
AcDbCircle
 10
0.3442703575852273
 20
70.66746581010081
 30
0.0
 40
0.338251192916334
100
AcDbArc
 50
82.88461164318439
 51
113.2057132193481
  0
LINE
  5
49
330
1F
100
AcDbEntity
  8
IGES_LEVEL_0
 62
     7
100
AcDbLine
 10
0.5024766862444909
 20
70.96173325272255
 30
0.0
 11
0.3861688530694909
 21
71.00311203097255
 31
0.0
  0
LINE
  5
4A
330
1F
100
AcDbEntity
  8
IGES_LEVEL_0
 62
     7
100
AcDbLine
 10
0.5581676009724912
 20
70.91397906902255
 30
0.0
 11
0.5038463311814911
 21
70.96086136404256
 31
0.0
  0
ARC
  5
4B
330
1F
100
AcDbEntity
  8
IGES_LEVEL_0
 62
     7
100
AcDbCircle
 10
0.3179233780219104
 20
70.70297177179673
 30
0.0
 40
0.2954132144645967
100
AcDbArc
 50
111.2221911970623
 51
177.3543908594922
  0
ARC
  5
4C
330
1F
100
AcDbEntity
  8
DEFAULT
 62
     7
100
AcDbCircle
 10
0.2943718168252401
 20
70.8120226157771
 30
0.0
 40
0.2604014709992264
100
AcDbArc
 50
72.3262655805361
 51
138.3928196530919
  0
LINE
  5
4D
330
1F
100
AcDbEntity
  8
IGES_LEVEL_0
 62
     7
100
AcDbLine
 10
28.08121412443242
 20
43.13801855865255
 30
0.0
 11
28.05043045290042
 21
43.15940816982255
 31
0.0
  0
ARC
  5
4E
330
1F
100
AcDbEntity
  8
IGES_LEVEL_0
 62
     7
100
AcDbCircle
 10
27.89711047801615
 20
42.90682828871174
 30
0.0
 40
0.2955386498227767
100
AcDbArc
 50
25.55824118651331
 51
51.46865361123881
  0
LINE
  5
4F
330
1F
100
AcDbEntity
  8
IGES_LEVEL_0
 62
     7
100
AcDbLine
 10
28.17946946413242
 20
42.19250711683255
 30
0.0
 11
28.19311598939742
 21
42.28206880883255
 31
0.0
  0
LINE
  5
50
330
1F
100
AcDbEntity
  8
IGES_LEVEL_0
 62
     7
100
AcDbLine
 10
28.16222962600342
 20
42.14898743166255
 30
0.0
 11
28.17946946413242
 21
42.19250711683255
 31
0.0
  0
LINE
  5
51
330
1F
100
AcDbEntity
  8
IGES_LEVEL_0
 62
     7
100
AcDbLine
 10
27.74008361584743
 20
42.02270669252255
 30
0.0
 11
27.79309183426642
 21
41.99746312513255
 31
0.0
  0
ARC
  5
52
330
1F
100
AcDbEntity
  8
IGES_LEVEL_0
 62
     7
100
AcDbCircle
 10
27.89627688672946
 20
42.26878221663046
 30
0.0
 40
0.2903177766509237
100
AcDbArc
 50
249.1837462819236
 51
328.0014881723654
  0
LINE
  5
53
330
1F
100
AcDbEntity
  8
IGES_LEVEL_0
 62
     7
100
AcDbLine
 10
28.16377255974143
 20
43.03435255098255
 30
0.0
 11
28.19297441429642
 21
42.90539058317255
 31
0.0
  0
LINE
  5
54
330
1F
100
AcDbEntity
  8
IGES_LEVEL_0
 62
     7
100
AcDbLine
 10
28.16314847094342
 20
43.03564847046255
 30
0.0
 11
28.16377255974143
 21
43.03435255098255
 31
0.0
  0
LINE
  5
55
330
1F
100
AcDbEntity
  8
IGES_LEVEL_0
 62
     7
100
AcDbLine
 10
28.16049974909042
 20
43.04097748361255
 30
0.0
 11
28.16314847094342
 21
43.03564847046255
 31
0.0
  0
LINE
  5
56
330
1F
100
AcDbEntity
  8
IGES_LEVEL_0
 62
     7
100
AcDbLine
 10
27.04320452909242
 20
42.44328105895255
 30
0.0
 11
27.74040852909242
 21
42.02246905895255
 31
0.0
  0
LINE
  5
57
330
1F
100
AcDbEntity
  8
IGES_LEVEL_0
 62
     7
100
AcDbLine
 10
27.04320452909242
 20
43.76738105895255
 30
0.0
 11
28.05010552909242
 21
43.15964505895255
 31
0.0
  0
LINE
  5
58
330
1F
100
AcDbEntity
  8
IGES_LEVEL_0
 62
     7
100
AcDbLine
 10
28.19311552909242
 20
42.28206905895254
 30
0.0
 11
28.19292352909242
 21
42.90546605895255
 31
0.0
  0
LINE
  5
59
330
1F
100
AcDbEntity
  8
DEFAULT
 62
     7
100
AcDbLine
 10
28.16222962600342
 20
42.14898743166255
 30
0.0
 11
28.14248432030943
 21
42.11494362885254
 31
0.0
  0
LINE
  5
5A
330
1F
100
AcDbEntity
  8
DEFAULT
 62
     7
100
AcDbLine
 10
0.8258632698964916
 20
42.14898743166255
 30
0.0
 11
0.8456085755904901
 21
42.11494362885254
 31
0.0
  0
LINE
  5
5B
330
1F
100
AcDbEntity
  8
IGES_LEVEL_0
 62
     7
100
AcDbLine
 10
42.79851136680749
 20
0.9036540589525454
 30
0.0
 11
48.80050643052749
 21
12.31157810649955
 31
0.0
  0
LINE
  5
5C
330
1F
100
AcDbEntity
  8
IGES_LEVEL_0
 62
     7
100
AcDbLine
 10
48.83008125453749
 20
12.36776044267355
 30
0.0
 11
48.80050643052749
 21
12.31157810649955
 31
0.0
  0
LINE
  5
5D
330
1F
100
AcDbEntity
  8
DEFAULT
 62
     7
100
AcDbLine
 10
20.50080028858749
 20
11.22866915318955
 30
0.0
 11
21.01669927004749
 21
11.26913656882855
 31
0.0
  0
LINE
  5
5E
330
1F
100
AcDbEntity
  8
IGES_LEVEL_0
 62
     7
100
AcDbLine
 10
0.6147711219815975
 20
0.4087070655725479
 30
0.0
 11
0.6173996545115941
 21
0.4173175373625478
 31
0.0
  0
ARC
  5
5F
330
1F
100
AcDbEntity
  8
IGES_LEVEL_0
 62
     7
100
AcDbCircle
 10
0.4945928582387296
 20
0.4718979345597191
 30
0.0
 40
0.1357788680156236
100
AcDbArc
 50
275.4067751895955
 51
332.2641813394339
  0
SPLINE
  5
60
330
1F
100
AcDbEntity
  8
IGES_LEVEL_0
 62
     7
100
AcDbSpline
210
0.0
220
0.0
230
1.0
 70
     8
 71
     3
 72
    12
 73
     8
 74
     0
 42
0.0000000001
 43
0.0000000001
 40
0.0
 40
0.0
 40
0.0
 40
0.0
 40
0.1289640213208
 40
0.3138361885899
 40
0.5432799498277
 40
0.7843734275374
 40
1.0
 40
1.0
 40
1.0
 40
1.0
 10
0.0268738215015958
 20
0.5162989571425473
 30
0.0
 10
0.0268738069515919
 20
0.4925619638425455
 30
0.0
 10
0.059124636011596
 20
0.4376435977225465
 30
0.0
 10
0.1437117938915904
 20
0.3833034522725444
 30
0.0
 10
0.2579877780515929
 20
0.3416532986025461
 30
0.0
 10
0.3839542895315944
 20
0.3227354003125472
 30
0.0
 10
0.4680875289515925
 20
0.3284323663425449
 30
0.0
 10
0.5073867629115938
 20
0.3367231698925454
 30
0.0
  0
ARC
  5
61
330
1F
100
AcDbEntity
  8
IGES_LEVEL_0
 62
     7
100
AcDbCircle
 10
0.074369440939558
 20
0.7841038730498637
 30
0.0
 40
1.329368649286146
100
AcDbArc
 50
333.9646538139274
 51
351.1465983291038
  0
LINE
  5
62
330
1F
100
AcDbEntity
  8
IGES_LEVEL_0
 62
     7
100
AcDbLine
 10
0.7926777045215943
 20
0.6055394718025456
 30
0.0
 11
0.7990674692915931
 21
0.7140789426225477
 31
0.0
  0
ARC
  5
63
330
1F
100
AcDbEntity
  8
IGES_LEVEL_0
 62
     7
100
AcDbCircle
 10
1.994157526792841
 20
0.5178865375970922
 30
0.0
 40
1.204672901745437
100
AcDbArc
 50
175.8274274381931
 51
192.5330662438994
  0
LINE
  5
64
330
1F
100
AcDbEntity
  8
IGES_LEVEL_0
 62
     7
100
AcDbLine
 10
1.268838760511592
 20
0.2006109650225464
 30
0.0
 11
1.262080678071591
 21
0.1942476370925465
 31
0.0
  0
LINE
  5
65
330
1F
100
AcDbEntity
  8
IGES_LEVEL_0
 62
     7
100
AcDbLine
 10
0.8223938162015898
 20
0.2490947877025444
 30
0.0
 11
0.8181904911715989
 21
0.2564718232325464
 31
0.0
  0
LINE
  5
66
330
1F
100
AcDbEntity
  8
IGES_LEVEL_0
 62
     7
100
AcDbLine
 10
0.1392498910715929
 20
0.3902921906325448
 30
0.0
 11
0.1377812852115952
 21
0.3910584822725464
 31
0.0
  0
LINE
  5
67
330
1F
100
AcDbEntity
  8
IGES_LEVEL_0
 62
     7
100
AcDbLine
 10
0.2581452714215899
 20
0.3461344727925474
 30
0.0
 11
0.2555045293515903
 21
0.3468061443925466
 31
0.0
  0
LINE
  5
68
330
1F
100
AcDbEntity
  8
IGES_LEVEL_0
 62
     7
100
AcDbLine
 10
0.3901801511415997
 20
0.3270827986725474
 30
0.0
 11
0.3875431038015975
 21
0.3271844558925475
 31
0.0
  0
LINE
  5
69
330
1F
100
AcDbEntity
  8
IGES_LEVEL_0
 62
     7
100
AcDbLine
 10
0.5079125348715934
 20
0.3368549061825464
 30
0.0
 11
0.5064401111515977
 21
0.3365178943025472
 31
0.0
  0
LINE
  5
6A
330
1F
100
AcDbEntity
  8
IGES_LEVEL_0
 62
     7
100
AcDbLine
 10
0.1096085781415965
 20
0.1571075220425459
 30
0.0
 11
0.0876440682115955
 21
0.1578919853825464
 31
0.0
  0
ARC
  5
6B
330
1F
100
AcDbEntity
  8
IGES_LEVEL_0
 62
     7
100
AcDbCircle
 10
0.2100923243885201
 20
-0.2737416903049667
 30
0.0
 40
0.4424116036456188
100
AcDbArc
 50
60.44656639163385
 51
103.1280017577921
  0
LINE
  5
6C
330
1F
100
AcDbEntity
  8
IGES_LEVEL_0
 62
     7
100
AcDbLine
 10
0.0264988390615954
 20
0.7924468467425444
 30
0.0
 11
0.0265557215315937
 21
0.7948083655525461
 31
0.0
  0
LINE
  5
6D
330
1F
100
AcDbEntity
  8
IGES_LEVEL_0
 62
     7
100
AcDbLine
 10
0.0163954558615913
 20
0.6204110364325447
 30
0.0
 11
0.0264988390615954
 21
0.7924468467425444
 31
0.0
  0
LINE
  5
6E
330
1F
100
AcDbEntity
  8
IGES_LEVEL_0
 62
     7
100
AcDbLine
 10
0.0090815397715929
 20
0.4202208540425455
 30
0.0
 11
0.0163954558615913
 21
0.6204110364325447
 31
0.0
  0
LINE
  5
6F
330
1F
100
AcDbEntity
  8
IGES_LEVEL_0
 62
     7
100
AcDbLine
 10
0.0332603135215948
 20
0.211404426272546
 30
0.0
 11
0.0090815397715929
 21
0.4202208540425455
 31
0.0
  0
ARC
  5
70
330
1F
100
AcDbEntity
  8
IGES_LEVEL_0
 62
     7
100
AcDbCircle
 10
-0.6060032078253295
 20
0.837438423187266
 30
0.0
 40
1.294364361829347
100
AcDbArc
 50
326.4660541722706
 51
340.5579890587349
  0
LINE
  5
71
330
1F
100
AcDbEntity
  8
IGES_LEVEL_0
 62
     7
100
AcDbLine
 10
0.4613756210615989
 20
0.1090399542425455
 30
0.0
 11
0.4446928628515963
 21
0.1056047130025472
 31
0.0
  0
LINE
  5
72
330
1F
100
AcDbEntity
  8
IGES_LEVEL_0
 62
     7
100
AcDbLine
 10
0.4656138077815939
 20
0.1127775686825475
 30
0.0
 11
0.4613756210615989
 21
0.1090399542425455
 31
0.0
  0
LINE
  5
73
330
1F
100
AcDbEntity
  8
IGES_LEVEL_0
 62
     7
100
AcDbLine
 10
0.0826882814315937
 20
0.1586620382125456
 30
0.0
 11
0.0623685805115954
 21
0.1659978024225469
 31
0.0
  0
LINE
  5
74
330
1F
100
AcDbEntity
  8
IGES_LEVEL_0
 62
     7
100
AcDbLine
 10
0.0852102049715953
 20
0.1582302335825449
 30
0.0
 11
0.0826882814315937
 21
0.1586620382125456
 31
0.0
  0
LINE
  5
75
330
1F
100
AcDbEntity
  8
IGES_LEVEL_0
 62
     7
100
AcDbLine
 10
0.0356648606115968
 20
0.2033221355925451
 30
0.0
 11
0.0333042109915951
 21
0.2112182409125455
 31
0.0
  0
LINE
  5
76
330
1F
100
AcDbEntity
  8
IGES_LEVEL_0
 62
     7
100
AcDbLine
 10
0.0383744352715993
 20
0.1960864967925477
 30
0.0
 11
0.0356648606115968
 21
0.2033221355925451
 31
0.0
  0
LINE
  5
77
330
1F
100
AcDbEntity
  8
IGES_LEVEL_0
 62
     7
100
AcDbLine
 10
0.0384883217815926
 20
0.1958154000425462
 30
0.0
 11
0.0383744352715993
 21
0.1960864967925477
 31
0.0
  0
LINE
  5
78
330
1F
100
AcDbEntity
  8
IGES_LEVEL_0
 62
     7
100
AcDbLine
 10
0.0388376652515987
 20
0.194998317612546
 30
0.0
 11
0.0384883217815926
 21
0.1958154000425462
 31
0.0
  0
LINE
  5
79
330
1F
100
AcDbEntity
  8
IGES_LEVEL_0
 62
     7
100
AcDbLine
 10
0.0518767069415915
 20
0.1746647409425445
 30
0.0
 11
0.0388376652515987
 21
0.194998317612546
 31
0.0
  0
LINE
  5
7A
330
1F
100
AcDbEntity
  8
IGES_LEVEL_0
 62
     7
100
AcDbLine
 10
0.0572516078215912
 20
0.1696631402825463
 30
0.0
 11
0.0518767069415915
 21
0.1746647409425445
 31
0.0
  0
LINE
  5
7B
330
1F
100
AcDbEntity
  8
IGES_LEVEL_0
 62
     7
100
AcDbLine
 10
0.0622024497715969
 20
0.1661015047425475
 30
0.0
 11
0.0572516078215912
 21
0.1696631402825463
 31
0.0
  0
LINE
  5
7C
330
1F
100
AcDbEntity
  8
IGES_LEVEL_0
 62
     7
100
AcDbLine
 10
0.6151816618115973
 20
0.408304390912546
 30
0.0
 11
0.6145549328715916
 21
0.4066058516325465
 31
0.0
  0
ARC
  5
7D
330
1F
100
AcDbEntity
  8
IGES_LEVEL_0
 62
     7
100
AcDbCircle
 10
1.062911047111143
 20
0.2829151758270047
 30
0.0
 40
0.2441321690244553
100
AcDbArc
 50
189.583042317109
 51
260.0588733229933
  0
ARC
  5
7E
330
1F
100
AcDbEntity
  8
IGES_LEVEL_0
 62
     7
100
AcDbCircle
 10
1.038027222559255
 20
0.2859113233790525
 30
0.0
 40
0.2440740531206047
100
AcDbArc
 50
265.9443501299536
 51
336.3112220343442
  0
LINE
  5
7F
330
1F
100
AcDbEntity
  8
IGES_LEVEL_0
 62
     7
100
AcDbLine
 10
1.217100950961594
 20
0.3623044817425462
 30
0.0
 11
1.249548327621596
 21
0.2774051060125461
 31
0.0
  0
SPLINE
  5
80
330
1F
100
AcDbEntity
  8
IGES_LEVEL_0
 62
     7
100
AcDbSpline
210
0.0
220
0.0
230
1.0
 70
     8
 71
     3
 72
    26
 73
    22
 74
     0
 42
0.0000000001
 43
0.0000000001
 40
0.0
 40
0.0
 40
0.0
 40
0.0
 40
0.04566946008536
 40
0.09689995320591
 40
0.1496395130763
 40
0.2033114912968
 40
0.2576691825462
 40
0.3127055719073
 40
0.3686130733281
 40
0.425223936449
 40
0.4817331233102
 40
0.5369855596677
 40
0.5912004224055
 40
0.6455028935558
 40
0.7010083719512
 40
0.7579124423864
 40
0.815015718498
 40
0.8714714449945
 40
0.9270879522887
 40
0.9820482856001001
 40
1.0
 40
1.0
 40
1.0
 40
1.0
 10
0.849568675771593
 20
0.3263034073025447
 30
0.0
 10
0.8526035939015983
 20
0.3330311983625459
 30
0.0
 10
0.8598242848615953
 20
0.346959115212547
 30
0.0
 10
0.8726749745115896
 20
0.3674697734025453
 30
0.0
 10
0.8878288180915988
 20
0.3879776856425447
 30
0.0
 10
0.9047210509715953
 20
0.4077463823325455
 30
0.0
 10
0.9233356283315928
 20
0.4264402795425449
 30
0.0
 10
0.9437826947415928
 20
0.4436895269625455
 30
0.0
 10
0.9661634587215957
 20
0.4590269313225458
 30
0.0
 10
0.9904919873115929
 20
0.4716313666525468
 30
0.0
 10
1.016351140821591
 20
0.4804660426325443
 30
0.0
 10
1.042971259641597
 20
0.4847581224525451
 30
0.0
 10
1.069588451361589
 20
0.4840975124625454
 30
0.0
 10
1.095629907021596
 20
0.4783612533925473
 30
0.0
 10
1.120567464121599
 20
0.4678013151525472
 30
0.0
 10
1.143753704701595
 20
0.4529981611525445
 30
0.0
 10
1.164619533641591
 20
0.4348869368525444
 30
0.0
 10
1.182997890411592
 20
0.4145755106025478
 30
0.0
 10
1.1990937925816
 20
0.3928615466025444
 30
0.0
 10
1.210027893601598
 20
0.375176623202547
 30
0.0
 10
1.2157277270016
 20
0.3648605817225475
 30
0.0
 10
1.217100950961594
 20
0.3623044817425462
 30
0.0
  0
LINE
  5
81
330
1F
100
AcDbEntity
  8
IGES_LEVEL_0
 62
     7
100
AcDbLine
 10
1.262075284071592
 20
0.1942593247725472
 30
0.0
 11
1.26153639394159
 21
0.1878518217225444
 31
0.0
  0
LINE
  5
82
330
1F
100
AcDbEntity
  8
IGES_LEVEL_0
 62
     7
100
AcDbLine
 10
1.250548411511595
 20
0.2721657749625467
 30
0.0
 11
1.262075284071592
 21
0.1942593247725472
 31
0.0
  0
LINE
  5
83
330
1F
100
AcDbEntity
  8
IGES_LEVEL_0
 62
     7
100
AcDbLine
 10
1.249928309981591
 20
0.2754331650125453
 30
0.0
 11
1.250548411511595
 21
0.2721657749625467
 31
0.0
  0
LINE
  5
84
330
1F
100
AcDbEntity
  8
IGES_LEVEL_0
 62
     7
100
AcDbLine
 10
0.8224059880015986
 20
0.2491014403025477
 30
0.0
 11
0.8488107615815963
 21
0.3245156418525478
 31
0.0
  0
LINE
  5
85
330
1F
100
AcDbEntity
  8
IGES_LEVEL_0
 62
     7
100
AcDbLine
 10
0.8221928257715945
 20
0.2423317445925458
 30
0.0
 11
0.8224059880015986
 21
0.2491014403025477
 31
0.0
  0
ARC
  5
86
330
1F
100
AcDbEntity
  8
IGES_LEVEL_0
 62
     7
100
AcDbCircle
 10
0.2636152841569756
 20
0.236586799797276
 30
0.0
 40
0.2296484182824907
100
AcDbArc
 50
190.230215694367
 51
261.7758786068198
  0
ARC
  5
87
330
1F
100
AcDbEntity
  8
IGES_LEVEL_0
 62
     7
100
AcDbCircle
 10
0.2686683169391547
 20
0.2395826589509688
 30
0.0
 40
0.2332725394424251
100
AcDbArc
 50
262.547472570019
 51
324.1252292489127
  0
LINE
  5
88
330
1F
100
AcDbEntity
  8
IGES_LEVEL_0
 62
     7
100
AcDbLine
 10
0.0376050231715936
 20
0.1957963051925463
 30
0.0
 11
0.0356018110615963
 21
0.2033087931725478
 31
0.0
  0
LINE
  5
89
330
1F
100
AcDbEntity
  8
IGES_LEVEL_0
 62
     7
100
AcDbLine
 10
0.0376642653815935
 20
0.1955999033525461
 30
0.0
 11
0.0376050231715936
 21
0.1957963051925463
 31
0.0
  0
LINE
  5
8A
330
1F
100
AcDbEntity
  8
IGES_LEVEL_0
 62
     7
100
AcDbLine
 10
0.0376902113015944
 20
0.1955142736825461
 30
0.0
 11
0.0376642653815935
 21
0.1955999033525461
 31
0.0
  0
LINE
  5
8B
330
1F
100
AcDbEntity
  8
IGES_LEVEL_0
 62
     7
100
AcDbLine
 10
0.4437842743015992
 20
0.1057754717125458
 30
0.0
 11
0.444690731611594
 21
0.1055966198625472
 31
0.0
  0
LINE
  5
8C
330
1F
100
AcDbEntity
  8
IGES_LEVEL_0
 62
     7
100
AcDbLine
 10
0.4407894360915989
 20
0.1065115864325445
 30
0.0
 11
0.4437842743015992
 21
0.1057754717125458
 31
0.0
  0
LINE
  5
8D
330
1F
100
AcDbEntity
  8
IGES_LEVEL_0
 62
     7
100
AcDbLine
 10
0.4607611162015957
 20
0.1085337794225455
 30
0.0
 11
0.4608309572015941
 21
0.1087196340425453
 31
0.0
  0
LINE
  5
8E
330
1F
100
AcDbEntity
  8
IGES_LEVEL_0
 62
     7
100
AcDbLine
 10
0.4597528467015977
 20
0.1061639060025445
 30
0.0
 11
0.4607611162015957
 21
0.1085337794225455
 31
0.0
  0
LINE
  5
8F
330
1F
100
AcDbEntity
  8
IGES_LEVEL_0
 62
     7
100
AcDbLine
 10
0.4586784841515978
 20
0.1042353981025474
 30
0.0
 11
0.4597528467015977
 21
0.1061639060025445
 31
0.0
  0
LINE
  5
90
330
1F
100
AcDbEntity
  8
IGES_LEVEL_0
 62
     7
100
AcDbLine
 10
0.4577168137815946
 20
0.1029152138325475
 30
0.0
 11
0.4586784841515978
 21
0.1042353981025474
 31
0.0
  0
LINE
  5
91
330
1F
100
AcDbEntity
  8
IGES_LEVEL_0
 62
     7
100
AcDbLine
 10
0.0622021041915914
 20
0.166101058952547
 30
0.0
 11
0.0623691041915961
 21
0.1659970589525467
 31
0.0
  0
LINE
  5
92
330
1F
100
AcDbEntity
  8
IGES_LEVEL_0
 62
     7
100
AcDbLine
 10
0.8221851041915969
 20
0.2422730589525467
 30
0.0
 11
0.8221701041915921
 21
0.2423250589525469
 31
0.0
  0
LINE
  5
93
330
1F
100
AcDbEntity
  8
IGES_LEVEL_0
 62
     7
100
AcDbLine
 10
0.8181901041915936
 20
0.2564720589525446
 30
0.0
 11
0.818191104191591
 21
0.256469058952545
 31
0.0
  0
LINE
  5
94
330
1F
100
AcDbEntity
  8
IGES_LEVEL_0
 62
     7
100
AcDbLine
 10
0.0333091041915949
 20
0.2112200589525467
 30
0.0
 11
0.0332611041915953
 21
0.2114050589525451
 31
0.0
  0
LINE
  5
95
330
1F
100
AcDbEntity
  8
IGES_LEVEL_0
 62
     7
100
AcDbLine
 10
0.0268741041915987
 20
0.5162990589525459
 30
0.0
 11
0.0268741041915987
 21
0.8073080589525449
 31
0.0
  0
LINE
  5
96
330
1F
100
AcDbEntity
  8
IGES_LEVEL_0
 62
     7
100
AcDbLine
 10
0.7990421041915923
 20
0.7228160589525475
 30
0.0
 11
2.067498104191593
 21
11.02514305895255
 31
0.0
  0
LINE
  5
97
330
1F
100
AcDbEntity
  8
IGES_LEVEL_0
 62
     7
100
AcDbLine
 10
1.394556104191594
 20
0.649687058952546
 30
0.0
 11
2.663014104191596
 21
10.95202305895255
 31
0.0
  0
LINE
  5
98
330
1F
100
AcDbEntity
  8
IGES_LEVEL_0
 62
     7
100
AcDbLine
 10
1.996892104191595
 20
11.34356605895255
 30
0.0
 11
0.0268741041915987
 21
0.807308058952545
 31
0.0
  0
LINE
  5
99
330
1F
100
AcDbEntity
  8
IGES_LEVEL_0
 62
     7
100
AcDbLine
 10
1.038679104191594
 20
2.669137058952545
 30
0.0
 11
0.6177391041915925
 21
0.4178190589525475
 31
0.0
  0
LINE
  5
9A
330
1F
100
AcDbEntity
  8
IGES_LEVEL_0
 62
     7
100
AcDbLine
 10
0.7991041041915921
 20
0.7228210589525456
 30
0.0
 11
0.7990301041915942
 21
0.7226230589525445
 31
0.0
  0
LINE
  5
9B
330
1F
100
AcDbEntity
  8
IGES_LEVEL_0
 62
     7
100
AcDbLine
 10
1.261537104191596
 20
0.1878510589525479
 30
0.0
 11
1.261536104191599
 21
0.1878500589525468
 31
0.0
  0
LINE
  5
9C
330
1F
100
AcDbEntity
  8
IGES_LEVEL_0
 62
     7
100
AcDbLine
 10
0.4729341041915944
 20
0.1224060589525474
 30
0.0
 11
0.4660881041915914
 21
0.1133580589525475
 31
0.0
  0
LINE
  5
9D
330
1F
100
AcDbEntity
  8
IGES_LEVEL_0
 62
     7
100
AcDbLine
 10
0.4660731041915938
 20
0.1133370589525472
 30
0.0
 11
0.4656141041915944
 21
0.1127770589525471
 31
0.0
  0
LINE
  5
9E
330
1F
100
AcDbEntity
  8
IGES_LEVEL_0
 62
     7
100
AcDbLine
 10
0.4576891041915943
 20
0.1028820589525469
 30
0.0
 11
0.4577171041915946
 21
0.1029150589525453
 31
0.0
  0
LINE
  5
9F
330
1F
100
AcDbEntity
  8
IGES_LEVEL_0
 62
     7
100
AcDbLine
 10
0.2307651041915975
 20
0.0093000589525455
 30
0.0
 11
0.2307621041915908
 21
0.0093010589525465
 31
0.0
  0
LINE
  5
A0
330
1F
100
AcDbEntity
  8
IGES_LEVEL_0
 62
     7
100
AcDbLine
 10
1.249558123051592
 20
0.2773563922425469
 30
0.0
 11
1.249928309981591
 21
0.2754331650125453
 31
0.0
  0
LINE
  5
A1
330
1F
100
AcDbEntity
  8
IGES_LEVEL_0
 62
     7
100
AcDbLine
 10
1.2495581041916
 20
0.2773560589525469
 30
0.0
 11
1.249548104191597
 21
0.2774050589525475
 31
0.0
  0
LINE
  5
A2
330
1F
100
AcDbEntity
  8
DEFAULT
 62
     7
100
AcDbLine
 10
1.394556104191594
 20
0.649687058952546
 30
0.0
 11
0.7991041041915921
 21
0.7228210589525456
 31
0.0
  0
LINE
  5
A3
330
1F
100
AcDbEntity
  8
IGES_LEVEL_0
 62
     7
100
AcDbLine
 10
0.8488107615815963
 20
0.3245156418525478
 30
0.0
 11
0.8495484834915956
 21
0.3262568415525474
 31
0.0
  0
LINE
  5
A4
330
1F
100
AcDbEntity
  8
IGES_LEVEL_0
 62
     7
100
AcDbLine
 10
0.8495481041915909
 20
0.3262570589525476
 30
0.0
 11
0.8495691041915947
 21
0.3263030589525452
 31
0.0
  0
LINE
  5
A5
330
1F
100
AcDbEntity
  8
IGES_LEVEL_0
 62
     7
100
AcDbLine
 10
0.2362560270115992
 20
0.0085476356325475
 30
0.0
 11
0.23076205079159
 21
0.0093006632725458
 31
0.0
  0
LINE
  5
A6
330
1F
100
AcDbEntity
  8
IGES_LEVEL_0
 62
     7
100
AcDbLine
 10
0.2384117761015929
 20
0.008280649892546
 30
0.0
 11
0.2362560270115992
 21
0.0085476356325475
 31
0.0
  0
LINE
  5
A7
330
1F
100
AcDbEntity
  8
IGES_LEVEL_0
 62
     7
100
AcDbLine
 10
26.91241406965749
 20
11.08067468184555
 30
0.0
 11
26.88088442498749
 21
11.22991322817555
 31
0.0
  0
LINE
  5
A8
330
1F
100
AcDbEntity
  8
IGES_LEVEL_0
 62
     7
100
AcDbLine
 10
28.74953369489749
 20
0.008280649892546
 30
0.0
 11
28.75168944398749
 21
0.0085476356325475
 31
0.0
  0
LINE
  5
A9
330
1F
100
AcDbEntity
  8
IGES_LEVEL_0
 62
     7
100
AcDbLine
 10
28.75168944398749
 20
0.0085476356325475
 30
0.0
 11
28.7571834202075
 21
0.0093006632725458
 31
0.0
  0
LINE
  5
AA
330
1F
100
AcDbEntity
  8
IGES_LEVEL_0
 62
     7
100
AcDbLine
 10
28.1383973668075
 20
0.3262570589525476
 30
0.0
 11
28.13837636680749
 21
0.3263030589525452
 31
0.0
  0
LINE
  5
AB
330
1F
100
AcDbEntity
  8
IGES_LEVEL_0
 62
     7
100
AcDbLine
 10
28.13913470941749
 20
0.3245156418525478
 30
0.0
 11
28.13839698750749
 21
0.3262568415525474
 31
0.0
  0
LINE
  5
AC
330
1F
100
AcDbEntity
  8
DEFAULT
 62
     7
100
AcDbLine
 10
27.59338936680749
 20
0.649687058952546
 30
0.0
 11
28.1888413668075
 21
0.7228210589525456
 31
0.0
  0
LINE
  5
AD
330
1F
100
AcDbEntity
  8
IGES_LEVEL_0
 62
     7
100
AcDbLine
 10
27.73838736680749
 20
0.2773560589525469
 30
0.0
 11
27.73839736680749
 21
0.2774050589525475
 31
0.0
  0
LINE
  5
AE
330
1F
100
AcDbEntity
  8
IGES_LEVEL_0
 62
     7
100
AcDbLine
 10
27.73838734794749
 20
0.2773563922425469
 30
0.0
 11
27.7380171610175
 21
0.2754331650125453
 31
0.0
  0
LINE
  5
AF
330
1F
100
AcDbEntity
  8
IGES_LEVEL_0
 62
     7
100
AcDbLine
 10
25.52466641989749
 20
11.17880036977855
 30
0.0
 11
25.56086678104749
 21
11.18453266909855
 31
0.0
  0
LINE
  5
B0
330
1F
100
AcDbEntity
  8
IGES_LEVEL_0
 62
     7
100
AcDbLine
 10
28.75718036680749
 20
0.0093000589525455
 30
0.0
 11
28.7571833668075
 21
0.0093010589525465
 31
0.0
  0
LINE
  5
B1
330
1F
100
AcDbEntity
  8
IGES_LEVEL_0
 62
     7
100
AcDbLine
 10
1.947644366807491
 20
12.83431005895255
 30
0.0
 11
1.944890366807491
 21
12.93248005895255
 31
0.0
  0
LINE
  5
B2
330
1F
100
AcDbEntity
  8
IGES_LEVEL_0
 62
     7
100
AcDbLine
 10
1.944888366807491
 20
14.25652605895255
 30
0.0
 11
1.944890366807491
 21
12.93248005895255
 31
0.0
  0
LINE
  5
B3
330
1F
100
AcDbEntity
  8
IGES_LEVEL_0
 62
     7
100
AcDbLine
 10
2.721471366807491
 20
17.27292005895254
 30
0.0
 11
2.721307366807491
 21
17.27156605895254
 31
0.0
  0
LINE
  5
B4
330
1F
100
AcDbEntity
  8
IGES_LEVEL_0
 62
     7
100
AcDbLine
 10
5.173114366807492
 20
10.96358705895255
 30
0.0
 11
5.806024366807491
 21
10.61715605895255
 31
0.0
  0
LINE
  5
B5
330
1F
100
AcDbEntity
  8
IGES_LEVEL_0
 62
     7
100
AcDbLine
 10
5.585524366807491
 20
10.91783305895255
 30
0.0
 11
5.810674366807491
 21
10.79459405895255
 31
0.0
  0
LINE
  5
B6
330
1F
100
AcDbEntity
  8
IGES_LEVEL_0
 62
     7
100
AcDbLine
 10
5.806024366807491
 20
10.55358905895255
 30
0.0
 11
5.806024366807491
 21
11.47694005895255
 31
0.0
  0
LINE
  5
B7
330
1F
100
AcDbEntity
  8
IGES_LEVEL_0
 62
     7
100
AcDbLine
 10
1.993963366807491
 20
11.35559905895255
 30
0.0
 11
1.993916366807491
 21
11.35535005895255
 31
0.0
  0
LINE
  5
B8
330
1F
100
AcDbEntity
  8
IGES_LEVEL_0
 62
     7
100
AcDbLine
 10
6.693324366807491
 20
10.19668605895255
 30
0.0
 11
6.071468366807491
 21
10.25930405895255
 31
0.0
  0
LINE
  5
B9
330
1F
100
AcDbEntity
  8
IGES_LEVEL_0
 62
     7
100
AcDbLine
 10
3.463225366807492
 20
11.17879605895255
 30
0.0
 11
3.463222366807492
 21
11.17879605895255
 31
0.0
  0
LINE
  5
BA
330
1F
100
AcDbEntity
  8
IGES_LEVEL_0
 62
     7
100
AcDbLine
 10
7.017879366807491
 20
10.49097705895255
 30
0.0
 11
7.017879366807491
 21
11.36058505895255
 31
0.0
  0
LINE
  5
BB
330
1F
100
AcDbEntity
  8
IGES_LEVEL_0
 62
     7
100
AcDbLine
 10
22.91243536680749
 20
10.25929505895255
 30
0.0
 11
22.29057936680749
 21
10.19667805895255
 31
0.0
  0
LINE
  5
BC
330
1F
100
AcDbEntity
  8
IGES_LEVEL_0
 62
     7
100
AcDbLine
 10
21.56727036680749
 20
10.73414305895255
 30
0.0
 11
21.97097436680749
 21
10.59204205895255
 31
0.0
  0
LINE
  5
BD
330
1F
100
AcDbEntity
  8
IGES_LEVEL_0
 62
     7
100
AcDbLine
 10
28.53025636680749
 20
0.1028820589525469
 30
0.0
 11
28.53022836680749
 21
0.1029150589525453
 31
0.0
  0
LINE
  5
BE
330
1F
100
AcDbEntity
  8
IGES_LEVEL_0
 62
     7
100
AcDbLine
 10
28.52187236680749
 20
0.1133370589525472
 30
0.0
 11
28.52233136680749
 21
0.1127770589525471
 31
0.0
  0
LINE
  5
BF
330
1F
100
AcDbEntity
  8
IGES_LEVEL_0
 62
     7
100
AcDbLine
 10
28.51501136680749
 20
0.1224060589525474
 30
0.0
 11
28.5218573668075
 21
0.1133580589525475
 31
0.0
  0
LINE
  5
C0
330
1F
100
AcDbEntity
  8
IGES_LEVEL_0
 62
     7
100
AcDbLine
 10
27.72640836680749
 20
0.1878510589525479
 30
0.0
 11
27.72640936680749
 21
0.1878500589525468
 31
0.0
  0
LINE
  5
C1
330
1F
100
AcDbEntity
  8
IGES_LEVEL_0
 62
     7
100
AcDbLine
 10
28.1888413668075
 20
0.7228210589525456
 30
0.0
 11
28.18891536680749
 21
0.7226230589525445
 31
0.0
  0
LINE
  5
C2
330
1F
100
AcDbEntity
  8
IGES_LEVEL_0
 62
     7
100
AcDbLine
 10
21.96602436680749
 20
11.36060705895255
 30
0.0
 11
21.96602436680749
 21
10.49096905895255
 31
0.0
  0
LINE
  5
C3
330
1F
100
AcDbEntity
  8
IGES_LEVEL_0
 62
     7
100
AcDbLine
 10
23.17787936680749
 20
11.47675905895255
 30
0.0
 11
23.17787936680749
 21
10.55357905895255
 31
0.0
  0
LINE
  5
C4
330
1F
100
AcDbEntity
  8
IGES_LEVEL_0
 62
     7
100
AcDbLine
 10
27.94926636680749
 20
2.669137058952545
 30
0.0
 11
28.37020636680749
 21
0.4178190589525475
 31
0.0
  0
LINE
  5
C5
330
1F
100
AcDbEntity
  8
IGES_LEVEL_0
 62
     7
100
AcDbLine
 10
26.99105336680749
 20
11.34356605895255
 30
0.0
 11
28.96107136680749
 21
0.807308058952545
 31
0.0
  0
LINE
  5
C6
330
1F
100
AcDbEntity
  8
IGES_LEVEL_0
 62
     7
100
AcDbLine
 10
26.92044736680749
 20
11.02514505895255
 30
0.0
 11
26.92044736680749
 21
11.02514305895255
 31
0.0
  0
LINE
  5
C7
330
1F
100
AcDbEntity
  8
IGES_LEVEL_0
 62
     7
100
AcDbLine
 10
27.59338936680749
 20
0.649687058952546
 30
0.0
 11
26.32493136680749
 21
10.95202305895255
 31
0.0
  0
LINE
  5
C8
330
1F
100
AcDbEntity
  8
IGES_LEVEL_0
 62
     7
100
AcDbLine
 10
28.18890336680749
 20
0.7228160589525475
 30
0.0
 11
26.92044736680749
 21
11.02514305895255
 31
0.0
  0
LINE
  5
C9
330
1F
100
AcDbEntity
  8
IGES_LEVEL_0
 62
     7
100
AcDbLine
 10
26.26655936680749
 20
17.27178705895254
 30
0.0
 11
26.26642136680749
 21
17.27292605895255
 31
0.0
  0
LINE
  5
CA
330
1F
100
AcDbEntity
  8
IGES_LEVEL_0
 62
     7
100
AcDbLine
 10
27.04300036680749
 20
14.25653105895255
 30
0.0
 11
27.04300236680749
 21
12.93248505895255
 31
0.0
  0
LINE
  5
CB
330
1F
100
AcDbEntity
  8
IGES_LEVEL_0
 62
     7
100
AcDbLine
 10
27.0402403668075
 20
12.83417105895255
 30
0.0
 11
27.04300236680749
 21
12.93248305895255
 31
0.0
  0
LINE
  5
CC
330
1F
100
AcDbEntity
  8
IGES_LEVEL_0
 62
     7
100
AcDbLine
 10
28.96107136680749
 20
0.5162990589525459
 30
0.0
 11
28.96107136680749
 21
0.8073080589525449
 31
0.0
  0
LINE
  5
CD
330
1F
100
AcDbEntity
  8
IGES_LEVEL_0
 62
     7
100
AcDbLine
 10
7.417496366807492
 20
10.73445405895255
 30
0.0
 11
7.012929366807492
 21
10.59205005895255
 31
0.0
  0
LINE
  5
CE
330
1F
100
AcDbEntity
  8
IGES_LEVEL_0
 62
     7
100
AcDbLine
 10
28.95463636680749
 20
0.2112200589525467
 30
0.0
 11
28.95468436680749
 21
0.2114050589525451
 31
0.0
  0
LINE
  5
CF
330
1F
100
AcDbEntity
  8
IGES_LEVEL_0
 62
     7
100
AcDbLine
 10
28.16975536680749
 20
0.2564720589525446
 30
0.0
 11
28.1697543668075
 21
0.256469058952545
 31
0.0
  0
LINE
  5
D0
330
1F
100
AcDbEntity
  8
IGES_LEVEL_0
 62
     7
100
AcDbLine
 10
28.16576036680749
 20
0.2422730589525467
 30
0.0
 11
28.1657753668075
 21
0.2423250589525469
 31
0.0
  0
LINE
  5
D1
330
1F
100
AcDbEntity
  8
IGES_LEVEL_0
 62
     7
100
AcDbLine
 10
23.39739936680749
 20
10.91728605895255
 30
0.0
 11
23.17323036680749
 21
10.79458405895255
 31
0.0
  0
LINE
  5
D2
330
1F
100
AcDbEntity
  8
IGES_LEVEL_0
 62
     7
100
AcDbLine
 10
23.80988036680749
 20
10.96307905895255
 30
0.0
 11
23.17787936680749
 21
10.61714705895255
 31
0.0
  0
LINE
  5
D3
330
1F
100
AcDbEntity
  8
IGES_LEVEL_0
 62
     7
100
AcDbLine
 10
28.9257433668075
 20
0.166101058952547
 30
0.0
 11
28.92557636680749
 21
0.1659970589525467
 31
0.0
  0
LINE
  5
D4
330
1F
100
AcDbEntity
  8
IGES_LEVEL_0
 62
     7
100
AcDbLine
 10
43.63992836680748
 20
0.5163040589525475
 30
0.0
 11
43.0868113668075
 21
0.8073130589525465
 31
0.0
  0
LINE
  5
D5
330
1F
100
AcDbEntity
  8
IGES_LEVEL_0
 62
     7
100
AcDbLine
 10
71.5213503668075
 20
0.7226380589525457
 30
0.0
 11
70.89795236680749
 21
0.6778810589525451
 31
0.0
  0
LINE
  5
D6
330
1F
100
AcDbEntity
  8
IGES_LEVEL_0
 62
     7
100
AcDbLine
 10
49.78782336680749
 20
12.20153105895255
 30
0.0
 11
49.23470636680749
 21
12.49254005895255
 31
0.0
  0
LINE
  5
D7
330
1F
100
AcDbEntity
  8
IGES_LEVEL_0
 62
     7
100
AcDbLine
 10
49.86636536680749
 20
11.70655105895255
 30
0.0
 11
51.58333436680749
 21
10.59493405895255
 31
0.0
  0
LINE
  5
D8
330
1F
100
AcDbEntity
  8
IGES_LEVEL_0
 62
     7
100
AcDbLine
 10
49.94224936680749
 20
11.87743905895255
 30
0.0
 11
51.61477836680749
 21
10.79459405895255
 31
0.0
  0
LINE
  5
D9
330
1F
100
AcDbEntity
  8
IGES_LEVEL_0
 62
     7
100
AcDbLine
 10
46.80307436680749
 20
15.23306205895255
 30
0.0
 11
42.10352536680749
 21
27.44832905895255
 31
0.0
  0
LINE
  5
DA
330
1F
100
AcDbEntity
  8
IGES_LEVEL_0
 62
     7
100
AcDbLine
 10
41.33318436680749
 20
27.14271805895254
 30
0.0
 11
41.66437336680748
 21
26.26348405895255
 31
0.0
  0
LINE
  5
DB
330
1F
100
AcDbEntity
  8
IGES_LEVEL_0
 62
     7
100
AcDbLine
 10
70.65488736680749
 20
12.38230805895255
 30
0.0
 11
70.0316053668075
 21
12.33599005895255
 31
0.0
  0
LINE
  5
DC
330
1F
100
AcDbEntity
  8
IGES_LEVEL_0
 62
     7
100
AcDbLine
 10
71.94211836680749
 20
11.74926705895255
 30
0.0
 11
71.0078183668075
 21
11.68103005895255
 31
0.0
  0
LINE
  5
DD
330
1F
100
AcDbEntity
  8
IGES_LEVEL_0
 62
     7
100
AcDbLine
 10
53.7475193668075
 20
10.21399105895255
 30
0.0
 11
69.80285136680749
 21
11.36607305895255
 31
0.0
  0
LINE
  5
DE
330
1F
100
AcDbEntity
  8
IGES_LEVEL_0
 62
     7
100
AcDbLine
 10
53.70081036680749
 20
10.86493605895255
 30
0.0
 11
69.2193083668075
 21
11.97849505895255
 31
0.0
  0
LINE
  5
DF
330
1F
100
AcDbEntity
  8
IGES_LEVEL_0
 62
     7
100
AcDbLine
 10
45.35900736680749
 20
28.73975405895255
 30
0.0
 11
41.33320636680749
 21
27.14272705895255
 31
0.0
  0
LINE
  5
E0
330
1F
100
AcDbEntity
  8
IGES_LEVEL_0
 62
     7
100
AcDbLine
 10
53.50193536680749
 20
14.68656905895255
 30
0.0
 11
71.63089036680749
 21
16.01061305895254
 31
0.0
  0
LINE
  5
E1
330
1F
100
AcDbEntity
  8
IGES_LEVEL_0
 62
     7
100
AcDbLine
 10
49.22316836680749
 20
19.07581205895254
 30
0.0
 11
46.88023336680749
 21
24.88744605895255
 31
0.0
  0
LINE
  5
E2
330
1F
100
AcDbEntity
  8
IGES_LEVEL_0
 62
     7
100
AcDbLine
 10
50.07704636680749
 20
16.94237905895254
 30
0.0
 11
49.22316736680749
 21
19.07582305895254
 31
0.0
  0
LINE
  5
E3
330
1F
100
AcDbEntity
  8
IGES_LEVEL_0
 62
     7
100
AcDbLine
 10
43.88262136680748
 20
0.3332770589525448
 30
0.0
 11
49.42600636680749
 21
10.86952005895255
 31
0.0
  0
LINE
  5
E4
330
1F
100
AcDbEntity
  8
IGES_LEVEL_0
 62
     7
100
AcDbLine
 10
67.7822583668075
 20
11.51228705895255
 30
0.0
 11
67.7756143668075
 21
11.69900605895255
 31
0.0
  0
LINE
  5
E5
330
1F
100
AcDbEntity
  8
IGES_LEVEL_0
 62
     7
100
AcDbLine
 10
69.8360103668075
 20
10.91992405895255
 30
0.0
 11
70.6014333668075
 21
0.6199110589525478
 31
0.0
  0
LINE
  5
E6
330
1F
100
AcDbEntity
  8
IGES_LEVEL_0
 62
     7
100
AcDbLine
 10
71.0576413668075
 20
11.01070605895255
 30
0.0
 11
71.8232893668075
 21
0.7076720589525447
 31
0.0
  0
LINE
  5
E7
330
1F
100
AcDbEntity
  8
IGES_LEVEL_0
 62
     7
100
AcDbLine
 10
71.94211736680749
 20
11.74928505895255
 30
0.0
 11
71.63089636680749
 21
16.01053505895255
 31
0.0
  0
LINE
  5
E8
330
1F
100
AcDbEntity
  8
IGES_LEVEL_0
 62
     7
100
AcDbLine
 10
0.0228223668074914
 20
70.16349005895255
 30
0.0
 11
0.0230053668074912
 21
70.15426605895254
 31
0.0
  0
LINE
  5
E9
330
1F
100
AcDbEntity
  8
IGES_LEVEL_0
 62
     7
100
AcDbLine
 10
0.0228223668074914
 20
70.16349005895255
 30
0.0
 11
0.0228223668074914
 21
70.71660805895255
 31
0.0
  0
LINE
  5
EA
330
1F
100
AcDbEntity
  8
IGES_LEVEL_0
 62
     7
100
AcDbLine
 10
1.944888366807491
 20
42.04441905895255
 30
0.0
 11
1.944890366807491
 21
60.17339905895255
 31
0.0
  0
LINE
  5
EB
330
1F
100
AcDbEntity
  8
IGES_LEVEL_0
 62
     7
100
AcDbLine
 10
0.7949773668074911
 20
42.28206905895254
 30
0.0
 11
0.7951693668074913
 21
42.90546605895255
 31
0.0
  0
LINE
  5
EC
330
1F
100
AcDbEntity
  8
IGES_LEVEL_0
 62
     7
100
AcDbLine
 10
4.138201366807492
 20
63.72637305895255
 30
0.0
 11
4.454570366807491
 21
64.58025105895254
 31
0.0
  0
LINE
  5
ED
330
1F
100
AcDbEntity
  8
IGES_LEVEL_0
 62
     7
100
AcDbLine
 10
4.45055036680749
 20
64.58025105895254
 30
0.0
 11
6.095632366807492
 21
68.47184705895255
 31
0.0
  0
LINE
  5
EE
330
1F
100
AcDbEntity
  8
IGES_LEVEL_0
 62
     7
100
AcDbLine
 10
3.627155366807492
 20
60.30148305895255
 30
0.0
 11
3.627154366807491
 21
42.17252805895255
 31
0.0
  0
LINE
  5
EF
330
1F
100
AcDbEntity
  8
IGES_LEVEL_0
 62
     7
100
AcDbLine
 10
0.0361203668074903
 20
70.08583505895254
 30
0.0
 11
2.006125366807491
 21
64.54245005895254
 31
0.0
  0
LINE
  5
F0
330
1F
100
AcDbEntity
  8
IGES_LEVEL_0
 62
     7
100
AcDbLine
 10
0.6014803668074904
 20
70.83987005895256
 30
0.0
 11
2.567718366807491
 21
65.30708705895255
 31
0.0
  0
LINE
  5
F1
330
1F
100
AcDbEntity
  8
IGES_LEVEL_0
 62
     7
100
AcDbLine
 10
1.944888366807491
 20
43.76738105895255
 30
0.0
 11
0.9379873668074914
 21
43.15964505895255
 31
0.0
  0
LINE
  5
F2
330
1F
100
AcDbEntity
  8
IGES_LEVEL_0
 62
     7
100
AcDbLine
 10
1.944888366807491
 20
42.44328105895255
 30
0.0
 11
1.247684366807491
 21
42.02246905895255
 31
0.0
  0
LINE
  5
F3
330
1F
100
AcDbEntity
  8
IGES_LEVEL_0
 62
     7
100
AcDbLine
 10
25.36073436680749
 20
42.17252605895255
 30
0.0
 11
25.36073636680749
 21
60.30148105895255
 31
0.0
  0
LINE
  5
F4
330
1F
100
AcDbEntity
  8
IGES_LEVEL_0
 62
     7
100
AcDbLine
 10
27.04300036680749
 20
42.04441705895255
 30
0.0
 11
27.04300236680749
 21
60.17339705895255
 31
0.0
  0
LINE
  5
F5
330
1F
100
AcDbEntity
  8
IGES_LEVEL_0
 62
     7
100
AcDbLine
 10
24.53332236680749
 20
64.58025005895254
 30
0.0
 11
22.88823236680749
 21
68.47184005895255
 31
0.0
  0
LINE
  5
F6
330
1F
100
AcDbEntity
  8
IGES_LEVEL_0
 62
     7
100
AcDbLine
 10
24.53332236680749
 20
64.58025005895254
 30
0.0
 11
24.84969136680749
 21
63.72637105895254
 31
0.0
  0
ARC
  5
F7
330
1F
100
AcDbEntity
  8
IGES_LEVEL_0
 62
     7
100
AcDbCircle
 10
22.88287936680749
 20
10.55281105895255
 30
0.0
 40
0.2950001689761745
100
AcDbArc
 50
275.7500952533072
 51
0.0
  0
ARC
  5
F8
330
1F
100
AcDbEntity
  8
IGES_LEVEL_0
 62
     7
100
AcDbCircle
 10
22.26102436680749
 20
10.49019405895255
 30
0.0
 40
0.2950001188821556
100
AcDbArc
 50
180.0
 51
275.7499020077433
  0
ARC
  5
F9
330
1F
100
AcDbEntity
  8
IGES_LEVEL_0
 62
     7
100
AcDbCircle
 10
6.101024366807491
 20
10.55282005895255
 30
0.0
 40
0.2950001689761745
100
AcDbArc
 50
180.0
 51
264.2499047466925
  0
ARC
  5
FA
330
1F
100
AcDbEntity
  8
IGES_LEVEL_0
 62
     7
100
AcDbCircle
 10
6.722879366807491
 20
10.49020205895255
 30
0.0
 40
0.2950001188821555
100
AcDbArc
 50
264.2500979922565
 51
0.0
  0
ARC
  5
FB
330
1F
100
AcDbEntity
  8
IGES_LEVEL_0
 62
     7
100
AcDbCircle
 10
53.22315436680749
 20
17.52151105895254
 30
0.0
 40
6.673690928860797
100
AcDbArc
 50
249.2662492882058
 51
274.1043396577076
  0
ARC
  5
FC
330
1F
100
AcDbEntity
  8
IGES_LEVEL_0
 62
     7
100
AcDbCircle
 10
53.22315436680749
 20
17.52151105895254
 30
0.0
 40
7.326308933854135
100
AcDbArc
 50
240.1906142911383
 51
274.104332833749
  0
LINE
  5
FD
330
1F
100
AcDbEntity
  8
IGES_LEVEL_0
 62
     7
100
AcDbLine
 10
28.53022865721749
 20
0.1029152138325475
 30
0.0
 11
28.52926698684749
 21
0.1042353981025474
 31
0.0
  0
LINE
  5
FE
330
1F
100
AcDbEntity
  8
IGES_LEVEL_0
 62
     7
100
AcDbLine
 10
28.52926698684749
 20
0.1042353981025474
 30
0.0
 11
28.52819262429749
 21
0.1061639060025445
 31
0.0
  0
LINE
  5
FF
330
1F
100
AcDbEntity
  8
IGES_LEVEL_0
 62
     7
100
AcDbLine
 10
28.52819262429749
 20
0.1061639060025445
 30
0.0
 11
28.52718435479749
 21
0.1085337794225455
 31
0.0
  0
LINE
  5
100
330
1F
100
AcDbEntity
  8
IGES_LEVEL_0
 62
     7
100
AcDbLine
 10
28.52718435479749
 20
0.1085337794225455
 30
0.0
 11
28.52711451379749
 21
0.1087196340425453
 31
0.0
  0
LINE
  5
101
330
1F
100
AcDbEntity
  8
IGES_LEVEL_0
 62
     7
100
AcDbLine
 10
28.54715603490749
 20
0.1065115864325445
 30
0.0
 11
28.54416119669749
 21
0.1057754717125458
 31
0.0
  0
LINE
  5
102
330
1F
100
AcDbEntity
  8
IGES_LEVEL_0
 62
     7
100
AcDbLine
 10
28.54416119669749
 20
0.1057754717125458
 30
0.0
 11
28.54325473938749
 21
0.1055966198625472
 31
0.0
  0
LINE
  5
103
330
1F
100
AcDbEntity
  8
IGES_LEVEL_0
 62
     7
100
AcDbLine
 10
28.95025525969749
 20
0.1955142736825461
 30
0.0
 11
28.95028120561749
 21
0.1955999033525461
 31
0.0
  0
LINE
  5
104
330
1F
100
AcDbEntity
  8
IGES_LEVEL_0
 62
     7
100
AcDbLine
 10
28.95028120561749
 20
0.1955999033525461
 30
0.0
 11
28.95034044782749
 21
0.1957963051925463
 31
0.0
  0
LINE
  5
105
330
1F
100
AcDbEntity
  8
IGES_LEVEL_0
 62
     7
100
AcDbLine
 10
28.95034044782749
 20
0.1957963051925463
 30
0.0
 11
28.95234365993749
 21
0.2033087931725478
 31
0.0
  0
ARC
  5
106
330
1F
100
AcDbEntity
  8
IGES_LEVEL_0
 62
     7
100
AcDbCircle
 10
28.71927715405994
 20
0.2395826589509923
 30
0.0
 40
0.2332725394424466
100
AcDbArc
 50
215.8747707510906
 51
277.452527429978
  0
ARC
  5
107
330
1F
100
AcDbEntity
  8
IGES_LEVEL_0
 62
     7
100
AcDbCircle
 10
28.72433018684211
 20
0.2365867997972756
 30
0.0
 40
0.2296484182824899
100
AcDbArc
 50
278.2241213931796
 51
349.769784305633
  0
LINE
  5
108
330
1F
100
AcDbEntity
  8
IGES_LEVEL_0
 62
     7
100
AcDbLine
 10
28.16575264522749
 20
0.2423317445925458
 30
0.0
 11
28.16553948299749
 21
0.2491014403025477
 31
0.0
  0
LINE
  5
109
330
1F
100
AcDbEntity
  8
IGES_LEVEL_0
 62
     7
100
AcDbLine
 10
28.16553948299749
 20
0.2491014403025477
 30
0.0
 11
28.13913470941749
 21
0.3245156418525478
 31
0.0
  0
LINE
  5
10A
330
1F
100
AcDbEntity
  8
IGES_LEVEL_0
 62
     7
100
AcDbLine
 10
27.7380171610175
 20
0.2754331650125453
 30
0.0
 11
27.73739705948749
 21
0.2721657749625467
 31
0.0
  0
LINE
  5
10B
330
1F
100
AcDbEntity
  8
IGES_LEVEL_0
 62
     7
100
AcDbLine
 10
27.73739705948749
 20
0.2721657749625467
 30
0.0
 11
27.72587018692749
 21
0.1942593247725472
 31
0.0
  0
LINE
  5
10C
330
1F
100
AcDbEntity
  8
IGES_LEVEL_0
 62
     7
100
AcDbLine
 10
27.72587018692749
 20
0.1942593247725472
 30
0.0
 11
27.7264090770575
 21
0.1878518217225444
 31
0.0
  0
SPLINE
  5
10D
330
1F
100
AcDbEntity
  8
IGES_LEVEL_0
 62
     7
100
AcDbSpline
210
0.0
220
0.0
230
1.0
 70
     8
 71
     3
 72
    26
 73
    22
 74
     0
 42
0.0000000001
 43
0.0000000001
 40
0.0
 40
0.0
 40
0.0
 40
0.0
 40
0.04566946008536
 40
0.09689995320591
 40
0.1496395130763
 40
0.2033114912968
 40
0.2576691825462
 40
0.3127055719073
 40
0.3686130733281
 40
0.425223936449
 40
0.4817331233102
 40
0.5369855596677
 40
0.5912004224055
 40
0.6455028935558
 40
0.7010083719512
 40
0.7579124423864
 40
0.815015718498
 40
0.8714714449945
 40
0.9270879522887
 40
0.9820482856001001
 40
1.0
 40
1.0
 40
1.0
 40
1.0
 10
28.13837679522749
 20
0.3263034073025447
 30
0.0
 10
28.13534187709749
 20
0.3330311983625459
 30
0.0
 10
28.12812118613749
 20
0.346959115212547
 30
0.0
 10
28.1152704964875
 20
0.3674697734025453
 30
0.0
 10
28.10011665290749
 20
0.3879776856425447
 30
0.0
 10
28.08322442002749
 20
0.4077463823325455
 30
0.0
 10
28.06460984266749
 20
0.4264402795425449
 30
0.0
 10
28.04416277625749
 20
0.4436895269625455
 30
0.0
 10
28.02178201227749
 20
0.4590269313225458
 30
0.0
 10
27.99745348368749
 20
0.4716313666525468
 30
0.0
 10
27.9715943301775
 20
0.4804660426325443
 30
0.0
 10
27.94497421135749
 20
0.4847581224525451
 30
0.0
 10
27.9183570196375
 20
0.4840975124625454
 30
0.0
 10
27.89231556397749
 20
0.4783612533925473
 30
0.0
 10
27.86737800687749
 20
0.4678013151525472
 30
0.0
 10
27.84419176629749
 20
0.4529981611525445
 30
0.0
 10
27.8233259373575
 20
0.4348869368525444
 30
0.0
 10
27.8049475805875
 20
0.4145755106025478
 30
0.0
 10
27.78885167841749
 20
0.3928615466025444
 30
0.0
 10
27.77791757739749
 20
0.375176623202547
 30
0.0
 10
27.77221774399749
 20
0.3648605817225475
 30
0.0
 10
27.77084452003749
 20
0.3623044817425462
 30
0.0
  0
LINE
  5
10E
330
1F
100
AcDbEntity
  8
IGES_LEVEL_0
 62
     7
100
AcDbLine
 10
27.77084452003749
 20
0.3623044817425462
 30
0.0
 11
27.73839714337749
 21
0.2774051060125461
 31
0.0
  0
ARC
  5
10F
330
1F
100
AcDbEntity
  8
IGES_LEVEL_0
 62
     7
100
AcDbCircle
 10
27.94991824843984
 20
0.2859113233790587
 30
0.0
 40
0.2440740531206108
100
AcDbArc
 50
203.6887779656568
 51
274.0556498700454
  0
ARC
  5
110
330
1F
100
AcDbEntity
  8
IGES_LEVEL_0
 62
     7
100
AcDbCircle
 10
27.92503442388794
 20
0.2829151758270125
 30
0.0
 40
0.2441321690244643
100
AcDbArc
 50
279.9411266770079
 51
350.4169576828894
  0
LINE
  5
111
330
1F
100
AcDbEntity
  8
IGES_LEVEL_0
 62
     7
100
AcDbLine
 10
28.37276380918749
 20
0.408304390912546
 30
0.0
 11
28.3733905381275
 21
0.4066058516325465
 31
0.0
  0
LINE
  5
112
330
1F
100
AcDbEntity
  8
IGES_LEVEL_0
 62
     7
100
AcDbLine
 10
28.92574302122749
 20
0.1661015047425475
 30
0.0
 11
28.9306938631775
 21
0.1696631402825463
 31
0.0
  0
LINE
  5
113
330
1F
100
AcDbEntity
  8
IGES_LEVEL_0
 62
     7
100
AcDbLine
 10
28.9306938631775
 20
0.1696631402825463
 30
0.0
 11
28.9360687640575
 21
0.1746647409425445
 31
0.0
  0
LINE
  5
114
330
1F
100
AcDbEntity
  8
IGES_LEVEL_0
 62
     7
100
AcDbLine
 10
28.9360687640575
 20
0.1746647409425445
 30
0.0
 11
28.94910780574749
 21
0.194998317612546
 31
0.0
  0
LINE
  5
115
330
1F
100
AcDbEntity
  8
IGES_LEVEL_0
 62
     7
100
AcDbLine
 10
28.94910780574749
 20
0.194998317612546
 30
0.0
 11
28.94945714921749
 21
0.1958154000425462
 31
0.0
  0
LINE
  5
116
330
1F
100
AcDbEntity
  8
IGES_LEVEL_0
 62
     7
100
AcDbLine
 10
28.94945714921749
 20
0.1958154000425462
 30
0.0
 11
28.94957103572749
 21
0.1960864967925477
 31
0.0
  0
LINE
  5
117
330
1F
100
AcDbEntity
  8
IGES_LEVEL_0
 62
     7
100
AcDbLine
 10
28.94957103572749
 20
0.1960864967925477
 30
0.0
 11
28.95228061038749
 21
0.2033221355925451
 31
0.0
  0
LINE
  5
118
330
1F
100
AcDbEntity
  8
IGES_LEVEL_0
 62
     7
100
AcDbLine
 10
28.95228061038749
 20
0.2033221355925451
 30
0.0
 11
28.95464126000749
 21
0.2112182409125455
 31
0.0
  0
LINE
  5
119
330
1F
100
AcDbEntity
  8
IGES_LEVEL_0
 62
     7
100
AcDbLine
 10
28.90273526602749
 20
0.1582302335825449
 30
0.0
 11
28.90525718956749
 21
0.1586620382125456
 31
0.0
  0
LINE
  5
11A
330
1F
100
AcDbEntity
  8
IGES_LEVEL_0
 62
     7
100
AcDbLine
 10
28.90525718956749
 20
0.1586620382125456
 30
0.0
 11
28.92557689048749
 21
0.1659978024225469
 31
0.0
  0
LINE
  5
11B
330
1F
100
AcDbEntity
  8
IGES_LEVEL_0
 62
     7
100
AcDbLine
 10
28.52233166321749
 20
0.1127775686825475
 30
0.0
 11
28.52656984993749
 21
0.1090399542425455
 31
0.0
  0
LINE
  5
11C
330
1F
100
AcDbEntity
  8
IGES_LEVEL_0
 62
     7
100
AcDbLine
 10
28.52656984993749
 20
0.1090399542425455
 30
0.0
 11
28.54325260814749
 21
0.1056047130025472
 31
0.0
  0
ARC
  5
11D
330
1F
100
AcDbEntity
  8
IGES_LEVEL_0
 62
     7
100
AcDbCircle
 10
29.59394867882439
 20
0.8374384231872512
 30
0.0
 40
1.294364361829317
100
AcDbArc
 50
199.4420109412649
 51
213.5339458277295
  0
LINE
  5
11E
330
1F
100
AcDbEntity
  8
IGES_LEVEL_0
 62
     7
100
AcDbLine
 10
28.95468515747749
 20
0.211404426272546
 30
0.0
 11
28.97886393122749
 21
0.4202208540425455
 31
0.0
  0
LINE
  5
11F
330
1F
100
AcDbEntity
  8
IGES_LEVEL_0
 62
     7
100
AcDbLine
 10
28.97886393122749
 20
0.4202208540425455
 30
0.0
 11
28.9715500151375
 21
0.6204110364325447
 31
0.0
  0
LINE
  5
120
330
1F
100
AcDbEntity
  8
IGES_LEVEL_0
 62
     7
100
AcDbLine
 10
28.9715500151375
 20
0.6204110364325447
 30
0.0
 11
28.96144663193749
 21
0.7924468467425444
 31
0.0
  0
LINE
  5
121
330
1F
100
AcDbEntity
  8
IGES_LEVEL_0
 62
     7
100
AcDbLine
 10
28.96144663193749
 20
0.7924468467425444
 30
0.0
 11
28.96138974946749
 21
0.7948083655525461
 31
0.0
  0
ARC
  5
122
330
1F
100
AcDbEntity
  8
IGES_LEVEL_0
 62
     7
100
AcDbCircle
 10
28.77785314661057
 20
-0.2737416903049794
 30
0.0
 40
0.4424116036456321
100
AcDbArc
 50
76.8719982422089
 51
119.5534336083659
  0
LINE
  5
123
330
1F
100
AcDbEntity
  8
IGES_LEVEL_0
 62
     7
100
AcDbLine
 10
28.87833689285749
 20
0.1571075220425459
 30
0.0
 11
28.90030140278749
 21
0.1578919853825464
 31
0.0
  0
LINE
  5
124
330
1F
100
AcDbEntity
  8
IGES_LEVEL_0
 62
     7
100
AcDbLine
 10
28.48003293612749
 20
0.3368549061825464
 30
0.0
 11
28.48150535984749
 21
0.3365178943025472
 31
0.0
  0
LINE
  5
125
330
1F
100
AcDbEntity
  8
IGES_LEVEL_0
 62
     7
100
AcDbLine
 10
28.59776531985749
 20
0.3270827986725474
 30
0.0
 11
28.60040236719749
 21
0.3271844558925475
 31
0.0
  0
LINE
  5
126
330
1F
100
AcDbEntity
  8
IGES_LEVEL_0
 62
     7
100
AcDbLine
 10
28.7298001995775
 20
0.3461344727925474
 30
0.0
 11
28.7324409416475
 21
0.3468061443925466
 31
0.0
  0
LINE
  5
127
330
1F
100
AcDbEntity
  8
IGES_LEVEL_0
 62
     7
100
AcDbLine
 10
28.84869557992749
 20
0.3902921906325448
 30
0.0
 11
28.85016418578749
 21
0.3910584822725464
 31
0.0
  0
LINE
  5
128
330
1F
100
AcDbEntity
  8
IGES_LEVEL_0
 62
     7
100
AcDbLine
 10
28.1655516547975
 20
0.2490947877025444
 30
0.0
 11
28.16975497982749
 21
0.2564718232325464
 31
0.0
  0
LINE
  5
129
330
1F
100
AcDbEntity
  8
IGES_LEVEL_0
 62
     7
100
AcDbLine
 10
27.7191067104875
 20
0.2006109650225464
 30
0.0
 11
27.7258647929275
 21
0.1942476370925465
 31
0.0
  0
ARC
  5
12A
330
1F
100
AcDbEntity
  8
IGES_LEVEL_0
 62
     7
100
AcDbCircle
 10
26.99378794420618
 20
0.5178865375970975
 30
0.0
 40
1.204672901745507
100
AcDbArc
 50
347.4669337561011
 51
4.172572561806431
  0
LINE
  5
12B
330
1F
100
AcDbEntity
  8
IGES_LEVEL_0
 62
     7
100
AcDbLine
 10
28.19526776647749
 20
0.6055394718025456
 30
0.0
 11
28.18887800170749
 21
0.7140789426225477
 31
0.0
  0
ARC
  5
12C
330
1F
100
AcDbEntity
  8
IGES_LEVEL_0
 62
     7
100
AcDbCircle
 10
28.91357603005944
 20
0.7841038730498342
 30
0.0
 40
1.329368649286049
100
AcDbArc
 50
188.8534016708956
 51
206.0353461860732
  0
LINE
  5
12D
330
1F
100
AcDbEntity
  8
IGES_LEVEL_0
 62
     7
100
AcDbLine
 10
26.98961310487749
 20
11.35552769230955
 30
0.0
 11
26.98650264167749
 21
11.37148673618655
 31
0.0
  0
LINE
  5
12E
330
1F
100
AcDbEntity
  8
IGES_LEVEL_0
 62
     7
100
AcDbLine
 10
26.98650264167749
 20
11.37148673618655
 30
0.0
 11
26.96332566369749
 21
11.46810588097655
 31
0.0
  0
ARC
  5
12F
330
1F
100
AcDbEntity
  8
IGES_LEVEL_0
 62
     7
100
AcDbCircle
 10
25.67367307502236
 20
11.105384651498
 30
0.0
 40
1.33969044551004
100
AcDbArc
 50
15.7089029228421
 51
37.88607070913896
  0
ARC
  5
130
330
1F
100
AcDbEntity
  8
IGES_LEVEL_0
 62
     7
100
AcDbCircle
 10
3.309068899529983
 20
11.10604118549973
 30
0.0
 40
1.338390463120233
100
AcDbArc
 50
141.9493007014492
 51
164.9143407785056
  0
LINE
  5
131
330
1F
100
AcDbEntity
  8
IGES_LEVEL_0
 62
     7
100
AcDbLine
 10
2.016802311810491
 20
11.45437450006355
 30
0.0
 11
1.997333993579491
 21
11.37109137034555
 31
0.0
  0
LINE
  5
132
330
1F
100
AcDbEntity
  8
IGES_LEVEL_0
 62
     7
100
AcDbLine
 10
1.997333993579491
 20
11.37109137034555
 30
0.0
 11
1.994308498773491
 21
11.35553365221655
 31
0.0
  0
LINE
  5
133
330
1F
100
AcDbEntity
  8
IGES_LEVEL_0
 62
     7
100
AcDbLine
 10
3.810431063530491
 20
12.36872905122655
 30
0.0
 11
3.692767469552492
 21
12.38017154109855
 31
0.0
  0
ARC
  5
134
330
1F
100
AcDbEntity
  8
IGES_LEVEL_0
 62
     7
100
AcDbCircle
 10
3.600628862528805
 20
10.83375240626149
 30
0.0
 40
1.549161600187169
100
AcDbArc
 50
86.59023904899208
 51
164.8721797003474
  0
LINE
  5
135
330
1F
100
AcDbEntity
  8
IGES_LEVEL_0
 62
     7
100
AcDbLine
 10
2.105151865693491
 20
11.23804217292755
 30
0.0
 11
2.072803051698491
 21
11.08894536249655
 31
0.0
  0
LINE
  5
136
330
1F
100
AcDbEntity
  8
IGES_LEVEL_0
 62
     7
100
AcDbLine
 10
2.072803051698491
 20
11.08894536249655
 30
0.0
 11
2.063517936531492
 21
11.02512494845055
 31
0.0
  0
ARC
  5
137
330
1F
100
AcDbEntity
  8
IGES_LEVEL_0
 62
     7
100
AcDbCircle
 10
14.49141784964784
 20
91.19951292225242
 30
0.0
 40
79.55091905142561
100
AcDbArc
 50
274.6690839172349
 51
277.7169260906973
  0
ARC
  5
138
330
1F
100
AcDbEntity
  8
IGES_LEVEL_0
 62
     7
100
AcDbCircle
 10
14.49199555360491
 20
91.17550241466684
 30
0.0
 40
79.52694121022699
100
AcDbArc
 50
265.3298511579439
 51
274.6700772017829
  0
ARC
  5
139
330
1F
100
AcDbEntity
  8
IGES_LEVEL_0
 62
     7
100
AcDbCircle
 10
14.49253636911908
 20
91.19921894350301
 30
0.0
 40
79.55062304377316
100
AcDbArc
 50
262.2830090514537
 51
265.3308537088177
  0
LINE
  5
13A
330
1F
100
AcDbEntity
  8
IGES_LEVEL_0
 62
     7
100
AcDbLine
 10
26.92034413413749
 20
11.02513263961955
 30
0.0
 11
26.91241406965749
 21
11.08067468184555
 31
0.0
  0
ARC
  5
13B
330
1F
100
AcDbEntity
  8
IGES_LEVEL_0
 62
     7
100
AcDbCircle
 10
25.3832688023196
 20
10.83379603286389
 30
0.0
 40
1.549116324128217
100
AcDbArc
 50
14.81537923801247
 51
92.88033419605313
  0
LINE
  5
13C
330
1F
100
AcDbEntity
  8
IGES_LEVEL_0
 62
     7
100
AcDbLine
 10
25.30542548452749
 20
12.38095530183255
 30
0.0
 11
25.17346881179749
 21
12.36875335959355
 31
0.0
  0
LINE
  5
13D
330
1F
100
AcDbEntity
  8
IGES_LEVEL_0
 62
     7
100
AcDbLine
 10
7.707423166210492
 20
10.70764922334555
 30
0.0
 11
7.054179757844492
 21
10.47571447046655
 31
0.0
  0
LINE
  5
13E
330
1F
100
AcDbEntity
  8
IGES_LEVEL_0
 62
     7
100
AcDbLine
 10
7.054179757844492
 20
10.47571447046655
 30
0.0
 11
7.041369182967491
 21
10.47117431045155
 31
0.0
  0
LINE
  5
13F
330
1F
100
AcDbEntity
  8
IGES_LEVEL_0
 62
     7
100
AcDbLine
 10
7.041369182967491
 20
10.47117431045155
 30
0.0
 11
7.032175851465492
 21
10.46791631909155
 31
0.0
  0
LINE
  5
140
330
1F
100
AcDbEntity
  8
IGES_LEVEL_0
 62
     7
100
AcDbLine
 10
7.032175851465492
 20
10.46791631909155
 30
0.0
 11
7.015711635435491
 21
10.46208202481155
 31
0.0
  0
LINE
  5
141
330
1F
100
AcDbEntity
  8
IGES_LEVEL_0
 62
     7
100
AcDbLine
 10
21.27738895899749
 20
10.70731909523555
 30
0.0
 11
21.92972438591749
 21
10.47570649399355
 31
0.0
  0
LINE
  5
142
330
1F
100
AcDbEntity
  8
IGES_LEVEL_0
 62
     7
100
AcDbLine
 10
21.92972438591749
 20
10.47570649399355
 30
0.0
 11
21.94253443049749
 21
10.47116650601755
 31
0.0
  0
LINE
  5
143
330
1F
100
AcDbEntity
  8
IGES_LEVEL_0
 62
     7
100
AcDbLine
 10
21.94253443049749
 20
10.47116650601755
 30
0.0
 11
21.95172829561749
 21
10.46790831413655
 31
0.0
  0
LINE
  5
144
330
1F
100
AcDbEntity
  8
IGES_LEVEL_0
 62
     7
100
AcDbLine
 10
21.95172829561749
 20
10.46790831413655
 30
0.0
 11
21.96819243000749
 21
10.46207402835855
 31
0.0
  0
SPLINE
  5
145
330
1F
100
AcDbEntity
  8
IGES_LEVEL_0
 62
     7
100
AcDbSpline
210
0.0
220
0.0
230
1.0
 70
     8
 71
     3
 72
    12
 73
     8
 74
     0
 42
0.0000000001
 43
0.0000000001
 40
0.0
 40
0.0
 40
0.0
 40
0.0
 40
0.1289640213208
 40
0.3138361885899
 40
0.5432799498277
 40
0.7843734275374
 40
1.0
 40
1.0
 40
1.0
 40
1.0
 10
28.96107164949749
 20
0.5162989571425473
 30
0.0
 10
28.9610716640475
 20
0.4925619638425455
 30
0.0
 10
28.92882083498749
 20
0.4376435977225465
 30
0.0
 10
28.8442336771075
 20
0.3833034522725444
 30
0.0
 10
28.72995769294749
 20
0.3416532986025461
 30
0.0
 10
28.60399118146749
 20
0.3227354003125472
 30
0.0
 10
28.51985794204749
 20
0.3284323663425449
 30
0.0
 10
28.48055870808749
 20
0.3367231698925454
 30
0.0
  0
ARC
  5
146
330
1F
100
AcDbEntity
  8
IGES_LEVEL_0
 62
     7
100
AcDbCircle
 10
28.49335261276036
 20
0.4718979345597194
 30
0.0
 40
0.135778868015624
100
AcDbArc
 50
207.7358186605661
 51
264.5932248104042
  0
LINE
  5
147
330
1F
100
AcDbEntity
  8
IGES_LEVEL_0
 62
     7
100
AcDbLine
 10
28.37317434901749
 20
0.4087070655725479
 30
0.0
 11
28.37054581648749
 21
0.4173175373625478
 31
0.0
  0
LINE
  5
148
330
1F
100
AcDbEntity
  8
IGES_LEVEL_0
 62
     7
100
AcDbLine
 10
3.72978893340549
 20
11.72900166383255
 30
0.0
 11
3.606218103837491
 21
11.73764262102055
 31
0.0
  0
LINE
  5
149
330
1F
100
AcDbEntity
  8
IGES_LEVEL_0
 62
     7
100
AcDbLine
 10
3.606218103837491
 20
11.73764262102055
 30
0.0
 11
3.528952856714491
 21
11.73481823173155
 31
0.0
  0
ARC
  5
14A
330
1F
100
AcDbEntity
  8
IGES_LEVEL_0
 62
     7
100
AcDbCircle
 10
3.60169579947804
 20
10.78699775320083
 30
0.0
 40
0.9506078030629118
100
AcDbArc
 50
94.38871002349424
 51
160.7201668737483
  0
LINE
  5
14B
330
1F
100
AcDbEntity
  8
IGES_LEVEL_0
 62
     7
100
AcDbLine
 10
2.70440071802049
 20
11.10087150494855
 30
0.0
 11
2.665584684023492
 21
10.95082650047855
 31
0.0
  0
LINE
  5
14C
330
1F
100
AcDbEntity
  8
IGES_LEVEL_0
 62
     7
100
AcDbLine
 10
3.809455873082491
 20
12.36767884861755
 30
0.0
 11
3.810574630828492
 21
12.36905453185055
 31
0.0
  0
LINE
  5
14D
330
1F
100
AcDbEntity
  8
IGES_LEVEL_0
 62
     7
100
AcDbLine
 10
25.25411516149749
 20
11.72899012452655
 30
0.0
 11
23.11092823326749
 21
11.46790652678755
 31
0.0
  0
LINE
  5
14E
330
1F
100
AcDbEntity
  8
IGES_LEVEL_0
 62
     7
100
AcDbLine
 10
23.11092823326749
 20
11.46790652678755
 30
0.0
 11
23.0382963791275
 21
11.46008341165855
 31
0.0
  0
LINE
  5
14F
330
1F
100
AcDbEntity
  8
IGES_LEVEL_0
 62
     7
100
AcDbLine
 10
23.0382963791275
 20
11.46008341165855
 30
0.0
 11
23.00570857200749
 21
11.45659516630955
 31
0.0
  0
LINE
  5
150
330
1F
100
AcDbEntity
  8
IGES_LEVEL_0
 62
     7
100
AcDbLine
 10
23.00570857200749
 20
11.45659516630955
 30
0.0
 11
22.90638479858749
 21
11.44604652863655
 31
0.0
  0
LINE
  5
151
330
1F
100
AcDbEntity
  8
IGES_LEVEL_0
 62
     7
100
AcDbLine
 10
22.90638479858749
 20
11.44604652863655
 30
0.0
 11
22.87259239524749
 21
11.44248615263955
 31
0.0
  0
LINE
  5
152
330
1F
100
AcDbEntity
  8
IGES_LEVEL_0
 62
     7
100
AcDbLine
 10
22.87259239524749
 20
11.44248615263955
 30
0.0
 11
22.20623763595749
 21
11.37523481423955
 31
0.0
  0
LINE
  5
153
330
1F
100
AcDbEntity
  8
IGES_LEVEL_0
 62
     7
100
AcDbLine
 10
22.20623763595749
 20
11.37523481423955
 30
0.0
 11
22.17300245452749
 21
11.37202775403755
 31
0.0
  0
LINE
  5
154
330
1F
100
AcDbEntity
  8
IGES_LEVEL_0
 62
     7
100
AcDbLine
 10
22.17300245452749
 20
11.37202775403755
 30
0.0
 11
22.15176759982749
 21
11.36998599158355
 31
0.0
  0
LINE
  5
155
330
1F
100
AcDbEntity
  8
IGES_LEVEL_0
 62
     7
100
AcDbLine
 10
22.15176759982749
 20
11.36998599158355
 30
0.0
 11
22.09433648177749
 21
11.36449247307055
 31
0.0
  0
LINE
  5
156
330
1F
100
AcDbEntity
  8
IGES_LEVEL_0
 62
     7
100
AcDbLine
 10
22.09433648177749
 20
11.36449247307055
 30
0.0
 11
21.01669927004749
 21
11.26913656882855
 31
0.0
  0
LINE
  5
157
330
1F
100
AcDbEntity
  8
IGES_LEVEL_0
 62
     7
100
AcDbLine
 10
20.50080028858749
 20
11.22866915318955
 30
0.0
 11
19.93948688033749
 21
11.18844320388355
 31
0.0
  0
LINE
  5
158
330
1F
100
AcDbEntity
  8
IGES_LEVEL_0
 62
     7
100
AcDbLine
 10
19.93948688033749
 20
11.18844320388355
 30
0.0
 11
18.08976622617549
 21
11.08387813073855
 31
0.0
  0
LINE
  5
159
330
1F
100
AcDbEntity
  8
IGES_LEVEL_0
 62
     7
100
AcDbLine
 10
18.08976622617549
 20
11.08387813073855
 30
0.0
 11
18.04729739549549
 21
11.08198100567555
 31
0.0
  0
ARC
  5
15A
330
1F
100
AcDbEntity
  8
IGES_LEVEL_0
 62
     7
100
AcDbCircle
 10
14.49212740564411
 20
91.15053050867279
 30
0.0
 40
80.14743821963782
100
AcDbArc
 50
266.0122783014645
 51
272.5423531819724
  0
LINE
  5
15B
330
1F
100
AcDbEntity
  8
IGES_LEVEL_0
 62
     7
100
AcDbLine
 10
8.91845836430349
 20
11.19713116512855
 30
0.0
 11
8.489516518980791
 21
11.22819361566055
 31
0.0
  0
LINE
  5
15C
330
1F
100
AcDbEntity
  8
IGES_LEVEL_0
 62
     7
100
AcDbLine
 10
8.489516518980791
 20
11.22819361566055
 30
0.0
 11
7.967204333027691
 21
11.26914356754655
 31
0.0
  0
LINE
  5
15D
330
1F
100
AcDbEntity
  8
IGES_LEVEL_0
 62
     7
100
AcDbLine
 10
7.967204333027691
 20
11.26914356754655
 30
0.0
 11
6.889567224136491
 21
11.36450062770755
 31
0.0
  0
LINE
  5
15E
330
1F
100
AcDbEntity
  8
IGES_LEVEL_0
 62
     7
100
AcDbLine
 10
6.889567224136491
 20
11.36450062770755
 30
0.0
 11
6.810901231433491
 21
11.37203599575955
 31
0.0
  0
LINE
  5
15F
330
1F
100
AcDbEntity
  8
IGES_LEVEL_0
 62
     7
100
AcDbLine
 10
6.810901231433491
 20
11.37203599575955
 30
0.0
 11
6.780593144094492
 21
11.37496007500055
 31
0.0
  0
LINE
  5
160
330
1F
100
AcDbEntity
  8
IGES_LEVEL_0
 62
     7
100
AcDbLine
 10
6.780593144094492
 20
11.37496007500055
 30
0.0
 11
6.11131139100049
 21
11.44249514246455
 31
0.0
  0
LINE
  5
161
330
1F
100
AcDbEntity
  8
IGES_LEVEL_0
 62
     7
100
AcDbLine
 10
6.11131139100049
 20
11.44249514246455
 30
0.0
 11
6.083907590880492
 21
11.44538133310455
 31
0.0
  0
LINE
  5
162
330
1F
100
AcDbEntity
  8
IGES_LEVEL_0
 62
     7
100
AcDbLine
 10
6.083907590880492
 20
11.44538133310455
 30
0.0
 11
5.978195205160492
 21
11.45660430152155
 31
0.0
  0
LINE
  5
163
330
1F
100
AcDbEntity
  8
IGES_LEVEL_0
 62
     7
100
AcDbLine
 10
5.978195205160492
 20
11.45660430152155
 30
0.0
 11
5.94560740188849
 21
11.46009258182855
 31
0.0
  0
LINE
  5
164
330
1F
100
AcDbEntity
  8
IGES_LEVEL_0
 62
     7
100
AcDbLine
 10
5.94560740188849
 20
11.46009258182855
 30
0.0
 11
5.872975584167491
 21
11.46791577186455
 31
0.0
  0
LINE
  5
165
330
1F
100
AcDbEntity
  8
IGES_LEVEL_0
 62
     7
100
AcDbLine
 10
5.872975584167491
 20
11.46791577186455
 30
0.0
 11
3.729788933762491
 21
11.72900166898555
 31
0.0
  0
LINE
  5
166
330
1F
100
AcDbEntity
  8
IGES_LEVEL_0
 62
     7
100
AcDbLine
 10
25.17444885299749
 20
12.36766739371255
 30
0.0
 11
25.17333010390749
 21
12.36904307900955
 31
0.0
  0
LINE
  5
167
330
1F
100
AcDbEntity
  8
IGES_LEVEL_0
 62
     7
100
AcDbLine
 10
1.992830302279491
 20
11.34355576733555
 30
0.0
 11
1.995086807995491
 21
11.35531075442055
 31
0.0
  0
LINE
  5
168
330
1F
100
AcDbEntity
  8
IGES_LEVEL_0
 62
     7
100
AcDbLine
 10
1.995086807995491
 20
11.35531075442055
 30
0.0
 11
1.998398130187491
 21
11.37155087885455
 31
0.0
  0
LINE
  5
169
330
1F
100
AcDbEntity
  8
IGES_LEVEL_0
 62
     7
100
AcDbLine
 10
26.32493184405749
 20
10.90570493590655
 30
0.0
 11
26.30718018828749
 21
11.00561407286955
 31
0.0
  0
LINE
  5
16A
330
1F
100
AcDbEntity
  8
IGES_LEVEL_0
 62
     7
100
AcDbLine
 10
26.30718018828749
 20
11.00561407286955
 30
0.0
 11
26.27947791192749
 21
11.10087535365155
 31
0.0
  0
ARC
  5
16B
330
1F
100
AcDbEntity
  8
IGES_LEVEL_0
 62
     7
100
AcDbCircle
 10
25.38220426501319
 20
10.78700831494892
 30
0.0
 40
0.9505853541007487
100
AcDbArc
 50
19.27987777408227
 51
85.61124604021299
  0
LINE
  5
16C
330
1F
100
AcDbEntity
  8
IGES_LEVEL_0
 62
     7
100
AcDbLine
 10
25.45494621672749
 20
11.73480635456055
 30
0.0
 11
25.38273353931749
 21
11.73763615915355
 31
0.0
  0
LINE
  5
16D
330
1F
100
AcDbEntity
  8
IGES_LEVEL_0
 62
     7
100
AcDbLine
 10
25.38273353931749
 20
11.73763615915355
 30
0.0
 11
25.25411516145749
 21
11.72899012230355
 31
0.0
  0
LINE
  5
16E
330
1F
100
AcDbEntity
  8
IGES_LEVEL_0
 62
     7
100
AcDbLine
 10
1.994155141060491
 20
11.35529672230955
 30
0.0
 11
1.993156613046491
 21
11.34935948965555
 31
0.0
  0
LINE
  5
16F
330
1F
100
AcDbEntity
  8
IGES_LEVEL_0
 62
     7
100
AcDbLine
 10
1.993156613046491
 20
11.34935948965555
 30
0.0
 11
1.992830306028491
 21
11.34355577011455
 31
0.0
  0
ARC
  5
170
330
1F
100
AcDbEntity
  8
IGES_LEVEL_0
 62
     7
100
AcDbCircle
 10
14.56220986960618
 20
91.62554209740043
 30
0.0
 40
81.20878311246136
100
AcDbArc
 50
262.1446708496583
 51
263.8099149201963
  0
ARC
  5
171
330
1F
100
AcDbEntity
  8
IGES_LEVEL_0
 62
     7
100
AcDbCircle
 10
14.49393687432298
 20
90.85330556261002
 30
0.0
 40
80.43350940430359
100
AcDbArc
 50
264.666604080665
 51
275.3305564881182
  0
ARC
  5
172
330
1F
100
AcDbEntity
  8
IGES_LEVEL_0
 62
     7
100
AcDbCircle
 10
14.42594418441323
 20
91.62365782845076
 30
0.0
 40
81.2068807834447
100
AcDbArc
 50
276.187212712134
 51
277.8553276966083
  0
LINE
  5
173
330
1F
100
AcDbEntity
  8
IGES_LEVEL_0
 62
     7
100
AcDbLine
 10
26.26655922760749
 20
17.27178693753755
 30
0.0
 11
24.97356792589749
 21
28.11679893056954
 31
0.0
  0
SPLINE
  5
174
330
1F
100
AcDbEntity
  8
IGES_LEVEL_0
 62
     7
100
AcDbSpline
210
0.0
220
0.0
230
1.0
 70
     8
 71
     3
 72
    36
 73
    32
 74
     0
 42
0.0000000001
 43
0.0000000001
 40
0.0
 40
0.0
 40
0.0
 40
0.0
 40
0.01189021438209
 40
0.02632760615903
 40
0.04130805085361
 40
0.05699344326931
 40
0.0735181589511
 40
0.0909903966711
 40
0.109492670052
 40
0.1290861415865
 40
0.1498118624718
 40
0.1716953074643
 40
0.1947469572855
 40
0.218966209602
 40
0.2443412037198
 40
0.2708520860374
 40
0.2984703245322
 40
0.3271614680016
 40
0.3568841960489
 40
0.3875926894872
 40
0.4192355933732
 40
0.4517580704031
 40
0.4851007955053
 40
0.5539911601514
 40
0.6253783777728
 40
0.6986921516053
 40
0.7733345866284
 40
0.8486892902135
 40
0.9241301179528
 40
0.9990297537118
 40
1.0
 40
1.0
 40
1.0
 40
1.0
 10
4.01029606759949
 20
28.11679350369154
 30
0.0
 10
4.011359670429491
 20
28.12583657576154
 30
0.0
 10
4.014834679098491
 20
28.14572803929054
 30
0.0
 10
4.023933126870491
 20
28.17608656590454
 30
0.0
 10
4.03775635529849
 20
28.20779636012955
 30
0.0
 10
4.05577386574049
 20
28.23916977773154
 30
0.0
 10
4.077924000559491
 20
28.27014002871055
 30
0.0
 10
4.104147996044492
 20
28.30063895382154
 30
0.0
 10
4.13437552643549
 20
28.33060499376754
 30
0.0
 10
4.168535333430492
 20
28.35997081562354
 30
0.0
 10
4.206543757730491
 20
28.38867472908254
 30
0.0
 10
4.248312850092492
 20
28.41664912993155
 30
0.0
 10
4.293742467130492
 20
28.44383273581554
 30
0.0
 10
4.342726579584492
 20
28.47015940507555
 30
0.0
 10
4.395147966587492
 20
28.49556997014254
 30
0.0
 10
4.450882992890491
 20
28.52000146964155
 30
0.0
 10
4.509798056712492
 20
28.54339827002555
 30
0.0
 10
4.571753154055492
 20
28.56570181866555
 30
0.0
 10
4.636599523989491
 20
28.58686103747855
 30
0.0
 10
4.704182332920492
 20
28.60682266285654
 30
0.0
 10
4.774339060508491
 20
28.62554084339454
 30
0.0
 10
4.84690194664149
 20
28.64296858399954
 30
0.0
 10
4.947724367472492
 20
28.66466607835555
 30
0.0
 10
5.078541686804491
 20
28.68816149103155
 30
0.0
 10
5.240525004396491
 20
28.71034195003854
 30
0.0
 10
5.407632537248492
 20
28.72658959151755
 30
0.0
 10
5.578259286261491
 20
28.73674667882954
 30
0.0
 10
5.750769982440491
 20
28.74071414267955
 30
0.0
 10
5.923505629136492
 20
28.73845354725954
 30
0.0
 10
6.039186925854492
 20
28.73273597005455
 30
0.0
 10
6.097111321985492
 20
28.72877142082854
 30
0.0
 10
6.097852062910492
 20
28.72872054142755
 30
0.0
  0
LINE
  5
175
330
1F
100
AcDbEntity
  8
IGES_LEVEL_0
 62
     7
100
AcDbLine
 10
4.010294853412492
 20
28.11678441786654
 30
0.0
 11
2.717348031395491
 21
17.27204632354454
 31
0.0
  0
LINE
  5
176
330
1F
100
AcDbEntity
  8
IGES_LEVEL_0
 62
     7
100
AcDbLine
 10
2.72147160668949
 20
17.27292031951454
 30
0.0
 11
2.47743258078649
 21
15.51278807660555
 31
0.0
  0
ARC
  5
177
330
1F
100
AcDbEntity
  8
IGES_LEVEL_0
 62
     7
100
AcDbCircle
 10
3.712848630626935
 20
12.93211622858559
 30
0.0
 40
1.768223850846978
100
AcDbArc
 50
183.1700922525468
 51
220.7192978140056
  0
ARC
  5
178
330
1F
100
AcDbEntity
  8
IGES_LEVEL_0
 62
     7
100
AcDbCircle
 10
3.724084963412988
 20
12.94222119805225
 30
0.0
 40
1.782613966400565
100
AcDbArc
 50
241.0699603399121
 51
260.3746049420782
  0
LINE
  5
179
330
1F
100
AcDbEntity
  8
IGES_LEVEL_0
 62
     7
100
AcDbLine
 10
3.426021656853492
 20
11.18470282873455
 30
0.0
 11
3.463226057534491
 21
11.17880046833755
 31
0.0
  0
LINE
  5
17A
330
1F
100
AcDbEntity
  8
IGES_LEVEL_0
 62
     7
100
AcDbLine
 10
26.51046302949749
 20
15.51277070125455
 30
0.0
 11
26.26642086388749
 21
17.27292574206355
 31
0.0
  0
ARC
  5
17B
330
1F
100
AcDbEntity
  8
IGES_LEVEL_0
 62
     7
100
AcDbCircle
 10
25.26381588915177
 20
12.94218535217392
 30
0.0
 40
1.782577399917908
100
AcDbArc
 50
279.5925901886128
 51
298.8261731921439
  0
ARC
  5
17C
330
1F
100
AcDbEntity
  8
IGES_LEVEL_0
 62
     7
100
AcDbCircle
 10
25.27505061028034
 20
12.93211521140331
 30
0.0
 40
1.768216760103712
100
AcDbArc
 50
319.1669196984416
 51
356.8253869472871
  0
ARC
  5
17D
330
1F
100
AcDbEntity
  8
IGES_LEVEL_0
 62
     7
100
AcDbCircle
 10
14.49394445858241
 20
92.30721291349391
 30
0.0
 40
77.06658371809097
100
AcDbArc
 50
261.8943916528436
 51
278.1056082065144
  0
ARC
  5
17E
330
1F
100
AcDbEntity
  8
IGES_LEVEL_0
 62
     7
100
AcDbCircle
 10
3.702707177823983
 20
14.25432428174225
 30
0.0
 40
1.75781185245128
100
AcDbArc
 50
92.44561083184026
 51
179.9362988762216
  0
ARC
  5
17F
330
1F
100
AcDbEntity
  8
IGES_LEVEL_0
 62
     7
100
AcDbCircle
 10
25.28518139995618
 20
14.25432386507067
 30
0.0
 40
1.757812248584984
100
AcDbArc
 50
0.0644440817689238
 51
87.55438475735892
  0
ARC
  5
180
330
1F
100
AcDbEntity
  8
IGES_LEVEL_0
 62
     7
100
AcDbCircle
 10
14.49387847299342
 20
152.7306447314183
 30
0.0
 40
124.2855679850701
100
AcDbArc
 50
266.1264814961209
 51
273.8723401455211
  0
SPLINE
  5
181
330
1F
100
AcDbEntity
  8
IGES_LEVEL_0
 62
     7
100
AcDbSpline
210
0.0
220
0.0
230
1.0
 70
     8
 71
     3
 72
    35
 73
    31
 74
     0
 42
0.0000000001
 43
0.0000000001
 40
0.0
 40
0.0
 40
0.0
 40
0.0
 40
0.07533477862688
 40
0.1508193907185
 40
0.2262178294084
 40
0.3009035868785
 40
0.3742599127394
 40
0.4456885649352
 40
0.5146189156729
 40
0.5479809942009
 40
0.5805223487407
 40
0.6121836197811
 40
0.642909938182
 40
0.6726499191842
 40
0.7013577169962
 40
0.7289919872266
 40
0.7555182586625
 40
0.7809079827051
 40
0.8051412942104
 40
0.8282063255783
 40
0.8501024740998
 40
0.8708402265485
 40
0.8904450724305
 40
0.9089580867264
 40
0.9264404673781
 40
0.9429747758422
 40
0.9586692736266
 40
0.9736584142014
 40
0.9881041862698
 40
1.0
 40
1.0
 40
1.0
 40
1.0
 10
22.88733596317749
 20
28.72882039416654
 30
0.0
 10
22.94481865305749
 20
28.73275207103054
 30
0.0
 10
23.06005711140749
 20
28.73845879959854
 30
0.0
 10
23.23309234812749
 20
28.74072350102155
 30
0.0
 10
23.40560304962749
 20
28.73675622183255
 30
0.0
 10
23.57622981225749
 20
28.72659931716254
 30
0.0
 10
23.74333736689749
 20
28.71035185455754
 30
0.0
 10
23.90532071422749
 20
28.68817156893555
 30
0.0
 10
24.03613806469749
 20
28.66467629634355
 30
0.0
 10
24.13696051432749
 20
28.64297890998455
 30
0.0
 10
24.20952342382749
 20
28.62555124706055
 30
0.0
 10
24.27968017650749
 20
28.60683314162754
 30
0.0
 10
24.34726301218749
 20
28.58687158859854
 30
0.0
 10
24.41210941048749
 20
28.56571243920454
 30
0.0
 10
24.47406453772749
 20
28.54340895688955
 30
0.0
 10
24.53297963290749
 20
28.52001221957555
 30
0.0
 10
24.58871469194749
 20
28.49558077974355
 30
0.0
 10
24.64113611299749
 20
28.47017027079654
 30
0.0
 10
24.69012026072749
 20
28.44384365397955
 30
0.0
 10
24.73554991418749
 20
28.41666009673655
 30
0.0
 10
24.77731904401749
 20
28.38868574061655
 30
0.0
 10
24.81532750676749
 20
28.35998186786854
 30
0.0
 10
24.84948735308749
 20
28.33061608261354
 30
0.0
 10
24.87971492360749
 20
28.30065007507455
 30
0.0
 10
24.90593895992749
 20
28.27015117810455
 30
0.0
 10
24.92808913621749
 20
28.23918095092455
 30
0.0
 10
24.94610668868749
 20
28.20780755271754
 30
0.0
 10
24.95992995961749
 20
28.17609777340554
 30
0.0
 10
24.96902816150749
 20
28.14574021294255
 30
0.0
 10
24.97250314001749
 20
28.12584976285455
 30
0.0
 10
24.97356674928749
 20
28.11680769455554
 30
0.0
  0
ARC
  5
182
330
1F
100
AcDbEntity
  8
IGES_LEVEL_0
 62
     7
100
AcDbCircle
 10
14.49394443346798
 20
91.32730309032104
 30
0.0
 40
79.57803333485343
100
AcDbArc
 50
262.0303424744232
 51
277.9696573849311
  0
ARC
  5
183
330
1F
100
AcDbEntity
  8
IGES_LEVEL_0
 62
     7
100
AcDbCircle
 10
3.702126995946959
 20
14.25841174620443
 30
0.0
 40
1.757231878901749
100
AcDbArc
 50
180.0695525313157
 51
262.0984117945549
  0
ARC
  5
184
330
1F
100
AcDbEntity
  8
IGES_LEVEL_0
 62
     7
100
AcDbCircle
 10
25.28576164852294
 20
14.25841199498227
 30
0.0
 40
1.757232156132533
100
AcDbArc
 50
277.9015879058434
 51
359.9311689998904
  0
LINE
  5
185
330
1F
100
AcDbEntity
  8
IGES_LEVEL_0
 62
     7
100
AcDbLine
 10
70.66165536892748
 20
0.3974281280025468
 30
0.0
 11
70.6617098872575
 21
0.3970697591425444
 31
0.0
  0
LINE
  5
186
330
1F
100
AcDbEntity
  8
IGES_LEVEL_0
 62
     7
100
AcDbLine
 10
70.6617098872575
 20
0.3970697591425444
 30
0.0
 11
70.66246406147749
 21
0.3948890037625449
 31
0.0
  0
LINE
  5
187
330
1F
100
AcDbEntity
  8
IGES_LEVEL_0
 62
     7
100
AcDbLine
 10
42.73383577138749
 20
0.6862204379525475
 30
0.0
 11
42.73193842425749
 21
0.6808251512225477
 31
0.0
  0
ARC
  5
188
330
1F
100
AcDbEntity
  8
IGES_LEVEL_0
 62
     7
100
AcDbCircle
 10
43.30666839148964
 20
0.5540535068407949
 30
0.0
 40
0.5482247292052894
100
AcDbArc
 50
207.4983935892893
 51
277.0012411792917
  0
LINE
  5
189
330
1F
100
AcDbEntity
  8
IGES_LEVEL_0
 62
     7
100
AcDbLine
 10
71.7951067142275
 20
0.4827233633025453
 30
0.0
 11
71.8004538786775
 21
0.4937879967225473
 31
0.0
  0
LINE
  5
18A
330
1F
100
AcDbEntity
  8
IGES_LEVEL_0
 62
     7
100
AcDbLine
 10
70.65520656254749
 20
0.4101539097525463
 30
0.0
 11
70.6621110796475
 21
0.3999719426925469
 31
0.0
  0
LINE
  5
18B
330
1F
100
AcDbEntity
  8
IGES_LEVEL_0
 62
     7
100
AcDbLine
 10
71.8004645779175
 20
0.4938212771325449
 30
0.0
 11
71.82067828072749
 21
0.5931445102225456
 31
0.0
  0
LINE
  5
18C
330
1F
100
AcDbEntity
  8
IGES_LEVEL_0
 62
     7
100
AcDbLine
 10
71.82067828072749
 20
0.5931445102225456
 30
0.0
 11
71.8232877347275
 21
0.7076716567525468
 31
0.0
  0
LINE
  5
18D
330
1F
100
AcDbEntity
  8
IGES_LEVEL_0
 62
     7
100
AcDbLine
 10
70.60149007343749
 20
0.6191570246325479
 30
0.0
 11
70.61507309696749
 21
0.5283872420225445
 31
0.0
  0
LINE
  5
18E
330
1F
100
AcDbEntity
  8
IGES_LEVEL_0
 62
     7
100
AcDbLine
 10
70.61507309696749
 20
0.5283872420225445
 30
0.0
 11
70.6208386386075
 21
0.5052167825025452
 31
0.0
  0
LINE
  5
18F
330
1F
100
AcDbEntity
  8
IGES_LEVEL_0
 62
     7
100
AcDbLine
 10
70.6208386386075
 20
0.5052167825025452
 30
0.0
 11
70.65518974087749
 21
0.4101894332625465
 31
0.0
  0
LINE
  5
190
330
1F
100
AcDbEntity
  8
IGES_LEVEL_0
 62
     7
100
AcDbLine
 10
42.7338185697075
 20
0.697740303382547
 30
0.0
 11
42.73385519913749
 21
0.6861674334925477
 31
0.0
  0
LINE
  5
191
330
1F
100
AcDbEntity
  8
IGES_LEVEL_0
 62
     7
100
AcDbLine
 10
42.79850063270749
 20
0.9036512423825459
 30
0.0
 11
42.75490296926749
 21
0.7972237972725454
 31
0.0
  0
LINE
  5
192
330
1F
100
AcDbEntity
  8
IGES_LEVEL_0
 62
     7
100
AcDbLine
 10
42.75490296926749
 20
0.7972237972725454
 30
0.0
 11
42.73381926923749
 21
0.6977474304225469
 31
0.0
  0
LINE
  5
193
330
1F
100
AcDbEntity
  8
IGES_LEVEL_0
 62
     7
100
AcDbLine
 10
70.92887761048749
 20
0.2825660741725445
 30
0.0
 11
70.89858739927749
 21
0.2922840258825462
 31
0.0
  0
LINE
  5
194
330
1F
100
AcDbEntity
  8
IGES_LEVEL_0
 62
     7
100
AcDbLine
 10
70.89858739927749
 20
0.2922840258825462
 30
0.0
 11
70.66213180027749
 21
0.3999736788925449
 31
0.0
  0
LINE
  5
195
330
1F
100
AcDbEntity
  8
IGES_LEVEL_0
 62
     7
100
AcDbLine
 10
70.66213180027749
 20
0.3999736788925449
 30
0.0
 11
70.66246865795749
 21
0.3948912523825444
 31
0.0
  0
LINE
  5
196
330
1F
100
AcDbEntity
  8
IGES_LEVEL_0
 62
     7
100
AcDbLine
 10
71.54824951782749
 20
0.3278104979925461
 30
0.0
 11
71.43968433699749
 21
0.2852953359225462
 31
0.0
  0
LINE
  5
197
330
1F
100
AcDbEntity
  8
IGES_LEVEL_0
 62
     7
100
AcDbLine
 10
71.43968433699749
 20
0.2852953359225462
 30
0.0
 11
71.4348751310275
 21
0.2837933113725465
 31
0.0
  0
ARC
  5
198
330
1F
100
AcDbEntity
  8
IGES_LEVEL_0
 62
     7
100
AcDbCircle
 10
71.17982626481911
 20
1.109269623937423
 30
0.0
 40
0.8639797837680509
100
AcDbArc
 50
261.1845946809875
 51
287.1696718123191
  0
LINE
  5
199
330
1F
100
AcDbEntity
  8
IGES_LEVEL_0
 62
     7
100
AcDbLine
 10
71.0474200331075
 20
0.2554958502925454
 30
0.0
 11
71.0427378646875
 21
0.2562358065725457
 31
0.0
  0
LINE
  5
19A
330
1F
100
AcDbEntity
  8
IGES_LEVEL_0
 62
     7
100
AcDbLine
 10
71.0427378646875
 20
0.2562358065725457
 30
0.0
 11
70.9288775683375
 21
0.2825660678225449
 31
0.0
  0
LINE
  5
19B
330
1F
100
AcDbEntity
  8
IGES_LEVEL_0
 62
     7
100
AcDbLine
 10
71.79547637595749
 20
0.4776021832525447
 30
0.0
 11
71.7951028774975
 21
0.4827333176525473
 31
0.0
  0
LINE
  5
19C
330
1F
100
AcDbEntity
  8
IGES_LEVEL_0
 62
     7
100
AcDbLine
 10
71.7951028774975
 20
0.4827333176525473
 30
0.0
 11
71.57678452869749
 21
0.3418153805225453
 31
0.0
  0
LINE
  5
19D
330
1F
100
AcDbEntity
  8
IGES_LEVEL_0
 62
     7
100
AcDbLine
 10
71.57678452869749
 20
0.3418153805225453
 30
0.0
 11
71.54824942785749
 21
0.3278104486125474
 31
0.0
  0
ARC
  5
19E
330
1F
100
AcDbEntity
  8
IGES_LEVEL_0
 62
     7
100
AcDbCircle
 10
71.21306322800689
 20
0.667291896691637
 30
0.0
 40
0.6142880016204636
100
AcDbArc
 50
206.3254943446443
 51
243.4951958137716
  0
ARC
  5
19F
330
1F
100
AcDbEntity
  8
IGES_LEVEL_0
 62
     7
100
AcDbCircle
 10
71.21807954825758
 20
0.5855004429836151
 30
0.0
 40
0.5448709698713351
100
AcDbArc
 50
239.1808158997863
 51
309.1739337169659
  0
ARC
  5
1A0
330
1F
100
AcDbEntity
  8
IGES_LEVEL_0
 62
     7
100
AcDbCircle
 10
71.21119412681317
 20
0.6671364519088243
 30
0.0
 40
0.614249341814768
100
AcDbArc
 50
304.8576453608064
 51
342.0278785708452
  0
LINE
  5
1A1
330
1F
100
AcDbEntity
  8
IGES_LEVEL_0
 62
     7
100
AcDbLine
 10
43.45289133883749
 20
0.1650068931425447
 30
0.0
 11
43.33355131476749
 21
0.1883177260225447
 31
0.0
  0
ARC
  5
1A2
330
1F
100
AcDbEntity
  8
IGES_LEVEL_0
 62
     7
100
AcDbCircle
 10
43.56203778134871
 20
1.039414456022536
 30
0.0
 40
0.8812330618102401
100
AcDbArc
 50
229.5273363142806
 51
254.9726316875941
  0
LINE
  5
1A3
330
1F
100
AcDbEntity
  8
IGES_LEVEL_0
 62
     7
100
AcDbLine
 10
42.99004246244749
 20
0.3690465985125452
 30
0.0
 11
42.90325269953749
 21
0.4541762154225476
 31
0.0
  0
LINE
  5
1A4
330
1F
100
AcDbEntity
  8
IGES_LEVEL_0
 62
     7
100
AcDbLine
 10
43.7367261997175
 20
0.1522459454025461
 30
0.0
 11
43.74005382506749
 21
0.1568148393725454
 31
0.0
  0
ARC
  5
1A5
330
1F
100
AcDbEntity
  8
IGES_LEVEL_0
 62
     7
100
AcDbCircle
 10
43.71193173083627
 20
5.556391223066992
 30
0.0
 40
5.399649615996834
100
AcDbArc
 50
267.5844544186176
 51
270.2984053983903
  0
LINE
  5
1A6
330
1F
100
AcDbEntity
  8
IGES_LEVEL_0
 62
     7
100
AcDbLine
 10
43.48435412522748
 20
0.1615395653325446
 30
0.0
 11
43.45341846368748
 21
0.1649405039825477
 31
0.0
  0
LINE
  5
1A7
330
1F
100
AcDbEntity
  8
IGES_LEVEL_0
 62
     7
100
AcDbLine
 10
43.45341846368748
 20
0.1649405039825477
 30
0.0
 11
43.45289128284749
 21
0.165006886032545
 31
0.0
  0
LINE
  5
1A8
330
1F
100
AcDbEntity
  8
IGES_LEVEL_0
 62
     7
100
AcDbLine
 10
42.90325272363749
 20
0.4541762241325474
 30
0.0
 11
42.88255912146749
 21
0.4781577224425478
 31
0.0
  0
ARC
  5
1A9
330
1F
100
AcDbEntity
  8
IGES_LEVEL_0
 62
     7
100
AcDbCircle
 10
47.19770222135995
 20
3.719925070236933
 30
0.0
 40
5.397176623918782
100
AcDbArc
 50
214.2006342076888
 51
216.9158433737873
  0
ARC
  5
1AA
330
1F
100
AcDbEntity
  8
IGES_LEVEL_0
 62
     7
100
AcDbCircle
 10
43.34227684787906
 20
0.6242033541949319
 30
0.0
 40
0.6150817461629284
100
AcDbArc
 50
272.9105885328572
 51
309.8836524808683
  0
ARC
  5
1AB
330
1F
100
AcDbEntity
  8
IGES_LEVEL_0
 62
     7
100
AcDbCircle
 10
43.34426657545002
 20
0.6231227234018828
 30
0.0
 40
0.6150226122430477
100
AcDbArc
 50
174.6157300907264
 51
211.5921698799029
  0
LINE
  5
1AC
330
1F
100
AcDbEntity
  8
IGES_LEVEL_0
 62
     7
100
AcDbLine
 10
71.79509952257749
 20
0.4827277583125474
 30
0.0
 11
71.80045727673749
 21
0.4938160367125465
 31
0.0
  0
LINE
  5
1AD
330
1F
100
AcDbEntity
  8
IGES_LEVEL_0
 62
     7
100
AcDbLine
 10
70.6552073896475
 20
0.4101644465925477
 30
0.0
 11
70.6580323608675
 21
0.4053043732225471
 31
0.0
  0
LINE
  5
1AE
330
1F
100
AcDbEntity
  8
IGES_LEVEL_0
 62
     7
100
AcDbLine
 10
70.6580323608675
 20
0.4053043732225471
 30
0.0
 11
70.6604743944275
 21
0.4020041624125471
 31
0.0
  0
LINE
  5
1AF
330
1F
100
AcDbEntity
  8
IGES_LEVEL_0
 62
     7
100
AcDbLine
 10
70.6604743944275
 20
0.4020041624125471
 30
0.0
 11
70.66211455178748
 21
0.3999808451525463
 31
0.0
  0
LINE
  5
1B0
330
1F
100
AcDbEntity
  8
IGES_LEVEL_0
 62
     7
100
AcDbLine
 10
71.8004640182175
 20
0.4938373792525449
 30
0.0
 11
71.82067556654749
 21
0.5931448296125462
 31
0.0
  0
LINE
  5
1B1
330
1F
100
AcDbEntity
  8
IGES_LEVEL_0
 62
     7
100
AcDbLine
 10
71.82067722082749
 20
0.593158889152546
 30
0.0
 11
71.82328770832748
 21
0.7076716548625458
 31
0.0
  0
LINE
  5
1B2
330
1F
100
AcDbEntity
  8
IGES_LEVEL_0
 62
     7
100
AcDbLine
 10
70.60148901451748
 20
0.6191713977625478
 30
0.0
 11
70.61507203803748
 21
0.5284016197825475
 31
0.0
  0
LINE
  5
1B3
330
1F
100
AcDbEntity
  8
IGES_LEVEL_0
 62
     7
100
AcDbLine
 10
70.61507203803748
 20
0.5284016197825475
 30
0.0
 11
70.6208375799575
 21
0.5052311609625465
 31
0.0
  0
LINE
  5
1B4
330
1F
100
AcDbEntity
  8
IGES_LEVEL_0
 62
     7
100
AcDbLine
 10
70.6208375799575
 20
0.5052311609625465
 30
0.0
 11
70.65519431947749
 21
0.4101915340325472
 31
0.0
  0
LINE
  5
1B5
330
1F
100
AcDbEntity
  8
IGES_LEVEL_0
 62
     7
100
AcDbLine
 10
70.6014889878775
 20
0.6191713958225459
 30
0.0
 11
70.69849172567749
 21
0.6535019991525476
 31
0.0
  0
LINE
  5
1B6
330
1F
100
AcDbEntity
  8
IGES_LEVEL_0
 62
     7
100
AcDbLine
 10
70.69849172567749
 20
0.6535019991525476
 30
0.0
 11
70.71029521743749
 21
0.6556088401125474
 31
0.0
  0
LINE
  5
1B7
330
1F
100
AcDbEntity
  8
IGES_LEVEL_0
 62
     7
100
AcDbLine
 10
70.71029521743749
 20
0.6556088401125474
 30
0.0
 11
70.7116102788375
 21
0.6558355633125447
 31
0.0
  0
LINE
  5
1B8
330
1F
100
AcDbEntity
  8
IGES_LEVEL_0
 62
     7
100
AcDbLine
 10
70.7116102788375
 20
0.6558355633125447
 30
0.0
 11
70.7765197352275
 21
0.6654479777125476
 31
0.0
  0
LINE
  5
1B9
330
1F
100
AcDbEntity
  8
IGES_LEVEL_0
 62
     7
100
AcDbLine
 10
70.7765197352275
 20
0.6654479777125476
 30
0.0
 11
70.79097687322749
 21
0.6672403062925464
 31
0.0
  0
LINE
  5
1BA
330
1F
100
AcDbEntity
  8
IGES_LEVEL_0
 62
     7
100
AcDbLine
 10
70.79097687322749
 20
0.6672403062925464
 30
0.0
 11
70.89802842117749
 21
0.677494497912546
 31
0.0
  0
LINE
  5
1BB
330
1F
100
AcDbEntity
  8
IGES_LEVEL_0
 62
     7
100
AcDbLine
 10
43.63992871655749
 20
0.5163042848125466
 30
0.0
 11
43.70787479595749
 21
0.4786687347925475
 31
0.0
  0
LINE
  5
1BC
330
1F
100
AcDbEntity
  8
IGES_LEVEL_0
 62
     7
100
AcDbLine
 10
43.70787479595749
 20
0.4786687347925475
 30
0.0
 11
43.7696578190475
 21
0.4406317153125466
 31
0.0
  0
LINE
  5
1BD
330
1F
100
AcDbEntity
  8
IGES_LEVEL_0
 62
     7
100
AcDbLine
 10
43.7696578190475
 20
0.4406317153125466
 30
0.0
 11
43.80086228205749
 21
0.419492252582545
 31
0.0
  0
ARC
  5
1BE
330
1F
100
AcDbEntity
  8
IGES_LEVEL_0
 62
     7
100
AcDbCircle
 10
43.70830972138531
 20
0.2498463742818124
 30
0.0
 40
0.1932503570796344
100
AcDbArc
 50
25.57737263862241
 51
61.3847393596423
  0
LINE
  5
1BF
330
1F
100
AcDbEntity
  8
IGES_LEVEL_0
 62
     7
100
AcDbLine
 10
43.74000939779749
 20
0.1568214439025456
 30
0.0
 11
43.74077158626749
 21
0.1572557984825468
 31
0.0
  0
LINE
  5
1C0
330
1F
100
AcDbEntity
  8
IGES_LEVEL_0
 62
     7
100
AcDbLine
 10
43.74077158626749
 20
0.1572557984825468
 30
0.0
 11
43.74955777067748
 21
0.1633398451725458
 31
0.0
  0
LINE
  5
1C1
330
1F
100
AcDbEntity
  8
IGES_LEVEL_0
 62
     7
100
AcDbLine
 10
42.79850779254748
 20
0.9036474755525478
 30
0.0
 11
42.7549146935575
 21
0.7972286832825456
 31
0.0
  0
LINE
  5
1C2
330
1F
100
AcDbEntity
  8
IGES_LEVEL_0
 62
     7
100
AcDbLine
 10
42.7549146935575
 20
0.7972286832825456
 30
0.0
 11
42.73383022418749
 21
0.6977460606325446
 31
0.0
  0
ARC
  5
1C3
330
1F
100
AcDbEntity
  8
IGES_LEVEL_0
 62
     7
100
AcDbCircle
 10
42.82869673370334
 20
0.7157518834064718
 30
0.0
 40
0.1903131776085249
100
AcDbArc
 50
63.16914650955359
 51
99.12586880649668
  0
LINE
  5
1C4
330
1F
100
AcDbEntity
  8
IGES_LEVEL_0
 62
     7
100
AcDbLine
 10
42.91459613333748
 20
0.8855764950325468
 30
0.0
 11
42.91587159083748
 21
0.8851055439425454
 31
0.0
  0
LINE
  5
1C5
330
1F
100
AcDbEntity
  8
IGES_LEVEL_0
 62
     7
100
AcDbLine
 10
42.91587159083748
 20
0.8851055439425454
 30
0.0
 11
42.96379775534749
 21
0.8660009577125453
 31
0.0
  0
LINE
  5
1C6
330
1F
100
AcDbEntity
  8
IGES_LEVEL_0
 62
     7
100
AcDbLine
 10
42.96379775534749
 20
0.8660009577125453
 30
0.0
 11
43.08681138970749
 21
0.8073132584425461
 31
0.0
  0
ARC
  5
1C7
330
1F
100
AcDbEntity
  8
IGES_LEVEL_0
 62
     7
100
AcDbCircle
 10
43.3492542996387
 20
0.613848078698414
 30
0.0
 40
0.6026612986268094
100
AcDbArc
 50
311.6235452667013
 51
332.2540877340802
  0
LINE
  5
1C8
330
1F
100
AcDbEntity
  8
IGES_LEVEL_0
 62
     7
100
AcDbLine
 10
49.89964755834748
 20
11.76976468451155
 30
0.0
 11
49.90371896665749
 21
11.77750308516455
 31
0.0
  0
LINE
  5
1C9
330
1F
100
AcDbEntity
  8
IGES_LEVEL_0
 62
     7
100
AcDbLine
 10
69.8041331035175
 20
11.34888460998055
 30
0.0
 11
69.80651927213749
 21
11.31677526596655
 31
0.0
  0
LINE
  5
1CA
330
1F
100
AcDbEntity
  8
IGES_LEVEL_0
 62
     7
100
AcDbLine
 10
69.80413310149748
 20
11.34888460983055
 30
0.0
 11
69.8065127811675
 21
11.31686259550055
 31
0.0
  0
LINE
  5
1CB
330
1F
100
AcDbEntity
  8
IGES_LEVEL_0
 62
     7
100
AcDbLine
 10
49.23470901958748
 20
12.49254604844955
 30
0.0
 11
49.13867125597749
 21
12.52385091443555
 31
0.0
  0
LINE
  5
1CC
330
1F
100
AcDbEntity
  8
IGES_LEVEL_0
 62
     7
100
AcDbLine
 10
49.13867125597749
 20
12.52385091443555
 30
0.0
 11
49.09785362115748
 21
12.52699690234455
 31
0.0
  0
LINE
  5
1CD
330
1F
100
AcDbEntity
  8
IGES_LEVEL_0
 62
     7
100
AcDbLine
 10
49.09785362115748
 20
12.52699690234455
 30
0.0
 11
48.97813539831749
 21
12.50333267053755
 31
0.0
  0
LINE
  5
1CE
330
1F
100
AcDbEntity
  8
IGES_LEVEL_0
 62
     7
100
AcDbLine
 10
48.97813539831749
 20
12.50333267053755
 30
0.0
 11
48.94162015461748
 21
12.48485543827655
 31
0.0
  0
ARC
  5
1CF
330
1F
100
AcDbEntity
  8
IGES_LEVEL_0
 62
     7
100
AcDbCircle
 10
49.09593318955359
 20
12.22619375814268
 30
0.0
 40
0.3011949161603961
100
AcDbArc
 50
120.8195632356227
 51
151.964609948115
  0
LINE
  5
1D0
330
1F
100
AcDbEntity
  8
IGES_LEVEL_0
 62
     7
100
AcDbLine
 10
49.90815706952749
 20
11.78595696829555
 30
0.0
 11
49.91402526066749
 21
11.79711810142255
 31
0.0
  0
LINE
  5
1D1
330
1F
100
AcDbEntity
  8
IGES_LEVEL_0
 62
     7
100
AcDbLine
 10
49.91402526066749
 20
11.79711810142255
 30
0.0
 11
49.91417083389749
 21
11.79739316680955
 31
0.0
  0
LINE
  5
1D2
330
1F
100
AcDbEntity
  8
IGES_LEVEL_0
 62
     7
100
AcDbLine
 10
49.91417083389749
 20
11.79739316680955
 30
0.0
 11
49.94200193560749
 21
11.87594058329755
 31
0.0
  0
LINE
  5
1D3
330
1F
100
AcDbEntity
  8
IGES_LEVEL_0
 62
     7
100
AcDbLine
 10
49.94200193560749
 20
11.87594058329755
 30
0.0
 11
49.94754989750749
 21
11.91734584846055
 31
0.0
  0
LINE
  5
1D4
330
1F
100
AcDbEntity
  8
IGES_LEVEL_0
 62
     7
100
AcDbLine
 10
49.94754989750749
 20
11.91734584846055
 30
0.0
 11
49.94113371758749
 21
12.00046997889155
 31
0.0
  0
LINE
  5
1D5
330
1F
100
AcDbEntity
  8
IGES_LEVEL_0
 62
     7
100
AcDbLine
 10
49.94113371758749
 20
12.00046997889155
 30
0.0
 11
49.9293361494175
 21
12.04056378617455
 31
0.0
  0
ARC
  5
1D6
330
1F
100
AcDbEntity
  8
IGES_LEVEL_0
 62
     7
100
AcDbCircle
 10
49.64796806140241
 20
11.93590107158643
 30
0.0
 40
0.3002037387812117
100
AcDbArc
 50
20.40408945238373
 51
62.23303777156328
  0
LINE
  5
1D7
330
1F
100
AcDbEntity
  8
IGES_LEVEL_0
 62
     7
100
AcDbLine
 10
49.4261579664575
 20
10.86942823189655
 30
0.0
 11
49.80747354574748
 21
11.59441363463255
 31
0.0
  0
LINE
  5
1D8
330
1F
100
AcDbEntity
  8
IGES_LEVEL_0
 62
     7
100
AcDbLine
 10
49.80747354574748
 20
11.59441363463255
 30
0.0
 11
49.86368463172749
 21
11.70135961718855
 31
0.0
  0
LINE
  5
1D9
330
1F
100
AcDbEntity
  8
IGES_LEVEL_0
 62
     7
100
AcDbLine
 10
49.86368463172749
 20
11.70135961718855
 30
0.0
 11
49.88462196459749
 21
11.74119936837455
 31
0.0
  0
LINE
  5
1DA
330
1F
100
AcDbEntity
  8
IGES_LEVEL_0
 62
     7
100
AcDbLine
 10
49.88462196459749
 20
11.74119936837455
 30
0.0
 11
49.91051595851749
 21
11.79044565046655
 31
0.0
  0
LINE
  5
1DB
330
1F
100
AcDbEntity
  8
IGES_LEVEL_0
 62
     7
100
AcDbLine
 10
49.91051595851749
 20
11.79044565046655
 30
0.0
 11
49.91417083389749
 21
11.79739316680955
 31
0.0
  0
LINE
  5
1DC
330
1F
100
AcDbEntity
  8
IGES_LEVEL_0
 62
     7
100
AcDbLine
 10
71.0578105974375
 20
11.01071589095055
 30
0.0
 11
71.0210505955275
 21
11.50227314155655
 31
0.0
  0
LINE
  5
1DD
330
1F
100
AcDbEntity
  8
IGES_LEVEL_0
 62
     7
100
AcDbLine
 10
71.0210505955275
 20
11.50227314155655
 30
0.0
 11
70.9938043080175
 21
11.87080295143655
 31
0.0
  0
LINE
  5
1DE
330
1F
100
AcDbEntity
  8
IGES_LEVEL_0
 62
     7
100
AcDbLine
 10
70.9938043080175
 20
11.87080295143655
 30
0.0
 11
70.97676116667749
 21
12.09888616703455
 31
0.0
  0
LINE
  5
1DF
330
1F
100
AcDbEntity
  8
IGES_LEVEL_0
 62
     7
100
AcDbLine
 10
70.97676116667749
 20
12.09888616703455
 30
0.0
 11
70.97616073768749
 21
12.10694427001255
 31
0.0
  0
LINE
  5
1E0
330
1F
100
AcDbEntity
  8
IGES_LEVEL_0
 62
     7
100
AcDbLine
 10
70.97616073768749
 20
12.10694427001255
 30
0.0
 11
70.95866149329748
 21
12.18658187671255
 31
0.0
  0
LINE
  5
1E1
330
1F
100
AcDbEntity
  8
IGES_LEVEL_0
 62
     7
100
AcDbLine
 10
70.95866149329748
 20
12.18658187671255
 30
0.0
 11
70.89429210023749
 21
12.29009390864255
 31
0.0
  0
LINE
  5
1E2
330
1F
100
AcDbEntity
  8
IGES_LEVEL_0
 62
     7
100
AcDbLine
 10
70.89429210023749
 20
12.29009390864255
 30
0.0
 11
70.86412279711749
 21
12.31771131475655
 31
0.0
  0
ARC
  5
1E3
330
1F
100
AcDbEntity
  8
IGES_LEVEL_0
 62
     7
100
AcDbCircle
 10
70.67701557750581
 20
12.08286599468481
 30
0.0
 40
0.3002689394366485
100
AcDbArc
 50
51.45477931599468
 51
90.51744904012529
  0
LINE
  5
1E4
330
1F
100
AcDbEntity
  8
IGES_LEVEL_0
 62
     7
100
AcDbLine
 10
70.6743038286875
 20
12.38312268887955
 30
0.0
 11
70.65488658160749
 21
12.38231406672655
 31
0.0
  0
LINE
  5
1E5
330
1F
100
AcDbEntity
  8
IGES_LEVEL_0
 62
     7
100
AcDbLine
 10
70.9771434619075
 20
12.09381954753555
 30
0.0
 11
70.97619032324749
 21
12.10654139580955
 31
0.0
  0
LINE
  5
1E6
330
1F
100
AcDbEntity
  8
IGES_LEVEL_0
 62
     7
100
AcDbLine
 10
70.97619032324749
 20
12.10654139580955
 30
0.0
 11
70.97616073768749
 21
12.10694427001255
 31
0.0
  0
LINE
  5
1E7
330
1F
100
AcDbEntity
  8
IGES_LEVEL_0
 62
     7
100
AcDbLine
 10
70.0316052738375
 20
12.33599546335155
 30
0.0
 11
69.94093280191748
 21
12.31475704303355
 31
0.0
  0
LINE
  5
1E8
330
1F
100
AcDbEntity
  8
IGES_LEVEL_0
 62
     7
100
AcDbLine
 10
69.94093280191748
 20
12.31475704303355
 30
0.0
 11
69.9034361508175
 21
12.29634738607355
 31
0.0
  0
LINE
  5
1E9
330
1F
100
AcDbEntity
  8
IGES_LEVEL_0
 62
     7
100
AcDbLine
 10
69.9034361508175
 20
12.29634738607355
 30
0.0
 11
69.81099955994749
 21
12.21295760381455
 31
0.0
  0
ARC
  5
1EA
330
1F
100
AcDbEntity
  8
IGES_LEVEL_0
 62
     7
100
AcDbCircle
 10
70.05269182094253
 20
12.03744438635715
 30
0.0
 40
0.2986972355532272
100
AcDbArc
 50
144.0134217509695
 51
169.9701019240537
  0
LINE
  5
1EB
330
1F
100
AcDbEntity
  8
IGES_LEVEL_0
 62
     7
100
AcDbLine
 10
69.75855957348749
 20
12.08946610811055
 30
0.0
 11
69.75463223081749
 21
12.05790074900055
 31
0.0
  0
LINE
  5
1EC
330
1F
100
AcDbEntity
  8
IGES_LEVEL_0
 62
     7
100
AcDbLine
 10
69.75463223081749
 20
12.05790074900055
 30
0.0
 11
69.75456222694749
 21
12.01616380534255
 31
0.0
  0
LINE
  5
1ED
330
1F
100
AcDbEntity
  8
IGES_LEVEL_0
 62
     7
100
AcDbLine
 10
69.75456222694749
 20
12.01616380534255
 30
0.0
 11
69.7552239178975
 21
12.00720394825755
 31
0.0
  0
LINE
  5
1EE
330
1F
100
AcDbEntity
  8
IGES_LEVEL_0
 62
     7
100
AcDbLine
 10
69.7552239178975
 20
12.00720394825755
 30
0.0
 11
69.75553025348749
 21
12.00303800695355
 31
0.0
  0
LINE
  5
1EF
330
1F
100
AcDbEntity
  8
IGES_LEVEL_0
 62
     7
100
AcDbLine
 10
69.75515945860749
 20
12.00810543870155
 30
0.0
 11
69.75935429110749
 21
11.95138321152855
 31
0.0
  0
LINE
  5
1F0
330
1F
100
AcDbEntity
  8
IGES_LEVEL_0
 62
     7
100
AcDbLine
 10
69.75935429110749
 20
11.95138321152855
 30
0.0
 11
69.76276669570748
 21
11.90514793805755
 31
0.0
  0
LINE
  5
1F1
330
1F
100
AcDbEntity
  8
IGES_LEVEL_0
 62
     7
100
AcDbLine
 10
69.76276669570748
 20
11.90514793805755
 30
0.0
 11
69.76697403143749
 21
11.84814336892655
 31
0.0
  0
LINE
  5
1F2
330
1F
100
AcDbEntity
  8
IGES_LEVEL_0
 62
     7
100
AcDbLine
 10
69.76697403143749
 20
11.84814336892655
 30
0.0
 11
69.77201637989749
 21
11.78000821987655
 31
0.0
  0
LINE
  5
1F3
330
1F
100
AcDbEntity
  8
IGES_LEVEL_0
 62
     7
100
AcDbLine
 10
69.77201637989749
 20
11.78000821987655
 30
0.0
 11
69.83584209157749
 21
10.91990794484255
 31
0.0
  0
LINE
  5
1F4
330
1F
100
AcDbEntity
  8
IGES_LEVEL_0
 62
     7
100
AcDbLine
 10
71.0190039756875
 20
11.53064230042655
 30
0.0
 11
71.0137831192375
 21
11.60089685587255
 31
0.0
  0
LINE
  5
1F5
330
1F
100
AcDbEntity
  8
IGES_LEVEL_0
 62
     7
100
AcDbLine
 10
71.0137831192375
 20
11.60089685587255
 30
0.0
 11
71.00782806296749
 21
11.68103108737755
 31
0.0
  0
LINE
  5
1F6
330
1F
100
AcDbEntity
  8
IGES_LEVEL_0
 62
     7
100
AcDbLine
 10
71.0308806495075
 20
11.37082095999955
 30
0.0
 11
71.0199622361375
 21
11.51774745361655
 31
0.0
  0
LINE
  5
1F7
330
1F
100
AcDbEntity
  8
IGES_LEVEL_0
 62
     7
100
AcDbLine
 10
71.01900397936748
 20
11.53064230070055
 30
0.0
 11
71.0138236358375
 21
11.60035169975455
 31
0.0
  0
LINE
  5
1F8
330
1F
100
AcDbEntity
  8
IGES_LEVEL_0
 62
     7
100
AcDbLine
 10
71.0138236358375
 20
11.60035169975455
 30
0.0
 11
71.0054815291775
 21
11.71260739278255
 31
0.0
  0
LINE
  5
1F9
330
1F
100
AcDbEntity
  8
IGES_LEVEL_0
 62
     7
100
AcDbLine
 10
70.98725547467748
 20
11.95786944155155
 30
0.0
 11
70.98699762593749
 21
11.96133923807855
 31
0.0
  0
LINE
  5
1FA
330
1F
100
AcDbEntity
  8
IGES_LEVEL_0
 62
     7
100
AcDbLine
 10
70.98699762593749
 20
11.96133923807855
 30
0.0
 11
70.98153728195749
 21
12.03481745245555
 31
0.0
  0
LINE
  5
1FB
330
1F
100
AcDbEntity
  8
IGES_LEVEL_0
 62
     7
100
AcDbLine
 10
70.9787446863775
 20
12.07239648673255
 30
0.0
 11
70.97832970998749
 21
12.07798067945455
 31
0.0
  0
LINE
  5
1FC
330
1F
100
AcDbEntity
  8
IGES_LEVEL_0
 62
     7
100
AcDbLine
 10
71.05783355028748
 20
11.01072755942955
 30
0.0
 11
71.04871595188749
 21
11.13318430986855
 31
0.0
  0
LINE
  5
1FD
330
1F
100
AcDbEntity
  8
IGES_LEVEL_0
 62
     7
100
AcDbLine
 10
71.04871595188749
 20
11.13318430986855
 30
0.0
 11
71.03927951149748
 21
11.25802806194355
 31
0.0
  0
LINE
  5
1FE
330
1F
100
AcDbEntity
  8
IGES_LEVEL_0
 62
     7
100
AcDbLine
 10
71.03927951149748
 20
11.25802806194355
 30
0.0
 11
71.0213559666075
 21
11.49812040859455
 31
0.0
  0
LINE
  5
1FF
330
1F
100
AcDbEntity
  8
IGES_LEVEL_0
 62
     7
100
AcDbLine
 10
71.0213559666075
 20
11.49812040859455
 30
0.0
 11
71.01918621884749
 21
11.52744227941655
 31
0.0
  0
LINE
  5
200
330
1F
100
AcDbEntity
  8
IGES_LEVEL_0
 62
     7
100
AcDbLine
 10
69.80852213861749
 20
11.29072132932855
 30
0.0
 11
69.81761452396749
 21
11.16724297721655
 31
0.0
  0
LINE
  5
201
330
1F
100
AcDbEntity
  8
IGES_LEVEL_0
 62
     7
100
AcDbLine
 10
69.81761452396749
 20
11.16724297721655
 30
0.0
 11
69.82705827546749
 21
11.03796155016455
 31
0.0
  0
LINE
  5
202
330
1F
100
AcDbEntity
  8
IGES_LEVEL_0
 62
     7
100
AcDbLine
 10
69.82705827546749
 20
11.03796155016455
 30
0.0
 11
69.83581764928749
 21
10.91991609132755
 31
0.0
  0
LINE
  5
203
330
1F
100
AcDbEntity
  8
IGES_LEVEL_0
 62
     7
100
AcDbLine
 10
69.79593477025749
 20
11.66198650884055
 30
0.0
 11
69.6945718952575
 21
11.65445317581355
 31
0.0
  0
LINE
  5
204
330
1F
100
AcDbEntity
  8
IGES_LEVEL_0
 62
     7
100
AcDbLine
 10
69.6945718952575
 20
11.65445317581355
 30
0.0
 11
67.7822581063775
 21
11.51228648482755
 31
0.0
  0
LINE
  5
205
330
1F
100
AcDbEntity
  8
IGES_LEVEL_0
 62
     7
100
AcDbLine
 10
69.76412399738749
 20
12.09044048110255
 30
0.0
 11
69.73852130797749
 21
12.08510271924455
 31
0.0
  0
LINE
  5
206
330
1F
100
AcDbEntity
  8
IGES_LEVEL_0
 62
     7
100
AcDbLine
 10
69.73852130797749
 20
12.08510271924455
 30
0.0
 11
69.54898119456749
 21
12.04581006707155
 31
0.0
  0
LINE
  5
207
330
1F
100
AcDbEntity
  8
IGES_LEVEL_0
 62
     7
100
AcDbLine
 10
69.54898119456749
 20
12.04581006707155
 30
0.0
 11
68.5293835630375
 21
11.84156898030455
 31
0.0
  0
LINE
  5
208
330
1F
100
AcDbEntity
  8
IGES_LEVEL_0
 62
     7
100
AcDbLine
 10
68.5293835630375
 20
11.84156898030455
 30
0.0
 11
68.45183285233749
 21
11.82655739274955
 31
0.0
  0
LINE
  5
209
330
1F
100
AcDbEntity
  8
IGES_LEVEL_0
 62
     7
100
AcDbLine
 10
68.45183285233749
 20
11.82655739274955
 30
0.0
 11
67.7756142462375
 21
11.69900598202655
 31
0.0
  0
LINE
  5
20A
330
1F
100
AcDbEntity
  8
IGES_LEVEL_0
 62
     7
100
AcDbLine
 10
69.77785105474749
 20
11.90504250654355
 30
0.0
 11
67.7822530461975
 21
11.51228610931255
 31
0.0
  0
ARC
  5
20B
330
1F
100
AcDbEntity
  8
IGES_LEVEL_0
 62
     7
100
AcDbCircle
 10
51.86695025300479
 20
10.65257416914306
 30
0.0
 40
0.2894136250508775
100
AcDbArc
 50
150.6123966265959
 51
191.4879675957166
  0
ARC
  5
20C
330
1F
100
AcDbEntity
  8
IGES_LEVEL_0
 62
     7
100
AcDbCircle
 10
71.7470553529425
 20
0.6116391683817724
 30
0.0
 40
0.1184208961477175
100
AcDbArc
 50
53.79086061464084
 51
107.4135026351498
  0
LINE
  5
20D
330
1F
100
AcDbEntity
  8
IGES_LEVEL_0
 62
     7
100
AcDbLine
 10
71.71161604465749
 20
0.7246328145425468
 30
0.0
 11
71.69940893467749
 21
0.7252196762025472
 31
0.0
  0
LINE
  5
20E
330
1F
100
AcDbEntity
  8
IGES_LEVEL_0
 62
     7
100
AcDbLine
 10
71.69940893467749
 20
0.7252196762025472
 30
0.0
 11
71.52135019552749
 21
0.7226378761125448
 31
0.0
  0
LINE
  5
20F
330
1F
100
AcDbEntity
  8
IGES_LEVEL_0
 62
     7
100
AcDbLine
 10
49.74368007292749
 20
11.49320138398855
 30
0.0
 11
49.79623851643748
 21
11.46767804577255
 31
0.0
  0
LINE
  5
210
330
1F
100
AcDbEntity
  8
IGES_LEVEL_0
 62
     7
100
AcDbLine
 10
49.79623851643748
 20
11.46767804577255
 30
0.0
 11
49.84871060884748
 21
11.44219305346655
 31
0.0
  0
LINE
  5
211
330
1F
100
AcDbEntity
  8
IGES_LEVEL_0
 62
     7
100
AcDbLine
 10
49.84871060884748
 20
11.44219305346655
 30
0.0
 11
49.95345633952749
 21
11.39131785521955
 31
0.0
  0
LINE
  5
212
330
1F
100
AcDbEntity
  8
IGES_LEVEL_0
 62
     7
100
AcDbLine
 10
49.95345633952749
 20
11.39131785521955
 30
0.0
 11
51.38380473622749
 21
10.69485959557355
 31
0.0
  0
LINE
  5
213
330
1F
100
AcDbEntity
  8
IGES_LEVEL_0
 62
     7
100
AcDbLine
 10
51.38380473622749
 20
10.69485959557355
 30
0.0
 11
51.58333458096749
 21
10.59493393198255
 31
0.0
  0
LINE
  5
214
330
1F
100
AcDbEntity
  8
IGES_LEVEL_0
 62
     7
100
AcDbLine
 10
46.88023119210749
 20
24.88744509075955
 30
0.0
 11
45.35895244029749
 21
28.73973224382855
 31
0.0
  0
SPLINE
  5
215
330
1F
100
AcDbEntity
  8
IGES_LEVEL_0
 62
     7
100
AcDbSpline
210
0.0
220
0.0
230
1.0
 70
     8
 71
     3
 72
    11
 73
     7
 74
     0
 42
0.0000000001
 43
0.0000000001
 40
0.0
 40
0.0
 40
0.0
 40
0.0
 40
0.230437218316
 40
0.5007138887827
 40
0.79041768036
 40
1.0
 40
1.0
 40
1.0
 40
1.0
 10
46.33326574517749
 20
14.63384094759455
 30
0.0
 10
46.43938962237749
 20
14.38166928816155
 30
0.0
 10
46.71780866158748
 20
13.85286540656655
 30
0.0
 10
47.28437692282749
 20
13.10046222783955
 30
0.0
 10
47.93826581910749
 20
12.45826382255455
 30
0.0
 10
48.40700831454748
 20
12.09364218708755
 30
0.0
 10
48.60995080077748
 20
11.94947425102555
 30
0.0
  0
LINE
  5
216
330
1F
100
AcDbEntity
  8
IGES_LEVEL_0
 62
     7
100
AcDbLine
 10
42.09535903123749
 20
25.14906722987355
 30
0.0
 11
46.33326270345749
 21
14.63384086082855
 31
0.0
  0
LINE
  5
217
330
1F
100
AcDbEntity
  8
IGES_LEVEL_0
 62
     7
100
AcDbLine
 10
41.66437573276748
 20
26.26347813218255
 30
0.0
 11
42.06195203371749
 21
25.23526265286455
 31
0.0
  0
LINE
  5
218
330
1F
100
AcDbEntity
  8
IGES_LEVEL_0
 62
     7
100
AcDbLine
 10
42.06195203371749
 20
25.23526265286455
 30
0.0
 11
42.09233062135749
 21
25.15673224622555
 31
0.0
  0
SPLINE
  5
219
330
1F
100
AcDbEntity
  8
IGES_LEVEL_0
 62
     7
100
AcDbSpline
210
0.0
220
0.0
230
1.0
 70
     8
 71
     3
 72
    27
 73
    23
 74
     0
 42
0.0000000001
 43
0.0000000001
 40
0.0
 40
0.0
 40
0.0
 40
0.0
 40
0.02958585234479
 40
0.05947272116826
 40
0.08965806434941
 40
0.1201348955088
 40
0.1819017315532
 40
0.244651254226
 40
0.3082025551543
 40
0.3723431517753
 40
0.4368413409402
 40
0.5014573469461
 40
0.5659538724454
 40
0.6301066425856
 40
0.6937155098684
 40
0.7566166551536
 40
0.8186963524157001
 40
0.8799066086408
 40
0.9102015135985
 40
0.940300432689
 40
0.9702239026031
 40
1.0
 40
1.0
 40
1.0
 40
1.0
 10
50.07704858528749
 20
16.94238045132754
 30
0.0
 10
50.09297742036749
 20
16.90258462059055
 30
0.0
 10
50.12688315733749
 20
16.82335411493255
 30
0.0
 10
50.18333956699749
 20
16.70633692756955
 30
0.0
 10
50.24542135114749
 20
16.59074086230354
 30
0.0
 10
50.33579573486749
 20
16.43809131114454
 30
0.0
 10
50.4617930395975
 20
16.25194831897354
 30
0.0
 10
50.63117808973749
 20
16.03826622551254
 30
0.0
 10
50.81769618274748
 20
15.83468543380955
 30
0.0
 10
51.01959077067748
 20
15.64266924498155
 30
0.0
 10
51.23511689391749
 20
15.46367314472655
 30
0.0
 10
51.46252929464748
 20
15.29916098144655
 30
0.0
 10
51.70008590499749
 20
15.15059930528555
 30
0.0
 10
51.94604852995749
 20
15.01945854274255
 30
0.0
 10
52.19868222222749
 20
14.90721374581155
 30
0.0
 10
52.45626397693749
 20
14.81534607405955
 30
0.0
 10
52.71705509974748
 20
14.74534911693355
 30
0.0
 10
52.93643476564749
 20
14.70636054259955
 30
0.0
 10
53.11166695361749
 20
14.68776656374755
 30
0.0
 10
53.24234339544749
 20
14.68028199753955
 30
0.0
 10
53.37248331274749
 20
14.67940257389055
 30
0.0
 10
53.45891233108749
 20
14.68335009173255
 30
0.0
 10
53.50194033685749
 20
14.68649421239055
 30
0.0
  0
ARC
  5
21A
330
1F
100
AcDbEntity
  8
IGES_LEVEL_0
 62
     7
100
AcDbCircle
 10
52.01371012419246
 20
17.37183604366148
 30
0.0
 40
5.632496322332619
100
AcDbArc
 50
202.3162348540882
 51
232.7986877983891
  0
LINE
  5
21B
330
1F
100
AcDbEntity
  8
IGES_LEVEL_0
 62
     7
100
AcDbLine
 10
48.60820397981749
 20
12.88546222445555
 30
0.0
 11
49.10324383864749
 21
12.52464479605855
 31
0.0
  0
LINE
  5
21C
330
1F
100
AcDbEntity
  8
IGES_LEVEL_0
 62
     7
100
AcDbLine
 10
0.8275931468094917
 20
43.04097748361255
 30
0.0
 11
0.8249444249564906
 21
43.03564847046255
 31
0.0
  0
LINE
  5
21D
330
1F
100
AcDbEntity
  8
IGES_LEVEL_0
 62
     7
100
AcDbLine
 10
0.8249444249564906
 20
43.03564847046255
 30
0.0
 11
0.8243203361584903
 21
43.03435255098255
 31
0.0
  0
LINE
  5
21E
330
1F
100
AcDbEntity
  8
IGES_LEVEL_0
 62
     7
100
AcDbLine
 10
0.8243203361584903
 20
43.03435255098255
 30
0.0
 11
0.7951184816034906
 21
42.90539058317255
 31
0.0
  0
ARC
  5
21F
330
1F
100
AcDbEntity
  8
IGES_LEVEL_0
 62
     7
100
AcDbCircle
 10
1.091816009170453
 20
42.26878221663046
 30
0.0
 40
0.2903177766509253
100
AcDbArc
 50
211.9985118276344
 51
290.8162537180762
  0
LINE
  5
220
330
1F
100
AcDbEntity
  8
IGES_LEVEL_0
 62
     7
100
AcDbLine
 10
0.5750966016534906
 20
70.89191480690255
 30
0.0
 11
0.5685814784104906
 21
70.90104905039254
 31
0.0
  0
LINE
  5
221
330
1F
100
AcDbEntity
  8
IGES_LEVEL_0
 62
     7
100
AcDbLine
 10
0.0282628615304901
 20
70.83085757803255
 30
0.0
 11
0.0270183980694909
 21
70.82456357005255
 31
0.0
  0
LINE
  5
222
330
1F
100
AcDbEntity
  8
IGES_LEVEL_0
 62
     7
100
AcDbLine
 10
0.0270183980694909
 20
70.82456357005255
 30
0.0
 11
0.0267782615294905
 21
70.82332194490255
 31
0.0
  0
LINE
  5
223
330
1F
100
AcDbEntity
  8
IGES_LEVEL_0
 62
     7
100
AcDbLine
 10
0.0267782615294905
 20
70.82332194490255
 30
0.0
 11
0.0064372545374904
 21
70.63514815639255
 31
0.0
  0
LINE
  5
224
330
1F
100
AcDbEntity
  8
IGES_LEVEL_0
 62
     7
100
AcDbLine
 10
0.0064372545374904
 20
70.63514815639255
 30
0.0
 11
0.0057667362444913
 21
70.61618231688254
 31
0.0
  0
LINE
  5
225
330
1F
100
AcDbEntity
  8
IGES_LEVEL_0
 62
     7
100
AcDbLine
 10
0.0057667362444913
 20
70.61618231688254
 30
0.0
 11
0.0220611692274904
 21
70.18206241136255
 31
0.0
  0
LINE
  5
226
330
1F
100
AcDbEntity
  8
IGES_LEVEL_0
 62
     7
100
AcDbLine
 10
0.0220611692274904
 20
70.18206241136255
 30
0.0
 11
0.0221180412764912
 21
70.18025541972256
 31
0.0
  0
LINE
  5
227
330
1F
100
AcDbEntity
  8
IGES_LEVEL_0
 62
     7
100
AcDbLine
 10
0.0996657619424901
 20
70.98493438024255
 30
0.0
 11
0.0506331439854903
 21
70.90583727191255
 31
0.0
  0
LINE
  5
228
330
1F
100
AcDbEntity
  8
IGES_LEVEL_0
 62
     7
100
AcDbLine
 10
0.0506331439854903
 20
70.90583727191255
 30
0.0
 11
0.0288930761754915
 21
70.83422078785256
 31
0.0
  0
LINE
  5
229
330
1F
100
AcDbEntity
  8
IGES_LEVEL_0
 62
     7
100
AcDbLine
 10
0.0288930761754915
 20
70.83422078785256
 30
0.0
 11
0.0287488293964902
 21
70.83347631153255
 31
0.0
  0
LINE
  5
22A
330
1F
100
AcDbEntity
  8
IGES_LEVEL_0
 62
     7
100
AcDbLine
 10
0.0287488293964902
 20
70.83347631153255
 30
0.0
 11
0.0282536322894902
 21
70.83085910887255
 31
0.0
  0
ARC
  5
22B
330
1F
100
AcDbEntity
  8
IGES_LEVEL_0
 62
     7
100
AcDbCircle
 10
0.2087249084552667
 20
70.6588452839467
 30
0.0
 40
0.4337735033620085
100
AcDbArc
 50
33.94272912317871
 51
67.68489384775225
  0
LINE
  5
22C
330
1F
100
AcDbEntity
  8
IGES_LEVEL_0
 62
     7
100
AcDbLine
 10
0.5685814784104906
 20
70.90104905039254
 30
0.0
 11
0.5581676009724912
 21
70.91397906902255
 31
0.0
  0
LINE
  5
22D
330
1F
100
AcDbEntity
  8
IGES_LEVEL_0
 62
     7
100
AcDbLine
 10
2.007545142898491
 20
64.53973283885256
 30
0.0
 11
2.015203569612491
 21
64.51954189587255
 31
0.0
  0
LINE
  5
22E
330
1F
100
AcDbEntity
  8
IGES_LEVEL_0
 62
     7
100
AcDbLine
 10
2.015203569612491
 20
64.51954189587255
 30
0.0
 11
2.057334628592491
 21
64.43290154332254
 31
0.0
  0
LINE
  5
22F
330
1F
100
AcDbEntity
  8
IGES_LEVEL_0
 62
     7
100
AcDbLine
 10
2.057334628592491
 20
64.43290154332254
 30
0.0
 11
2.116897365137491
 21
64.34638478578255
 31
0.0
  0
ARC
  5
230
330
1F
100
AcDbEntity
  8
IGES_LEVEL_0
 62
     7
100
AcDbCircle
 10
2.855385137328661
 20
64.95507934570527
 30
0.0
 40
0.9570126733515063
100
AcDbArc
 50
219.4968687330284
 51
237.1555936624627
  0
LINE
  5
231
330
1F
100
AcDbEntity
  8
IGES_LEVEL_0
 62
     7
100
AcDbLine
 10
0.6009915761334905
 20
70.84090680968255
 30
0.0
 11
0.5854648900964914
 21
70.87515132580255
 31
0.0
  0
LINE
  5
232
330
1F
100
AcDbEntity
  8
IGES_LEVEL_0
 62
     7
100
AcDbLine
 10
1.248009280052491
 20
42.02270669252255
 30
0.0
 11
1.195001061633491
 21
41.99746312513255
 31
0.0
  0
LINE
  5
233
330
1F
100
AcDbEntity
  8
IGES_LEVEL_0
 62
     7
100
AcDbLine
 10
0.8258632698964916
 20
42.14898743166255
 30
0.0
 11
0.8086234317674907
 21
42.19250711683255
 31
0.0
  0
LINE
  5
234
330
1F
100
AcDbEntity
  8
IGES_LEVEL_0
 62
     7
100
AcDbLine
 10
0.8086234317674907
 20
42.19250711683255
 30
0.0
 11
0.7949769065024916
 21
42.28206880883255
 31
0.0
  0
ARC
  5
235
330
1F
100
AcDbEntity
  8
IGES_LEVEL_0
 62
     7
100
AcDbCircle
 10
1.090982417883722
 20
42.90682828871179
 30
0.0
 40
0.2955386498227198
100
AcDbArc
 50
128.5313463887595
 51
154.4417588134906
  0
LINE
  5
236
330
1F
100
AcDbEntity
  8
IGES_LEVEL_0
 62
     7
100
AcDbLine
 10
0.9068787714674904
 20
43.13801855865255
 30
0.0
 11
0.9376624429994915
 21
43.15940816982255
 31
0.0
  0
LINE
  5
237
330
1F
100
AcDbEntity
  8
IGES_LEVEL_0
 62
     7
100
AcDbLine
 10
0.0228252101774913
 20
70.16349023585255
 30
0.0
 11
0.0366093335254909
 21
70.08479851351254
 31
0.0
  0
ARC
  5
238
330
1F
100
AcDbEntity
  8
IGES_LEVEL_0
 62
     7
100
AcDbCircle
 10
23.27118608578677
 20
69.99723521023407
 30
0.0
 40
1.722233121999849
100
AcDbArc
 50
17.40936475615553
 51
81.22499193571572
  0
LINE
  5
239
330
1F
100
AcDbEntity
  8
IGES_LEVEL_0
 62
     7
100
AcDbLine
 10
26.25222180000749
 20
65.95985418551254
 30
0.0
 11
24.91452640356749
 21
70.51252182485254
 31
0.0
  0
LINE
  5
23A
330
1F
100
AcDbEntity
  8
IGES_LEVEL_0
 62
     7
100
AcDbLine
 10
4.069335664012491
 20
70.51251823348255
 30
0.0
 11
2.732768889444492
 21
65.96358756113256
 31
0.0
  0
LINE
  5
23B
330
1F
100
AcDbEntity
  8
IGES_LEVEL_0
 62
     7
100
AcDbLine
 10
2.732768889444492
 20
65.96358756113256
 30
0.0
 11
2.73178738683849
 21
65.96030465389255
 31
0.0
  0
ARC
  5
23C
330
1F
100
AcDbEntity
  8
IGES_LEVEL_0
 62
     7
100
AcDbCircle
 10
18.25712373986696
 20
61.62646234629456
 30
0.0
 40
16.11504267917448
100
AcDbArc
 50
164.4032893759903
 51
169.7783066962068
  0
ARC
  5
23D
330
1F
100
AcDbEntity
  8
IGES_LEVEL_0
 62
     7
100
AcDbCircle
 10
27.74059054148717
 20
59.64440815148959
 30
0.0
 40
25.80127444858759
100
AcDbArc
 50
169.1835682042727
 51
178.8259058274313
  0
ARC
  5
23E
330
1F
100
AcDbEntity
  8
IGES_LEVEL_0
 62
     7
100
AcDbCircle
 10
10.77299728420432
 20
61.63534315015404
 30
0.0
 40
16.07190828618954
100
AcDbArc
 50
10.21725254255562
 51
15.61896983178608
  0
ARC
  5
23F
330
1F
100
AcDbEntity
  8
IGES_LEVEL_0
 62
     7
100
AcDbCircle
 10
1.24730574640691
 20
59.64441386395692
 30
0.0
 40
25.80126987162256
100
AcDbArc
 50
1.174076892596224
 51
10.8164220945296
  0
SPLINE
  5
240
330
1F
100
AcDbEntity
  8
IGES_LEVEL_0
 62
     7
100
AcDbSpline
210
0.0
220
0.0
230
1.0
 70
     8
 71
     3
 72
    14
 73
    10
 74
     0
 42
0.0000000001
 43
0.0000000001
 40
0.0
 40
0.0
 40
0.0
 40
0.0
 40
0.0050645074754
 40
0.05474474593779
 40
0.1598892708967
 40
0.3160569211211
 40
0.5156726374879
 40
0.7486305560335
 40
1.0
 40
1.0
 40
1.0
 40
1.0
 10
27.03775070654749
 20
42.04228436208255
 30
0.0
 10
27.0386171641175
 20
42.04011028676255
 30
0.0
 10
27.04440269166749
 20
42.01749763942254
 30
0.0
 10
26.9192062212875
 20
42.00219931517255
 30
0.0
 10
26.7964145527575
 20
41.97401763607255
 30
0.0
 10
26.54580288570749
 20
41.95464346780255
 30
0.0
 10
26.25257194795749
 20
41.93582140700255
 30
0.0
 10
25.90184603895749
 20
41.92333878895255
 30
0.0
 10
25.65548753819749
 20
41.91874739987254
 30
0.0
 10
25.52733186247749
 20
41.91743408210255
 30
0.0
  0
ARC
  5
241
330
1F
100
AcDbEntity
  8
IGES_LEVEL_0
 62
     7
100
AcDbCircle
 10
14.49404599655902
 20
1126.205060340973
 30
0.0
 40
1084.343760001917
100
AcDbArc
 50
269.4169899839521
 51
270.5829992722592
  0
SPLINE
  5
242
330
1F
100
AcDbEntity
  8
IGES_LEVEL_0
 62
     7
100
AcDbSpline
210
0.0
220
0.0
230
1.0
 70
     8
 71
     3
 72
    14
 73
    10
 74
     0
 42
0.0000000001
 43
0.0000000001
 40
0.0
 40
0.0
 40
0.0
 40
0.0
 40
0.2512644154377
 40
0.4841305882061
 40
0.6836919234024
 40
0.8398721453544
 40
0.9450570092782
 40
0.994916251901
 40
1.0
 40
1.0
 40
1.0
 40
1.0
 10
3.460556811002491
 20
41.91743615102255
 30
0.0
 10
3.332455347518491
 20
41.91874893726255
 30
0.0
 10
3.08619834251749
 20
41.92333789587255
 30
0.0
 10
2.735602369436491
 20
41.93581063181254
 30
0.0
 10
2.442441053253491
 20
41.95462256233255
 30
0.0
 10
2.191822000729491
 20
41.97397464916255
 30
0.0
 10
2.068957427720491
 20
42.00216983405255
 30
0.0
 10
1.943474938314491
 20
42.01742552750255
 30
0.0
 10
1.949303210070491
 20
42.04009457739255
 30
0.0
 10
1.950175391599491
 20
42.04227458219255
 30
0.0
  0
ARC
  5
243
330
1F
100
AcDbEntity
  8
IGES_LEVEL_0
 62
     7
100
AcDbCircle
 10
14.49395122642194
 20
19.08256438511787
 30
0.0
 40
53.3876694336066
100
AcDbArc
 50
80.25131227461715
 51
99.74447977971848
  0
ARC
  5
244
330
1F
100
AcDbEntity
  8
IGES_LEVEL_0
 62
     7
100
AcDbCircle
 10
5.713293764651045
 20
69.9967348399837
 30
0.0
 40
1.722971265012269
100
AcDbArc
 50
98.52995261374345
 51
162.5810172173258
  0
ARC
  5
245
330
1F
100
AcDbEntity
  8
IGES_LEVEL_0
 62
     7
100
AcDbCircle
 10
14.49404279995815
 20
1092.064052864427
 30
0.0
 40
1049.947761945483
100
AcDbArc
 50
269.4070117177181
 51
270.5929775384843
  0
ARC
  5
246
330
1F
100
AcDbEntity
  8
IGES_LEVEL_0
 62
     7
100
AcDbCircle
 10
14.49394283269553
 20
19.58280709393643
 30
0.0
 40
49.6044506966341
100
AcDbArc
 50
80.25831674158174
 51
99.74480474655604
  0
SPLINE
  5
247
330
1F
100
AcDbEntity
  8
IGES_LEVEL_0
 62
     7
100
AcDbSpline
210
0.0
220
0.0
230
1.0
 70
     8
 71
     3
 72
    14
 73
    10
 74
     0
 42
0.0000000001
 43
0.0000000001
 40
0.0
 40
0.0
 40
0.0
 40
0.0
 40
0.01568139730317
 40
0.08167924856403
 40
0.196678391232
 40
0.355183774311
 40
0.5492448936608
 40
0.7689857806237
 40
1.0
 40
1.0
 40
1.0
 40
1.0
 10
1.950175391599491
 20
42.04227458219255
 30
0.0
 10
1.953154397414491
 20
42.04972056305255
 30
0.0
 10
1.988900144553491
 20
42.09351676105255
 30
0.0
 10
2.105845049402491
 20
42.08802432703255
 30
0.0
 10
2.291395905238491
 20
42.12800665634255
 30
0.0
 10
2.556730150457491
 20
42.14092234031255
 30
0.0
 10
2.878702104932491
 20
42.15952615091255
 30
0.0
 10
3.242864261317492
 20
42.16903402509254
 30
0.0
 10
3.497279029462491
 20
42.17209790797255
 30
0.0
 10
3.627699586004492
 20
42.17252256261255
 30
0.0
  0
SPLINE
  5
248
330
1F
100
AcDbEntity
  8
IGES_LEVEL_0
 62
     7
100
AcDbSpline
210
0.0
220
0.0
230
1.0
 70
     8
 71
     3
 72
    14
 73
    10
 74
     0
 42
0.0000000001
 43
0.0000000001
 40
0.0
 40
0.0
 40
0.0
 40
0.0
 40
0.2311309943602
 40
0.4509609364287
 40
0.6450738712103
 40
0.8035783337713
 40
0.9185385743241
 40
0.9843938293696
 40
1.0
 40
1.0
 40
1.0
 40
1.0
 10
25.36018914387749
 20
42.17252052503255
 30
0.0
 10
25.49067911009749
 20
42.17209561992254
 30
0.0
 10
25.74521610797749
 20
42.16902890465255
 30
0.0
 10
26.10953644205749
 20
42.15951280941255
 30
0.0
 10
26.43158607944749
 20
42.14089196610254
 30
0.0
 10
26.69695816229749
 20
42.12796727900255
 30
0.0
 10
26.88235507331749
 20
42.08796989606255
 30
0.0
 10
26.99923140425749
 20
42.09341772716255
 30
0.0
 10
27.03479419551749
 20
42.04970270303255
 30
0.0
 10
27.03775070654749
 20
42.04228436208255
 30
0.0
  0
ARC
  5
249
330
1F
100
AcDbEntity
  8
IGES_LEVEL_0
 62
     7
100
AcDbCircle
 10
12.78894213004151
 20
60.17625847710618
 30
0.0
 40
12.57228717285717
100
AcDbArc
 50
0.5707449186702278
 51
16.40189597726522
  0
SPLINE
  5
24A
330
1F
100
AcDbEntity
  8
IGES_LEVEL_0
 62
     7
100
AcDbSpline
210
0.0
220
0.0
230
1.0
 70
     8
 71
     3
 72
    28
 73
    24
 74
     0
 42
0.0000000001
 43
0.0000000001
 40
0.0
 40
0.0
 40
0.0
 40
0.0
 40
0.05070310902462
 40
0.101197832139
 40
0.1516834964462
 40
0.2020945769528
 40
0.252368133245
 40
0.302446019415
 40
0.3522769764928
 40
0.4018185481278
 40
0.4510387563113
 40
0.499917470273
 40
0.5484473997304
 40
0.5966346452078
 40
0.6444987451839001
 40
0.6920721742389
 40
0.7393992694131
 40
0.7865345935895
 40
0.8335407829816
 40
0.8804859668044001
 40
0.9274408853105
 40
0.9744758614138001
 40
1.0
 40
1.0
 40
1.0
 40
1.0
 10
22.88733581472749
 20
68.47199445151256
 30
0.0
 10
22.94448882627749
 20
68.46214015525254
 30
0.0
 10
23.05953675643749
 20
68.44772535979254
 30
0.0
 10
23.23317365691749
 20
68.44197795173255
 30
0.0
 10
23.40629358444749
 20
68.45204870052254
 30
0.0
 10
23.57751960197749
 20
68.47783475645255
 30
0.0
 10
23.74521296698749
 20
68.51908927222254
 30
0.0
 10
23.90776183909749
 20
68.57541885291255
 30
0.0
 10
24.06360457538749
 20
68.64628576777255
 30
0.0
 10
24.21124230508749
 20
68.73101324061256
 30
0.0
 10
24.34925368607749
 20
68.82879151642254
 30
0.0
 10
24.47630826467749
 20
68.93868524372255
 30
0.0
 10
24.59117927321749
 20
69.05964195449255
 30
0.0
 10
24.69275553787749
 20
69.19050163398255
 30
0.0
 10
24.78005248053749
 20
69.33000733138255
 30
0.0
 10
24.85222210359749
 20
69.47681678765255
 30
0.0
 10
24.90856184422749
 20
69.62951505522256
 30
0.0
 10
24.94852214679749
 20
69.78662807007254
 30
0.0
 10
24.97171257546749
 20
69.94663709757255
 30
0.0
 10
24.97790627794749
 20
70.10799391443254
 30
0.0
 10
24.96704263162749
 20
70.26913651914255
 30
0.0
 10
24.94349513005749
 20
70.40405566188255
 30
0.0
 10
24.92265104752749
 20
70.48446544867255
 30
0.0
 10
24.91452618641749
 20
70.51252177145256
 30
0.0
  0
ARC
  5
24B
330
1F
100
AcDbEntity
  8
IGES_LEVEL_0
 62
     7
100
AcDbCircle
 10
16.182838328588
 20
60.18054519716571
 30
0.0
 40
12.55574127281157
100
AcDbArc
 50
163.5960616640655
 51
179.4481352035828
  0
SPLINE
  5
24C
330
1F
100
AcDbEntity
  8
IGES_LEVEL_0
 62
     7
100
AcDbSpline
210
0.0
220
0.0
230
1.0
 70
     8
 71
     3
 72
    29
 73
    25
 74
     0
 42
0.0000000001
 43
0.0000000001
 40
0.0
 40
0.0
 40
0.0
 40
0.0
 40
0.0255133821451
 40
0.07253114060643
 40
0.1194688687393
 40
0.1663968636529
 40
0.2133858397322
 40
0.260503901369
 40
0.3078136620458
 40
0.3553696649413
 40
0.4032162311919
 40
0.451385823857
 40
0.4998979746544
 40
0.548758782274
 40
0.5979609594925001
 40
0.647484383277
 40
0.697297087659
 40
0.7473566321185
 40
0.7976117766862
 40
0.8480043969168
 40
0.8984715755505
 40
0.9489478116276
 40
0.9993672910607
 40
1.0
 40
1.0
 40
1.0
 40
1.0
 10
4.069335893726492
 20
70.51251822347254
 30
0.0
 10
4.061211555842491
 20
70.48446343113255
 30
0.0
 10
4.040367964882491
 20
70.40405518637255
 30
0.0
 10
4.016820670191492
 20
70.26913764438254
 30
0.0
 10
4.00595693779849
 20
70.10799504097255
 30
0.0
 10
4.01215055409349
 20
69.94663822336256
 30
0.0
 10
4.035340897340492
 20
69.78662919310256
 30
0.0
 10
4.075301116129491
 20
69.62951617353255
 30
0.0
 10
4.131640775460492
 20
69.47681789936254
 30
0.0
 10
4.203810320506491
 20
69.33000843474255
 30
0.0
 10
4.291107189195492
 20
69.19050272734255
 30
0.0
 10
4.392683384621491
 20
69.05964303637255
 30
0.0
 10
4.507554329298492
 20
68.93868631280255
 30
0.0
 10
4.634608849992492
 20
68.82879257149256
 30
0.0
 10
4.772620179557491
 20
68.73101428063255
 30
0.0
 10
4.920257864753491
 20
68.64628679185255
 30
0.0
 10
5.076100563871491
 20
68.57541986030255
 30
0.0
 10
5.238649406460492
 20
68.51909026232255
 30
0.0
 10
5.406342749869491
 20
68.47783572879254
 30
0.0
 10
5.577568753901491
 20
68.45204965479255
 30
0.0
 10
5.750688676167491
 20
68.44197888776255
 30
0.0
 10
5.924022036573491
 20
68.44771623024255
 30
0.0
 10
6.039490176303491
 20
68.46215557579255
 30
0.0
 10
6.097056765282491
 20
68.47208671007255
 30
0.0
 10
6.097770133042491
 20
68.47221020048255
 30
0.0
  0
ENDSEC
  0
SECTION
  2
OBJECTS
  0
DICTIONARY
  5
C
330
0
100
AcDbDictionary
  3
ACAD_GROUP
350
D
  3
ACAD_LAYOUT
350
1A
  3
ACAD_MLINESTYLE
350
17
  3
ACAD_PLOTSETTINGS
350
19
  3
ACDBHEADERROUNDTRIPXREC
350
24D
  0
DICTIONARY
  5
26D
330
29
100
AcDbDictionary
280
     1
  3
ACAD_XREC_ROUNDTRIP
360
26E
  0
DICTIONARY
  5
D
102
{ACAD_REACTORS
330
C
102
}
330
C
100
AcDbDictionary
  0
DICTIONARY
  5
1A
102
{ACAD_REACTORS
330
C
102
}
330
C
100
AcDbDictionary
  0
DICTIONARY
  5
17
102
{ACAD_REACTORS
330
C
102
}
330
C
100
AcDbDictionary
  3
STANDARD
350
18
  0
DICTIONARY
  5
19
102
{ACAD_REACTORS
330
C
102
}
330
C
100
AcDbDictionary
  0
DICTIONARY
  5
24D
102
{ACAD_REACTORS
330
C
102
}
330
C
100
AcDbDictionary
  3
CEPSNTYPE
350
256
  3
DIMSTYLEDATA
350
26C
  3
FINGERPRINTGUID
350
257
  3
HYPERLINKBASE
350
250
  3
INSUNITS
350
255
  3
LAYOUTDICT
350
252
  3
LWETCUNION
350
254
  3
PLOTSETDICT
350
253
  3
PSVPSCALE
350
259
  3
PUCSBASE
350
25C
  3
PUCSORGBACK
350
262
  3
PUCSORGBOTTOM
350
25E
  3
PUCSORGFRONT
350
261
  3
PUCSORGLEFT
350
25F
  3
PUCSORGRIGHT
350
260
  3
PUCSORGTOP
350
25D
  3
PUCSORTHOREF
350
25A
  3
PUCSORTHOVIEW
350
25B
  3
STYLESHEET
350
251
  3
TSTACKALIGN
350
24E
  3
TSTACKSIZE
350
24F
  3
UCSBASE
350
265
  3
UCSORGBACK
350
26B
  3
UCSORGBOTTOM
350
267
  3
UCSORGFRONT
350
26A
  3
UCSORGLEFT
350
268
  3
UCSORGRIGHT
350
269
  3
UCSORGTOP
350
266
  3
UCSORTHOREF
350
263
  3
UCSORTHOVIEW
350
264
  3
VERSIONGUID
350
258
  0
XRECORD
  5
26E
102
{ACAD_REACTORS
330
26D
102
}
330
26D
100
AcDbXrecord
102
UCS
 74
     0
 71
     1
 10
0.0
 20
0.0
 30
0.0
 10
1.0
 20
0.0
 30
0.0
 10
0.0
 20
1.0
 30
0.0
146
0.0
 79
     0
102
VIEW
281
     0
  0
MLINESTYLE
  5
18
102
{ACAD_REACTORS
330
17
102
}
330
17
100
AcDbMlineStyle
  2
Standard
 70
     0
  3

 62
   256
 51
90.0
 52
90.0
 71
     2
 49
0.5
 62
   256
  6
BYLAYER
 49
-0.5
 62
   256
  6
BYLAYER
  0
XRECORD
  5
256
102
{ACAD_REACTORS
330
24D
102
}
330
24D
100
AcDbXrecord
 90
        0
  0
XRECORD
  5
26C
102
{ACAD_REACTORS
330
24D
102
}
330
24D
100
AcDbXrecord
1000
DSTYLE
1002
{
1070
   340
340
11
1002
}
  0
XRECORD
  5
257
102
{ACAD_REACTORS
330
24D
102
}
330
24D
100
AcDbXrecord
  1
{FAEB1C30-E019-11D5-929B-00C0DF256EC4}
  0
XRECORD
  5
250
102
{ACAD_REACTORS
330
24D
102
}
330
24D
100
AcDbXrecord
  1

  0
XRECORD
  5
255
102
{ACAD_REACTORS
330
24D
102
}
330
24D
100
AcDbXrecord
 90
        1
  0
XRECORD
  5
252
102
{ACAD_REACTORS
330
24D
102
}
330
24D
100
AcDbXrecord
340
1A
  0
XRECORD
  5
254
102
{ACAD_REACTORS
330
24D
102
}
330
24D
100
AcDbXrecord
 90
     2560
  0
XRECORD
  5
253
102
{ACAD_REACTORS
330
24D
102
}
330
24D
100
AcDbXrecord
340
19
  0
XRECORD
  5
259
102
{ACAD_REACTORS
330
24D
102
}
330
24D
100
AcDbXrecord
 40
0.0
  0
XRECORD
  5
25C
102
{ACAD_REACTORS
330
24D
102
}
330
24D
100
AcDbXrecord
340
0
  0
XRECORD
  5
262
102
{ACAD_REACTORS
330
24D
102
}
330
24D
100
AcDbXrecord
 10
0.0
 20
0.0
 30
0.0
  0
XRECORD
  5
25E
102
{ACAD_REACTORS
330
24D
102
}
330
24D
100
AcDbXrecord
 10
0.0
 20
0.0
 30
0.0
  0
XRECORD
  5
261
102
{ACAD_REACTORS
330
24D
102
}
330
24D
100
AcDbXrecord
 10
0.0
 20
0.0
 30
0.0
  0
XRECORD
  5
25F
102
{ACAD_REACTORS
330
24D
102
}
330
24D
100
AcDbXrecord
 10
0.0
 20
0.0
 30
0.0
  0
XRECORD
  5
260
102
{ACAD_REACTORS
330
24D
102
}
330
24D
100
AcDbXrecord
 10
0.0
 20
0.0
 30
0.0
  0
XRECORD
  5
25D
102
{ACAD_REACTORS
330
24D
102
}
330
24D
100
AcDbXrecord
 10
0.0
 20
0.0
 30
0.0
  0
XRECORD
  5
25A
102
{ACAD_REACTORS
330
24D
102
}
330
24D
100
AcDbXrecord
340
0
  0
XRECORD
  5
25B
102
{ACAD_REACTORS
330
24D
102
}
330
24D
100
AcDbXrecord
 70
     0
  0
XRECORD
  5
251
102
{ACAD_REACTORS
330
24D
102
}
330
24D
100
AcDbXrecord
  1

  0
XRECORD
  5
24E
102
{ACAD_REACTORS
330
24D
102
}
330
24D
100
AcDbXrecord
 90
        1
  0
XRECORD
  5
24F
102
{ACAD_REACTORS
330
24D
102
}
330
24D
100
AcDbXrecord
 90
       70
  0
XRECORD
  5
265
102
{ACAD_REACTORS
330
24D
102
}
330
24D
100
AcDbXrecord
340
0
  0
XRECORD
  5
26B
102
{ACAD_REACTORS
330
24D
102
}
330
24D
100
AcDbXrecord
 10
0.0
 20
0.0
 30
0.0
  0
XRECORD
  5
267
102
{ACAD_REACTORS
330
24D
102
}
330
24D
100
AcDbXrecord
 10
0.0
 20
0.0
 30
0.0
  0
XRECORD
  5
26A
102
{ACAD_REACTORS
330
24D
102
}
330
24D
100
AcDbXrecord
 10
0.0
 20
0.0
 30
0.0
  0
XRECORD
  5
268
102
{ACAD_REACTORS
330
24D
102
}
330
24D
100
AcDbXrecord
 10
0.0
 20
0.0
 30
0.0
  0
XRECORD
  5
269
102
{ACAD_REACTORS
330
24D
102
}
330
24D
100
AcDbXrecord
 10
0.0
 20
0.0
 30
0.0
  0
XRECORD
  5
266
102
{ACAD_REACTORS
330
24D
102
}
330
24D
100
AcDbXrecord
 10
0.0
 20
0.0
 30
0.0
  0
XRECORD
  5
263
102
{ACAD_REACTORS
330
24D
102
}
330
24D
100
AcDbXrecord
340
0
  0
XRECORD
  5
264
102
{ACAD_REACTORS
330
24D
102
}
330
24D
100
AcDbXrecord
 70
     0
  0
XRECORD
  5
258
102
{ACAD_REACTORS
330
24D
102
}
330
24D
100
AcDbXrecord
  1
{FAEB1C32-E019-11D5-929B-00C0DF256EC4}
  0
ENDSEC
  0
EOF
