  0
SECTION
  2
HEADER
  9
$ACADVER
  1
AC1018
  9
$ACADMAINTVER
 70
     0
  9
$DWGCODEPAGE
  3
ANSI_1252
  9
$INSBASE
 10
0.0
 20
0.0
 30
0.0
  9
$EXTMIN
 10
-11.85507069329842
 20
-0.0021576644025792
 30
0.0
  9
$EXTMAX
 10
41.97845089355998
 20
61.51311016827538
 30
0.0
  9
$LIMMIN
 10
0.0
 20
0.0
  9
$LIMMAX
 10
12.0
 20
9.0
  9
$ORTHOMODE
 70
     0
  9
$REGENMODE
 70
     1
  9
$FILLMODE
 70
     1
  9
$QTEXTMODE
 70
     0
  9
$MIRRTEXT
 70
     1
  9
$LTSCALE
 40
0.0393700787401575
  9
$ATTMODE
 70
     1
  9
$TEXTSIZE
 40
0.2
  9
$TRACEWID
 40
0.05
  9
$TEXTSTYLE
  7
Standard
  9
$CLAYER
  8
Default
  9
$CELTYPE
  6
ByLayer
  9
$CECOLOR
 62
   256
  9
$CELTSCALE
 40
1.0
  9
$DISPSILH
 70
     0
  9
$DIMSCALE
 40
1.0
  9
$DIMASZ
 40
0.18
  9
$DIMEXO
 40
0.0625
  9
$DIMDLI
 40
0.38
  9
$DIMRND
 40
0.0
  9
$DIMDLE
 40
0.0
  9
$DIMEXE
 40
0.18
  9
$DIMTP
 40
0.0
  9
$DIMTM
 40
0.0
  9
$DIMTXT
 40
0.18
  9
$DIMCEN
 40
0.09
  9
$DIMTSZ
 40
0.0
  9
$DIMTOL
 70
     0
  9
$DIMLIM
 70
     0
  9
$DIMTIH
 70
     1
  9
$DIMTOH
 70
     1
  9
$DIMSE1
 70
     0
  9
$DIMSE2
 70
     0
  9
$DIMTAD
 70
     0
  9
$DIMZIN
 70
     0
  9
$DIMBLK
  1

  9
$DIMASO
 70
     1
  9
$DIMSHO
 70
     1
  9
$DIMPOST
  1

  9
$DIMAPOST
  1

  9
$DIMALT
 70
     0
  9
$DIMALTD
 70
     2
  9
$DIMALTF
 40
25.4
  9
$DIMLFAC
 40
1.0
  9
$DIMTOFL
 70
     0
  9
$DIMTVP
 40
0.0
  9
$DIMTIX
 70
     0
  9
$DIMSOXD
 70
     0
  9
$DIMSAH
 70
     0
  9
$DIMBLK1
  1

  9
$DIMBLK2
  1

  9
$DIMSTYLE
  2
Standard
  9
$DIMCLRD
 70
     0
  9
$DIMCLRE
 70
     0
  9
$DIMCLRT
 70
     0
  9
$DIMTFAC
 40
1.0
  9
$DIMGAP
 40
0.09
  9
$DIMJUST
 70
     0
  9
$DIMSD1
 70
     0
  9
$DIMSD2
 70
     0
  9
$DIMTOLJ
 70
     1
  9
$DIMTZIN
 70
     0
  9
$DIMALTZ
 70
     0
  9
$DIMALTTZ
 70
     0
  9
$DIMUPT
 70
     0
  9
$DIMDEC
 70
     4
  9
$DIMTDEC
 70
     4
  9
$DIMALTU
 70
     2
  9
$DIMALTTD
 70
     2
  9
$DIMTXSTY
  7
Standard
  9
$DIMAUNIT
 70
     0
  9
$DIMADEC
 70
     0
  9
$DIMALTRND
 40
0.0
  9
$DIMAZIN
 70
     0
  9
$DIMDSEP
 70
    46
  9
$DIMATFIT
 70
     3
  9
$DIMFRAC
 70
     0
  9
$DIMLDRBLK
  1

  9
$DIMLUNIT
 70
     2
  9
$DIMLWD
 70
    -2
  9
$DIMLWE
 70
    -2
  9
$DIMTMOVE
 70
     2
  9
$LUNITS
 70
     2
  9
$LUPREC
 70
     3
  9
$SKETCHINC
 40
0.1
  9
$FILLETRAD
 40
0.5
  9
$AUNITS
 70
     0
  9
$AUPREC
 70
     0
  9
$MENU
  1
.
  9
$ELEVATION
 40
0.0
  9
$PELEVATION
 40
0.0
  9
$THICKNESS
 40
0.0
  9
$LIMCHECK
 70
     0
  9
$CHAMFERA
 40
0.5
  9
$CHAMFERB
 40
0.5
  9
$CHAMFERC
 40
1.0
  9
$CHAMFERD
 40
0.0
  9
$SKPOLY
 70
     0
  9
$TDCREATE
 40
2456954.485995208
  9
$TDUCREATE
 40
2456954.652661875
  9
$TDUPDATE
 40
2456954.48599522
  9
$TDUUPDATE
 40
2456954.652661887
  9
$TDINDWG
 40
0.0000000116
  9
$TDUSRTIMER
 40
0.0000000116
  9
$USRTIMER
 70
     1
  9
$ANGBASE
 50
0.0
  9
$ANGDIR
 70
     0
  9
$PDMODE
 70
     0
  9
$PDSIZE
 40
0.0
  9
$PLINEWID
 40
0.0
  9
$SPLFRAME
 70
     0
  9
$SPLINETYPE
 70
     6
  9
$SPLINESEGS
 70
     8
  9
$HANDSEED
  5
1A6
  9
$SURFTAB1
 70
     6
  9
$SURFTAB2
 70
     6
  9
$SURFTYPE
 70
     6
  9
$SURFU
 70
     6
  9
$SURFV
 70
     6
  9
$UCSBASE
  2

  9
$UCSNAME
  2

  9
$UCSORG
 10
0.0
 20
0.0
 30
0.0
  9
$UCSXDIR
 10
1.0
 20
0.0
 30
0.0
  9
$UCSYDIR
 10
0.0
 20
1.0
 30
0.0
  9
$UCSORTHOREF
  2

  9
$UCSORTHOVIEW
 70
     0
  9
$UCSORGTOP
 10
0.0
 20
0.0
 30
0.0
  9
$UCSORGBOTTOM
 10
0.0
 20
0.0
 30
0.0
  9
$UCSORGLEFT
 10
0.0
 20
0.0
 30
0.0
  9
$UCSORGRIGHT
 10
0.0
 20
0.0
 30
0.0
  9
$UCSORGFRONT
 10
0.0
 20
0.0
 30
0.0
  9
$UCSORGBACK
 10
0.0
 20
0.0
 30
0.0
  9
$PUCSBASE
  2

  9
$PUCSNAME
  2

  9
$PUCSORG
 10
0.0
 20
0.0
 30
0.0
  9
$PUCSXDIR
 10
1.0
 20
0.0
 30
0.0
  9
$PUCSYDIR
 10
0.0
 20
1.0
 30
0.0
  9
$PUCSORTHOREF
  2

  9
$PUCSORTHOVIEW
 70
     0
  9
$PUCSORGTOP
 10
0.0
 20
0.0
 30
0.0
  9
$PUCSORGBOTTOM
 10
0.0
 20
0.0
 30
0.0
  9
$PUCSORGLEFT
 10
0.0
 20
0.0
 30
0.0
  9
$PUCSORGRIGHT
 10
0.0
 20
0.0
 30
0.0
  9
$PUCSORGFRONT
 10
0.0
 20
0.0
 30
0.0
  9
$PUCSORGBACK
 10
0.0
 20
0.0
 30
0.0
  9
$USERI1
 70
     0
  9
$USERI2
 70
     0
  9
$USERI3
 70
     0
  9
$USERI4
 70
     0
  9
$USERI5
 70
     0
  9
$USERR1
 40
0.0
  9
$USERR2
 40
0.0
  9
$USERR3
 40
0.0
  9
$USERR4
 40
0.0
  9
$USERR5
 40
0.0
  9
$WORLDVIEW
 70
     1
  9
$SHADEDGE
 70
     3
  9
$SHADEDIF
 70
    70
  9
$TILEMODE
 70
     1
  9
$MAXACTVP
 70
    64
  9
$PINSBASE
 10
0.0
 20
0.0
 30
0.0
  9
$PLIMCHECK
 70
     0
  9
$PEXTMIN
 10
1.000000000000000E+20
 20
1.000000000000000E+20
 30
1.000000000000000E+20
  9
$PEXTMAX
 10
-1.000000000000000E+20
 20
-1.000000000000000E+20
 30
-1.000000000000000E+20
  9
$PLIMMIN
 10
0.0
 20
0.0
  9
$PLIMMAX
 10
12.0
 20
9.0
  9
$UNITMODE
 70
     0
  9
$VISRETAIN
 70
     1
  9
$PLINEGEN
 70
     0
  9
$PSLTSCALE
 70
     1
  9
$TREEDEPTH
 70
  3020
  9
$CMLSTYLE
  2
Standard
  9
$CMLJUST
 70
     0
  9
$CMLSCALE
 40
1.0
  9
$PROXYGRAPHICS
 70
     1
  9
$MEASUREMENT
 70
     0
  9
$CELWEIGHT
370
    -1
  9
$ENDCAPS
280
     0
  9
$JOINSTYLE
280
     0
  9
$LWDISPLAY
290
     0
  9
$INSUNITS
 70
     1
  9
$HYPERLINKBASE
  1

  9
$STYLESHEET
  1

  9
$XEDIT
290
     1
  9
$CEPSNTYPE
380
     0
  9
$PSTYLEMODE
290
     1
  9
$FINGERPRINTGUID
  2
{92F4D7C9-3127-42F4-A42A-0C514A4DC9F3}
  9
$VERSIONGUID
  2
{FAEB1C32-E019-11D5-929B-00C0DF256EC4}
  9
$EXTNAMES
290
     1
  9
$PSVPSCALE
 40
0.0
  9
$OLESTARTUP
290
     0
  9
$SORTENTS
280
   127
  9
$INDEXCTL
280
     0
  9
$HIDETEXT
280
     1
  9
$XCLIPFRAME
290
     0
  9
$HALOGAP
280
     0
  9
$OBSCOLOR
 70
   257
  9
$OBSLTYPE
280
     0
  9
$INTERSECTIONDISPLAY
280
     0
  9
$INTERSECTIONCOLOR
 70
   257
  9
$DIMASSOC
280
     2
  9
$PROJECTNAME
  1

  0
ENDSEC
  0
SECTION
  2
CLASSES
  0
CLASS
  1
ACDBDICTIONARYWDFLT
  2
AcDbDictionaryWithDefault
  3
ObjectDBX Classes
 90
        0
 91
        4
280
     0
281
     0
  0
CLASS
  1
VISUALSTYLE
  2
AcDbVisualStyle
  3
ObjectDBX Classes
 90
     4095
 91
        4
280
     0
281
     0
  0
ENDSEC
  0
SECTION
  2
TABLES
  0
TABLE
  2
VPORT
  5
8
330
0
100
AcDbSymbolTable
 70
     1
  0
VPORT
  5
29
330
8
100
AcDbSymbolTableRecord
100
AcDbViewportTableRecord
  2
*Active
 70
     0
 10
0.0
 20
0.0
 11
1.0
 21
1.0
 12
15.06169010013078
 22
30.7554762519364
 13
0.0
 23
0.0
 14
0.5
 24
0.5
 15
0.5
 25
0.5
 16
0.0
 26
0.0
 36
1.0
 17
0.0
 27
0.0
 37
0.0
 40
62.74557318933152
 41
0.8751245582362744
 42
50.0
 43
0.0
 44
0.0
 50
0.0
 51
0.0
 71
     0
 72
   100
 73
     1
 74
     3
 75
     0
 76
     0
 77
     0
 78
     0
281
     0
 65
     1
110
0.0
120
0.0
130
0.0
111
1.0
121
0.0
131
0.0
112
0.0
122
1.0
132
0.0
 79
     0
146
0.0
  0
ENDTAB
  0
TABLE
  2
LTYPE
  5
5
330
0
100
AcDbSymbolTable
 70
     1
  0
LTYPE
  5
14
330
5
100
AcDbSymbolTableRecord
100
AcDbLinetypeTableRecord
  2
ByBlock
 70
     0
  3

 72
    65
 73
     0
 40
0.0
  0
LTYPE
  5
15
330
5
100
AcDbSymbolTableRecord
100
AcDbLinetypeTableRecord
  2
ByLayer
 70
     0
  3

 72
    65
 73
     0
 40
0.0
  0
LTYPE
  5
16
330
5
100
AcDbSymbolTableRecord
100
AcDbLinetypeTableRecord
  2
Continuous
 70
     0
  3
Solid line
 72
    65
 73
     0
 40
0.0
  0
ENDTAB
  0
TABLE
  2
LAYER
  5
2
330
0
100
AcDbSymbolTable
 70
     2
  0
LAYER
  5
10
330
2
100
AcDbSymbolTableRecord
100
AcDbLayerTableRecord
  2
0
 70
     0
 62
     7
  6
Continuous
370
    -3
390
F
  0
LAYER
  5
3B
330
2
100
AcDbSymbolTableRecord
100
AcDbLayerTableRecord
  2
Default
 70
     0
 62
     7
  6
Continuous
370
    -3
390
F
  0
ENDTAB
  0
TABLE
  2
STYLE
  5
3
330
0
100
AcDbSymbolTable
 70
     1
  0
STYLE
  5
11
330
3
100
AcDbSymbolTableRecord
100
AcDbTextStyleTableRecord
  2
Standard
 70
     0
 40
0.0
 41
1.0
 50
0.0
 71
     0
 42
0.2
  3
txt
  4

  0
ENDTAB
  0
TABLE
  2
VIEW
  5
6
330
0
100
AcDbSymbolTable
 70
     0
  0
ENDTAB
  0
TABLE
  2
UCS
  5
7
330
0
100
AcDbSymbolTable
 70
     0
  0
ENDTAB
  0
TABLE
  2
APPID
  5
9
330
0
100
AcDbSymbolTable
 70
     1
  0
APPID
  5
12
330
9
100
AcDbSymbolTableRecord
100
AcDbRegAppTableRecord
  2
ACAD
 70
     0
  0
ENDTAB
  0
TABLE
  2
DIMSTYLE
  5
A
330
0
100
AcDbSymbolTable
 70
     1
100
AcDbDimStyleTable
  0
DIMSTYLE
105
27
330
A
100
AcDbSymbolTableRecord
100
AcDbDimStyleTableRecord
  2
Standard
 70
     0
340
11
  0
ENDTAB
  0
TABLE
  2
BLOCK_RECORD
  5
1
330
0
100
AcDbSymbolTable
 70
     1
  0
BLOCK_RECORD
  5
1F
330
1
100
AcDbSymbolTableRecord
100
AcDbBlockTableRecord
  2
*Model_Space
340
22
  0
BLOCK_RECORD
  5
1B
330
1
100
AcDbSymbolTableRecord
100
AcDbBlockTableRecord
  2
*Paper_Space
340
1E
  0
BLOCK_RECORD
  5
23
330
1
100
AcDbSymbolTableRecord
100
AcDbBlockTableRecord
  2
*Paper_Space0
340
26
  0
ENDTAB
  0
ENDSEC
  0
SECTION
  2
BLOCKS
  0
BLOCK
  5
20
330
1F
100
AcDbEntity
  8
0
100
AcDbBlockBegin
  2
*Model_Space
 70
     0
 10
0.0
 20
0.0
 30
0.0
  3
*Model_Space
  1

  0
ENDBLK
  5
21
330
1F
100
AcDbEntity
  8
0
100
AcDbBlockEnd
  0
BLOCK
  5
1C
330
1B
100
AcDbEntity
 67
     1
  8
0
100
AcDbBlockBegin
  2
*Paper_Space
 70
     0
 10
0.0
 20
0.0
 30
0.0
  3
*Paper_Space
  1

  0
ENDBLK
  5
1D
330
1B
100
AcDbEntity
 67
     1
  8
0
100
AcDbBlockEnd
  0
BLOCK
  5
24
330
23
100
AcDbEntity
  8
0
100
AcDbBlockBegin
  2
*Paper_Space0
 70
     0
 10
0.0
 20
0.0
 30
0.0
  3
*Paper_Space0
  1

  0
ENDBLK
  5
25
330
23
100
AcDbEntity
  8
0
100
AcDbBlockEnd
  0
ENDSEC
  0
SECTION
  2
ENTITIES
  0
SPLINE
  5
3C
330
1F
100
AcDbEntity
  8
Default
100
AcDbSpline
210
0.0
220
0.0
230
1.0
 70
    12
 71
     2
 72
     8
 73
     5
 74
     0
 42
0.0000000001
 43
0.0000000001
 40
0.0
 40
0.0
 40
0.0
 40
0.1690256349283122
 40
0.1690256349283122
 40
0.3380512698566244
 40
0.3380512698566244
 40
0.3380512698566244
 10
21.2299513238803
 20
30.91949509126758
 30
0.0
 41
1.0
 10
21.13800448945022
 20
30.93829058738041
 30
0.0
 41
0.8572559322646445
 10
21.07821772273473
 20
30.86595087794252
 30
0.0
 41
1.0
 10
21.01843095601934
 20
30.79361116850462
 30
0.0
 41
0.8572559322646445
 10
21.0542050779643
 20
30.70684883085221
 30
0.0
 41
1.0
  0
SPLINE
  5
3D
330
1F
100
AcDbEntity
  8
Default
100
AcDbSpline
210
0.0
220
0.0
230
1.0
 70
    12
 71
     2
 72
     6
 73
     3
 74
     0
 42
0.0000000001
 43
0.0000000001
 40
0.0
 40
0.0
 40
0.0
 40
1.429926418215781
 40
1.429926418215781
 40
1.429926418215781
 10
41.5297888534605
 20
17.50709595517073
 30
0.0
 41
1.0
 10
40.81559748084798
 20
17.54858855922118
 30
0.0
 41
0.9990935049867458
 10
40.10046513585331
 20
17.52918026080225
 30
0.0
 41
1.0
  0
SPLINE
  5
3E
330
1F
100
AcDbEntity
  8
Default
100
AcDbSpline
210
0.0
220
0.0
230
1.0
 70
    24
 71
     2
 72
     6
 73
     3
 74
     0
 42
0.0000000001
 43
0.0000000001
 40
0.0
 40
0.0
 40
0.0
 40
0.2534606475442227
 40
0.2534606475442227
 40
0.2534606475442227
 10
-6.412030144920323
 20
16.87975369686561
 30
0.0
 10
-6.44748206976044
 20
17.0014243013209
 30
0.0
 10
-6.482933994600558
 20
17.12309490577618
 30
0.0
  0
SPLINE
  5
3F
330
1F
100
AcDbEntity
  8
Default
100
AcDbSpline
210
0.0
220
0.0
230
1.0
 70
     8
 71
     3
 72
    11
 73
     7
 74
     0
 42
0.0000000001
 43
0.0000000001
 40
0.0
 40
0.0
 40
0.0
 40
0.0
 40
0.0344346937788125
 40
0.0725328207916969
 40
0.155179365456844
 40
0.3634380045074759
 40
0.3634380045074759
 40
0.3634380045074759
 40
0.3634380045074759
 10
-6.189809991035645
 20
16.61654576961475
 30
0.0
 10
-6.201255576501239
 20
16.61787884193141
 30
0.0
 10
-6.224781978991359
 20
16.62360284735733
 30
0.0
 10
-6.271907185767304
 20
16.64594569255011
 30
0.0
 10
-6.353306744289284
 20
16.72182685919594
 30
0.0
 10
-6.392369815459801
 20
16.8136442134777
 30
0.0
 10
-6.412030144920323
 20
16.87975369686561
 30
0.0
  0
SPLINE
  5
40
330
1F
100
AcDbEntity
  8
Default
100
AcDbSpline
210
0.0
220
0.0
230
1.0
 70
     8
 71
     3
 72
    12
 73
     8
 74
     0
 42
0.0000000001
 43
0.0000000001
 40
0.0
 40
0.0
 40
0.0
 40
0.0
 40
1.0
 40
2.0
 40
3.0
 40
4.0
 40
5.0
 40
5.0
 40
5.0
 40
5.0
 10
-5.950282413777359
 20
16.85334660839352
 30
0.0
 10
-5.95472334459015
 20
16.82835446483232
 30
0.0
 10
-5.9668494816421
 20
16.77872826476559
 30
0.0
 10
-5.996934925037635
 20
16.70880114101799
 30
0.0
 10
-6.04164816885384
 20
16.64468960316434
 30
0.0
 10
-6.112657786242323
 20
16.61192430953263
 30
0.0
 10
-6.164710420800589
 20
16.61399294789403
 30
0.0
 10
-6.189809991035645
 20
16.61654576961475
 30
0.0
  0
LINE
  5
41
330
1F
100
AcDbEntity
  8
Default
100
AcDbLine
 10
-5.80141320080952
 20
17.69404390178434
 30
0.0
 11
-5.950282413777359
 21
16.85334660839352
 31
0.0
  0
SPLINE
  5
42
330
1F
100
AcDbEntity
  8
Default
100
AcDbSpline
210
0.0
220
0.0
230
1.0
 70
    24
 71
     2
 72
     6
 73
     3
 74
     0
 42
0.0000000001
 43
0.0000000001
 40
0.0
 40
0.0
 40
0.0
 40
0.2664064654396106
 40
0.2664064654396106
 40
0.2664064654396106
 10
-6.417603083433733
 20
16.85668983718749
 30
0.0
 10
-6.45643867782448
 20
16.98995788834247
 30
0.0
 10
-6.495274272215227
 20
17.12322593949746
 30
0.0
  0
SPLINE
  5
43
330
1F
100
AcDbEntity
  8
Default
100
AcDbSpline
210
0.0
220
0.0
230
1.0
 70
     8
 71
     3
 72
    11
 73
     7
 74
     0
 42
0.0000000001
 43
0.0000000001
 40
0.0
 40
0.0
 40
0.0
 40
0.0
 40
0.043389342846067
 40
0.0871056934987271
 40
0.1821567820635263
 40
0.4110495498170174
 40
0.4110495498170174
 40
0.4110495498170174
 40
0.4110495498170174
 10
-6.164482440509175
 20
16.55729335082424
 30
0.0
 10
-6.178664835855614
 20
16.56023935047524
 30
0.0
 10
-6.206402556696787
 20
16.56909704405348
 30
0.0
 10
-6.26030273781663
 20
16.59771318675128
 30
0.0
 10
-6.350935421260431
 20
16.68245486692201
 30
0.0
 10
-6.395768271338341
 20
16.78408321120898
 30
0.0
 10
-6.417603083433733
 20
16.85668983718749
 30
0.0
  0
LINE
  5
44
330
1F
100
AcDbEntity
  8
Default
100
AcDbLine
 10
-5.863117279056382
 20
16.51854866749709
 30
0.0
 11
-6.164482440509175
 21
16.55729335082424
 31
0.0
  0
SPLINE
  5
45
330
1F
100
AcDbEntity
  8
Default
100
AcDbSpline
210
0.0
220
0.0
230
1.0
 70
     8
 71
     3
 72
    14
 73
    10
 74
     0
 42
0.0000000001
 43
0.0000000001
 40
-7.0
 40
-7.0
 40
-7.0
 40
-7.0
 40
-6.0
 40
-5.0
 40
-4.0
 40
-3.0
 40
-2.0
 40
-0.9999999999999997
 40
0.0000000000000003
 40
0.0000000000000003
 40
0.0000000000000003
 40
0.0000000000000003
 10
-5.532588703446436
 20
16.79588660297604
 30
0.0
 10
-5.539005974998304
 20
16.77336273343329
 30
0.0
 10
-5.553734468308335
 20
16.73030188577044
 30
0.0
 10
-5.583074307989136
 20
16.66862543042264
 30
0.0
 10
-5.62066236699161
 20
16.61152817878971
 30
0.0
 10
-5.667961784433771
 20
16.56188334690607
 30
0.0
 10
-5.727224701815942
 20
16.52641351724884
 30
0.0
 10
-5.795073697819191
 20
16.51342072316132
 30
0.0
 10
-5.840611506857726
 20
16.51521838509836
 30
0.0
 10
-5.863117279056382
 20
16.51854866749709
 30
0.0
  0
LINE
  5
46
330
1F
100
AcDbEntity
  8
Default
100
AcDbLine
 10
-5.294771899535874
 20
17.63093940009165
 30
0.0
 11
-5.532588703446436
 21
16.79588660297604
 31
0.0
  0
ARC
  5
47
330
1F
100
AcDbEntity
  8
Default
100
AcDbCircle
 10
39.8412932362005
 20
17.77567510919629
 30
0.0
 40
0.0165784027333999
100
AcDbArc
 50
117.0519460361682
 51
177.4372218649717
  0
LINE
  5
48
330
1F
100
AcDbEntity
  8
Default
100
AcDbLine
 10
39.82099043152249
 20
17.69283538577547
 30
0.0
 11
39.82473141470831
 21
17.77641639595028
 31
0.0
  0
SPLINE
  5
49
330
1F
100
AcDbEntity
  8
Default
100
AcDbSpline
210
0.0
220
0.0
230
1.0
 70
    24
 71
     2
 72
     6
 73
     3
 74
     0
 42
0.0000000001
 43
0.0000000001
 40
0.0
 40
0.0
 40
0.0
 40
0.2021897559235226
 40
0.2021897559235226
 40
0.2021897559235226
 10
41.34575289842144
 20
0.2662378076363865
 30
0.0
 10
41.35701516378739
 20
0.1657635583728094
 30
0.0
 10
41.36827742915335
 20
0.0652893091092324
 30
0.0
  0
ARC
  5
4A
330
1F
100
AcDbEntity
  8
Default
100
AcDbCircle
 10
41.79340488055561
 20
-1.468062803030804
 30
0.0
 40
1.791142346456375
100
AcDbArc
 50
84.37801354298273
 51
104.4730982747003
  0
SPLINE
  5
4B
330
1F
100
AcDbEntity
  8
Default
100
AcDbSpline
210
0.0
220
0.0
230
1.0
 70
    24
 71
     2
 72
     6
 73
     3
 74
     0
 42
0.0000000001
 43
0.0000000001
 40
0.0
 40
0.0
 40
0.0
 40
0.2300681636784336
 40
0.2300681636784336
 40
0.2300681636784336
 10
41.97845089355644
 20
0.0843634773761863
 30
0.0
 10
41.97366233543033
 20
0.1994137061527965
 30
0.0
 10
41.96887377730422
 20
0.3144639349294067
 30
0.0
  0
SPLINE
  5
4C
330
1F
100
AcDbEntity
  8
Default
100
AcDbSpline
210
0.0
220
0.0
230
1.0
 70
    12
 71
     2
 72
     6
 73
     3
 74
     0
 42
0.0000000001
 43
0.0000000001
 40
0.0
 40
0.0
 40
0.0
 40
0.0855034082648413
 40
0.0855034082648413
 40
0.0855034082648413
 10
41.92981859322788
 20
0.0224180710075643
 30
0.0
 41
1.0
 10
41.98044199483758
 20
0.0325440045003424
 30
0.0
 41
0.7610186280100805
 10
41.97845089355644
 20
0.0843634773761863
 30
0.0
 41
1.0
  0
ARC
  5
4D
330
1F
100
AcDbEntity
  8
Default
100
AcDbCircle
 10
41.64296674696459
 20
1.684220120275981
 30
0.0
 40
1.68637778467856
100
AcDbArc
 50
262.3247315131545
 51
279.793598324645
  0
SPLINE
  5
4E
330
1F
100
AcDbEntity
  8
Default
100
AcDbSpline
210
0.0
220
0.0
230
1.0
 70
    12
 71
     2
 72
     6
 73
     3
 74
     0
 42
0.0000000001
 43
0.0000000001
 40
0.0
 40
0.0
 40
0.0
 40
0.0771003706955799
 40
0.0771003706955799
 40
0.0771003706955799
 10
41.36827742915335
 20
0.0652893091092324
 30
0.0
 41
1.0
 10
41.37366455061552
 20
0.0208267722193047
 30
0.0
 41
0.8040496154182818
 10
41.41773679673781
 20
0.0129506919137441
 30
0.0
 41
1.0
  0
SPLINE
  5
4F
330
1F
100
AcDbEntity
  8
Default
100
AcDbSpline
210
0.0
220
0.0
230
1.0
 70
     8
 71
     3
 72
     8
 73
     4
 74
     0
 42
0.0000000001
 43
0.0000000001
 40
0.0
 40
0.0
 40
0.0
 40
0.0
 40
1.0
 40
1.0
 40
1.0
 40
1.0
 10
9.341990712312963
 20
0.0123988868920293
 30
0.0
 10
9.236137719104477
 20
-0.0039774686965472
 30
0.0
 10
8.968116194468053
 20
-0.0073947839383948
 30
0.0
 10
8.829147005207687
 20
0.0224369930986228
 30
0.0
  0
SPLINE
  5
50
330
1F
100
AcDbEntity
  8
Default
100
AcDbSpline
210
0.0
220
0.0
230
1.0
 70
     8
 71
     3
 72
    14
 73
    10
 74
     0
 42
0.0000000001
 43
0.0000000001
 40
0.0
 40
0.0
 40
0.0
 40
0.0
 40
1.0178716147505
 40
2.176358818916439
 40
2.61588123659808
 40
3.158358901046834
 40
3.384019779601684
 40
4.109109792526405
 40
4.336220624716314
 40
4.336220624716314
 40
4.336220624716314
 40
4.336220624716314
 10
25.21348910550392
 20
22.27845422736105
 30
0.0
 10
25.44278598985198
 20
22.52999914831423
 30
0.0
 10
25.78621278133647
 20
23.18732541190782
 30
0.0
 10
25.85843052967135
 20
24.07147079710462
 30
0.0
 10
25.77931682899998
 20
24.77899451220343
 30
0.0
 10
25.72314853200294
 20
25.17868126018034
 30
0.0
 10
25.63560131672824
 20
25.66804776280323
 30
0.0
 10
25.55058546857435
 20
26.05185898395277
 30
0.0
 10
25.46706719327233
 20
26.3581429352371
 30
0.0
 10
25.44631970683639
 20
26.43095402278392
 30
0.0
  0
SPLINE
  5
51
330
1F
100
AcDbEntity
  8
Default
100
AcDbSpline
210
0.0
220
0.0
230
1.0
 70
     8
 71
     3
 72
    10
 73
     6
 74
     0
 42
0.0000000001
 43
0.0000000001
 40
0.0
 40
0.0
 40
0.0
 40
0.0
 40
1.123495812533734
 40
1.450478734032534
 40
2.034086541447359
 40
2.034086541447359
 40
2.034086541447359
 40
2.034086541447359
 10
-11.11951654879437
 20
45.79335966104637
 30
0.0
 10
-10.74563513726054
 20
45.77323487913358
 30
0.0
 10
-10.26392701357611
 20
45.72513072241475
 30
0.0
 10
-9.586093807388579
 20
45.70855684213511
 30
0.0
 10
-9.282454807344607
 20
45.71033411087267
 30
0.0
 10
-9.087970709496403
 20
45.70784259060704
 30
0.0
  0
SPLINE
  5
52
330
1F
100
AcDbEntity
  8
Default
100
AcDbSpline
210
0.0
220
0.0
230
1.0
 70
     8
 71
     3
 72
    14
 73
    10
 74
     0
 42
0.0000000001
 43
0.0000000001
 40
5.899666772373013
 40
5.899666772373013
 40
5.899666772373013
 40
5.899666772373013
 40
6.830849606490651
 40
8.558450551068967
 40
10.85518576727211
 40
12.13848441857465
 40
13.85557174945898
 40
14.37773324574926
 40
15.59570096499126
 40
15.59570096499126
 40
15.59570096499126
 40
15.59570096499126
 10
35.89418688441617
 20
17.87836392090549
 30
0.0
 10
35.58435521771202
 20
17.85967916739331
 30
0.0
 10
34.6995912094896
 20
17.80825851132975
 30
0.0
 10
33.04900035785556
 20
17.73973125808028
 30
0.0
 10
31.27966705736083
 20
17.72307869384682
 30
0.0
 10
29.51402126178414
 20
17.7327747228148
 30
0.0
 10
28.3399225352432
 20
17.75551216392329
 30
0.0
 10
27.18775866218306
 20
17.76162795602872
 30
0.0
 10
26.60716348545407
 20
17.73701973827445
 30
0.0
 10
26.20517608127022
 20
17.67787104824068
 30
0.0
  0
SPLINE
  5
53
330
1F
100
AcDbEntity
  8
Default
100
AcDbSpline
210
0.0
220
0.0
230
1.0
 70
     8
 71
     3
 72
     9
 73
     5
 74
     0
 42
0.0000000001
 43
0.0000000001
 40
0.0
 40
0.0
 40
0.0
 40
0.0
 40
0.00003152313445
 40
1.245118352931257
 40
1.245118352931257
 40
1.245118352931257
 40
1.245118352931257
 10
22.42470987631998
 20
25.42210381791274
 30
0.0
 10
22.42465884893312
 20
25.42209528291126
 30
0.0
 10
22.83513390255342
 20
25.48346075468065
 30
0.0
 10
23.24562571347428
 20
25.54475585285397
 30
0.0
 10
23.65608661065528
 20
25.60615067055053
 30
0.0
  0
SPLINE
  5
54
330
1F
100
AcDbEntity
  8
Default
100
AcDbSpline
210
0.0
220
0.0
230
1.0
 70
    24
 71
     2
 72
     6
 73
     3
 74
     0
 42
0.0000000001
 43
0.0000000001
 40
0.0
 40
0.0
 40
0.0
 40
0.2534606475442227
 40
0.2534606475442227
 40
0.2534606475442227
 10
6.412041749957439
 20
16.87975369686561
 30
0.0
 10
6.447493674797556
 20
17.0014243013209
 30
0.0
 10
6.482945599637674
 20
17.12309490577618
 30
0.0
  0
SPLINE
  5
55
330
1F
100
AcDbEntity
  8
Default
100
AcDbSpline
210
0.0
220
0.0
230
1.0
 70
     8
 71
     3
 72
    11
 73
     7
 74
     0
 42
0.0000000001
 43
0.0000000001
 40
0.0
 40
0.0
 40
0.0
 40
0.0
 40
0.0344346937788125
 40
0.0725328207916969
 40
0.155179365456844
 40
0.3634380045074759
 40
0.3634380045074759
 40
0.3634380045074759
 40
0.3634380045074759
 10
6.189821596072761
 20
16.61654576961475
 30
0.0
 10
6.201267181538356
 20
16.61787884193141
 30
0.0
 10
6.224793584028475
 20
16.62360284735733
 30
0.0
 10
6.27191879080442
 20
16.64594569255011
 30
0.0
 10
6.3533183493264
 20
16.72182685919594
 30
0.0
 10
6.392381420496918
 20
16.8136442134777
 30
0.0
 10
6.412041749957439
 20
16.87975369686561
 30
0.0
  0
SPLINE
  5
56
330
1F
100
AcDbEntity
  8
Default
100
AcDbSpline
210
0.0
220
0.0
230
1.0
 70
     8
 71
     3
 72
    12
 73
     8
 74
     0
 42
0.0000000001
 43
0.0000000001
 40
0.0
 40
0.0
 40
0.0
 40
0.0
 40
1.0
 40
2.0
 40
3.0
 40
4.0
 40
5.0
 40
5.0
 40
5.0
 40
5.0
 10
5.950294018814475
 20
16.85334660839352
 30
0.0
 10
5.954734949627266
 20
16.82835446483232
 30
0.0
 10
5.966861086679216
 20
16.77872826476559
 30
0.0
 10
5.996946530074752
 20
16.70880114101799
 30
0.0
 10
6.041659773890956
 20
16.64468960316434
 30
0.0
 10
6.112669391279439
 20
16.61192430953263
 30
0.0
 10
6.164722025837705
 20
16.61399294789403
 30
0.0
 10
6.189821596072761
 20
16.61654576961475
 30
0.0
  0
LINE
  5
57
330
1F
100
AcDbEntity
  8
Default
100
AcDbLine
 10
5.801424805846636
 20
17.69404390178434
 30
0.0
 11
5.950294018814475
 21
16.85334660839352
 31
0.0
  0
SPLINE
  5
58
330
1F
100
AcDbEntity
  8
Default
100
AcDbSpline
210
0.0
220
0.0
230
1.0
 70
     8
 71
     3
 72
    10
 73
     6
 74
     0
 42
0.0000000001
 43
0.0000000001
 40
0.0
 40
0.0
 40
0.0
 40
0.0
 40
0.1833191887653105
 40
0.4383738403833364
 40
1.549572870676277
 40
1.549572870676277
 40
1.549572870676277
 40
1.549572870676277
 10
11.12118683944988
 20
27.08727711222424
 30
0.0
 10
11.06065129766364
 20
27.07899895276016
 30
0.0
 10
10.91515569298758
 20
27.06463715732097
 30
0.0
 10
10.39936479310757
 20
27.03658781030002
 30
0.0
 10
9.94393584634281
 20
27.02765361756472
 30
0.0
 10
9.573935064298439
 20
27.01035937729446
 30
0.0
  0
ARC
  5
59
330
1F
100
AcDbEntity
  8
Default
100
AcDbCircle
 10
31.18058288056295
 20
16.36361075152961
 30
0.0
 40
0.5736297278663384
100
AcDbArc
 50
86.98004929976669
 51
92.94938668215933
  0
LINE
  5
5A
330
1F
100
AcDbEntity
  8
Default
100
AcDbLine
 10
30.68624286387336
 20
16.91253193173523
 30
0.0
 11
31.15106746416495
 21
16.93648063630876
 31
0.0
  0
ARC
  5
5B
330
1F
100
AcDbEntity
  8
Default
100
AcDbCircle
 10
30.72040100578988
 20
16.24955057446392
 30
0.0
 40
0.6638607224022839
100
AcDbArc
 50
92.94938668216265
 51
98.10719450468505
  0
SPLINE
  5
5C
330
1F
100
AcDbEntity
  8
Default
100
AcDbSpline
210
0.0
220
0.0
230
1.0
 70
     8
 71
     3
 72
    11
 73
     7
 74
     0
 42
0.0000000001
 43
0.0000000001
 40
0.0
 40
0.0
 40
0.0
 40
0.0
 40
0.1200553089436328
 40
0.5147636855652583
 40
0.7898292835510572
 40
1.365398434204968
 40
1.365398434204968
 40
1.365398434204968
 40
1.365398434204968
 10
23.33385513695242
 20
21.64676194480337
 30
0.0
 10
23.37193611366484
 20
21.65943104994511
 30
0.0
 10
23.54006393105243
 20
21.69399719128289
 30
0.0
 10
23.80096836360178
 20
21.73073574922384
 30
0.0
 10
24.20302097017372
 20
21.83795333797094
 30
0.0
 10
24.45945164370153
 20
21.96490214315428
 30
0.0
 10
24.61593354680781
 20
22.07633110672937
 30
0.0
  0
SPLINE
  5
5D
330
1F
100
AcDbEntity
  8
Default
100
AcDbSpline
210
0.0
220
0.0
230
1.0
 70
     8
 71
     3
 72
    16
 73
    12
 74
     0
 42
0.0000000001
 43
0.0000000001
 40
0.0
 40
0.0
 40
0.0
 40
0.0
 40
16.41289929611962
 40
16.54796027589672
 40
16.76083098654895
 40
16.95520840927917
 40
17.11286499139569
 40
17.27992562849579
 40
17.42526353136803
 40
17.5519356848284
 40
17.63972565849193
 40
17.63972565849193
 40
17.63972565849193
 40
17.63972565849193
 10
20.77728691977063
 20
0.2709887137317537
 30
0.0
 10
22.62613308710758
 20
5.420074665012081
 30
0.0
 10
24.48514162314211
 20
10.61339597974886
 30
0.0
 10
26.37418229541663
 20
15.87126547965106
 30
0.0
 10
26.45962847232948
 20
16.03186694489902
 30
0.0
 10
26.54166034239347
 20
16.20042471717893
 30
0.0
 10
26.63542352253756
 20
16.34688698413409
 30
0.0
 10
26.7226232447054
 20
16.47654680325191
 30
0.0
 10
26.81468148926336
 20
16.59098141679824
 30
0.0
 10
26.89679781693292
 20
16.67811043032977
 30
0.0
 10
26.95239875466984
 20
16.7238534546119
 30
0.0
 10
26.97798213105159
 20
16.73808199153672
 30
0.0
  0
SPLINE
  5
5E
330
1F
100
AcDbEntity
  8
Default
100
AcDbSpline
210
0.0
220
0.0
230
1.0
 70
    12
 71
     2
 72
     6
 73
     3
 74
     0
 42
0.0000000001
 43
0.0000000001
 40
0.4382749769594052
 40
0.4382749769594052
 40
0.4382749769594052
 40
0.9570378084306489
 40
0.9570378084306489
 40
0.9570378084306489
 10
-8.520334141057372
 20
17.32493039737358
 30
0.0
 41
0.9749701698320014
 10
-8.705833617656447
 20
17.51019841053816
 30
0.0
 41
0.9726718440834103
 10
-8.817523202373309
 20
17.74738974508951
 30
0.0
 41
1.0
  0
SPLINE
  5
5F
330
1F
100
AcDbEntity
  8
Default
100
AcDbSpline
210
0.0
220
0.0
230
1.0
 70
     8
 71
     3
 72
    11
 73
     7
 74
     0
 42
0.0000000001
 43
0.0000000001
 40
0.0
 40
0.0
 40
0.0
 40
0.0
 40
0.0020506485636896
 40
0.0278137471228987
 40
0.0718586102863623
 40
0.2157621862684044
 40
0.2157621862684044
 40
0.2157621862684044
 40
0.2157621862684044
 10
38.22150770178081
 20
17.54168589336923
 30
0.0
 10
38.2212780181556
 20
17.54163676833463
 30
0.0
 10
38.2103904626544
 20
17.5390963487223
 30
0.0
 10
38.20204190270545
 20
17.51485544498027
 30
0.0
 10
38.20790215067643
 20
17.44355938707361
 30
0.0
 10
38.2382122828717
 20
17.38794286310977
 30
0.0
 10
38.26337363981077
 20
17.34723062843946
 30
0.0
  0
SPLINE
  5
60
330
1F
100
AcDbEntity
  8
Default
100
AcDbSpline
210
0.0
220
0.0
230
1.0
 70
    24
 71
     2
 72
     6
 73
     3
 74
     0
 42
0.0000000001
 43
0.0000000001
 40
0.0
 40
0.0
 40
0.0
 40
0.1139966252514848
 40
0.1139966252514848
 40
0.1139966252514848
 10
38.33321581110812
 20
17.56441316507612
 30
0.0
 10
38.27736175644446
 20
17.55304952922268
 30
0.0
 10
38.22150770178081
 20
17.54168589336923
 30
0.0
  0
SPLINE
  5
61
330
1F
100
AcDbEntity
  8
Default
100
AcDbSpline
210
0.0
220
0.0
230
1.0
 70
     8
 71
     3
 72
    12
 73
     8
 74
     0
 42
0.0000000001
 43
0.0000000001
 40
-5.0
 40
-5.0
 40
-5.0
 40
-5.0
 40
-4.0
 40
-3.0
 40
-2.0
 40
-1.0
 40
0.0
 40
0.0
 40
0.0
 40
0.0
 10
38.49854120801604
 20
17.39408850674171
 30
0.0
 10
38.49057261101865
 20
17.40834537956373
 30
0.0
 10
38.47367426779829
 20
17.43633857270862
 30
0.0
 10
38.44555068339514
 20
17.47645931899008
 30
0.0
 10
38.41423849764476
 20
17.51439480980169
 30
0.0
 10
38.37901558116181
 20
17.54794851621999
 30
0.0
 10
38.35004540232092
 20
17.56605331330958
 30
0.0
 10
38.33321581110812
 20
17.56441316507612
 30
0.0
  0
SPLINE
  5
62
330
1F
100
AcDbEntity
  8
Default
100
AcDbSpline
210
0.0
220
0.0
230
1.0
 70
    24
 71
     2
 72
     6
 73
     3
 74
     0
 42
0.0000000001
 43
0.0000000001
 40
0.0
 40
0.0
 40
0.0
 40
0.6284193087877382
 40
0.6284193087877382
 40
0.6284193087877382
 10
38.8050754185964
 20
16.84550158983507
 30
0.0
 10
38.65180831330622
 20
17.11979504828839
 30
0.0
 10
38.49854120801604
 20
17.39408850674171
 30
0.0
  0
ARC
  5
63
330
1F
100
AcDbEntity
  8
Default
100
AcDbCircle
 10
39.28824582614897
 20
17.09516520289021
 30
0.0
 40
0.5438617125872035
100
AcDbArc
 50
207.3262844611663
 51
263.7692355377685
  0
ARC
  5
64
330
1F
100
AcDbEntity
  8
Default
100
AcDbCircle
 10
39.29128484079098
 20
17.12300059631062
 30
0.0
 40
0.5718625114483471
100
AcDbArc
 50
263.7692355377686
 51
280.9762216425379
  0
SPLINE
  5
65
330
1F
100
AcDbEntity
  8
Default
100
AcDbSpline
210
0.0
220
0.0
230
1.0
 70
    12
 71
     2
 72
     6
 73
     3
 74
     0
 42
0.0000000001
 43
0.0000000001
 40
0.0
 40
0.0
 40
0.0
 40
0.0394383425927629
 40
0.0394383425927629
 40
0.0394383425927629
 10
23.56374626348747
 20
21.49918938938976
 30
0.0
 41
1.0
 10
23.58301077585397
 20
21.50340270786462
 30
0.0
 41
0.999946436197294
 10
23.60235837274001
 20
21.50721636542991
 30
0.0
 41
1.0
  0
ARC
  5
66
330
1F
100
AcDbEntity
  8
Default
100
AcDbCircle
 10
27.86705805596671
 20
16.17035515862101
 30
0.0
 40
0.3428018781672749
100
AcDbArc
 50
239.4223496356442
 51
351.4123317158752
  0
ARC
  5
67
330
1F
100
AcDbEntity
  8
Default
100
AcDbCircle
 10
33.77423284144083
 20
27.21687172935199
 30
0.0
 40
12.86927990781226
100
AcDbArc
 50
236.7186895837632
 51
241.7991312710015
  0
SPLINE
  5
68
330
1F
100
AcDbEntity
  8
Default
100
AcDbSpline
210
0.0
220
0.0
230
1.0
 70
     8
 71
     3
 72
    29
 73
    25
 74
     0
 42
0.0000000001
 43
0.0000000001
 40
0.0
 40
0.0
 40
0.0
 40
0.0
 40
1.699002760080146
 40
3.731409764514746
 40
5.034491429756217
 40
5.868732765944054
 40
6.639332339352444
 40
7.2771499766887
 40
8.170248888933239
 40
8.95429489275575
 40
9.352140973905975
 40
9.981473091416936
 40
12.08255675978825
 40
12.96917767822325
 40
13.72867034396084
 40
14.28566882196947
 40
14.75082483800845
 40
15.66577824005178
 40
16.63616184534804
 40
17.72828237961166
 40
18.91447630882802
 40
20.30385246612147
 40
22.17465510019322
 40
25.4217628104246
 40
25.4217628104246
 40
25.4217628104246
 40
25.4217628104246
 10
0.0000058025185581
 20
30.92234814010979
 30
0.0
 10
0.5665691085251865
 20
30.92218430724638
 30
0.0
 10
1.810328695348574
 20
30.91008803608294
 30
0.0
 10
3.488262959211681
 20
30.88244898873829
 30
0.0
 10
4.877779474868703
 20
30.84755284624116
 30
0.0
 10
5.846013217275527
 20
30.79867026323879
 30
0.0
 10
6.589649247612726
 20
30.71927111781946
 30
0.0
 10
7.347288309497912
 20
30.60062250069524
 30
0.0
 10
8.088083738430782
 20
30.35309253976827
 30
0.0
 10
8.620306008657451
 20
29.88370205448057
 30
0.0
 10
8.891503506826098
 20
29.33720076020478
 30
0.0
 10
9.248741074622501
 20
28.36096686549149
 30
0.0
 10
9.555326305903066
 20
27.18837956053653
 30
0.0
 10
9.76930305780877
 20
25.95991559786381
 30
0.0
 10
9.81789259264059
 20
25.22414074505078
 30
0.0
 10
9.788771311166727
 20
24.63109556147657
 30
0.0
 10
9.6709229703755
 20
23.99331983771411
 30
0.0
 10
9.317490463550143
 20
23.2800479394233
 30
0.0
 10
8.59391205733084
 20
22.58138397788676
 30
0.0
 10
7.613639047509537
 20
22.09917965072387
 30
0.0
 10
6.429286130509695
 20
21.78317484369192
 30
0.0
 10
4.956173458155661
 20
21.59956890447596
 30
0.0
 10
2.788092021241596
 20
21.51719094250812
 30
0.0
 10
1.082433372310447
 20
21.48924123071323
 30
0.0
 10
0.0
 20
21.48580515783341
 30
0.0
  0
SPLINE
  5
69
330
1F
100
AcDbEntity
  8
Default
100
AcDbSpline
210
0.0
220
0.0
230
1.0
 70
     8
 71
     3
 72
    29
 73
    25
 74
     0
 42
0.0000000001
 43
0.0000000001
 40
0.0
 40
0.0
 40
0.0
 40
0.0
 40
3.243407217459806
 40
5.118197211247749
 40
6.507318701637272
 40
7.69513005922787
 40
8.780531544773076
 40
9.75734007689415
 40
10.67352014332027
 40
11.14010761180223
 40
11.69495119255392
 40
12.45474041767561
 40
13.34263776818266
 40
15.44456690867611
 40
16.06934339556236
 40
16.46875486556651
 40
17.25353970545244
 40
18.14697933876838
 40
18.78786228992825
 40
19.55263685853744
 40
20.39522456596171
 40
21.6822567557032
 40
23.69090363800757
 40
25.42174980803049
 40
25.42174980803049
 40
25.42174980803049
 40
25.42174980803049
 10
0.0
 20
21.48580515783341
 30
0.0
 10
-1.081200956052612
 20
21.48921485609623
 30
0.0
 10
-2.786951623877144
 20
21.51721712887252
 30
0.0
 10
-4.954941313877271
 20
21.60019767484222
 30
0.0
 10
-6.430010061243081
 20
21.78181361425011
 30
0.0
 10
-7.612547842792139
 20
22.10077281598096
 30
0.0
 10
-8.593089319673652
 20
22.5791067083522
 30
0.0
 10
-9.317972269778238
 20
23.2806598015549
 30
0.0
 10
-9.67163090411492
 20
23.99527056841539
 30
0.0
 10
-9.788941284371049
 20
24.63429804282727
 30
0.0
 10
-9.819139596980165
 20
25.22706163323133
 30
0.0
 10
-9.766243653189179
 20
25.96128482169188
 30
0.0
 10
-9.560163596181383
 20
27.19441938747778
 30
0.0
 10
-9.242073810893203
 20
28.35971578915273
 30
0.0
 10
-8.893980555597295
 20
29.34139629647142
 30
0.0
 10
-8.615907928702939
 20
29.88127651139608
 30
0.0
 10
-8.089969650498176
 20
30.35698561943521
 30
0.0
 10
-7.340884999563855
 20
30.59920690658761
 30
0.0
 10
-6.589779844005648
 20
30.72063061540089
 30
0.0
 10
-5.840158892638101
 20
30.79866766990774
 30
0.0
 10
-4.878812112588264
 20
30.84766912811905
 30
0.0
 10
-3.498528816445855
 20
30.88211865084641
 30
0.0
 10
-1.82362299759302
 20
30.90985238776712
 30
0.0
 10
-0.5771732784760388
 20
30.92216294342008
 30
0.0
 10
0.0000058025185581
 20
30.92234814010979
 30
0.0
  0
SPLINE
  5
6A
330
1F
100
AcDbEntity
  8
Default
100
AcDbSpline
210
0.0
220
0.0
230
1.0
 70
     8
 71
     3
 72
    13
 73
     9
 74
     0
 42
0.0000000001
 43
0.0000000001
 40
0.0
 40
0.0
 40
0.0
 40
0.0
 40
0.241826694723852
 40
0.3334432593650916
 40
0.4415046959315846
 40
0.7590491135579212
 40
1.337208144879482
 40
2.064679762861881
 40
2.064679762861881
 40
2.064679762861881
 40
2.064679762861881
 10
9.09327221548972
 20
55.85961202701165
 30
0.0
 10
9.074688188853713
 20
55.78152695260147
 30
0.0
 10
9.04387895572171
 20
55.67372158432281
 30
0.0
 10
9.012055921050148
 20
55.53109567951586
 30
0.0
 10
8.954873829438725
 20
55.36543474161058
 30
0.0
 10
8.729582882299155
 20
55.11166670147904
 30
0.0
 10
8.279501300650224
 20
54.80837979142891
 30
0.0
 10
7.891728761644231
 20
54.60960366492205
 30
0.0
 10
7.668545509304352
 20
54.51440197375685
 30
0.0
  0
SPLINE
  5
6B
330
1F
100
AcDbEntity
  8
Default
100
AcDbSpline
210
0.0
220
0.0
230
1.0
 70
    12
 71
     2
 72
     6
 73
     3
 74
     0
 42
0.0000000001
 43
0.0000000001
 40
-0.0255154546284568
 40
-0.0255154546284568
 40
-0.0255154546284568
 40
0.0
 40
0.0
 40
0.0
 10
-5.807592503688511
 20
17.78546390054687
 30
0.0
 41
1.0
 10
-5.808287821964883
 20
17.80044535536889
 30
0.0
 41
0.8076605442444776
 10
-5.822547209920515
 20
17.80429369803154
 30
0.0
 41
1.0
  0
SPLINE
  5
6C
330
1F
100
AcDbEntity
  8
Default
100
AcDbSpline
210
0.0
220
0.0
230
1.0
 70
    24
 71
     2
 72
     6
 73
     3
 74
     0
 42
0.0000000001
 43
0.0000000001
 40
0.0
 40
0.0
 40
0.0
 40
0.080085761945114
 40
0.080085761945114
 40
0.080085761945114
 10
-5.797951486697457
 20
17.69381620309991
 30
0.0
 10
-5.802771995192984
 20
17.73964005182339
 30
0.0
 10
-5.807592503688511
 20
17.78546390054687
 30
0.0
  0
SPLINE
  5
6D
330
1F
100
AcDbEntity
  8
Default
100
AcDbSpline
210
0.0
220
0.0
230
1.0
 70
     8
 71
     3
 72
    12
 73
     8
 74
     0
 42
0.0000000001
 43
0.0000000001
 40
0.0
 40
0.0
 40
0.0
 40
0.0
 40
0.2875411197172827
 40
0.5613142304082114
 40
1.271743823927012
 40
1.51274677989842
 40
1.682376751203594
 40
1.682376751203594
 40
1.682376751203594
 40
1.682376751203594
 10
38.19370797827435
 20
17.49593606926155
 30
0.0
 10
38.09982229116542
 20
17.47671780142629
 30
0.0
 10
37.91660333828844
 20
17.43846294817094
 30
0.0
 10
37.49754909197077
 20
17.37379937804316
 30
0.0
 10
37.0913194817237
 20
17.3304277075538
 30
0.0
 10
36.7188366729988
 20
17.30055092761306
 30
0.0
 10
36.58235647958998
 20
17.29013155617305
 30
0.0
 10
36.52597513015928
 20
17.28585384195382
 30
0.0
  0
SPLINE
  5
6E
330
1F
100
AcDbEntity
  8
Default
100
AcDbSpline
210
0.0
220
0.0
230
1.0
 70
     8
 71
     3
 72
    10
 73
     6
 74
     0
 42
0.0000000001
 43
0.0000000001
 40
0.0
 40
0.0
 40
0.0
 40
0.0
 40
0.5797167408312294
 40
0.9121186536164402
 40
2.034123885355988
 40
2.034123885355988
 40
2.034123885355988
 40
2.034123885355988
 10
9.087638530726394
 20
45.70784233361803
 30
0.0
 10
9.280813304698654
 20
45.71057001978969
 30
0.0
 10
9.584982397288115
 20
45.7084348508491
 30
0.0
 10
10.262811883312
 20
45.72518484405947
 30
0.0
 10
10.74583952638159
 20
45.77323633828665
 30
0.0
 10
11.11922146492003
 20
45.79336217889396
 30
0.0
  0
SPLINE
  5
6F
330
1F
100
AcDbEntity
  8
Default
100
AcDbSpline
210
0.0
220
0.0
230
1.0
 70
     8
 71
     3
 72
    10
 73
     6
 74
     0
 42
0.0000000001
 43
0.0000000001
 40
0.0
 40
0.0
 40
0.0
 40
0.0
 40
0.9794113377761844
 40
1.223336803563259
 40
1.422213678887331
 40
1.422213678887331
 40
1.422213678887331
 40
1.422213678887331
 10
-9.692451483250181
 20
26.3897455850088
 30
0.0
 10
-10.01860997838378
 20
26.40408706382003
 30
0.0
 10
-10.42634182131496
 20
26.41323369995109
 30
0.0
 10
-10.8998148329764
 20
26.43747990838298
 30
0.0
 10
-11.0469378457143
 20
26.449794215265
 30
0.0
 10
-11.1128709826184
 20
26.45663125839539
 30
0.0
  0
SPLINE
  5
70
330
1F
100
AcDbEntity
  8
Default
100
AcDbSpline
210
0.0
220
0.0
230
1.0
 70
     8
 71
     3
 72
    20
 73
    16
 74
     0
 42
0.0000000001
 43
0.0000000001
 40
0.0
 40
0.0
 40
0.0
 40
0.0
 40
0.2091202110132331
 40
0.2091202110132331
 40
0.2091202110132331
 40
1.209120211013233
 40
2.209120211013233
 40
3.209120211013233
 40
4.209120211013233
 40
5.209120211013233
 40
6.209120211013233
 40
7.209120211013233
 40
7.209120211013233
 40
7.209120211013233
 40
7.422391775119937
 40
7.422391775119937
 40
7.422391775119937
 40
7.422391775119937
 10
9.798503203342534
 20
0.3274111340080736
 30
0.0
 10
9.80738959210845
 20
0.2582731467759913
 30
0.0
 10
9.816275980874423
 20
0.189135159543909
 30
0.0
 10
9.825162369640339
 20
0.1199971723118409
 30
0.0
 10
9.82943668763511
 20
0.085270320772878
 30
0.0
 10
9.890946947608143
 20
0.0478141732509414
 30
0.0
 10
9.988965983201467
 20
0.0553486610504734
 30
0.0
 10
10.08567351653767
 20
0.057580012326369
 30
0.0
 10
10.18255241867956
 20
0.065778185129048
 30
0.0
 10
10.27857141300649
 20
0.0791183342082036
 30
0.0
 10
10.37547810042219
 20
0.0889263365286297
 30
0.0
 10
10.43258662933442
 20
0.1330111353503725
 30
0.0
 10
10.43138698433341
 20
0.1682184314017974
 30
0.0
 10
10.42757169062821
 20
0.2392064991487501
 30
0.0
 10
10.42375639692312
 20
0.3101945668956887
 30
0.0
 10
10.41898280182994
 20
0.3988897044077788
 30
0.0
  0
SPLINE
  5
71
330
1F
100
AcDbEntity
  8
Default
100
AcDbSpline
210
0.0
220
0.0
230
1.0
 70
     8
 71
     3
 72
    14
 73
    10
 74
     0
 42
0.0000000001
 43
0.0000000001
 40
0.304867244936291
 40
0.304867244936291
 40
0.304867244936291
 40
0.304867244936291
 40
1.0
 40
2.0
 40
3.0
 40
4.0
 40
5.0
 40
6.0
 40
7.0
 40
7.0
 40
7.0
 40
7.0
 10
-6.087192832308006
 20
17.07963064853716
 30
0.0
 10
-6.063550158796318
 20
17.08722081269302
 30
0.0
 10
-6.020526613817026
 20
17.12786015542984
 30
0.0
 10
-5.979708555663251
 20
17.20757289633723
 30
0.0
 10
-5.952796986894498
 20
17.30428028538844
 30
0.0
 10
-5.944569562653669
 20
17.40376758928524
 30
0.0
 10
-5.939529126513321
 20
17.50330952012088
 30
0.0
 10
-5.930930362019751
 20
17.60265914679005
 30
0.0
 10
-5.925939171031132
 20
17.66893229120902
 30
0.0
 10
-5.923295311607262
 20
17.70206085390272
 30
0.0
  0
SPLINE
  5
72
330
1F
100
AcDbEntity
  8
Default
100
AcDbSpline
210
0.0
220
0.0
230
1.0
 70
     8
 71
     3
 72
    17
 73
    13
 74
     0
 42
0.0000000001
 43
0.0000000001
 40
-17.90624517892207
 40
-17.90624517892207
 40
-17.90624517892207
 40
-17.90624517892207
 40
-4.373860374967535
 40
-2.878155509950694
 40
-2.234775102833745
 40
-2.12439570927585
 40
-1.53996251971187
 40
-1.028864930252648
 40
-0.5582263861420427
 40
-0.3608880308576272
 40
-0.2608815251693156
 40
0.0
 40
0.0
 40
0.0
 40
0.0
 10
-8.76070110683122
 20
0.2680945645773676
 30
0.0
 10
-8.430084241380314
 20
4.766737828394554
 30
0.0
 10
-8.065282272454624
 20
9.762849507664285
 30
0.0
 10
-7.681232591405831
 20
14.97249056570904
 30
0.0
 10
-7.631128009374322
 20
15.72074762527932
 30
0.0
 10
-7.584419638120153
 20
16.1643653911412
 30
0.0
 10
-7.454286619534628
 20
16.55214113116647
 30
0.0
 10
-7.11313774226727
 20
16.96186411299094
 30
0.0
 10
-6.736923935383686
 20
17.11595000201635
 30
0.0
 10
-6.480448544432647
 20
17.12673846301442
 30
0.0
 10
-6.295075844316216
 20
17.10703533825087
 30
0.0
 10
-6.176105939078525
 20
17.0906254967159
 30
0.0
 10
-6.087192832308006
 20
17.07963064853716
 30
0.0
  0
SPLINE
  5
73
330
1F
100
AcDbEntity
  8
Default
100
AcDbSpline
210
0.0
220
0.0
230
1.0
 70
     8
 71
     3
 72
    14
 73
    10
 74
     0
 42
0.0000000001
 43
0.0000000001
 40
0.304867244936291
 40
0.304867244936291
 40
0.304867244936291
 40
0.304867244936291
 40
1.0
 40
2.0
 40
3.0
 40
4.0
 40
5.0
 40
6.0
 40
7.0
 40
7.0
 40
7.0
 40
7.0
 10
6.087204437345122
 20
17.07963064853716
 30
0.0
 10
6.063561763833434
 20
17.08722081269302
 30
0.0
 10
6.020538218854142
 20
17.12786015542984
 30
0.0
 10
5.979720160700367
 20
17.20757289633723
 30
0.0
 10
5.952808591931614
 20
17.30428028538844
 30
0.0
 10
5.944581167690785
 20
17.40376758928524
 30
0.0
 10
5.939540731550437
 20
17.50330952012088
 30
0.0
 10
5.930941967056867
 20
17.60265914679005
 30
0.0
 10
5.925950776068248
 20
17.66893229120902
 30
0.0
 10
5.923306916644378
 20
17.70206085390272
 30
0.0
  0
SPLINE
  5
74
330
1F
100
AcDbEntity
  8
Default
100
AcDbSpline
210
0.0
220
0.0
230
1.0
 70
     8
 71
     3
 72
    17
 73
    13
 74
     0
 42
0.0000000001
 43
0.0000000001
 40
-17.90624517892207
 40
-17.90624517892207
 40
-17.90624517892207
 40
-17.90624517892207
 40
-4.373860374967535
 40
-2.878155509950694
 40
-2.234775102833745
 40
-2.12439570927585
 40
-1.53996251971187
 40
-1.028864930252648
 40
-0.5582263861420427
 40
-0.3608880308576272
 40
-0.2608815251693156
 40
0.0
 40
0.0
 40
0.0
 40
0.0
 10
8.760712711868337
 20
0.2680945645773676
 30
0.0
 10
8.43009584641743
 20
4.766737828394554
 30
0.0
 10
8.06529387749174
 20
9.762849507664285
 30
0.0
 10
7.681244196442947
 20
14.97249056570904
 30
0.0
 10
7.631139614411438
 20
15.72074762527932
 30
0.0
 10
7.584431243157269
 20
16.1643653911412
 30
0.0
 10
7.454298224571744
 20
16.55214113116647
 30
0.0
 10
7.113149347304386
 20
16.96186411299094
 30
0.0
 10
6.736935540420802
 20
17.11595000201635
 30
0.0
 10
6.480460149469764
 20
17.12673846301442
 30
0.0
 10
6.295087449353332
 20
17.10703533825087
 30
0.0
 10
6.176117544115641
 20
17.0906254967159
 30
0.0
 10
6.087204437345122
 20
17.07963064853716
 30
0.0
  0
SPLINE
  5
75
330
1F
100
AcDbEntity
  8
Default
100
AcDbSpline
210
0.0
220
0.0
230
1.0
 70
    12
 71
     2
 72
     6
 73
     3
 74
     0
 42
0.0000000001
 43
0.0000000001
 40
0.0
 40
0.0
 40
0.0
 40
0.0159179282250791
 40
0.0159179282250791
 40
0.0159179282250791
 10
-9.187131323916333
 20
0.3209581204283154
 30
0.0
 41
1.0
 10
-9.195083101766743
 20
0.3212966561762938
 30
0.0
 41
0.9999968305897696
 10
-9.203036483464643
 20
0.3215951473862333
 30
0.0
 41
1.0
  0
SPLINE
  5
76
330
1F
100
AcDbEntity
  8
Default
100
AcDbSpline
210
0.0
220
0.0
230
1.0
 70
    12
 71
     2
 72
     6
 73
     3
 74
     0
 42
0.0000000001
 43
0.0000000001
 40
0.0
 40
0.0
 40
0.0
 40
0.022599255445238
 40
0.022599255445238
 40
0.022599255445238
 10
-8.789436547505204
 20
0.2797424833213285
 30
0.0
 41
1.0
 10
-8.800436829594945
 20
0.2823348758861338
 30
0.0
 41
0.9997350652396294
 10
-8.811544764301743
 20
0.2844182605869179
 30
0.0
 41
1.0
  0
SPLINE
  5
77
330
1F
100
AcDbEntity
  8
Default
100
AcDbSpline
210
0.0
220
0.0
230
1.0
 70
     8
 71
     3
 72
    20
 73
    16
 74
     0
 42
0.0000000001
 43
0.0000000001
 40
-17.0
 40
-17.0
 40
-17.0
 40
-17.0
 40
-16.0
 40
-15.0
 40
-14.0
 40
-13.0
 40
-12.0
 40
-11.0
 40
-10.0
 40
-9.0
 40
-8.0
 40
-7.0
 40
-6.0
 40
-5.0
 40
-4.197429897603022
 40
-4.197429897603022
 40
-4.197429897603022
 40
-4.197429897603022
 10
26.12775724083679
 20
17.86698114323562
 30
0.0
 10
26.37919058720098
 20
17.90622555324157
 30
0.0
 10
26.88644022759678
 20
17.95345990714323
 30
0.0
 10
27.64994646434764
 20
17.96362319866164
 30
0.0
 10
28.4131205664894
 20
17.95178242128988
 30
0.0
 10
29.17631528441206
 20
17.93968550565749
 30
0.0
 10
29.93955856968745
 20
17.93159209508349
 30
0.0
 10
30.70283182877881
 20
17.92684512849834
 30
0.0
 10
31.46611998363579
 20
17.92754186539635
 30
0.0
 10
32.2293936532858
 20
17.93315099997015
 30
0.0
 10
32.99255449740792
 20
17.94756635292484
 30
0.0
 10
33.75551695597102
 20
17.97018545704755
 30
0.0
 10
34.51814572377737
 20
18.00215447981829
 30
0.0
 10
35.23021502565075
 20
18.03972895128057
 30
0.0
 10
35.68805780086063
 20
18.06650515311766
 30
0.0
 10
35.89189045824287
 20
18.07869148280247
 30
0.0
  0
SPLINE
  5
78
330
1F
100
AcDbEntity
  8
Default
100
AcDbSpline
210
0.0
220
0.0
230
1.0
 70
    12
 71
     2
 72
     6
 73
     3
 74
     0
 42
0.0000000001
 43
0.0000000001
 40
0.0
 40
0.0
 40
0.0
 40
0.0247437132115748
 40
0.0247437132115748
 40
0.0247437132115748
 10
-8.760747211566184
 20
0.2677833140579082
 30
0.0
 41
1.0
 10
-8.769653917192592
 20
0.2772481348649387
 30
0.0
 41
0.929428217816864
 10
-8.782627235306904
 20
0.2780261163095048
 30
0.0
 41
1.0
  0
SPLINE
  5
79
330
1F
100
AcDbEntity
  8
Default
100
AcDbSpline
210
0.0
220
0.0
230
1.0
 70
    12
 71
     2
 72
     6
 73
     3
 74
     0
 42
0.0000000001
 43
0.0000000001
 40
0.0
 40
0.0
 40
0.0
 40
1.163316925166758
 40
1.163316925166758
 40
1.163316925166758
 10
9.29831953363987
 20
40.16893048933422
 30
0.0
 41
1.0
 10
8.896475907323836
 20
40.58946380277806
 30
0.0
 41
0.9999999985989616
 10
8.494587761694277
 20
41.00995457096356
 30
0.0
 41
1.0
  0
SPLINE
  5
7A
330
1F
100
AcDbEntity
  8
Default
100
AcDbSpline
210
0.0
220
0.0
230
1.0
 70
    12
 71
     2
 72
    10
 73
     7
 74
     0
 42
0.0000000001
 43
0.0000000001
 40
6.283120353693191
 40
6.283120353693191
 40
6.283120353693191
 40
6.283185307179586
 40
6.283185307179586
 40
7.853981633974483
 40
7.853981633974483
 40
9.42477796076938
 40
9.42477796076938
 40
9.42477796076938
 10
8.846504652802096
 20
39.73708756221587
 30
0.0
 41
0.9999757783377694
 10
8.846510928128497
 20
39.73708099626266
 30
0.0
 41
0.999987888668073
 10
8.846517203848862
 20
39.73707443068358
 30
0.0
 41
1.0
 10
9.061147356672947
 20
39.51253108771812
 30
0.0
 41
0.7071067811865475
 10
9.287048521568408
 20
39.72845911704343
 30
0.0
 41
1.0
 10
9.512949686463935
 20
39.94438714636875
 30
0.0
 41
0.7071067811865475
 10
9.29831953363987
 20
40.16893048933422
 30
0.0
 41
1.0
  0
SPLINE
  5
7B
330
1F
100
AcDbEntity
  8
Default
100
AcDbSpline
210
0.0
220
0.0
230
1.0
 70
    12
 71
     2
 72
     6
 73
     3
 74
     0
 42
0.0000000001
 43
0.0000000001
 40
0.0
 40
0.0
 40
0.0
 40
1.21074955253441
 40
1.21074955253441
 40
1.21074955253441
 10
8.009997863186811
 20
40.61239943119368
 30
0.0
 41
1.0
 10
8.428278635406846
 20
40.17476966039835
 30
0.0
 41
0.9999999980434585
 10
8.846504652802082
 20
39.73708756221588
 30
0.0
 41
1.0
  0
SPLINE
  5
7C
330
1F
100
AcDbEntity
  8
Default
100
AcDbSpline
210
0.0
220
0.0
230
1.0
 70
    12
 71
     2
 72
     8
 73
     5
 74
     0
 42
0.0000000001
 43
0.0000000001
 40
0.0
 40
0.0
 40
0.0
 40
0.1466454949755766
 40
0.1466454949755766
 40
0.2932909899511532
 40
0.2932909899511532
 40
0.2932909899511532
 10
23.33385513695242
 20
21.64676194480337
 30
0.0
 41
1.0
 10
23.33156160211398
 20
21.56756956235603
 30
0.0
 41
0.8918969760408813
 10
23.39409075179748
 20
21.51891980203186
 30
0.0
 41
1.0
 10
23.45661990148094
 20
21.47027004170766
 30
0.0
 41
0.8918969760408813
 10
23.53281794290615
 20
21.49196225742438
 30
0.0
 41
1.0
  0
POLYLINE
  5
7D
330
1F
100
AcDbEntity
  8
Default
100
AcDb2dPolyline
 66
     1
 10
0.0
 20
0.0
 30
0.0
  0
VERTEX
  5
7E
330
7D
100
AcDbEntity
  8
Default
100
AcDbVertex
100
AcDb2dVertex
 10
-10.42863656545808
 20
61.14702012124545
 30
0.0
  0
VERTEX
  5
7F
330
7D
100
AcDbEntity
  8
Default
100
AcDbVertex
100
AcDb2dVertex
 10
-10.40970725971954
 20
61.04848699011947
 30
0.0
  0
SEQEND
  5
80
330
7D
100
AcDbEntity
  8
Default
  0
SPLINE
  5
81
330
1F
100
AcDbEntity
  8
Default
100
AcDbSpline
210
0.0
220
0.0
230
1.0
 70
    12
 71
     2
 72
     8
 73
     5
 74
     0
 42
0.0000000001
 43
0.0000000001
 40
0.0547772198907966
 40
0.0547772198907966
 40
0.0547772198907966
 40
1.570796326794897
 40
1.570796326794897
 40
3.041946464467495
 40
3.041946464467495
 40
3.041946464467495
 10
-9.838130158825612
 20
61.30333892488715
 30
0.0
 41
0.9802846623166819
 10
-9.933594332107745
 20
61.58299763876555
 30
0.0
 41
0.7173206300336504
 10
-10.21356050986691
 20
61.50253741119846
 30
0.0
 41
1.0
 10
-10.48210848724212
 20
61.42535869073575
 30
0.0
 41
0.7256869704680409
 10
-10.42863656545806
 20
61.14702012124547
 30
0.0
 41
0.9651969544960349
  0
POLYLINE
  5
82
330
1F
100
AcDbEntity
  8
Default
100
AcDb2dPolyline
 66
     1
 10
0.0
 20
0.0
 30
0.0
  0
VERTEX
  5
83
330
82
100
AcDbEntity
  8
Default
100
AcDbVertex
100
AcDb2dVertex
 10
-9.804769126157396
 20
61.20560903136433
 30
0.0
  0
VERTEX
  5
84
330
82
100
AcDbEntity
  8
Default
100
AcDbVertex
100
AcDb2dVertex
 10
-9.838130158825606
 20
61.30333892488713
 30
0.0
  0
SEQEND
  5
85
330
82
100
AcDbEntity
  8
Default
  0
SPLINE
  5
86
330
1F
100
AcDbEntity
  8
Default
100
AcDbSpline
210
0.0
220
0.0
230
1.0
 70
    12
 71
     2
 72
     8
 73
     5
 74
     0
 42
0.0000000001
 43
0.0000000001
 40
0.0
 40
0.0
 40
0.0
 40
1.570796326794897
 40
1.570796326794897
 40
3.141592653589793
 40
3.141592653589793
 40
3.141592653589793
 10
-8.846493708814478
 20
39.73708756221588
 30
0.0
 41
1.0
 10
-9.072539395424634
 20
39.50058767175526
 30
0.0
 41
0.7071067811865475
 10
-9.29844683584355
 20
39.71650913531444
 30
0.0
 41
1.0
 10
-9.52435427626242
 20
39.93243059887362
 30
0.0
 41
0.7071067811865475
 10
-9.298308589652265
 20
40.16893048933422
 30
0.0
 41
1.0
  0
SPLINE
  5
87
330
1F
100
AcDbEntity
  8
Default
100
AcDbSpline
210
0.0
220
0.0
230
1.0
 70
    12
 71
     2
 72
     8
 73
     5
 74
     0
 42
0.0000000001
 43
0.0000000001
 40
0.0
 40
0.0
 40
0.0
 40
1.570796326794897
 40
1.570796326794897
 40
3.141592653589793
 40
3.141592653589793
 40
3.141592653589793
 10
8.846504652802082
 20
39.73708756221588
 30
0.0
 41
1.0
 10
9.072550339412302
 20
39.50058767175526
 30
0.0
 41
0.7071067811865475
 10
9.298457779831153
 20
39.71650913531444
 30
0.0
 41
1.0
 10
9.524365220250088
 20
39.93243059887362
 30
0.0
 41
0.7071067811865475
 10
9.29831953363987
 20
40.16893048933422
 30
0.0
 41
1.0
  0
SPLINE
  5
88
330
1F
100
AcDbEntity
  8
Default
100
AcDbSpline
210
0.0
220
0.0
230
1.0
 70
    12
 71
     2
 72
     6
 73
     3
 74
     0
 42
0.0000000001
 43
0.0000000001
 40
0.0
 40
0.0
 40
0.0
 40
1.088866416946463
 40
1.088866416946463
 40
1.088866416946463
 10
25.51302960917587
 20
17.7309946761238
 30
0.0
 41
1.0
 10
24.9860595376838
 20
17.59351114231615
 30
0.0
 41
0.9995153486363219
 10
24.46866634203082
 20
17.42350096788948
 30
0.0
 41
1.0
  0
SPLINE
  5
89
330
1F
100
AcDbEntity
  8
Default
100
AcDbSpline
210
0.0
220
0.0
230
1.0
 70
    12
 71
     2
 72
     6
 73
     3
 74
     0
 42
0.0000000001
 43
0.0000000001
 40
-0.0255154546284568
 40
-0.0255154546284568
 40
-0.0255154546284568
 40
0.0
 40
0.0
 40
0.0
 10
5.807604108725627
 20
17.78546390054687
 30
0.0
 41
1.0
 10
5.808299427001993
 20
17.80044535536889
 30
0.0
 41
0.8076605442444776
 10
5.822558814957631
 20
17.80429369803154
 30
0.0
 41
1.0
  0
SPLINE
  5
8A
330
1F
100
AcDbEntity
  8
Default
100
AcDbSpline
210
0.0
220
0.0
230
1.0
 70
    24
 71
     2
 72
     6
 73
     3
 74
     0
 42
0.0000000001
 43
0.0000000001
 40
0.0
 40
0.0
 40
0.0
 40
0.080085761945114
 40
0.080085761945114
 40
0.080085761945114
 10
5.797963091734573
 20
17.69381620309991
 30
0.0
 10
5.8027836002301
 20
17.73964005182339
 30
0.0
 10
5.807604108725627
 20
17.78546390054687
 30
0.0
  0
SPLINE
  5
8B
330
1F
100
AcDbEntity
  8
Default
100
AcDbSpline
210
0.0
220
0.0
230
1.0
 70
    12
 71
     2
 72
     6
 73
     3
 74
     0
 42
0.0000000001
 43
0.0000000001
 40
0.0
 40
0.0
 40
0.0
 40
0.1681425763085652
 40
0.1681425763085652
 40
0.1681425763085652
 10
-2.960786179359729
 20
17.02636664519
 30
0.0
 41
1.0
 10
-2.94975342043619
 20
16.94088518910322
 30
0.0
 41
0.9635236063237247
 10
-2.98438578306957
 20
16.86195863740731
 30
0.0
 41
1.0
  0
SPLINE
  5
8C
330
1F
100
AcDbEntity
  8
Default
100
AcDbSpline
210
0.0
220
0.0
230
1.0
 70
     8
 71
     3
 72
    14
 73
    10
 74
     0
 42
0.0000000001
 43
0.0000000001
 40
0.0
 40
0.0
 40
0.0
 40
0.0
 40
0.129007177486713
 40
0.2337848486905924
 40
0.4509925374381669
 40
0.5265540152854614
 40
0.5769667531641983
 40
0.6414369453105407
 40
0.7707150338727506
 40
0.7707150338727506
 40
0.7707150338727506
 40
0.7707150338727506
 10
-8.62206307962282
 20
17.72716974961594
 30
0.0
 10
-8.668963793615262
 20
17.72806754272283
 30
0.0
 10
-8.743683756014207
 20
17.7303293167212
 30
0.0
 10
-8.896223080247182
 20
17.77228746326188
 30
0.0
 10
-8.984302123299472
 20
17.87129652443569
 30
0.0
 10
-9.04622383397276
 20
17.97452969741019
 30
0.0
 10
-9.01845939202724
 20
18.03734264057947
 30
0.0
 10
-8.930365186648089
 20
18.05639800855664
 30
0.0
 10
-8.870776562512845
 20
18.05221949599532
 30
0.0
 10
-8.826377380083215
 20
18.05039114399996
 30
0.0
  0
SPLINE
  5
8D
330
1F
100
AcDbEntity
  8
Default
100
AcDbSpline
210
0.0
220
0.0
230
1.0
 70
    12
 71
     2
 72
     6
 73
     3
 74
     0
 42
0.0000000001
 43
0.0000000001
 40
0.0
 40
0.0
 40
0.0
 40
1.563798526923352
 40
1.563798526923352
 40
1.563798526923352
 10
-7.058074729715827
 20
17.64912800004574
 30
0.0
 41
1.0
 10
-7.836734702508943
 20
17.72700136845512
 30
0.0
 41
0.998763996039207
 10
-8.62206307962282
 20
17.72716974961594
 30
0.0
 41
1.0
  0
SPLINE
  5
8E
330
1F
100
AcDbEntity
  8
Default
100
AcDbSpline
210
0.0
220
0.0
230
1.0
 70
    12
 71
     2
 72
     6
 73
     3
 74
     0
 42
0.0000000001
 43
0.0000000001
 40
0.0
 40
0.0
 40
0.0
 40
1.007732929697784
 40
1.007732929697784
 40
1.007732929697784
 10
6.326934675178563
 20
16.66856111283441
 30
0.0
 41
1.0
 10
6.830773322409451
 20
16.67385787671007
 30
0.0
 41
0.9999999298343382
 10
7.334615796653907
 20
16.6787771549276
 30
0.0
 41
1.0
  0
SPLINE
  5
8F
330
1F
100
AcDbEntity
  8
Default
100
AcDbSpline
210
0.0
220
0.0
230
1.0
 70
     8
 71
     3
 72
    12
 73
     8
 74
     0
 42
0.0000000001
 43
0.0000000001
 40
0.0026828502233499
 40
0.0026828502233499
 40
0.0026828502233499
 40
0.0026828502233499
 40
1.405091144670625
 40
1.806006060758604
 40
2.047345764705131
 40
2.292996185875468
 40
2.513746935622255
 40
2.513746935622255
 40
2.513746935622255
 40
2.513746935622255
 10
5.300643440776639
 20
17.61036324215321
 30
0.0
 10
4.836927188610048
 20
17.54840164954226
 30
0.0
 10
4.240114010781838
 20
17.48380641289656
 30
0.0
 10
3.564967075653385
 20
17.38174768041956
 30
0.0
 10
3.274871691500891
 20
17.33279359616063
 30
0.0
 10
3.045972725544573
 20
17.25095311751495
 30
0.0
 10
2.968774047107331
 20
17.0978158394518
 30
0.0
 10
2.960857211110067
 20
17.02635872692319
 30
0.0
  0
SPLINE
  5
90
330
1F
100
AcDbEntity
  8
Default
100
AcDbSpline
210
0.0
220
0.0
230
1.0
 70
     8
 71
     3
 72
    30
 73
    26
 74
     0
 42
0.0000000001
 43
0.0000000001
 40
0.0
 40
0.0
 40
0.0
 40
0.0
 40
0.3534919975642306
 40
0.4758606687717457
 40
0.7921614084063033
 40
1.486959174912311
 40
2.200515466848197
 40
2.884810661817372
 40
3.234791409544167
 40
3.555658681156235
 40
4.31054240332608
 40
10.37686140766666
 40
11.37523067076425
 40
11.88680996862254
 40
12.0648049917455
 40
12.13589134492643
 40
12.22074620701597
 40
12.35319452039107
 40
12.44808462445711
 40
12.59953636835503
 40
12.84666756430093
 40
13.01086205401493
 40
13.04107161222273
 40
13.06132239926706
 40
13.49124629195292
 40
13.49124629195292
 40
13.49124629195292
 40
13.49124629195292
 10
8.047308265842503
 20
16.68612257574567
 30
0.0
 10
8.165115681827956
 20
16.6883062733764
 30
0.0
 10
8.323762068871474
 20
16.68852947275622
 30
0.0
 10
8.587668205351747
 20
16.69932262983133
 30
0.0
 10
8.962241959560174
 20
16.75541286642066
 30
0.0
 10
9.505613254978982
 20
16.96497599612182
 30
0.0
 10
10.03431829072565
 20
17.44089377176586
 30
0.0
 10
10.29421625208477
 20
17.97332924667104
 30
0.0
 10
10.37893111502399
 20
18.41822463907779
 30
0.0
 10
10.45493583750238
 20
18.88692282283961
 30
0.0
 10
10.85986619929849
 20
21.23333839434939
 30
0.0
 10
11.29673867675274
 20
23.80260550704799
 30
0.0
 10
11.72153081263832
 20
26.29219022403993
 30
0.0
 10
11.80818127951773
 20
26.84812199196472
 30
0.0
 10
11.84403806132991
 20
27.09913941000387
 30
0.0
 10
11.8560364866438
 20
27.20979792844678
 30
0.0
 10
11.857438243236
 20
27.30637032654387
 30
0.0
 10
11.82244491811286
 20
27.40720055799788
 30
0.0
 10
11.74138955923684
 20
27.50546088564181
 30
0.0
 10
11.59145073107243
 20
27.58538849501667
 30
0.0
 10
11.39166376456325
 20
27.55565331474654
 30
0.0
 10
11.28610054966032
 20
27.44482660583908
 30
0.0
 10
11.25444103785151
 20
27.38094163072063
 30
0.0
 10
11.18827802869498
 20
27.23511533964592
 30
0.0
 10
11.12630693315634
 20
27.09844508505779
 30
0.0
 10
11.06697499462535
 20
26.9679985044103
 30
0.0
  0
SPLINE
  5
91
330
1F
100
AcDbEntity
  8
Default
100
AcDbSpline
210
0.0
220
0.0
230
1.0
 70
    24
 71
     2
 72
     6
 73
     3
 74
     0
 42
0.0000000001
 43
0.0000000001
 40
-0.7276951967855994
 40
-0.7276951967855994
 40
-0.7276951967855994
 40
-0.1519904720529928
 40
-0.1519904720529928
 40
-0.1519904720529928
 10
-3.803450208959987
 20
16.06824176049612
 30
0.0
 10
-3.824743784403921
 20
16.35530545754727
 30
0.0
 10
-3.846037359847855
 20
16.64236915459843
 30
0.0
  0
SPLINE
  5
92
330
1F
100
AcDbEntity
  8
Default
100
AcDbSpline
210
0.0
220
0.0
230
1.0
 70
    12
 71
     2
 72
     6
 73
     3
 74
     0
 42
0.0000000001
 43
0.0000000001
 40
-0.4516084190997445
 40
-0.4516084190997445
 40
-0.4516084190997445
 40
0.0
 40
0.0
 40
0.0
 10
-3.53618430260417
 20
15.73834928475809
 30
0.0
 41
1.0
 10
-3.783843932198809
 20
15.8109155950368
 30
0.0
 41
0.8225814638961753
 10
-3.803450208959987
 20
16.06824176049612
 30
0.0
 41
1.0
  0
SPLINE
  5
93
330
1F
100
AcDbEntity
  8
Default
100
AcDbSpline
210
0.0
220
0.0
230
1.0
 70
    12
 71
     2
 72
     6
 73
     3
 74
     0
 42
0.0000000001
 43
0.0000000001
 40
0.0
 40
0.0
 40
0.0
 40
0.1768562855986097
 40
0.1768562855986097
 40
0.1768562855986097
 10
-3.363181629523297
 20
15.70263561361682
 30
0.0
 41
1.0
 10
-3.451178821859358
 20
15.71324628706181
 30
0.0
 41
0.9965097053014877
 10
-3.53618430260417
 20
15.73834928475809
 30
0.0
 41
1.0
  0
SPLINE
  5
94
330
1F
100
AcDbEntity
  8
Default
100
AcDbSpline
210
0.0
220
0.0
230
1.0
 70
    12
 71
     2
 72
     6
 73
     3
 74
     0
 42
0.0000000001
 43
0.0000000001
 40
-0.5902413260903482
 40
-0.5902413260903482
 40
-0.5902413260903482
 40
0.0
 40
0.0
 40
0.0
 10
-2.828946924935963
 20
15.89757995546047
 30
0.0
 41
1.0
 10
-3.046473304100584
 20
15.66420633374904
 30
0.0
 41
0.8912785162673854
 10
-3.363181629523297
 20
15.70263561361682
 30
0.0
 41
1.0
  0
LINE
  5
95
330
1F
100
AcDbEntity
  8
Default
100
AcDbLine
 10
-2.233901535187783
 20
16.54650430161482
 30
0.0
 11
-2.828946924935963
 21
15.89757995546047
 31
0.0
  0
LINE
  5
96
330
1F
100
AcDbEntity
  8
Default
100
AcDbLine
 10
-2.206597735435764
 20
16.71955493073132
 30
0.0
 11
-2.233901535187783
 21
16.54650430161482
 31
0.0
  0
SPLINE
  5
97
330
1F
100
AcDbEntity
  8
Default
100
AcDbSpline
210
0.0
220
0.0
230
1.0
 70
    12
 71
     2
 72
     6
 73
     3
 74
     0
 42
0.0000000001
 43
0.0000000001
 40
0.0
 40
0.0
 40
0.0
 40
3.654049383226059
 40
3.654049383226059
 40
3.654049383226059
 10
9.80478018796606
 20
61.20560903136433
 30
0.0
 41
1.0
 10
9.355406466073138
 20
59.43471025249924
 30
0.0
 41
0.9999999992927662
 10
8.906165950371133
 20
57.66377767728423
 30
0.0
 41
1.0
  0
SPLINE
  5
98
330
1F
100
AcDbEntity
  8
Default
100
AcDbSpline
210
0.0
220
0.0
230
1.0
 70
    12
 71
     2
 72
     8
 73
     5
 74
     0
 42
0.0000000001
 43
0.0000000001
 40
-3.141592653589793
 40
-3.141592653589793
 40
-3.141592653589793
 40
-1.570796326794897
 40
-1.570796326794897
 40
0.0
 40
0.0
 40
0.0
 10
10.4097183215282
 20
61.04848699011947
 30
0.0
 41
1.0
 10
10.48344516398049
 20
61.33234390868508
 30
0.0
 41
0.7071067811865475
 10
10.18097609719939
 20
61.41090492930752
 30
0.0
 41
1.0
 10
9.878507030418398
 20
61.48946594992994
 30
0.0
 41
0.7071067811865475
 10
9.80478018796606
 20
61.20560903136433
 30
0.0
 41
1.0
  0
SPLINE
  5
99
330
1F
100
AcDbEntity
  8
Default
100
AcDbSpline
210
0.0
220
0.0
230
1.0
 70
    12
 71
     2
 72
     6
 73
     3
 74
     0
 42
0.0000000001
 43
0.0000000001
 40
0.3511619944637618
 40
0.3511619944637618
 40
0.3511619944637618
 40
4.273950401093918
 40
4.273950401093918
 40
4.273950401093918
 10
9.445073127521146
 20
57.24615500419782
 30
0.0
 41
0.9999999999671866
 10
9.927359325524119
 20
59.14733023152375
 30
0.0
 41
0.999999999800316
 10
10.4097183215282
 20
61.04848699011947
 30
0.0
 41
1.0
  0
SPLINE
  5
9A
330
1F
100
AcDbEntity
  8
Default
100
AcDbSpline
210
0.0
220
0.0
230
1.0
 70
     8
 71
     3
 72
    11
 73
     7
 74
     0
 42
0.0000000001
 43
0.0000000001
 40
0.0
 40
0.0
 40
0.0
 40
0.0
 40
15.38685223518402
 40
15.5773112496696
 40
16.05478351798368
 40
16.47824156099147
 40
16.47824156099147
 40
16.47824156099147
 40
16.47824156099147
 10
-10.41889314689269
 20
0.4000123376944344
 30
0.0
 10
-9.953413857650503
 20
5.508167409043537
 30
0.0
 10
-9.483883824226723
 20
10.67847783403393
 30
0.0
 10
-8.998311564792289
 20
16.0086060962565
 30
0.0
 10
-8.869800393385503
 20
16.35577995021868
 30
0.0
 10
-8.692992816853462
 20
16.59994008271173
 30
0.0
 10
-8.598489453030481
 20
16.70467889570983
 30
0.0
  0
SPLINE
  5
9B
330
1F
100
AcDbEntity
  8
Default
100
AcDbSpline
210
0.0
220
0.0
230
1.0
 70
    12
 71
     2
 72
     8
 73
     5
 74
     0
 42
0.0000000001
 43
0.0000000001
 40
0.0
 40
0.0
 40
0.0
 40
1.570796326794897
 40
1.570796326794897
 40
3.141592653589793
 40
3.141592653589793
 40
3.141592653589793
 10
-9.796125889279836
 20
0.347097341107613
 30
0.0
 41
1.0
 10
-9.805185983743744
 20
0.2404672636817755
 30
0.0
 41
0.7071067811865475
 10
-10.11656961255022
 20
0.26692476197519
 30
0.0
 41
1.0
 10
-10.42795324135662
 20
0.2933822602685921
 30
0.0
 41
0.7071067811865475
 10
-10.41889314689269
 20
0.4000123376944344
 30
0.0
 41
1.0
  0
SPLINE
  5
9C
330
1F
100
AcDbEntity
  8
Default
100
AcDbSpline
210
0.0
220
0.0
230
1.0
 70
     8
 71
     3
 72
    15
 73
    11
 74
     0
 42
0.0000000001
 43
0.0000000001
 40
0.0
 40
0.0
 40
0.0
 40
0.0
 40
0.1481008985844257
 40
0.2835795947505744
 40
0.4095167464139915
 40
0.5399102056356212
 40
0.8000329001182528
 40
1.110289658690893
 40
5.325350683045592
 40
15.97290079287495
 40
15.97290079287495
 40
15.97290079287495
 40
15.97290079287495
 10
-8.198188577140911
 20
16.20970278041374
 30
0.0
 10
-8.228046151750505
 20
16.1705745953803
 30
0.0
 10
-8.282011661877391
 20
16.0920971624997
 30
0.0
 10
-8.34132019101628
 20
15.96950109260902
 30
0.0
 10
-8.383831053989582
 20
15.84494378122332
 30
0.0
 10
-8.402480619712776
 20
15.67352261789399
 30
0.0
 10
-8.421922237812169
 20
15.44085909328318
 30
0.0
 10
-8.56781703320911
 20
13.85230858365698
 30
0.0
 10
-9.024715677788038
 20
8.815485113488265
 30
0.0
 10
-9.474849038466857
 20
3.881680117188196
 30
0.0
 10
-9.796125889279836
 20
0.347097341107613
 30
0.0
  0
SPLINE
  5
9D
330
1F
100
AcDbEntity
  8
Default
100
AcDbSpline
210
0.0
220
0.0
230
1.0
 70
    12
 71
     3
 72
    12
 73
     8
 74
     0
 42
0.0000000001
 43
0.0000000001
 40
-1.0
 40
-1.0
 40
-1.0
 40
-1.0
 40
-0.875
 40
-0.875
 40
-0.75
 40
-0.75
 40
-0.6329199333998808
 40
-0.6329199333998808
 40
-0.6329199333998808
 40
-0.6329199333998808
 10
23.33385513695242
 20
21.64676194480337
 30
0.0
 41
1.0
 10
23.34467995736401
 20
22.02602164275852
 30
0.0
 41
1.0
 10
23.32430448595011
 20
22.45615282049572
 30
0.0
 41
1.0
 10
23.2282695264276
 20
23.35712122773931
 30
0.0
 41
1.0
 10
23.15317143171319
 20
23.82717604909878
 30
0.0
 41
1.0
 10
22.98204272806584
 20
24.70536280196904
 30
0.0
 41
1.0
 10
22.89219798955867
 20
25.10261902541289
 30
0.0
 41
1.0
 10
22.79871212250538
 20
25.47799896701824
 30
0.0
 41
1.0
  0
SPLINE
  5
9E
330
1F
100
AcDbEntity
  8
Default
100
AcDbSpline
210
0.0
220
0.0
230
1.0
 70
    12
 71
     2
 72
     6
 73
     3
 74
     0
 42
0.0000000001
 43
0.0000000001
 40
0.0
 40
0.0
 40
0.0
 40
0.1740253277019014
 40
0.1740253277019014
 40
0.1740253277019014
 10
-2.360480430254142
 20
16.74216756118646
 30
0.0
 41
1.0
 10
-2.273270627067397
 20
16.73758658063534
 30
0.0
 41
0.9945576532693988
 10
-2.188903530149958
 20
16.7150315786978
 30
0.0
 41
1.0
  0
SPLINE
  5
9F
330
1F
100
AcDbEntity
  8
Default
100
AcDbSpline
210
0.0
220
0.0
230
1.0
 70
     8
 71
     3
 72
    11
 73
     7
 74
     0
 42
0.0000000001
 43
0.0000000001
 40
0.0
 40
0.0
 40
0.0
 40
0.0
 40
3.587743490675677
 40
3.744000086238041
 40
3.880557559667364
 40
4.133108700178371
 40
4.133108700178371
 40
4.133108700178371
 40
4.133108700178371
 10
-8.092248686191226
 20
22.34627134278414
 30
0.0
 10
-8.178002276500933
 20
21.15345211641745
 30
0.0
 10
-8.27804809716821
 20
19.90939167466136
 30
0.0
 10
-8.366788094927529
 20
18.61895232017127
 30
0.0
 10
-8.356803430111938
 20
18.43675913298276
 30
0.0
 10
-8.343604503286599
 20
18.3080936159467
 30
0.0
 10
-8.323316865445179
 20
18.2259393008902
 30
0.0
  0
SPLINE
  5
A0
330
1F
100
AcDbEntity
  8
Default
100
AcDbSpline
210
0.0
220
0.0
230
1.0
 70
    24
 71
     2
 72
     6
 73
     3
 74
     0
 42
0.0000000001
 43
0.0000000001
 40
0.0
 40
0.0
 40
0.0
 40
0.3043501914012435
 40
0.3043501914012435
 40
0.3043501914012435
 10
20.18732982960046
 20
0.4773820823185702
 30
0.0
 10
20.14099548509799
 20
0.3324324763476127
 30
0.0
 10
20.09466114059552
 20
0.1874828703766553
 30
0.0
  0
ARC
  5
A1
330
1F
100
AcDbEntity
  8
Default
100
AcDbCircle
 10
19.95868294247327
 20
-1.076484063762294
 30
0.0
 40
1.570598420643909
100
AcDbArc
 50
58.67755145644817
 51
81.62916350016675
  0
SPLINE
  5
A2
330
1F
100
AcDbEntity
  8
Default
100
AcDbSpline
210
0.0
220
0.0
230
1.0
 70
    24
 71
     2
 72
     6
 73
     3
 74
     0
 42
0.0000000001
 43
0.0000000001
 40
0.0
 40
0.0
 40
0.0
 40
0.1791621436966646
 40
0.1791621436966646
 40
0.1791621436966646
 10
20.70879886258001
 20
0.0987906868041506
 30
0.0
 10
20.74198172027116
 20
0.1819992584115653
 30
0.0
 10
20.7751645779623
 20
0.26520783001898
 30
0.0
  0
SPLINE
  5
A3
330
1F
100
AcDbEntity
  8
Default
100
AcDbSpline
210
0.0
220
0.0
230
1.0
 70
    12
 71
     2
 72
     6
 73
     3
 74
     0
 42
0.0000000001
 43
0.0000000001
 40
-0.0626321953815391
 40
-0.0626321953815391
 40
-0.0626321953815391
 40
0.0
 40
0.0
 40
0.0
 10
20.66179596799395
 20
0.0618131568844831
 30
0.0
 41
1.0
 10
20.69598251647445
 20
0.0667198711815132
 30
0.0
 41
0.8658102242625448
 10
20.70879886258001
 20
0.0987906868041506
 30
0.0
 41
1.0
  0
ARC
  5
A4
330
1F
100
AcDbEntity
  8
Default
100
AcDbCircle
 10
20.54394994279482
 20
1.61951412328122
 30
0.0
 40
1.562152356964127
100
AcDbArc
 50
254.8071051210574
 51
274.3264029719196
  0
SPLINE
  5
A5
330
1F
100
AcDbEntity
  8
Default
100
AcDbSpline
210
0.0
220
0.0
230
1.0
 70
    12
 71
     2
 72
     8
 73
     5
 74
     0
 42
0.0000000001
 43
0.0000000001
 40
-0.0950799819146273
 40
-0.0950799819146273
 40
-0.0950799819146273
 40
-0.0475399909573137
 40
-0.0475399909573137
 40
0.0
 40
0.0
 40
0.0
 10
20.09466114059552
 20
0.1874828703766553
 30
0.0
 41
1.0
 10
20.08706491553978
 20
0.1635588707539058
 30
0.0
 41
0.9223262384247396
 10
20.0987894753863
 20
0.1413643889194276
 30
0.0
 41
1.0
 10
20.11051403523275
 20
0.1191699070849452
 30
0.0
 41
0.9223262384247396
 10
20.13455744459787
 20
0.1119605524955603
 30
0.0
 41
1.0
  0
SPLINE
  5
A6
330
1F
100
AcDbEntity
  8
Default
100
AcDbSpline
210
0.0
220
0.0
230
1.0
 70
    24
 71
     2
 72
     6
 73
     3
 74
     0
 42
0.0000000001
 43
0.0000000001
 40
0.0
 40
0.0
 40
0.0
 40
0.2378022079818448
 40
0.2378022079818448
 40
0.2378022079818448
 10
-9.393180237167144
 20
0.0749799155485817
 30
0.0
 10
-9.388637561814647
 20
0.1937942102731682
 30
0.0
 10
-9.384094886462151
 20
0.3126085049977547
 30
0.0
  0
SPLINE
  5
A7
330
1F
100
AcDbEntity
  8
Default
100
AcDbSpline
210
0.0
220
0.0
230
1.0
 70
     8
 71
     3
 72
    14
 73
    10
 74
     0
 42
0.0000000001
 43
0.0000000001
 40
0.0
 40
0.0
 40
0.0
 40
0.0
 40
0.129007177486713
 40
0.2337848486905924
 40
0.4509925374381669
 40
0.5265540152854614
 40
0.5769667531641983
 40
0.6414369453105407
 40
0.7707150338727506
 40
0.7707150338727506
 40
0.7707150338727506
 40
0.7707150338727506
 10
8.622074684659935
 20
17.72716974961594
 30
0.0
 10
8.668975398652378
 20
17.72806754272283
 30
0.0
 10
8.743695361051323
 20
17.7303293167212
 30
0.0
 10
8.896234685284298
 20
17.77228746326188
 30
0.0
 10
8.984313728336588
 20
17.87129652443569
 30
0.0
 10
9.046235439009877
 20
17.97452969741019
 30
0.0
 10
9.018470997064355
 20
18.03734264057947
 30
0.0
 10
8.930376791685205
 20
18.05639800855664
 30
0.0
 10
8.87078816754996
 20
18.05221949599532
 30
0.0
 10
8.826388985120332
 20
18.05039114399996
 30
0.0
  0
SPLINE
  5
A8
330
1F
100
AcDbEntity
  8
Default
100
AcDbSpline
210
0.0
220
0.0
230
1.0
 70
    12
 71
     2
 72
     6
 73
     3
 74
     0
 42
0.0000000001
 43
0.0000000001
 40
0.0
 40
0.0
 40
0.0
 40
1.563798526923352
 40
1.563798526923352
 40
1.563798526923352
 10
7.058086334752943
 20
17.64912800004574
 30
0.0
 41
1.0
 10
7.836746307546056
 20
17.72700136845512
 30
0.0
 41
0.998763996039207
 10
8.622074684659935
 20
17.72716974961594
 30
0.0
 41
1.0
  0
POLYLINE
  5
A9
330
1F
100
AcDbEntity
  8
Default
100
AcDb2dPolyline
 66
     1
 10
0.0
 20
0.0
 30
0.0
  0
VERTEX
  5
AA
330
A9
100
AcDbEntity
  8
Default
100
AcDbVertex
100
AcDb2dVertex
 10
40.14528843659781
 20
15.89106530113395
 30
0.0
  0
VERTEX
  5
AB
330
A9
100
AcDbEntity
  8
Default
100
AcDbVertex
100
AcDb2dVertex
 10
41.34575289842144
 20
0.2662378076363865
 30
0.0
  0
SEQEND
  5
AC
330
A9
100
AcDbEntity
  8
Default
  0
SPLINE
  5
AD
330
1F
100
AcDbEntity
  8
Default
100
AcDbSpline
210
0.0
220
0.0
230
1.0
 70
    12
 71
     2
 72
     8
 73
     5
 74
     0
 42
0.0000000001
 43
0.0000000001
 40
-0.26419823654468
 40
-0.26419823654468
 40
-0.26419823654468
 40
-0.13209911827234
 40
-0.13209911827234
 40
0.0
 40
0.0
 40
0.0
 10
24.48504921700123
 20
17.23044281501825
 30
0.0
 41
1.0
 10
24.40843142263316
 20
17.24325926588766
 30
0.0
 41
0.7897971207205426
 10
24.40188151026911
 20
17.32066499225687
 30
0.0
 41
1.0
 10
24.39533159790512
 20
17.39807071862609
 30
0.0
 41
0.7897971207205426
 10
24.46870641297562
 20
17.42357923367673
 30
0.0
 41
1.0
  0
SPLINE
  5
AE
330
1F
100
AcDbEntity
  8
Default
100
AcDbSpline
210
0.0
220
0.0
230
1.0
 70
    12
 71
     2
 72
     6
 73
     3
 74
     0
 42
0.0000000001
 43
0.0000000001
 40
0.0
 40
0.0
 40
0.0
 40
1.45131724235394
 40
1.45131724235394
 40
1.45131724235394
 10
25.92374885809573
 20
16.97967521016213
 30
0.0
 41
1.0
 10
25.20076717302782
 20
17.11071913861365
 30
0.0
 41
0.9999921426165244
 10
24.48504921700123
 20
17.23044281501825
 30
0.0
 41
1.0
  0
SPLINE
  5
AF
330
1F
100
AcDbEntity
  8
Default
100
AcDbSpline
210
0.0
220
0.0
230
1.0
 70
     8
 71
     3
 72
    17
 73
    13
 74
     0
 42
0.0000000001
 43
0.0000000001
 40
0.0
 40
0.0
 40
0.0
 40
0.0
 40
0.1306010203235553
 40
0.2708653519291737
 40
0.4040307500607104
 40
0.550035954786256
 40
0.7858367444366362
 40
1.136130573103348
 40
2.009127977753401
 40
3.472934796647371
 40
4.239289327296381
 40
5.273886517009417
 40
5.273886517009417
 40
5.273886517009417
 40
5.273886517009417
 10
41.5297888534605
 20
17.50709595517073
 30
0.0
 10
41.5365579622113
 20
17.55033347833965
 30
0.0
 10
41.52255681849692
 20
17.64129317537773
 30
0.0
 10
41.46296618680088
 20
17.76317221486539
 30
0.0
 10
41.36315488531034
 20
17.86553578878402
 30
0.0
 10
41.20269987702864
 20
17.93094899150942
 30
0.0
 10
40.96186638167205
 20
17.97417870357448
 30
0.0
 10
40.4790219213491
 20
18.03181196472249
 30
0.0
 10
39.58294471378269
 20
18.06720877737521
 30
0.0
 10
38.54893194372079
 20
18.03219541837315
 30
0.0
 10
37.46220968747929
 20
17.97456151986341
 30
0.0
 10
36.86301554131694
 20
17.93781515235214
 30
0.0
 10
36.51880026452363
 20
17.91660903730157
 30
0.0
  0
SPLINE
  5
B0
330
1F
100
AcDbEntity
  8
Default
100
AcDbSpline
210
0.0
220
0.0
230
1.0
 70
    12
 71
     2
 72
     6
 73
     3
 74
     0
 42
0.0000000001
 43
0.0000000001
 40
0.0
 40
0.0
 40
0.0
 40
0.2116970370606201
 40
0.2116970370606201
 40
0.2116970370606201
 10
8.368705030459296
 20
55.95637319562533
 30
0.0
 41
1.0
 10
8.330412122670124
 20
56.05505230073322
 30
0.0
 41
0.9999997525343159
 10
8.292258096925252
 20
56.15378518730753
 30
0.0
 41
1.0
  0
SPLINE
  5
B1
330
1F
100
AcDbEntity
  8
Default
100
AcDbSpline
210
0.0
220
0.0
230
1.0
 70
     8
 71
     3
 72
    10
 73
     6
 74
     0
 42
0.0000000001
 43
0.0000000001
 40
0.0
 40
0.0
 40
0.0
 40
0.0
 40
0.9794113377761844
 40
1.223336803563259
 40
1.422213678887331
 40
1.422213678887331
 40
1.422213678887331
 40
1.422213678887331
 10
9.692463088287298
 20
26.3897455850088
 30
0.0
 10
10.0186215834209
 20
26.40408706382003
 30
0.0
 10
10.42635342635208
 20
26.41323369995109
 30
0.0
 10
10.89982643801352
 20
26.43747990838298
 30
0.0
 10
11.04694945075141
 20
26.449794215265
 30
0.0
 10
11.11288258765552
 20
26.45663125839539
 30
0.0
  0
LINE
  5
B2
330
1F
100
AcDbEntity
  8
Default
100
AcDbLine
 10
31.2242553467803
 20
16.10146389457408
 30
0.0
 11
31.21080380631105
 21
16.93644385142777
 31
0.0
  0
ARC
  5
B3
330
1F
100
AcDbEntity
  8
Default
100
AcDbCircle
 10
45.3183995490383
 20
16.32852078325763
 30
0.0
 40
14.09597302866112
100
AcDbArc
 50
180.9229560847984
 51
182.1952989516929
  0
SPLINE
  5
B4
330
1F
100
AcDbEntity
  8
Default
100
AcDbSpline
210
0.0
220
0.0
230
1.0
 70
    12
 71
     2
 72
     6
 73
     3
 74
     0
 42
0.0000000001
 43
0.0000000001
 40
-0.0902794868786971
 40
-0.0902794868786971
 40
-0.0902794868786971
 40
0.0
 40
0.0
 40
0.0
 10
31.17728970513474
 20
15.72824168285676
 30
0.0
 41
1.0
 10
31.23337622243934
 20
15.7323308285232
 30
0.0
 41
0.728696084185065
 10
31.23277208048552
 20
15.7885629683379
 30
0.0
 41
1.0
  0
SPLINE
  5
B5
330
1F
100
AcDbEntity
  8
Default
100
AcDbSpline
210
0.0
220
0.0
230
1.0
 70
    24
 71
     2
 72
     6
 73
     3
 74
     0
 42
0.0000000001
 43
0.0000000001
 40
-0.3350546835978193
 40
-0.3350546835978193
 40
-0.3350546835978193
 40
0.0
 40
0.0
 40
0.0
 10
30.84319577559882
 20
15.70288646153887
 30
0.0
 10
31.01024274036678
 20
15.71556407219781
 30
0.0
 10
31.17728970513474
 20
15.72824168285676
 30
0.0
  0
SPLINE
  5
B6
330
1F
100
AcDbEntity
  8
Default
100
AcDbSpline
210
0.0
220
0.0
230
1.0
 70
    12
 71
     2
 72
     6
 73
     3
 74
     0
 42
0.0000000001
 43
0.0000000001
 40
-0.0902794868802301
 40
-0.0902794868802301
 40
-0.0902794868802301
 40
0.0
 40
0.0
 40
0.0
 10
30.77924542787378
 20
15.75414369988104
 30
0.0
 41
1.0
 10
30.78713452158521
 20
15.6984644332148
 30
0.0
 41
0.7286960841322505
 10
30.84319577559882
 20
15.70288646153887
 30
0.0
 41
1.0
  0
ARC
  5
B7
330
1F
100
AcDbEntity
  8
Default
100
AcDbCircle
 10
16.77345767420962
 20
14.16217396812782
 30
0.0
 40
14.09597312098413
100
AcDbArc
 50
6.484701052448002
 51
7.757043910951291
  0
LINE
  5
B8
330
1F
100
AcDbEntity
  8
Default
100
AcDbLine
 10
30.62767166793321
 20
16.8926120520986
 30
0.0
 11
30.74044293466761
 21
16.06474616430238
 31
0.0
  0
ARC
  5
B9
330
1F
100
AcDbEntity
  8
Default
100
AcDbCircle
 10
30.72474632867232
 20
16.90583548915613
 30
0.0
 40
0.0979711643557846
100
AcDbArc
 50
179.4495823866903
 51
187.7570439109494
  0
SPLINE
  5
BA
330
1F
100
AcDbEntity
  8
Default
100
AcDbSpline
210
0.0
220
0.0
230
1.0
 70
    12
 71
     2
 72
     6
 73
     3
 74
     0
 42
0.0000000001
 43
0.0000000001
 40
0.0
 40
0.0
 40
0.0
 40
0.0176125503554034
 40
0.0176125503554034
 40
0.0176125503554034
 10
6.59972385329894
 20
17.84222555733199
 30
0.0
 41
1.0
 10
6.600671300508094
 20
17.85170730810085
 30
0.0
 41
0.9033845678394041
 10
6.608536737109262
 20
17.85691298649967
 30
0.0
 41
1.0
  0
SPLINE
  5
BB
330
1F
100
AcDbEntity
  8
Default
100
AcDbSpline
210
0.0
220
0.0
230
1.0
 70
    24
 71
     2
 72
     6
 73
     3
 74
     0
 42
0.0000000001
 43
0.0000000001
 40
0.0
 40
0.0
 40
0.0
 40
0.0818852206746358
 40
0.0818852206746358
 40
0.0818852206746358
 10
6.592556270874354
 20
17.76036744273254
 30
0.0
 10
6.596140062086647
 20
17.80129650003227
 30
0.0
 10
6.59972385329894
 20
17.84222555733199
 30
0.0
  0
SPLINE
  5
BC
330
1F
100
AcDbEntity
  8
Default
100
AcDbSpline
210
0.0
220
0.0
230
1.0
 70
    12
 71
     2
 72
     6
 73
     3
 74
     0
 42
0.0000000001
 43
0.0000000001
 40
0.0
 40
0.0
 40
0.0
 40
0.0173201738194149
 40
0.0173201738194149
 40
0.0173201738194149
 10
6.584259696111303
 20
17.74553587046434
 30
0.0
 41
1.0
 10
6.591645709502491
 20
17.75102194657603
 30
0.0
 41
0.914170376228085
 10
6.592556270874354
 20
17.76036744273254
 30
0.0
 41
1.0
  0
SPLINE
  5
BD
330
1F
100
AcDbEntity
  8
Default
100
AcDbSpline
210
0.0
220
0.0
230
1.0
 70
     8
 71
     3
 72
     8
 73
     4
 74
     0
 42
0.0000000001
 43
0.0000000001
 40
2.308617043152504
 40
2.308617043152504
 40
2.308617043152504
 40
2.308617043152504
 40
6.997279619519469
 40
6.997279619519469
 40
6.997279619519469
 40
6.997279619519469
 10
35.90152118722324
 20
17.23856902293649
 30
0.0
 10
34.34309761095267
 20
17.12049683589761
 30
0.0
 10
32.78472153071232
 20
17.00188811002256
 30
0.0
 10
31.22630093677208
 20
16.88378373483388
 30
0.0
  0
SPLINE
  5
BE
330
1F
100
AcDbEntity
  8
Default
100
AcDbSpline
210
0.0
220
0.0
230
1.0
 70
    12
 71
     2
 72
     6
 73
     3
 74
     0
 42
0.0000000001
 43
0.0000000001
 40
0.0
 40
0.0
 40
0.0
 40
0.049839079307476
 40
0.049839079307476
 40
0.049839079307476
 10
9.24296732198826
 20
0.3228097316351892
 30
0.0
 41
1.0
 10
9.267881263174532
 20
0.3234022073947161
 30
0.0
 41
0.9999130070347984
 10
9.292802163639863
 20
0.3233373001308166
 30
0.0
 41
1.0
  0
ARC
  5
BF
330
1F
100
AcDbEntity
  8
Default
100
AcDbCircle
 10
-5.509126830422588
 20
22.21020302717304
 30
0.0
 40
4.537762317198629
100
AcDbArc
 50
263.1853693094934
 51
264.7560823041505
  0
SPLINE
  5
C0
330
1F
100
AcDbEntity
  8
Default
100
AcDbSpline
210
0.0
220
0.0
230
1.0
 70
     8
 71
     3
 72
    17
 73
    13
 74
     0
 42
0.0000000001
 43
0.0000000001
 40
0.0
 40
0.0
 40
0.0
 40
0.0
 40
15.07353752690674
 40
15.61606607545562
 40
15.71987706518217
 40
15.90764932555116
 40
16.68761530069579
 40
17.43763592182185
 40
18.12623456045914
 40
18.46069009381041
 40
18.60270586314539
 40
18.88069632235299
 40
18.88069632235299
 40
18.88069632235299
 40
18.88069632235299
 10
-9.383763638019786
 20
0.3173981616280628
 30
0.0
 10
-9.016222427408877
 20
5.328419466548951
 30
0.0
 10
-8.635293507944539
 20
10.51989839113422
 30
0.0
 10
-8.251842824981395
 20
15.745738245559
 30
0.0
 10
-8.229938758111189
 20
16.02298762606603
 30
0.0
 10
-8.177042952489558
 20
16.37633748088062
 30
0.0
 10
-7.98041431138796
 20
16.92319159726668
 30
0.0
 10
-7.475504740931797
 20
17.48677625443131
 30
0.0
 10
-6.918476326657867
 20
17.72319709783822
 30
0.0
 10
-6.529078278769759
 20
17.75419803681167
 30
0.0
 10
-6.278137839482895
 20
17.73636765999673
 30
0.0
 10
-6.13953458291337
 20
17.71548926140916
 30
0.0
 10
-6.047566461866211
 20
17.70449890787283
 30
0.0
  0
SPLINE
  5
C1
330
1F
100
AcDbEntity
  8
Default
100
AcDbSpline
210
0.0
220
0.0
230
1.0
 70
    12
 71
     2
 72
     6
 73
     3
 74
     0
 42
0.0000000001
 43
0.0000000001
 40
0.0
 40
0.0
 40
0.0
 40
0.1740253277019014
 40
0.1740253277019014
 40
0.1740253277019014
 10
2.360492035291259
 20
16.74216756118646
 30
0.0
 41
1.0
 10
2.273282232104505
 20
16.73758658063534
 30
0.0
 41
0.9945576532693988
 10
2.188915135187074
 20
16.7150315786978
 30
0.0
 41
1.0
  0
SPLINE
  5
C2
330
1F
100
AcDbEntity
  8
Default
100
AcDbSpline
210
0.0
220
0.0
230
1.0
 70
    12
 71
     2
 72
     6
 73
     3
 74
     0
 42
0.0000000001
 43
0.0000000001
 40
0.0
 40
0.0
 40
0.0
 40
0.1487029765232862
 40
0.1487029765232862
 40
0.1487029765232862
 10
-3.582169104068271
 20
16.4909159848042
 30
0.0
 41
1.0
 10
-3.582647884306185
 20
16.5652661844629
 30
0.0
 41
0.9999918765127216
 10
-3.582672751096308
 20
16.6396179215068
 30
0.0
 41
0.9999930707285684
  0
SPLINE
  5
C3
330
1F
100
AcDbEntity
  8
Default
100
AcDbSpline
210
0.0
220
0.0
230
1.0
 70
     8
 71
     3
 72
    11
 73
     7
 74
     0
 42
0.0000000001
 43
0.0000000001
 40
0.0
 40
0.0
 40
0.0
 40
0.0
 40
0.1019693152571884
 40
0.2397577634311248
 40
0.5900727970268679
 40
1.693773536155684
 40
1.693773536155684
 40
1.693773536155684
 40
1.693773536155684
 10
-8.329799267497265
 20
56.05670626190178
 30
0.0
 10
-8.301008981732878
 20
56.03859556499467
 30
0.0
 10
-8.230686437694828
 20
56.00053936802485
 30
0.0
 10
-8.051617476558704
 20
55.91890098130037
 30
0.0
 10
-7.553143997322366
 20
55.73574470347577
 30
0.0
 10
-7.083505321879102
 20
55.61358351621121
 30
0.0
 10
-6.730731753660734
 20
55.50955942100572
 30
0.0
  0
SPLINE
  5
C4
330
1F
100
AcDbEntity
  8
Default
100
AcDbSpline
210
0.0
220
0.0
230
1.0
 70
    12
 71
     2
 72
    10
 73
     7
 74
     0
 42
0.0000000001
 43
0.0000000001
 40
-0.9816898998728285
 40
-0.9816898998728285
 40
-0.9816898998728285
 40
-0.9567218687389515
 40
-0.9567218687389515
 40
-0.4658480025955927
 40
-0.4658480025955927
 40
0.0
 40
0.0
 40
0.0
 10
22.1721607244796
 20
26.64824270195842
 30
0.0
 41
0.9999999999118532
 10
22.15980832646772
 20
26.64638936308158
 30
0.0
 41
0.9992021508172376
 10
22.14764325414228
 20
26.64355605812932
 30
0.0
 41
1.0
 10
21.84328904657763
 20
26.57267047188152
 30
0.0
 41
0.7071067811865318
 10
21.91417463282545
 20
26.26831626431687
 30
0.0
 41
1.0
 10
21.97959925193712
 20
25.98740925403496
 30
0.0
 41
0.7348459531198692
 10
22.26483976558595
 20
26.03015242407149
 30
0.0
 41
0.9999999696521558
  0
SPLINE
  5
C5
330
1F
100
AcDbEntity
  8
Default
100
AcDbSpline
210
0.0
220
0.0
230
1.0
 70
     8
 71
     3
 72
    26
 73
    22
 74
     0
 42
0.0000000001
 43
0.0000000001
 40
0.0
 40
0.0
 40
0.0
 40
0.0
 40
7.174163686276224
 40
7.855940892791357
 40
8.304413832717367
 40
8.704664974530592
 40
9.654652280121095
 40
10.54712046179448
 40
11.22834135743286
 40
11.81670577088101
 40
11.9746941667565
 40
12.04973902068948
 40
12.34708698760069
 40
19.40791760679432
 40
20.77646030197645
 40
21.27453935366349
 40
22.04948015563158
 40
22.28922897843398
 40
22.55242506321534
 40
22.81641657700331
 40
24.06423152410204
 40
24.06423152410204
 40
24.06423152410204
 40
24.06423152410204
 10
36.52973394726632
 20
16.95597448508121
 30
0.0
 10
36.50246900797265
 20
19.34720693383301
 30
0.0
 10
36.47305772728862
 20
21.96568872166485
 30
0.0
 10
36.44124982970004
 20
24.73364987095154
 30
0.0
 10
36.43675176856652
 20
25.24385129324271
 30
0.0
 10
36.42616074746797
 20
25.84300776517739
 30
0.0
 10
36.24180575589338
 20
26.58323673521436
 30
0.0
 10
35.67598477489946
 20
27.24280107603701
 30
0.0
 10
34.99651950686848
 20
27.52369180019544
 30
0.0
 10
34.52164730860147
 20
27.57283703518485
 30
0.0
 10
34.24737509518997
 20
27.56491981423795
 30
0.0
 10
34.07100632868708
 20
27.55491569177281
 30
0.0
 10
31.59732916053247
 20
27.41169965530651
 30
0.0
 10
28.69328643373967
 20
27.24462713128322
 30
0.0
 10
25.72238640010181
 20
27.07325403189222
 30
0.0
 10
24.84336762304611
 20
27.02187105897549
 30
0.0
 10
24.34135753293145
 20
26.97159684620895
 30
0.0
 10
23.91990530698092
 20
26.90963275244418
 30
0.0
 10
23.66711968207528
 20
26.87152921647805
 30
0.0
 10
23.08191518246667
 20
26.78431139132007
 30
0.0
 10
22.58353876231365
 20
26.70966569319162
 30
0.0
 10
22.17216072447957
 20
26.64824270195841
 30
0.0
  0
ARC
  5
C6
330
1F
100
AcDbEntity
  8
Default
100
AcDbCircle
 10
36.21729719427657
 20
16.95161747226959
 30
0.0
 40
0.3124671313585408
100
AcDbArc
 50
180.502695825452
 51
0.7989529479573976
  0
LINE
  5
C7
330
1F
100
AcDbEntity
  8
Default
100
AcDbLine
 10
35.89189425065302
 20
18.0783577612369
 30
0.0
 11
35.90484208935146
 21
16.94887601541811
 31
0.0
  0
SPLINE
  5
C8
330
1F
100
AcDbEntity
  8
Default
100
AcDbSpline
210
0.0
220
0.0
230
1.0
 70
     8
 71
     3
 72
    24
 73
    20
 74
     0
 42
0.0000000001
 43
0.0000000001
 40
0.0
 40
0.0
 40
0.0
 40
0.0
 40
1.252199625602159
 40
1.505445086656863
 40
1.777430717652725
 40
2.004690815799
 40
2.735361958643393
 40
3.230175176941851
 40
11.42990519948157
 40
11.69691145046897
 40
11.9580365835542
 40
12.49304852154891
 40
12.974863992945
 40
13.62089556540649
 40
14.35700418677953
 40
14.70738315408766
 40
15.20313318991591
 40
16.06999042966602
 40
21.8670845670966
 40
21.8670845670966
 40
21.8670845670966
 40
21.8670845670966
 10
22.26483976558592
 20
26.03015242407147
 30
0.0
 10
22.67766365374882
 20
26.09178917568232
 30
0.0
 10
23.17393926899467
 20
26.16614576724866
 30
0.0
 10
23.75994943612915
 20
26.25344412497331
 30
0.0
 10
24.00797001646538
 20
26.29085614983332
 30
0.0
 10
24.41356827099048
 20
26.35090536998572
 30
0.0
 10
24.8956692725082
 20
26.39901406441363
 30
0.0
 10
28.03213888964046
 20
26.58096908210268
 30
0.0
 10
31.01439809907822
 20
26.75233365512382
 30
0.0
 10
33.91899433279201
 20
26.91867899608302
 30
0.0
 10
34.27194154298536
 20
26.94539879281554
 30
0.0
 10
34.70023420702677
 20
26.94587156667568
 30
0.0
 10
35.23760399185835
 20
26.76579530209771
 30
0.0
 10
35.67781940303803
 20
26.29596385596271
 30
0.0
 10
35.80397938699116
 20
25.71318557549502
 30
0.0
 10
35.81276136948895
 20
25.19113753059877
 30
0.0
 10
35.81723377253132
 20
24.6175730185242
 30
0.0
 10
35.84486281010879
 20
22.23177330863521
 30
0.0
 10
35.86993627699883
 20
20.01059771600336
 30
0.0
 10
35.89189425065302
 20
18.0783577612369
 30
0.0
  0
SPLINE
  5
C9
330
1F
100
AcDbEntity
  8
Default
100
AcDbSpline
210
0.0
220
0.0
230
1.0
 70
    12
 71
     2
 72
     8
 73
     5
 74
     0
 42
0.0000000001
 43
0.0000000001
 40
0.0
 40
0.0
 40
0.0
 40
0.0865273959107956
 40
0.0865273959107956
 40
0.1959595050328624
 40
0.1959595050328624
 40
0.1959595050328624
 10
-8.821410555903867
 20
0.2862284105450925
 30
0.0
 41
1.0
 10
-8.864063450117788
 20
0.2935328301135945
 30
0.0
 41
0.999649003387531
 10
-8.907043364397282
 20
0.2985677976987233
 30
0.0
 41
1.0
 10
-8.961377549557882
 20
0.3050633185050633
 30
0.0
 41
0.9998625323368967
 10
-9.01589722970408
 20
0.3097537283329928
 30
0.0
 41
1.0
  0
SPLINE
  5
CA
330
1F
100
AcDbEntity
  8
Default
100
AcDbSpline
210
0.0
220
0.0
230
1.0
 70
    12
 71
     2
 72
     8
 73
     5
 74
     0
 42
0.0000000001
 43
0.0000000001
 40
0.0
 40
0.0
 40
0.0
 40
0.0157281795497573
 40
0.0157281795497573
 40
0.0314563590995147
 40
0.0314563590995147
 40
0.0314563590995147
 10
-2.167168826622344
 20
16.73317322627024
 30
0.0
 41
1.0
 10
-2.167903108251494
 20
16.72490939965763
 30
0.0
 41
0.9236420745565544
 10
-2.174272329174812
 20
16.71959310163886
 30
0.0
 41
1.0
 10
-2.180641550098134
 20
16.71427680362012
 30
0.0
 41
0.9236420745565544
 10
-2.188903530149958
 20
16.7150315786978
 30
0.0
 41
1.0
  0
SPLINE
  5
CB
330
1F
100
AcDbEntity
  8
Default
100
AcDbSpline
210
0.0
220
0.0
230
1.0
 70
    12
 71
     2
 72
     6
 73
     3
 74
     0
 42
0.0000000001
 43
0.0000000001
 40
0.6306172721083131
 40
0.6306172721083131
 40
0.6306172721083131
 40
4.887933103701366
 40
4.887933103701366
 40
4.887933103701366
 10
22.46588570034123
 20
26.69212557221188
 30
0.0
 41
0.9996102355982702
 10
21.86312667865801
 20
28.73573325127183
 30
0.0
 41
0.998489462304537
 10
21.0542050779643
 20
30.70684883085222
 30
0.0
 41
1.0
  0
SPLINE
  5
CC
330
1F
100
AcDbEntity
  8
Default
100
AcDbSpline
210
0.0
220
0.0
230
1.0
 70
     8
 71
     3
 72
    11
 73
     7
 74
     0
 42
0.0000000001
 43
0.0000000001
 40
0.0
 40
0.0
 40
0.0
 40
0.0
 40
1.016023921203492
 40
1.527494508839443
 40
2.164610804987852
 40
3.918341631072514
 40
3.918341631072514
 40
3.918341631072514
 40
3.918341631072514
 10
25.14973725976512
 20
22.60927953638063
 30
0.0
 10
25.34135614726665
 20
22.89078878286215
 30
0.0
 10
25.50948563269094
 20
23.3809882209443
 30
0.0
 10
25.56205490283986
 20
24.10392856412993
 30
0.0
 10
25.46470454952777
 20
25.06650636880853
 30
0.0
 10
25.31290462966558
 20
25.8522557115929
 30
0.0
 10
25.14880761187698
 20
26.41295046054321
 30
0.0
  0
SPLINE
  5
CD
330
1F
100
AcDbEntity
  8
Default
100
AcDbSpline
210
0.0
220
0.0
230
1.0
 70
     8
 71
     3
 72
    16
 73
    12
 74
     0
 42
0.0000000001
 43
0.0000000001
 40
4.563787154012667
 40
4.563787154012667
 40
4.563787154012667
 40
4.563787154012667
 40
5.804062866727969
 40
7.268374888272469
 40
7.793056219858554
 40
8.239581996564139
 40
8.709131721423118
 40
9.168116820596085
 40
9.553899249817224
 40
10.19568979129581
 40
10.33789683585716
 40
10.33789683585716
 40
10.33789683585716
 40
10.33789683585716
 10
24.94651542601127
 20
27.02537710162746
 30
0.0
 10
24.80387102904081
 20
27.41328259762498
 30
0.0
 10
24.44005282259445
 20
28.2404218147966
 30
0.0
 10
23.89847849876855
 20
29.17282222606583
 30
0.0
 10
23.4037416862584
 20
29.8188613572276
 30
0.0
 10
23.03852819140883
 20
30.13530622646563
 30
0.0
 10
22.64933052160637
 20
30.37922519204427
 30
0.0
 10
22.23342263172327
 20
30.52630040928513
 30
0.0
 10
21.74977369238201
 20
30.63330969588542
 30
0.0
 10
21.35895232692201
 20
30.65995308266682
 30
0.0
 10
21.10085043922129
 20
30.69774652399754
 30
0.0
 10
21.0542050779643
 20
30.70684883085222
 30
0.0
  0
SPLINE
  5
CE
330
1F
100
AcDbEntity
  8
Default
100
AcDbSpline
210
0.0
220
0.0
230
1.0
 70
    12
 71
     2
 72
     6
 73
     3
 74
     0
 42
0.0000000001
 43
0.0000000001
 40
0.438274976959408
 40
0.438274976959408
 40
0.438274976959408
 40
0.9570378084306489
 40
0.9570378084306489
 40
0.9570378084306489
 10
8.520345746094527
 20
17.32493039737358
 30
0.0
 41
0.9749701698320014
 10
8.705845222693595
 20
17.51019841053816
 30
0.0
 41
0.9726718440834105
 10
8.817534807410425
 20
17.74738974508951
 30
0.0
 41
1.0
  0
SPLINE
  5
CF
330
1F
100
AcDbEntity
  8
Default
100
AcDbSpline
210
0.0
220
0.0
230
1.0
 70
    12
 71
     2
 72
     6
 73
     3
 74
     0
 42
0.0000000001
 43
0.0000000001
 40
0.0
 40
0.0
 40
0.0
 40
0.1487366065258157
 40
0.1487366065258157
 40
0.1487366065258157
 10
3.582180709105387
 20
16.4909159848042
 30
0.0
 41
1.0
 10
3.582659597622973
 20
16.56528299930936
 30
0.0
 41
0.99999187467555
 10
3.582684367357724
 20
16.6396515515817
 30
0.0
 41
0.999993071269202
  0
SPLINE
  5
D0
330
1F
100
AcDbEntity
  8
Default
100
AcDbSpline
210
0.0
220
0.0
230
1.0
 70
     8
 71
     3
 72
    18
 73
    14
 74
     0
 42
0.0000000001
 43
0.0000000001
 40
0.0
 40
0.0
 40
0.0
 40
0.0
 40
15.14894129379804
 40
15.65034509407024
 40
15.74087703470757
 40
15.98006877737321
 40
16.77973116841668
 40
17.43760275705001
 40
17.97044114771119
 40
18.1744362055793
 40
18.28360470267897
 40
18.32375178724491
 40
18.60375583992228
 40
18.60375583992228
 40
18.60375583992228
 40
18.60375583992228
 10
41.96883588919081
 20
0.3149707399409607
 30
0.0
 10
41.5825391324405
 20
5.349869149154927
 30
0.0
 10
41.18276908522796
 20
10.55118153520412
 30
0.0
 10
40.7814983795576
 20
15.78289274492194
 30
0.0
 10
40.75854661178261
 20
16.05884899519198
 30
0.0
 10
40.70630528806942
 20
16.43247508009348
 30
0.0
 10
40.55101732880144
 20
16.97914208143247
 30
0.0
 10
40.16843414383453
 20
17.54055067673379
 30
0.0
 10
39.73370808683239
 20
17.75305759677825
 30
0.0
 10
39.44702993282925
 20
17.749593746847
 30
0.0
 10
39.33210722896808
 20
17.72761543271726
 30
0.0
 10
39.19144656423651
 20
17.69914670969773
 30
0.0
 10
39.08737385803687
 20
17.67734938234953
 30
0.0
 10
38.99567918183908
 20
17.65906655884216
 30
0.0
  0
SPLINE
  5
D1
330
1F
100
AcDbEntity
  8
Default
100
AcDbSpline
210
0.0
220
0.0
230
1.0
 70
    12
 71
     2
 72
     6
 73
     3
 74
     0
 42
0.0000000001
 43
0.0000000001
 40
0.0
 40
0.0
 40
0.0
 40
0.087805145337338
 40
0.087805145337338
 40
0.087805145337338
 10
-9.341979107275847
 20
0.0123988868920293
 30
0.0
 41
1.0
 10
-9.39501410100046
 20
0.0206038501108074
 30
0.0
 41
0.7481728658079281
 10
-9.393206980034904
 20
0.0742393448377356
 30
0.0
 41
1.0
  0
SPLINE
  5
D2
330
1F
100
AcDbEntity
  8
Default
100
AcDbSpline
210
0.0
220
0.0
230
1.0
 70
     8
 71
     3
 72
    14
 73
    10
 74
     0
 42
0.0000000001
 43
0.0000000001
 40
0.0
 40
0.0
 40
0.0
 40
0.0
 40
0.365919733332667
 40
0.717573689150211
 40
1.305612602136335
 40
1.623786876013782
 40
1.731897436416424
 40
1.822325443690429
 40
2.064679957212375
 40
2.064679957212375
 40
2.064679957212375
 40
2.064679957212375
 10
-7.66855218874116
 20
54.51437132761937
 30
0.0
 10
-7.780302689906591
 20
54.56304810454154
 30
0.0
 10
-7.998039525311754
 20
54.66291529027237
 30
0.0
 10
-8.37760080470133
 20
54.87584494042474
 30
0.0
 10
-8.727643507221785
 20
55.10895120811088
 30
0.0
 10
-8.955094955913808
 20
55.36597662359239
 30
0.0
 10
-9.012122115425939
 20
55.53127667684444
 30
0.0
 10
-9.043829369502191
 20
55.67386229968034
 30
0.0
 10
-9.074670126339129
 20
55.78129855020356
 30
0.0
 10
-9.093260699691484
 20
55.85961237818682
 30
0.0
  0
SPLINE
  5
D3
330
1F
100
AcDbEntity
  8
Default
100
AcDbSpline
210
0.0
220
0.0
230
1.0
 70
     8
 71
     3
 72
    12
 73
     8
 74
     0
 42
0.0000000001
 43
0.0000000001
 40
0.0
 40
0.0
 40
0.0
 40
0.0
 40
0.129984432170056
 40
0.2746468029965988
 40
0.629171715394806
 40
1.181695205124426
 40
1.967519293427705
 40
1.967519293427705
 40
1.967519293427705
 40
1.967519293427705
 10
8.973596824968354
 20
55.89752656819607
 30
0.0
 10
8.96245483230831
 20
55.85543892573943
 30
0.0
 10
8.927577336854029
 20
55.7706221414289
 30
0.0
 10
8.794171672408936
 20
55.60429640966029
 30
0.0
 10
8.49287766891672
 20
55.41914866760229
 30
0.0
 10
7.96605968626551
 20
55.21529927213518
 30
0.0
 10
7.537494498854755
 20
55.09011120104017
 30
0.0
 10
7.28558080074805
 20
55.01858080225432
 30
0.0
  0
SPLINE
  5
D4
330
1F
100
AcDbEntity
  8
Default
100
AcDbSpline
210
0.0
220
0.0
230
1.0
 70
     8
 71
     3
 72
    12
 73
     8
 74
     0
 42
0.0000000001
 43
0.0000000001
 40
0.0026828502233499
 40
0.0026828502233499
 40
0.0026828502233499
 40
0.0026828502233499
 40
1.405091144670625
 40
1.806006060758604
 40
2.047345764705131
 40
2.292996185875468
 40
2.513746935622255
 40
2.513746935622255
 40
2.513746935622255
 40
2.513746935622255
 10
-5.300631835739523
 20
17.61036324215321
 30
0.0
 10
-4.836915583572932
 20
17.54840164954226
 30
0.0
 10
-4.240102405744722
 20
17.48380641289656
 30
0.0
 10
-3.564955470616269
 20
17.38174768041956
 30
0.0
 10
-3.274860086463775
 20
17.33279359616063
 30
0.0
 10
-3.045961120507457
 20
17.25095311751495
 30
0.0
 10
-2.968762442070215
 20
17.0978158394518
 30
0.0
 10
-2.960845606072951
 20
17.02635872692319
 30
0.0
  0
SPLINE
  5
D5
330
1F
100
AcDbEntity
  8
Default
100
AcDbSpline
210
0.0
220
0.0
230
1.0
 70
     8
 71
     3
 72
     8
 73
     4
 74
     0
 42
0.0000000001
 43
0.0000000001
 40
0.0
 40
0.0
 40
0.0
 40
0.0
 40
0.6846071814825029
 40
0.6846071814825029
 40
0.6846071814825029
 40
0.6846071814825029
 10
3.80802675048767
 20
16.12978274261414
 30
0.0
 10
5.800687959372453
 20
16.4871641433725
 30
0.0
 10
6.4779795448286
 20
16.61250229758035
 30
0.0
 10
6.818810617822919
 20
16.67364216245061
 30
0.0
  0
SPLINE
  5
D6
330
1F
100
AcDbEntity
  8
Default
100
AcDbSpline
210
0.0
220
0.0
230
1.0
 70
     8
 71
     3
 72
    17
 73
    13
 74
     0
 42
0.0000000001
 43
0.0000000001
 40
4.981566745771207
 40
4.981566745771207
 40
4.981566745771207
 40
4.981566745771207
 40
5.363423240323053
 40
5.959758848723831
 40
7.667141295717129
 40
8.1611567166983
 40
8.73390112518842
 40
9.059333254106061
 40
9.24373858722212
 40
9.72786522749654
 40
10.19703624309155
 40
11.00102805315352
 40
11.00102805315352
 40
11.00102805315352
 40
11.00102805315352
 10
25.2497324606901
 20
27.04548206032571
 30
0.0
 10
25.20713159738887
 20
27.1654111738543
 30
0.0
 10
25.09229732622907
 20
27.47059812928292
 30
0.0
 10
24.73810060075908
 20
28.29298853429746
 30
0.0
 10
24.28832854884757
 20
29.11316162909053
 30
0.0
 10
23.7539102151411
 20
29.86871208371134
 30
0.0
 10
23.42275326270567
 20
30.19819415833153
 30
0.0
 10
23.13127192244804
 20
30.41065381901082
 30
0.0
 10
22.84561294077923
 20
30.58015697787437
 30
0.0
 10
22.49109584099637
 20
30.71826306059836
 30
0.0
 10
21.9207528067497
 20
30.85810620576055
 30
0.0
 10
21.49437173691194
 20
30.87741520747051
 30
0.0
 10
21.22994076834874
 20
30.91944034989494
 30
0.0
  0
SPLINE
  5
D7
330
1F
100
AcDbEntity
  8
Default
100
AcDbSpline
210
0.0
220
0.0
230
1.0
 70
     8
 71
     3
 72
    14
 73
    10
 74
     0
 42
0.0000000001
 43
0.0000000001
 40
-2.654196839684237
 40
-2.654196839684237
 40
-2.654196839684237
 40
-2.654196839684237
 40
-1.517686270790012
 40
-1.043161693916411
 40
-0.7121453274451934
 40
-0.5313686541228251
 40
-0.3547497699802488
 40
-0.1725678639095543
 40
0.0
 40
0.0
 40
0.0
 40
0.0
 10
39.3078388948519
 20
18.2504721443142
 30
0.0
 10
39.68645673030812
 20
18.25560344471251
 30
0.0
 10
40.22426546477249
 20
18.25098296693847
 30
0.0
 10
40.86895437181255
 20
18.18980126929233
 30
0.0
 10
41.19390905185827
 20
18.1379085835995
 30
0.0
 10
41.41213544652339
 20
18.06017689807945
 30
0.0
 10
41.54205805383282
 20
17.92738969377039
 30
0.0
 10
41.62359889096496
 20
17.77146892975992
 30
0.0
 10
41.64039681675985
 20
17.64982023152986
 30
0.0
 10
41.63490540579767
 20
17.59324033615452
 30
0.0
  0
SPLINE
  5
D8
330
1F
100
AcDbEntity
  8
Default
100
AcDbSpline
210
0.0
220
0.0
230
1.0
 70
     8
 71
     3
 72
    11
 73
     7
 74
     0
 42
0.0000000001
 43
0.0000000001
 40
-3.377570359255114
 40
-3.377570359255114
 40
-3.377570359255114
 40
-3.377570359255114
 40
-3.0
 40
-2.0
 40
-1.0
 40
0.0
 40
0.0
 40
0.0
 40
0.0
 10
36.51652831767166
 20
18.11659145096394
 30
0.0
 10
36.61241401574273
 20
18.12245140566749
 30
0.0
 10
36.962254259411
 20
18.14382922830174
 30
0.0
 10
37.56608715286995
 20
18.18007783455869
 30
0.0
 10
38.32825454754328
 20
18.22162682727864
 30
0.0
 10
39.05343299231458
 20
18.24702425309837
 30
0.0
 10
39.3078388948519
 20
18.2504721443142
 30
0.0
  0
SPLINE
  5
D9
330
1F
100
AcDbEntity
  8
Default
100
AcDbSpline
210
0.0
220
0.0
230
1.0
 70
     8
 71
     3
 72
    23
 73
    19
 74
     0
 42
0.0000000001
 43
0.0000000001
 40
0.0
 40
0.0
 40
0.0
 40
0.0
 40
1.963983113522533
 40
3.990114129855228
 40
5.898896224294101
 40
6.813264882982092
 40
7.637091780577983
 40
8.492659291587188
 40
9.226982511956274
 40
9.757185947662979
 40
10.4486749112704
 40
11.08331557937748
 40
11.31953176576737
 40
11.46511712644051
 40
11.67755350548516
 40
11.89680613193409
 40
12.17142434901505
 40
12.65389638794514
 40
12.65389638794514
 40
12.65389638794514
 40
12.65389638794514
 10
-0.0000216307735172
 20
60.56784655561827
 30
0.0
 10
0.654907535992777
 20
60.56767794111678
 30
0.0
 10
1.984283540003105
 20
60.48913228781154
 30
0.0
 10
3.92852472842219
 20
60.17883122201405
 30
0.0
 10
5.491029720200345
 20
59.75422101569168
 30
0.0
 10
6.628744411713967
 20
59.32400808072973
 30
0.0
 10
7.417165234349682
 20
58.96756244634034
 30
0.0
 10
8.1069983867676
 20
58.54923678590714
 30
0.0
 10
8.636384467576647
 20
58.07374919700911
 30
0.0
 10
9.001167502284375
 20
57.52897346120241
 30
0.0
 10
9.300479186711243
 20
56.98919890648838
 30
0.0
 10
9.579851345598115
 20
56.54798617324141
 30
0.0
 10
9.7497242393016
 20
56.25560188169541
 30
0.0
 10
9.82413043018721
 20
56.06952531349586
 30
0.0
 10
9.778559442884443
 20
55.86235856322216
 30
0.0
 10
9.548003026159904
 20
55.75590711529711
 30
0.0
 10
9.222010887318731
 20
55.81359594760627
 30
0.0
 10
8.98444713216071
 20
55.89219781186736
 30
0.0
 10
8.832017184916651
 20
55.94608448521885
 30
0.0
  0
SPLINE
  5
DA
330
1F
100
AcDbEntity
  8
Default
100
AcDbSpline
210
0.0
220
0.0
230
1.0
 70
     8
 71
     3
 72
    25
 73
    21
 74
     0
 42
0.0000000001
 43
0.0000000001
 40
0.0
 40
0.0
 40
0.0
 40
0.0
 40
0.4430768123683047
 40
0.6970062163272017
 40
0.9140911377057149
 40
1.127369746408973
 40
1.220422932664321
 40
1.394929234464112
 40
1.460677396605524
 40
1.530723525553589
 40
2.187743421618526
 40
2.71570677255419
 40
3.350097144573471
 40
4.083145851156742
 40
4.938721050176373
 40
5.767524246950162
 40
6.683540589325395
 40
8.566850412260136
 40
10.5691475506111
 40
12.56762585400623
 40
12.56762585400623
 40
12.56762585400623
 40
12.56762585400623
 10
-8.913424558037491
 20
55.91773878791744
 30
0.0
 10
-9.05414084356454
 20
55.87033084127168
 30
0.0
 10
-9.273238130556479
 20
55.79949238083876
 30
0.0
 10
-9.582271372990647
 20
55.75993445405842
 30
0.0
 10
-9.794485720729597
 20
55.88459539336364
 30
0.0
 10
-9.819081204696374
 20
56.07826290409608
 30
0.0
 10
-9.759944451191132
 20
56.2245226817295
 30
0.0
 10
-9.710396809607573
 20
56.32613222588574
 30
0.0
 10
-9.656821317436481
 20
56.41369805900067
 30
0.0
 10
-9.520923211469722
 20
56.64062893486241
 30
0.0
 10
-9.299539441371564
 20
56.9955073585439
 30
0.0
 10
-9.00094369636929
 20
57.52315490762774
 30
0.0
 10
-8.657439930098121
 20
58.05656062890787
 30
0.0
 10
-8.098818717494623
 20
58.55446687983707
 30
0.0
 10
-7.409801576471409
 20
58.97263909270893
 30
0.0
 10
-6.616529409859879
 20
59.32780495100391
 30
0.0
 10
-5.486485493627299
 20
59.75646076581947
 30
0.0
 10
-3.937883498190331
 20
60.17547276138234
 30
0.0
 10
-1.999359798970829
 20
60.48764488183545
 30
0.0
 10
-0.6664665297849979
 20
60.567617435816
 30
0.0
 10
-0.0000216307735172
 20
60.56784655561827
 30
0.0
  0
SPLINE
  5
DB
330
1F
100
AcDbEntity
  8
Default
100
AcDbSpline
210
0.0
220
0.0
230
1.0
 70
     8
 71
     3
 72
    20
 73
    16
 74
     0
 42
0.0000000001
 43
0.0000000001
 40
0.0
 40
0.0
 40
0.0
 40
0.0
 40
1.0
 40
2.0
 40
3.0
 40
4.0
 40
5.0
 40
6.0
 40
7.0
 40
8.0
 40
9.0
 40
10.0
 40
11.0
 40
12.0
 40
13.0
 40
13.0
 40
13.0
 40
13.0
 10
8.832017184916651
 20
55.94608448521885
 30
0.0
 10
8.399087110177447
 20
56.12882800138183
 30
0.0
 10
7.525087390441399
 20
56.47471930967723
 30
0.0
 10
6.19483173255162
 20
56.94251156831811
 30
0.0
 10
4.841129154380894
 20
57.33820208233331
 30
0.0
 10
3.462129794196585
 20
57.63504209293578
 30
0.0
 10
2.068392788078484
 20
57.85064998978012
 30
0.0
 10
0.6624105050323692
 20
57.96776621845245
 30
0.0
 10
-0.7486643134184874
 20
57.96408023863424
 30
0.0
 10
-2.154033959613344
 20
57.83998639427156
 30
0.0
 10
-3.546901036003476
 20
57.61907864151257
 30
0.0
 10
-4.924907730476207
 20
57.31744415361939
 30
0.0
 10
-6.276580545276374
 20
56.91493005978955
 30
0.0
 10
-7.606589648081922
 20
56.44666422424021
 30
0.0
 10
-8.480423366096318
 20
56.1002985542689
 30
0.0
 10
-8.913424558037491
 20
55.91773878791744
 30
0.0
  0
SPLINE
  5
DC
330
1F
100
AcDbEntity
  8
Default
100
AcDbSpline
210
0.0
220
0.0
230
1.0
 70
     8
 71
     3
 72
    20
 73
    16
 74
     0
 42
0.0000000001
 43
0.0000000001
 40
0.0
 40
0.0
 40
0.0
 40
0.0
 40
0.2091202110132331
 40
0.2091202110132331
 40
0.2091202110132331
 40
1.209120211013233
 40
2.209120211013233
 40
3.209120211013233
 40
4.209120211013233
 40
5.209120211013233
 40
6.209120211013233
 40
7.209120211013233
 40
7.209120211013233
 40
7.209120211013233
 40
7.422391775119937
 40
7.422391775119937
 40
7.422391775119937
 40
7.422391775119937
 10
-9.798491598305418
 20
0.3274111340080736
 30
0.0
 10
-9.807377987071334
 20
0.2582731467759913
 30
0.0
 10
-9.816264375837306
 20
0.189135159543909
 30
0.0
 10
-9.825150764603222
 20
0.1199971723118409
 30
0.0
 10
-9.829425082597993
 20
0.085270320772878
 30
0.0
 10
-9.890935342571026
 20
0.0478141732509414
 30
0.0
 10
-9.988954378164351
 20
0.0553486610504734
 30
0.0
 10
-10.08566191150055
 20
0.057580012326369
 30
0.0
 10
-10.18254081364245
 20
0.065778185129048
 30
0.0
 10
-10.27855980796937
 20
0.0791183342082036
 30
0.0
 10
-10.37546649538507
 20
0.0889263365286297
 30
0.0
 10
-10.43257502429731
 20
0.1330111353503725
 30
0.0
 10
-10.4313753792963
 20
0.1682184314017974
 30
0.0
 10
-10.4275600855911
 20
0.2392064991487501
 30
0.0
 10
-10.42374479188601
 20
0.3101945668956887
 30
0.0
 10
-10.41897119679282
 20
0.3988897044077788
 30
0.0
  0
SPLINE
  5
DD
330
1F
100
AcDbEntity
  8
Default
100
AcDbSpline
210
0.0
220
0.0
230
1.0
 70
     8
 71
     3
 72
    13
 73
     9
 74
     0
 42
0.0000000001
 43
0.0000000001
 40
0.0
 40
0.0
 40
0.0
 40
0.0
 40
0.734006315383499
 40
0.8464207759456737
 40
1.390178656380674
 40
2.243775488709772
 40
2.540509272088552
 40
3.942572981713949
 40
3.942572981713949
 40
3.942572981713949
 40
3.942572981713949
 10
26.92736939578617
 20
16.7021895563705
 30
0.0
 10
27.13824874311155
 20
16.57704781835091
 30
0.0
 10
27.36853703537133
 20
16.41547049151531
 30
0.0
 10
27.77436125623279
 20
16.1874894586078
 30
0.0
 10
28.27644988675468
 20
16.09284980085162
 30
0.0
 10
28.83917811860999
 20
16.08304358769179
 30
0.0
 10
29.69003808492198
 20
16.13532146880179
 30
0.0
 10
30.2526575307142
 20
16.18598412125125
 30
0.0
 10
30.71950241389214
 20
16.21847275907014
 30
0.0
  0
POLYLINE
  5
DE
330
1F
100
AcDbEntity
  8
Default
100
AcDb2dPolyline
 66
     1
 10
0.0
 20
0.0
 30
0.0
  0
VERTEX
  5
DF
330
DE
100
AcDbEntity
  8
Default
100
AcDbVertex
100
AcDb2dVertex
 10
5.29845763105925
 20
17.63137635568809
 30
0.0
  0
VERTEX
  5
E0
330
DE
100
AcDbEntity
  8
Default
100
AcDbVertex
100
AcDb2dVertex
 10
5.797963091734573
 20
17.69381620309991
 30
0.0
  0
VERTEX
  5
E1
330
DE
100
AcDbEntity
  8
Default
100
AcDbVertex
100
AcDb2dVertex
 10
6.141511495535212
 20
17.71641353986729
 30
0.0
  0
SEQEND
  5
E2
330
DE
100
AcDbEntity
  8
Default
  0
SPLINE
  5
E3
330
1F
100
AcDbEntity
  8
Default
100
AcDbSpline
210
0.0
220
0.0
230
1.0
 70
    12
 71
     2
 72
     8
 73
     5
 74
     0
 42
0.0000000001
 43
0.0000000001
 40
0.0
 40
0.0
 40
0.0
 40
0.0181757525986144
 40
0.0181757525986144
 40
0.0363515051972287
 40
0.0363515051972287
 40
0.0363515051972287
 10
5.271528807870709
 20
17.65006921416125
 30
0.0
 41
1.0
 10
5.273187760136996
 20
17.64031677523617
 30
0.0
 41
0.921082574087552
 10
5.281115526562644
 20
17.63489297161685
 30
0.0
 41
1.0
 10
5.289043292988307
 20
17.62946916799753
 30
0.0
 41
0.921082574087552
 10
5.29845763105925
 20
17.63137635568809
 30
0.0
 41
1.0
  0
SPLINE
  5
E4
330
1F
100
AcDbEntity
  8
Default
100
AcDbSpline
210
0.0
220
0.0
230
1.0
 70
    24
 71
     2
 72
     6
 73
     3
 74
     0
 42
0.0000000001
 43
0.0000000001
 40
0.0
 40
0.0
 40
0.0
 40
0.0716016492920143
 40
0.0716016492920143
 40
0.0716016492920143
 10
5.265242439238932
 20
17.72186075020124
 30
0.0
 10
5.268385623554821
 20
17.68596498218125
 30
0.0
 10
5.271528807870709
 20
17.65006921416125
 30
0.0
  0
SPLINE
  5
E5
330
1F
100
AcDbEntity
  8
Default
100
AcDbSpline
210
0.0
220
0.0
230
1.0
 70
    12
 71
     2
 72
     6
 73
     3
 74
     0
 42
0.0000000001
 43
0.0000000001
 40
0.0
 40
0.0
 40
0.0
 40
0.0239123701587087
 40
0.0239123701587087
 40
0.0239123701587087
 10
5.250922172675757
 20
17.73942486122482
 30
0.0
 41
1.0
 10
5.263986278350674
 20
17.73559423246203
 30
0.0
 41
0.8269503824030509
 10
5.265242439238932
 20
17.72186075020124
 30
0.0
 41
1.0
  0
LINE
  5
E6
330
1F
100
AcDbEntity
  8
Default
100
AcDbLine
 10
3.273478043046225
 20
16.63639737519487
 30
0.0
 11
5.589657133886817
 21
16.66077351084427
 31
0.0
  0
SPLINE
  5
E7
330
1F
100
AcDbEntity
  8
Default
100
AcDbSpline
210
0.0
220
0.0
230
1.0
 70
     8
 71
     3
 72
    11
 73
     7
 74
     0
 42
0.0000000001
 43
0.0000000001
 40
0.0
 40
0.0
 40
0.0
 40
0.0
 40
15.38685223518402
 40
15.5773112496696
 40
16.05478351798368
 40
16.47824156099147
 40
16.47824156099147
 40
16.47824156099147
 40
16.47824156099147
 10
10.4189047519298
 20
0.4000123376944344
 30
0.0
 10
9.953425462687619
 20
5.508167409043537
 30
0.0
 10
9.483895429263839
 20
10.67847783403393
 30
0.0
 10
8.998323169829405
 20
16.0086060962565
 30
0.0
 10
8.86981199842262
 20
16.35577995021868
 30
0.0
 10
8.693004421890578
 20
16.59994008271173
 30
0.0
 10
8.598501058067598
 20
16.70467889570983
 30
0.0
  0
SPLINE
  5
E8
330
1F
100
AcDbEntity
  8
Default
100
AcDbSpline
210
0.0
220
0.0
230
1.0
 70
    12
 71
     2
 72
     8
 73
     5
 74
     0
 42
0.0000000001
 43
0.0000000001
 40
0.0
 40
0.0
 40
0.0
 40
1.570796326794897
 40
1.570796326794897
 40
3.141592653589793
 40
3.141592653589793
 40
3.141592653589793
 10
9.796137494316952
 20
0.347097341107613
 30
0.0
 41
1.0
 10
9.805197588780954
 20
0.2404672636817755
 30
0.0
 41
0.7071067811865475
 10
10.11658121758734
 20
0.26692476197519
 30
0.0
 41
1.0
 10
10.42796484639383
 20
0.2933822602685921
 30
0.0
 41
0.7071067811865475
 10
10.4189047519298
 20
0.4000123376944344
 30
0.0
 41
1.0
  0
SPLINE
  5
E9
330
1F
100
AcDbEntity
  8
Default
100
AcDbSpline
210
0.0
220
0.0
230
1.0
 70
     8
 71
     3
 72
    15
 73
    11
 74
     0
 42
0.0000000001
 43
0.0000000001
 40
0.0
 40
0.0
 40
0.0
 40
0.0
 40
0.1481008985844257
 40
0.2835795947505744
 40
0.4095167464139915
 40
0.5399102056356212
 40
0.8000329001182528
 40
1.110289658690893
 40
5.325350683045592
 40
15.97290079287495
 40
15.97290079287495
 40
15.97290079287495
 40
15.97290079287495
 10
8.198200182178027
 20
16.20970278041374
 30
0.0
 10
8.22805775678762
 20
16.1705745953803
 30
0.0
 10
8.282023266914507
 20
16.0920971624997
 30
0.0
 10
8.341331796053396
 20
15.96950109260902
 30
0.0
 10
8.383842659026698
 20
15.84494378122332
 30
0.0
 10
8.402492224749892
 20
15.67352261789399
 30
0.0
 10
8.421933842849285
 20
15.44085909328318
 30
0.0
 10
8.567828638246226
 20
13.85230858365698
 30
0.0
 10
9.024727282825154
 20
8.815485113488265
 30
0.0
 10
9.474860643503973
 20
3.881680117188196
 30
0.0
 10
9.796137494316952
 20
0.347097341107613
 30
0.0
  0
SPLINE
  5
EA
330
1F
100
AcDbEntity
  8
Default
100
AcDbSpline
210
0.0
220
0.0
230
1.0
 70
    24
 71
     2
 72
     6
 73
     3
 74
     0
 42
0.0000000001
 43
0.0000000001
 40
-0.7276951967855994
 40
-0.7276951967855994
 40
-0.7276951967855994
 40
-0.1519361591229424
 40
-0.1519361591229424
 40
-0.1519361591229424
 10
3.803461813997103
 20
16.06824176049612
 30
0.0
 10
3.824757398311959
 20
16.35533253960832
 30
0.0
 10
3.846052982626816
 20
16.64242331872052
 30
0.0
  0
SPLINE
  5
EB
330
1F
100
AcDbEntity
  8
Default
100
AcDbSpline
210
0.0
220
0.0
230
1.0
 70
    12
 71
     2
 72
     6
 73
     3
 74
     0
 42
0.0000000001
 43
0.0000000001
 40
-0.4516084190997445
 40
-0.4516084190997445
 40
-0.4516084190997445
 40
0.0
 40
0.0
 40
0.0
 10
3.536195907641286
 20
15.73834928475809
 30
0.0
 41
1.0
 10
3.783855537235917
 20
15.8109155950368
 30
0.0
 41
0.8225814638961753
 10
3.803461813997103
 20
16.06824176049612
 30
0.0
 41
1.0
  0
SPLINE
  5
EC
330
1F
100
AcDbEntity
  8
Default
100
AcDbSpline
210
0.0
220
0.0
230
1.0
 70
    12
 71
     2
 72
     6
 73
     3
 74
     0
 42
0.0000000001
 43
0.0000000001
 40
0.0
 40
0.0
 40
0.0
 40
0.1768562855986097
 40
0.1768562855986097
 40
0.1768562855986097
 10
3.363193234560413
 20
15.70263561361682
 30
0.0
 41
1.0
 10
3.451190426896474
 20
15.71324628706181
 30
0.0
 41
0.9965097053014877
 10
3.536195907641286
 20
15.73834928475809
 30
0.0
 41
1.0
  0
SPLINE
  5
ED
330
1F
100
AcDbEntity
  8
Default
100
AcDbSpline
210
0.0
220
0.0
230
1.0
 70
    12
 71
     2
 72
     6
 73
     3
 74
     0
 42
0.0000000001
 43
0.0000000001
 40
-0.5902413260903482
 40
-0.5902413260903482
 40
-0.5902413260903482
 40
0.0
 40
0.0
 40
0.0
 10
2.828958529973079
 20
15.89757995546047
 30
0.0
 41
1.0
 10
3.046484909137713
 20
15.66420633374904
 30
0.0
 41
0.8912785162673854
 10
3.363193234560413
 20
15.70263561361682
 30
0.0
 41
1.0
  0
LINE
  5
EE
330
1F
100
AcDbEntity
  8
Default
100
AcDbLine
 10
2.2339131402249
 20
16.54650430161482
 30
0.0
 11
2.828958529973079
 21
15.89757995546047
 31
0.0
  0
LINE
  5
EF
330
1F
100
AcDbEntity
  8
Default
100
AcDbLine
 10
2.20660934047288
 20
16.71955493073132
 30
0.0
 11
2.2339131402249
 21
16.54650430161482
 31
0.0
  0
SPLINE
  5
F0
330
1F
100
AcDbEntity
  8
Default
100
AcDbSpline
210
0.0
220
0.0
230
1.0
 70
    12
 71
     2
 72
     6
 73
     3
 74
     0
 42
0.0000000001
 43
0.0000000001
 40
0.0
 40
0.0
 40
0.0
 40
0.2452582194759985
 40
0.2452582194759985
 40
0.2452582194759985
 10
-2.6044390184382
 20
16.76736916299815
 30
0.0
 41
1.0
 10
-2.482533147167737
 20
16.75405760854482
 30
0.0
 41
0.999983024413568
 10
-2.360480430254142
 20
16.74216756118646
 30
0.0
 41
1.0
  0
SPLINE
  5
F1
330
1F
100
AcDbEntity
  8
Default
100
AcDbSpline
210
0.0
220
0.0
230
1.0
 70
     8
 71
     3
 72
    14
 73
    10
 74
     0
 42
0.0000000001
 43
0.0000000001
 40
0.0
 40
0.0
 40
0.0
 40
0.0
 40
0.1762632628465002
 40
0.2409776516219818
 40
0.3206233793155049
 40
0.4583845697236367
 40
0.633252475572114
 40
1.126993947823871
 40
1.730652273456374
 40
1.730652273456374
 40
1.730652273456374
 40
1.730652273456374
 10
39.26124736951328
 20
17.07526355004354
 30
0.0
 10
39.31870707811163
 20
17.08823356372076
 30
0.0
 10
39.39763240689564
 20
17.10142257742331
 30
0.0
 10
39.50212655457483
 20
17.12620686032216
 30
0.0
 10
39.59765226823305
 20
17.1184387075629
 30
0.0
 10
39.71237858182383
 20
17.04975253832411
 30
0.0
 10
39.89216892102417
 20
16.84701271559038
 30
0.0
 10
40.06253054320564
 20
16.45241691946929
 30
0.0
 10
40.12918870734518
 20
16.09202191552831
 30
0.0
 10
40.14528843659781
 20
15.89106530113395
 30
0.0
  0
ARC
  5
F2
330
1F
100
AcDbEntity
  8
Default
100
AcDbCircle
 10
38.21311329241712
 20
17.83495083799973
 30
0.0
 40
0.1528615433447471
100
AcDbArc
 50
252.518264774848
 51
261.1350336932948
  0
ARC
  5
F3
330
1F
100
AcDbEntity
  8
Default
100
AcDbCircle
 10
38.1752959274076
 20
17.71487602352113
 30
0.0
 40
0.0269722500417067
100
AcDbArc
 50
191.3299864561451
 51
252.5182647748754
  0
LINE
  5
F4
330
1F
100
AcDbEntity
  8
Default
100
AcDbLine
 10
38.13877476626669
 20
17.78663762611671
 30
0.0
 11
38.14884931329186
 21
17.70957707323564
 31
0.0
  0
ARC
  5
F5
330
1F
100
AcDbEntity
  8
Default
100
AcDbCircle
 10
38.12690243263523
 20
17.78508810877398
 30
0.0
 40
0.0119730242567245
100
AcDbArc
 50
7.435925821698088
 51
67.53840702799361
  0
SPLINE
  5
F6
330
1F
100
AcDbEntity
  8
Default
100
AcDbSpline
210
0.0
220
0.0
230
1.0
 70
    12
 71
     2
 72
     6
 73
     3
 74
     0
 42
0.0000000001
 43
0.0000000001
 40
0.0
 40
0.0
 40
0.0
 40
0.0202537055581868
 40
0.0202537055581868
 40
0.0202537055581868
 10
38.56449033072835
 20
17.75932637360205
 30
0.0
 41
1.0
 10
38.56470804651976
 20
17.74688883001862
 30
0.0
 41
0.8429983645585799
 10
38.55452751427742
 20
17.74180931517022
 30
0.0
 41
1.0
  0
SPLINE
  5
F7
330
1F
100
AcDbEntity
  8
Default
100
AcDbSpline
210
0.0
220
0.0
230
1.0
 70
    24
 71
     2
 72
     6
 73
     3
 74
     0
 42
0.0000000001
 43
0.0000000001
 40
-0.0808976320812378
 40
-0.0808976320812378
 40
-0.0808976320812378
 40
0.0
 40
0.0
 40
0.0
 10
38.56487852045711
 20
17.8412880972089
 30
0.0
 10
38.56468442559273
 20
17.80030723540548
 30
0.0
 10
38.56449033072835
 20
17.75932637360205
 30
0.0
  0
SPLINE
  5
F8
330
1F
100
AcDbEntity
  8
Default
100
AcDbSpline
210
0.0
220
0.0
230
1.0
 70
    12
 71
     2
 72
     6
 73
     3
 74
     0
 42
0.0000000001
 43
0.0000000001
 40
0.0
 40
0.0
 40
0.0
 40
0.0223819433365259
 40
0.0223819433365259
 40
0.0223819433365259
 10
38.57495228841827
 20
17.85987200136488
 30
0.0
 41
1.0
 10
38.56379791668483
 20
17.8538961529221
 30
0.0
 41
0.8352370300221701
 10
38.56487852045711
 20
17.8412880972089
 30
0.0
 41
1.0
  0
SPLINE
  5
F9
330
1F
100
AcDbEntity
  8
Default
100
AcDbSpline
210
0.0
220
0.0
230
1.0
 70
    12
 71
     3
 72
    10
 73
     6
 74
     0
 42
0.0000000001
 43
0.0000000001
 40
-1.0
 40
-1.0
 40
-1.0
 40
-1.0
 40
-0.4932724237502236
 40
-0.4932724237502236
 40
-0.3699543178126677
 40
-0.3699543178126677
 40
-0.3699543178126677
 40
-0.3699543178126677
 10
38.15172800917514
 20
17.81903583001592
 30
0.0
 41
1.0
 10
38.1194787841751
 20
17.81219100717131
 30
0.0
 41
1.0
 10
38.11174488064614
 20
17.8061663496256
 30
0.0
 41
1.0
 10
38.1238322984936
 20
17.79893055947855
 30
0.0
 41
1.0
 10
38.12700260135097
 20
17.79751792253164
 30
0.0
 41
1.0
 10
38.13147689469093
 20
17.79615280970773
 30
0.0
 41
1.0
  0
SPLINE
  5
FA
330
1F
100
AcDbEntity
  8
Default
100
AcDbSpline
210
0.0
220
0.0
230
1.0
 70
    12
 71
     2
 72
     6
 73
     3
 74
     0
 42
0.0000000001
 43
0.0000000001
 40
0.0
 40
0.0
 40
0.0
 40
0.1249580605443017
 40
0.1249580605443017
 40
0.1249580605443017
 10
38.27407000567183
 20
17.84446928714922
 30
0.0
 41
1.0
 10
38.21284552903261
 20
17.83200980450379
 30
0.0
 41
0.9999911576010926
 10
38.15172800917514
 20
17.81903583001592
 30
0.0
 41
1.0
  0
SPLINE
  5
FB
330
1F
100
AcDbEntity
  8
Default
100
AcDbSpline
210
0.0
220
0.0
230
1.0
 70
    12
 71
     2
 72
     6
 73
     3
 74
     0
 42
0.0000000001
 43
0.0000000001
 40
0.0
 40
0.0
 40
0.0
 40
0.301790450420734
 40
0.301790450420734
 40
0.301790450420734
 10
38.57495228841827
 20
17.85987200136486
 30
0.0
 41
1.0
 10
38.42372962261646
 20
17.86743722979497
 30
0.0
 41
0.9948904568773315
 10
38.27407000567183
 20
17.84446928714922
 30
0.0
 41
1.0
  0
SPLINE
  5
FC
330
1F
100
AcDbEntity
  8
Default
100
AcDbSpline
210
0.0
220
0.0
230
1.0
 70
    12
 71
     2
 72
     6
 73
     3
 74
     0
 42
0.0000000001
 43
0.0000000001
 40
0.0
 40
0.0
 40
0.0
 40
1.215298190625908
 40
1.215298190625908
 40
1.215298190625908
 10
39.78898955465081
 20
17.80454454595359
 30
0.0
 41
1.0
 10
39.18202779724049
 20
17.83345628382088
 30
0.0
 41
0.9999978865069421
 10
38.57495228841827
 20
17.85987200136486
 30
0.0
 41
1.0
  0
SPLINE
  5
FD
330
1F
100
AcDbEntity
  8
Default
100
AcDbSpline
210
0.0
220
0.0
230
1.0
 70
    12
 71
     3
 72
    10
 73
     6
 74
     0
 42
0.0000000001
 43
0.0000000001
 40
-0.913927723452392
 40
-0.913927723452392
 40
-0.913927723452392
 40
-0.913927723452392
 40
-0.5000091337774267
 40
-0.5000091337774267
 40
0.0
 40
0.0
 40
0.0
 40
0.0
 10
39.83375340970986
 20
17.79043974443333
 30
0.0
 41
1.0
 10
39.84417217525828
 20
17.79281829881621
 30
0.0
 41
1.0
 10
39.84660906355651
 20
17.7951377042763
 30
0.0
 41
1.0
 10
39.83823315700249
 20
17.80004608429189
 30
0.0
 41
1.0
 10
39.8269381974257
 20
17.80276717350914
 30
0.0
 41
1.0
 10
39.78898955465081
 20
17.80454454595359
 30
0.0
 41
1.0
  0
SPLINE
  5
FE
330
1F
100
AcDbEntity
  8
Default
100
AcDbSpline
210
0.0
220
0.0
230
1.0
 70
    12
 71
     2
 72
     6
 73
     3
 74
     0
 42
0.0000000001
 43
0.0000000001
 40
0.0
 40
0.0
 40
0.0
 40
0.2274458185196759
 40
0.2274458185196759
 40
0.2274458185196759
 10
3.273468743123829
 20
16.63729149226933
 30
0.0
 41
1.0
 10
3.391021179210086
 20
16.6486737914576
 30
0.0
 41
0.9452960069174632
 10
3.476534934422602
 20
16.73013255178492
 30
0.0
 41
1.0
  0
SPLINE
  5
FF
330
1F
100
AcDbEntity
  8
Default
100
AcDbSpline
210
0.0
220
0.0
230
1.0
 70
    12
 71
     2
 72
     6
 73
     3
 74
     0
 42
0.0000000001
 43
0.0000000001
 40
0.0
 40
0.0
 40
0.0
 40
0.2146460381117859
 40
0.2146460381117859
 40
0.2146460381117859
 10
-8.292247014679958
 20
56.15378383466694
 30
0.0
 41
1.0
 10
-8.330953053239263
 20
56.05368351536944
 30
0.0
 41
0.9999999397597106
 10
-8.369728572733777
 20
55.95361009016395
 30
0.0
 41
1.0
  0
SPLINE
  5
100
330
1F
100
AcDbEntity
  8
Default
100
AcDbSpline
210
0.0
220
0.0
230
1.0
 70
     8
 71
     3
 72
    26
 73
    22
 74
     0
 42
0.0000000001
 43
0.0000000001
 40
0.0
 40
0.0
 40
0.0
 40
0.0
 40
1.333732491878348
 40
1.612031461804765
 40
2.392106064337254
 40
2.717969222971324
 40
2.745125979489186
 40
2.803067299916767
 40
3.455124357712558
 40
3.54023324386009
 40
3.595660178871676
 40
3.626930224215666
 40
3.861208913882892
 40
4.061628228790531
 40
4.304356808173827
 40
4.977239982903842
 40
5.866678241057951
 40
6.144397678862488
 40
6.480624495968338
 40
10.93997226665676
 40
22.20463678737137
 40
22.20463678737137
 40
22.20463678737137
 40
22.20463678737137
 10
30.61524425331231
 20
16.83735210947388
 30
0.0
 10
30.17182217418389
 20
16.80628532670107
 30
0.0
 10
29.63637005455064
 20
16.75846884539705
 30
0.0
 10
28.84071309518686
 20
16.70939065076155
 30
0.0
 10
28.37775044956391
 20
16.7135083377617
 30
0.0
 10
28.00474049588854
 20
16.78319512573547
 30
0.0
 10
27.88030004713602
 20
16.84276757624892
 30
0.0
 10
27.67302257629672
 20
16.97465261616183
 30
0.0
 10
27.44737949329709
 20
17.11378103786704
 30
0.0
 10
27.22335734696645
 20
17.25380484949562
 30
0.0
 10
27.17555431114113
 20
17.28529420403025
 30
0.0
 10
27.08364931468645
 20
17.34036616187903
 30
0.0
 10
26.92571127099518
 20
17.37400758286633
 30
0.0
 10
26.70377812316195
 20
17.31464845363689
 30
0.0
 10
26.39749816567587
 20
17.09610746255915
 30
0.0
 10
26.03426166172295
 20
16.60843256648251
 30
0.0
 10
25.76544666337384
 20
16.05663578030793
 30
0.0
 10
25.60719596104872
 20
15.57974140165109
 30
0.0
 10
25.03189131518252
 20
13.99005551152773
 30
0.0
 10
23.22655520794376
 20
8.949924265496819
 30
0.0
 10
21.45687390578098
 20
4.016381304407233
 30
0.0
 10
20.18899429785057
 20
0.4820261301066751
 30
0.0
  0
SPLINE
  5
101
330
1F
100
AcDbEntity
  8
Default
100
AcDbSpline
210
0.0
220
0.0
230
1.0
 70
    12
 71
     2
 72
     6
 73
     3
 74
     0
 42
0.0000000001
 43
0.0000000001
 40
0.0
 40
0.0
 40
0.0
 40
0.2452582194759985
 40
0.2452582194759985
 40
0.2452582194759985
 10
2.604450623475316
 20
16.76736916299815
 30
0.0
 41
1.0
 10
2.482544752204847
 20
16.75405760854482
 30
0.0
 41
0.999983024413568
 10
2.360492035291259
 20
16.74216756118646
 30
0.0
 41
1.0
  0
SPLINE
  5
102
330
1F
100
AcDbEntity
  8
Default
100
AcDbSpline
210
0.0
220
0.0
230
1.0
 70
    12
 71
     2
 72
     6
 73
     3
 74
     0
 42
0.0000000001
 43
0.0000000001
 40
0.0
 40
0.0
 40
0.0
 40
0.0159179282250791
 40
0.0159179282250791
 40
0.0159179282250791
 10
9.187142928953449
 20
0.3209581204283154
 30
0.0
 41
1.0
 10
9.195094706803877
 20
0.3212966561762938
 30
0.0
 41
0.9999968305897696
 10
9.20304808850176
 20
0.3215951473862333
 30
0.0
 41
1.0
  0
SPLINE
  5
103
330
1F
100
AcDbEntity
  8
Default
100
AcDbSpline
210
0.0
220
0.0
230
1.0
 70
    12
 71
     2
 72
     6
 73
     3
 74
     0
 42
0.0000000001
 43
0.0000000001
 40
0.0
 40
0.0
 40
0.0
 40
0.022599255445238
 40
0.022599255445238
 40
0.022599255445238
 10
8.78944815254232
 20
0.2797424833213285
 30
0.0
 41
1.0
 10
8.800448434632079
 20
0.2823348758861338
 30
0.0
 41
0.9997350652396294
 10
8.81155636933886
 20
0.2844182605869179
 30
0.0
 41
1.0
  0
SPLINE
  5
104
330
1F
100
AcDbEntity
  8
Default
100
AcDbSpline
210
0.0
220
0.0
230
1.0
 70
    12
 71
     2
 72
     6
 73
     3
 74
     0
 42
0.0000000001
 43
0.0000000001
 40
0.0
 40
0.0
 40
0.0
 40
0.6517731304108609
 40
0.6517731304108609
 40
0.6517731304108609
 10
8.019958406644264
 20
17.71512495479679
 30
0.0
 41
1.0
 10
7.756339030724022
 20
17.51312428949502
 30
0.0
 41
0.9721112670071763
 10
7.429613539271429
 20
17.45354327424697
 30
0.0
 41
1.0
  0
SPLINE
  5
105
330
1F
100
AcDbEntity
  8
Default
100
AcDbSpline
210
0.0
220
0.0
230
1.0
 70
    24
 71
     2
 72
     6
 73
     3
 74
     0
 42
0.0000000001
 43
0.0000000001
 40
0.0
 40
0.0
 40
0.0
 40
0.0342481899204006
 40
0.0342481899204006
 40
0.0342481899204006
 10
2.164192933697052
 20
16.76729086641062
 30
0.0
 10
2.165686682678256
 20
16.75023204634043
 30
0.0
 10
2.16718043165946
 20
16.73317322627024
 30
0.0
  0
SPLINE
  5
106
330
1F
100
AcDbEntity
  8
Default
100
AcDbSpline
210
0.0
220
0.0
230
1.0
 70
    12
 71
     2
 72
     6
 73
     3
 74
     0
 42
0.0000000001
 43
0.0000000001
 40
0.0
 40
0.0
 40
0.0
 40
0.0273325596780119
 40
0.0273325596780119
 40
0.0273325596780119
 10
30.60808779444437
 20
16.92186004990192
 30
0.0
 41
1.0
 10
30.61035363831767
 20
16.90556932495079
 30
0.0
 41
0.7576113056490225
 10
30.62678110271839
 20
16.90475680956534
 30
0.0
 41
0.9674905348622459
  0
SPLINE
  5
107
330
1F
100
AcDbEntity
  8
Default
100
AcDbSpline
210
0.0
220
0.0
230
1.0
 70
    24
 71
     2
 72
     6
 73
     3
 74
     0
 42
0.0000000001
 43
0.0000000001
 40
0.0
 40
0.0
 40
0.0
 40
0.0782618426120923
 40
0.0782618426120923
 40
0.0782618426120923
 10
30.59795838618942
 20
16.99946360070628
 30
0.0
 10
30.6030230903169
 20
16.9606618253041
 30
0.0
 10
30.60808779444437
 20
16.92186004990192
 30
0.0
  0
SPLINE
  5
108
330
1F
100
AcDbEntity
  8
Default
100
AcDbSpline
210
0.0
220
0.0
230
1.0
 70
    12
 71
     2
 72
     6
 73
     3
 74
     0
 42
0.0000000001
 43
0.0000000001
 40
0.0
 40
0.0
 40
0.0
 40
0.0293010146672195
 40
0.0293010146672195
 40
0.0293010146672195
 10
30.57742772981499
 20
17.01655200212143
 30
0.0
 41
1.0
 10
30.59546551349198
 20
17.01734592549988
 30
0.0
 41
0.739724561289223
 10
30.59795838618942
 20
16.99946360070628
 30
0.0
 41
1.0
  0
ARC
  5
109
330
1F
100
AcDbEntity
  8
Default
100
AcDbCircle
 10
5.509138435459704
 20
22.21020302717304
 30
0.0
 40
4.537762317198629
100
AcDbArc
 50
275.2439176958495
 51
276.8146306905066
  0
SPLINE
  5
10A
330
1F
100
AcDbEntity
  8
Default
100
AcDbSpline
210
0.0
220
0.0
230
1.0
 70
     8
 71
     3
 72
    17
 73
    13
 74
     0
 42
0.0000000001
 43
0.0000000001
 40
0.0
 40
0.0
 40
0.0
 40
0.0
 40
15.07353752690674
 40
15.61606607545562
 40
15.71987706518217
 40
15.90764932555116
 40
16.68761530069579
 40
17.43763592182185
 40
18.12623456045914
 40
18.46069009381041
 40
18.60270586314539
 40
18.88069632235299
 40
18.88069632235299
 40
18.88069632235299
 40
18.88069632235299
 10
9.383775243056903
 20
0.3173981616280628
 30
0.0
 10
9.016234032445993
 20
5.328419466548951
 30
0.0
 10
8.635305112981655
 20
10.51989839113422
 30
0.0
 10
8.251854430018511
 20
15.745738245559
 30
0.0
 10
8.229950363148305
 20
16.02298762606603
 30
0.0
 10
8.177054557526674
 20
16.37633748088062
 30
0.0
 10
7.980425916425077
 20
16.92319159726668
 30
0.0
 10
7.475516345968913
 20
17.48677625443131
 30
0.0
 10
6.918487931694983
 20
17.72319709783822
 30
0.0
 10
6.529089883806876
 20
17.75419803681167
 30
0.0
 10
6.278149444520011
 20
17.73636765999673
 30
0.0
 10
6.139546187950486
 20
17.71548926140916
 30
0.0
 10
6.047578066903327
 20
17.70449890787283
 30
0.0
  0
POLYLINE
  5
10B
330
1F
100
AcDbEntity
  8
Default
100
AcDb2dPolyline
 66
     1
 10
0.0
 20
0.0
 30
0.0
  0
VERTEX
  5
10C
330
10B
100
AcDbEntity
  8
Default
100
AcDbVertex
100
AcDb2dVertex
 10
30.68533888813181
 20
16.93007735518205
 30
0.0
  0
VERTEX
  5
10D
330
10B
100
AcDbEntity
  8
Default
100
AcDbVertex
100
AcDb2dVertex
 10
31.1501634884234
 20
16.95402605975558
 30
0.0
  0
VERTEX
  5
10E
330
10B
100
AcDbEntity
  8
Default
100
AcDbVertex
100
AcDb2dVertex
 10
31.22063928192364
 20
16.94950968511176
 30
0.0
  0
SEQEND
  5
10F
330
10B
100
AcDbEntity
  8
Default
  0
POLYLINE
  5
110
330
1F
100
AcDbEntity
  8
Default
100
AcDb2dPolyline
 66
     1
 10
0.0
 20
0.0
 30
0.0
  0
VERTEX
  5
111
330
110
100
AcDbEntity
  8
Default
100
AcDbVertex
100
AcDb2dVertex
 10
30.60808779444437
 20
16.92186004990192
 30
0.0
  0
VERTEX
  5
112
330
110
100
AcDbEntity
  8
Default
100
AcDbVertex
100
AcDb2dVertex
 10
30.68533888813181
 20
16.93007735518205
 30
0.0
  0
SEQEND
  5
113
330
110
100
AcDbEntity
  8
Default
  0
SPLINE
  5
114
330
1F
100
AcDbEntity
  8
Default
100
AcDbSpline
210
0.0
220
0.0
230
1.0
 70
    12
 71
     2
 72
     6
 73
     3
 74
     0
 42
0.0000000001
 43
0.0000000001
 40
0.0
 40
0.0
 40
0.0
 40
0.0100305442270566
 40
0.0100305442270566
 40
0.0100305442270566
 10
-8.811544765177644
 20
0.2844182606981889
 30
0.0
 41
1.0
 10
-8.816471921362714
 20
0.2853546156305425
 30
0.0
 41
0.9999798957634295
 10
-8.82141055590813
 20
0.2862284104911055
 30
0.0
 41
1.0
  0
SPLINE
  5
115
330
1F
100
AcDbEntity
  8
Default
100
AcDbSpline
210
0.0
220
0.0
230
1.0
 70
     8
 71
     3
 72
    10
 73
     6
 74
     0
 42
0.0000000001
 43
0.0000000001
 40
0.0
 40
0.0
 40
0.0
 40
0.0
 40
0.2154121773343171
 40
0.6159780757571736
 40
2.087205975174507
 40
2.087205975174507
 40
2.087205975174507
 40
2.087205975174507
 10
3.40736378415636
 20
16.71349687303551
 30
0.0
 10
3.476791418518815
 20
16.73183731874506
 30
0.0
 10
3.678962212490433
 20
16.76851914977199
 30
0.0
 10
4.367486307965919
 20
16.86823730322688
 30
0.0
 10
4.987604617093382
 20
16.93852719028213
 30
0.0
 10
5.473818755952948
 20
17.00228791294387
 30
0.0
  0
SPLINE
  5
116
330
1F
100
AcDbEntity
  8
Default
100
AcDbSpline
210
0.0
220
0.0
230
1.0
 70
    24
 71
     2
 72
     6
 73
     3
 74
     0
 42
0.0000000001
 43
0.0000000001
 40
0.0
 40
0.0
 40
0.0
 40
0.1935072007122365
 40
0.1935072007122365
 40
0.1935072007122365
 10
8.760762722558525
 20
0.2674282262325676
 30
0.0
 10
8.771214156942165
 20
0.1712407701834735
 30
0.0
 10
8.781665591325805
 20
0.0750533141343794
 30
0.0
  0
SPLINE
  5
117
330
1F
100
AcDbEntity
  8
Default
100
AcDbSpline
210
0.0
220
0.0
230
1.0
 70
    24
 71
     2
 72
     6
 73
     3
 74
     0
 42
0.0000000001
 43
0.0000000001
 40
0.0
 40
0.0
 40
0.0
 40
0.2378022079818448
 40
0.2378022079818448
 40
0.2378022079818448
 10
9.39319184220426
 20
0.0749799155485817
 30
0.0
 10
9.388649166851764
 20
0.1937942102731682
 30
0.0
 10
9.384106491499267
 20
0.3126085049977547
 30
0.0
  0
SPLINE
  5
118
330
1F
100
AcDbEntity
  8
Default
100
AcDbSpline
210
0.0
220
0.0
230
1.0
 70
    12
 71
     2
 72
     6
 73
     3
 74
     0
 42
0.0000000001
 43
0.0000000001
 40
0.0
 40
0.0
 40
0.0
 40
0.0292551740109664
 40
0.0292551740109664
 40
0.0292551740109664
 10
31.22414283712277
 20
17.02783686880858
 30
0.0
 41
1.0
 10
31.22513185834515
 20
17.04579263758641
 30
0.0
 41
0.7422442984810065
 10
31.24309498204707
 20
17.04663761228882
 30
0.0
 41
1.0
  0
SPLINE
  5
119
330
1F
100
AcDbEntity
  8
Default
100
AcDbSpline
210
0.0
220
0.0
230
1.0
 70
    12
 71
     2
 72
     6
 73
     3
 74
     0
 42
0.0000000001
 43
0.0000000001
 40
0.0
 40
0.0
 40
0.0
 40
0.0784055011136579
 40
0.0784055011136579
 40
0.0784055011136579
 10
31.22060623489517
 20
16.9490513362711
 30
0.0
 41
1.0
 10
31.22239111441446
 20
16.98867327450499
 30
0.0
 41
0.9999999999990178
 10
31.22414283712277
 20
17.02783686880858
 30
0.0
 41
1.0
  0
SPLINE
  5
11A
330
1F
100
AcDbEntity
  8
Default
100
AcDbSpline
210
0.0
220
0.0
230
1.0
 70
    12
 71
     2
 72
     6
 73
     3
 74
     0
 42
0.0000000001
 43
0.0000000001
 40
-0.0185828340235112
 40
-0.0185828340235112
 40
-0.0185828340235112
 40
0.0
 40
0.0
 40
0.0
 10
31.21085209699044
 20
16.93344629516618
 30
0.0
 41
0.9624379479955834
 10
31.219572730772
 20
16.93854225092671
 30
0.0
 41
0.8740527777768698
 10
31.22060623489517
 20
16.9490513362711
 30
0.0
 41
1.0
  0
SPLINE
  5
11B
330
1F
100
AcDbEntity
  8
Default
100
AcDbSpline
210
0.0
220
0.0
230
1.0
 70
     8
 71
     3
 72
    30
 73
    26
 74
     0
 42
0.0000000001
 43
0.0000000001
 40
0.0
 40
0.0
 40
0.0
 40
0.0
 40
1.463178567941903
 40
1.657085569866523
 40
2.065933459010143
 40
2.707689231000544
 40
3.364036194858314
 40
4.163033489543351
 40
4.201321283595033
 40
4.41752845686409
 40
10.83997734556349
 40
11.32845729316029
 40
11.70652853067966
 40
12.43890090770558
 40
12.96970659238362
 40
13.3422939720215
 40
13.61441553296895
 40
13.87035974071808
 40
13.94198957812409
 40
14.0587463275045
 40
14.91571435690441
 40
15.03282527240539
 40
15.09552528859832
 40
15.42173825568788
 40
16.01073600906841
 40
16.01073600906841
 40
16.01073600906841
 40
16.01073600906841
 10
9.042505703965617
 20
57.44387442135036
 30
0.0
 10
9.480420510684894
 20
57.22911733329866
 30
0.0
 10
9.975575262198731
 20
56.98440290446641
 30
0.0
 10
10.59570958658014
 20
56.68484721969634
 30
0.0
 10
10.9467870113964
 20
56.46028914830632
 30
0.0
 10
11.32755972366823
 20
56.02512956074628
 30
0.0
 10
11.59382236593513
 20
55.37095078479254
 30
0.0
 10
11.6518823839109
 20
54.87242964753088
 30
0.0
 10
11.66407182507066
 20
54.52205271027432
 30
0.0
 10
11.72117292447575
 20
52.29688176363126
 30
0.0
 10
11.7845065996724
 20
49.92228432524124
 30
0.0
 10
11.84797192801244
 20
47.49333951692631
 30
0.0
 10
11.86001518948547
 20
46.96052313354323
 30
0.0
 10
11.84791822182058
 20
46.4131899030254
 30
0.0
 10
11.79155756213424
 20
45.87048443056801
 30
0.0
 10
11.69167772297664
 20
45.48860616410579
 30
0.0
 10
11.51191447532005
 20
45.2378438628128
 30
0.0
 10
11.31083348054017
 20
45.17120534788356
 30
0.0
 10
11.16379210079049
 20
45.17253218719159
 30
0.0
 10
10.81554265010527
 20
45.14165503857259
 30
0.0
 10
10.4533234762805
 20
45.12592767588146
 30
0.0
 10
10.1082584001706
 20
45.09916961022125
 30
0.0
 10
9.939850285769012
 20
45.09095359649854
 30
0.0
 10
9.613852569641836
 20
45.08630715696256
 30
0.0
 10
9.308805266109744
 20
45.08385037101451
 30
0.0
 10
9.112469918309102
 20
45.08295663457345
 30
0.0
  0
SPLINE
  5
11C
330
1F
100
AcDbEntity
  8
Default
100
AcDbSpline
210
0.0
220
0.0
230
1.0
 70
     8
 71
     3
 72
    24
 73
    20
 74
     0
 42
0.0000000001
 43
0.0000000001
 40
0.0
 40
0.0
 40
0.0
 40
0.0
 40
1.0
 40
2.0
 40
3.0
 40
4.0
 40
5.0
 40
6.0
 40
7.0
 40
8.0
 40
9.0
 40
10.0
 40
11.0
 40
12.0
 40
13.0
 40
14.0
 40
15.0
 40
16.0
 40
17.0
 40
17.0
 40
17.0
 40
17.0
 10
-8.826375975637347
 20
18.0504200522093
 30
0.0
 10
-8.480690462202347
 20
18.02138587608307
 30
0.0
 10
-7.789267957116749
 20
17.96391708666933
 30
0.0
 10
-6.751903159831329
 20
17.88053887708367
 30
0.0
 10
-5.714507400479533
 20
17.79759273962908
 30
0.0
 10
-4.67749920801549
 20
17.70983370346708
 30
0.0
 10
-3.639673187661913
 20
17.6321861795095
 30
0.0
 10
-2.600817969655509
 20
17.56943703071309
 30
0.0
 10
-1.560922592057807
 20
17.52695727327263
 30
0.0
 10
-0.5203765717546389
 20
17.50571480194277
 30
0.0
 10
0.520388116712752
 20
17.50571480009928
 30
0.0
 10
1.560934271906433
 20
17.52695727655072
 30
0.0
 10
2.600829358074463
 20
17.56943702013309
 30
0.0
 10
3.639684802630427
 20
17.63218617888121
 30
0.0
 10
4.677510847576855
 20
17.70983370694096
 30
0.0
 10
5.714518685790836
 20
17.79759271266816
 30
0.0
 10
6.75191478675265
 20
17.88053887921467
 30
0.0
 10
7.789279417636976
 20
17.9639170750949
 30
0.0
 10
8.48070158140672
 20
18.02138583549269
 30
0.0
 10
8.826387580674464
 20
18.0504200522093
 30
0.0
  0
SPLINE
  5
11D
330
1F
100
AcDbEntity
  8
Default
100
AcDbSpline
210
0.0
220
0.0
230
1.0
 70
    12
 71
     2
 72
     6
 73
     3
 74
     0
 42
0.0000000001
 43
0.0000000001
 40
0.0
 40
0.0
 40
0.0
 40
0.6956184744056648
 40
0.6956184744056648
 40
0.6956184744056648
 10
38.55452751427742
 20
17.74180931517022
 30
0.0
 41
1.0
 10
38.90201633060627
 20
17.72687706922344
 30
0.0
 41
0.999998859488851
 10
39.24945845723857
 20
17.7108952644469
 30
0.0
 41
1.0
  0
SPLINE
  5
11E
330
1F
100
AcDbEntity
  8
Default
100
AcDbSpline
210
0.0
220
0.0
230
1.0
 70
    12
 71
     2
 72
     6
 73
     3
 74
     0
 42
0.0000000001
 43
0.0000000001
 40
0.0
 40
0.0
 40
0.0
 40
0.2374976521079508
 40
0.2374976521079508
 40
0.2374976521079508
 10
38.31774946182969
 20
17.72961801693869
 30
0.0
 41
1.0
 10
38.43551889846254
 20
17.74774726689776
 30
0.0
 41
0.994873878221835
 10
38.55452751427742
 20
17.74180931517022
 30
0.0
 41
1.0
  0
SPLINE
  5
11F
330
1F
100
AcDbEntity
  8
Default
100
AcDbSpline
210
0.0
220
0.0
230
1.0
 70
    12
 71
     2
 72
    10
 73
     7
 74
     0
 42
0.0000000001
 43
0.0000000001
 40
-0.1248801932281091
 40
-0.1248801932281091
 40
-0.1248801932281091
 40
-0.0826066040738618
 40
-0.0826066040738618
 40
-0.0409792975273575
 40
-0.0409792975273575
 40
0.0
 40
0.0
 40
0.0
 10
38.19549063578472
 20
17.70416701734926
 30
0.0
 41
1.0
 10
38.21616602453454
 20
17.70855939045694
 30
0.0
 41
0.9999990658197156
 10
38.23685334370498
 20
17.71289522567234
 30
0.0
 41
1.0
 10
38.25722439819103
 20
17.717164751487
 30
0.0
 41
0.9999990495778065
 10
38.27760714810415
 20
17.72137808953781
 30
0.0
 41
1.0
 10
38.29767260608139
 20
17.72552581640145
 30
0.0
 41
0.9999990433293221
 10
38.31774946182969
 20
17.72961801693869
 30
0.0
 41
1.0
  0
SPLINE
  5
120
330
1F
100
AcDbEntity
  8
Default
100
AcDbSpline
210
0.0
220
0.0
230
1.0
 70
    12
 71
     3
 72
    10
 73
     6
 74
     0
 42
0.0000000001
 43
0.0000000001
 40
0.2763952092705486
 40
0.2763952092705486
 40
0.2763952092705486
 40
0.2763952092705486
 40
0.4932085681507576
 40
0.4932085681507576
 40
1.0
 40
1.0
 40
1.0
 40
1.0
 10
38.1895563707422
 20
17.6839153359648
 30
0.0
 41
1.0
 10
38.18025242102442
 20
17.68566011527003
 30
0.0
 41
1.0
 10
38.17504057803592
 20
17.68759828052033
 30
0.0
 41
1.0
 10
38.16416727868915
 20
17.69409684075059
 30
0.0
 41
1.0
 10
38.1702527938038
 20
17.69880539991034
 30
0.0
 41
1.0
 10
38.19549063578472
 20
17.70416701734926
 30
0.0
 41
1.0
  0
SPLINE
  5
121
330
1F
100
AcDbEntity
  8
Default
100
AcDbSpline
210
0.0
220
0.0
230
1.0
 70
     8
 71
     3
 72
    12
 73
     8
 74
     0
 42
0.0000000001
 43
0.0000000001
 40
0.0
 40
0.0
 40
0.0
 40
0.0
 40
0.1373078126426722
 40
0.2781262804715172
 40
0.5867740024392379
 40
0.7110093329034793
 40
4.482733614579535
 40
4.482733614579535
 40
4.482733614579535
 40
4.482733614579535
 10
-8.96292288060863
 20
18.2490099974555
 30
0.0
 10
-8.96952141976692
 20
18.29431741031463
 30
0.0
 10
-8.97980851302259
 20
18.38645563944014
 30
0.0
 10
-8.990789506127157
 20
18.5818773573058
 30
0.0
 10
-8.985001629701571
 20
18.77321570783691
 30
0.0
 10
-8.879884991342749
 20
20.17078190151756
 30
0.0
 10
-8.7850631431196
 20
21.46599054387269
 30
0.0
 10
-8.690960355194818
 20
22.71969815137565
 30
0.0
  0
SPLINE
  5
122
330
1F
100
AcDbEntity
  8
Default
100
AcDbSpline
210
0.0
220
0.0
230
1.0
 70
    12
 71
     2
 72
     6
 73
     3
 74
     0
 42
0.0000000001
 43
0.0000000001
 40
0.0
 40
0.0
 40
0.0
 40
0.2274458185196759
 40
0.2274458185196759
 40
0.2274458185196759
 10
-3.273457138086712
 20
16.63729149226933
 30
0.0
 41
1.0
 10
-3.391009574172954
 20
16.6486737914576
 30
0.0
 41
0.9452960069174632
 10
-3.476523329385486
 20
16.73013255178492
 30
0.0
 41
1.0
  0
SPLINE
  5
123
330
1F
100
AcDbEntity
  8
Default
100
AcDbSpline
210
0.0
220
0.0
230
1.0
 70
     8
 71
     3
 72
    28
 73
    24
 74
     0
 42
0.0000000001
 43
0.0000000001
 40
0.0
 40
0.0
 40
0.0
 40
0.0
 40
0.5871082137682805
 40
0.9154150821564446
 40
0.9778838870726413
 40
2.068746581379242
 40
2.140191876140482
 40
2.39528381715555
 40
2.668436731071679
 40
3.041639905824278
 40
3.577229340837432
 40
4.29628868326478
 40
4.672593611706117
 40
5.170751610783014
 40
11.59320049948239
 40
11.80940767275145
 40
11.8481453897627
 40
12.64686870551461
 40
13.31107621200096
 40
13.94370914049376
 40
14.35343583880153
 40
14.54755158745126
 40
16.01072980419517
 40
16.01072980419517
 40
16.01072980419517
 40
16.01072980419517
 10
-9.1128021243876
 20
45.08295619642149
 30
0.0
 10
-9.308507223641868
 20
45.0838542551403
 30
0.0
 10
-9.61362417967348
 20
45.08628431509447
 30
0.0
 10
-9.939622392011643
 20
45.09033413661783
 30
0.0
 10
-10.43268239131305
 20
45.11859573813277
 30
0.0
 10
-10.83980037586122
 20
45.15164504885962
 30
0.0
 10
-11.31141311473255
 20
45.17676167183501
 30
0.0
 10
-11.51014684109907
 20
45.23240862207707
 30
0.0
 10
-11.69387622018041
 20
45.49162778163522
 30
0.0
 10
-11.78985983073528
 20
45.8699089067504
 30
0.0
 10
-11.85043954644311
 20
46.41430486712676
 30
0.0
 10
-11.85825923326303
 20
46.95525612325675
 30
0.0
 10
-11.84958755439425
 20
47.48796298172775
 30
0.0
 10
-11.78194122311004
 20
49.91802724699909
 30
0.0
 10
-11.72399006280489
 20
52.2976990080214
 30
0.0
 10
-11.66429193145274
 20
54.52215290563571
 30
0.0
 10
-11.65278168196045
 20
54.87283959435885
 30
0.0
 10
-11.5930737192781
 20
55.37352682780511
 30
0.0
 10
-11.32720692040567
 20
56.02753393551072
 30
0.0
 10
-10.94470922537914
 20
56.46141304871904
 30
0.0
 10
-10.59664516509179
 20
56.68490376665369
 30
0.0
 10
-9.975954414026091
 20
56.98435111920449
 30
0.0
 10
-9.480761889779956
 20
57.22912960884406
 30
0.0
 10
-9.042838877228405
 20
57.44387562901699
 30
0.0
  0
SPLINE
  5
124
330
1F
100
AcDbEntity
  8
Default
100
AcDbSpline
210
0.0
220
0.0
230
1.0
 70
    24
 71
     2
 72
     6
 73
     3
 74
     0
 42
0.0000000001
 43
0.0000000001
 40
0.0
 40
0.0
 40
0.0
 40
0.216416799163873
 40
0.216416799163873
 40
0.216416799163873
 10
39.65492210365142
 20
16.83839565374436
 30
0.0
 10
39.67617125911354
 20
16.9448696403411
 30
0.0
 10
39.69742041457567
 20
17.05134362693784
 30
0.0
  0
SPLINE
  5
125
330
1F
100
AcDbEntity
  8
Default
100
AcDbSpline
210
0.0
220
0.0
230
1.0
 70
    12
 71
     2
 72
     6
 73
     3
 74
     0
 42
0.0000000001
 43
0.0000000001
 40
0.0
 40
0.0
 40
0.0
 40
0.3978595148715727
 40
0.3978595148715727
 40
0.3978595148715727
 10
39.40016837408609
 20
16.56159957370987
 30
0.0
 41
1.0
 10
39.6188775181195
 20
16.61534359367476
 30
0.0
 41
0.8337809289758055
 10
39.65492210365142
 20
16.83839565374436
 30
0.0
 41
1.0
  0
POLYLINE
  5
126
330
1F
100
AcDbEntity
  8
Default
100
AcDb2dPolyline
 66
     1
 10
0.0
 20
0.0
 30
0.0
  0
VERTEX
  5
127
330
126
100
AcDbEntity
  8
Default
100
AcDbVertex
100
AcDb2dVertex
 10
39.20333452094957
 20
16.52235397796672
 30
0.0
  0
VERTEX
  5
128
330
126
100
AcDbEntity
  8
Default
100
AcDbVertex
100
AcDb2dVertex
 10
39.40016837408609
 20
16.56159957370987
 30
0.0
  0
SEQEND
  5
129
330
126
100
AcDbEntity
  8
Default
  0
SPLINE
  5
12A
330
1F
100
AcDbEntity
  8
Default
100
AcDbSpline
210
0.0
220
0.0
230
1.0
 70
    12
 71
     2
 72
     6
 73
     3
 74
     0
 42
0.0000000001
 43
0.0000000001
 40
0.0
 40
0.0
 40
0.0
 40
0.1499525141757463
 40
0.1499525141757463
 40
0.1499525141757463
 10
39.05366582501222
 20
16.51879951541913
 30
0.0
 41
1.0
 10
39.12867552663049
 20
16.51319308412504
 30
0.0
 41
0.9951676892377327
 10
39.20333452094957
 20
16.52235397796672
 30
0.0
 41
1.0
  0
SPLINE
  5
12B
330
1F
100
AcDbEntity
  8
Default
100
AcDbSpline
210
0.0
220
0.0
230
1.0
 70
     8
 71
     5
 72
    12
 73
     6
 74
     0
 42
0.0000000001
 43
0.0000000001
 40
-1.0
 40
-1.0
 40
-1.0
 40
-1.0
 40
-1.0
 40
-1.0
 40
0.0
 40
0.0
 40
0.0
 40
0.0
 40
0.0
 40
0.0
 10
38.80635599050464
 20
16.60085696806749
 30
0.0
 10
38.85020693563177
 20
16.5726981718818
 30
0.0
 10
38.89686201136624
 20
16.54890617378577
 30
0.0
 10
38.95006052668271
 20
16.53100870712402
 30
0.0
 10
39.00169722305077
 20
16.52268379158689
 30
0.0
 10
39.05366582501222
 20
16.51879951541913
 30
0.0
  0
SPLINE
  5
12C
330
1F
100
AcDbEntity
  8
Default
100
AcDbSpline
210
0.0
220
0.0
230
1.0
 70
    12
 71
     2
 72
     6
 73
     3
 74
     0
 42
0.0000000001
 43
0.0000000001
 40
0.0
 40
0.0
 40
0.0
 40
0.2907252240719517
 40
0.2907252240719517
 40
0.2907252240719517
 10
38.60341616168841
 20
16.80728237337621
 30
0.0
 41
1.0
 10
38.68198675559046
 20
16.68072042203782
 30
0.0
 41
0.9754113680340547
 10
38.80635599050464
 20
16.60085696806749
 30
0.0
 41
1.0
  0
SPLINE
  5
12D
330
1F
100
AcDbEntity
  8
Default
100
AcDbSpline
210
0.0
220
0.0
230
1.0
 70
    24
 71
     2
 72
     6
 73
     3
 74
     0
 42
0.0000000001
 43
0.0000000001
 40
0.0
 40
0.0
 40
0.0
 40
0.6361931574619321
 40
0.6361931574619321
 40
0.6361931574619321
 10
38.26337363981077
 20
17.34723062843946
 30
0.0
 10
38.43339490074959
 20
17.07725650090784
 30
0.0
 10
38.60341616168841
 20
16.80728237337621
 30
0.0
  0
SPLINE
  5
12E
330
1F
100
AcDbEntity
  8
Default
100
AcDbSpline
210
0.0
220
0.0
230
1.0
 70
    12
 71
     2
 72
     6
 73
     3
 74
     0
 42
0.0000000001
 43
0.0000000001
 40
0.0
 40
0.0
 40
0.0
 40
0.1998016154428683
 40
0.1998016154428683
 40
0.1998016154428683
 10
38.18722368600243
 20
17.53115858496763
 30
0.0
 41
1.0
 10
38.20551808750283
 20
17.4314149674321
 30
0.0
 41
0.977901098887919
 10
38.26337363981077
 20
17.34723062843946
 30
0.0
 41
1.0
  0
LINE
  5
12F
330
1F
100
AcDbEntity
  8
Default
100
AcDbLine
 10
38.17914461484111
 20
17.65315180996281
 30
0.0
 11
38.18722368600243
 21
17.53115858496763
 31
0.0
  0
SPLINE
  5
130
330
1F
100
AcDbEntity
  8
Default
100
AcDbSpline
210
0.0
220
0.0
230
1.0
 70
    12
 71
     2
 72
     6
 73
     3
 74
     0
 42
0.0000000001
 43
0.0000000001
 40
0.0
 40
0.0
 40
0.0
 40
0.075605342972967
 40
0.075605342972967
 40
0.075605342972967
 10
38.22734325440967
 20
17.7028746939679
 30
0.0
 41
1.0
 10
38.18100389738251
 20
17.69989901439031
 30
0.0
 41
0.7431202658112454
 10
38.17914461484111
 20
17.65315180996281
 30
0.0
 41
1.0
  0
SPLINE
  5
131
330
1F
100
AcDbEntity
  8
Default
100
AcDbSpline
210
0.0
220
0.0
230
1.0
 70
     8
 71
     3
 72
     8
 73
     4
 74
     0
 42
0.0000000001
 43
0.0000000001
 40
0.0
 40
0.0
 40
0.0
 40
0.0
 40
0.684607181482503
 40
0.684607181482503
 40
0.684607181482503
 40
0.684607181482503
 10
-3.808015145450554
 20
16.12978274261414
 30
0.0
 10
-5.800676354335337
 20
16.4871641433725
 30
0.0
 10
-6.477967939791483
 20
16.61250229758035
 30
0.0
 10
-6.818799012785803
 20
16.67364216245061
 30
0.0
  0
SPLINE
  5
132
330
1F
100
AcDbEntity
  8
Default
100
AcDbSpline
210
0.0
220
0.0
230
1.0
 70
    24
 71
     2
 72
     6
 73
     3
 74
     0
 42
0.0000000001
 43
0.0000000001
 40
0.0
 40
0.0
 40
0.0
 40
0.030852161272526
 40
0.030852161272526
 40
0.030852161272526
 10
22.36310382410664
 20
26.04483806163162
 30
0.0
 10
22.34784718565399
 20
26.04255794169577
 30
0.0
 10
22.33259054720133
 20
26.04027782175991
 30
0.0
  0
SPLINE
  5
133
330
1F
100
AcDbEntity
  8
Default
100
AcDbSpline
210
0.0
220
0.0
230
1.0
 70
    12
 71
     2
 72
     6
 73
     3
 74
     0
 42
0.0000000001
 43
0.0000000001
 40
0.0
 40
0.0
 40
0.0
 40
2.169258451074326
 40
2.169258451074326
 40
2.169258451074326
 10
0.0000058025185581
 20
16.65426547470156
 30
0.0
 41
1.0
 10
1.085591906258667
 20
16.65248539871748
 30
0.0
 41
0.9986768174115286
 10
2.165618602804386
 20
16.76222126280948
 30
0.0
 41
1.0
  0
SPLINE
  5
134
330
1F
100
AcDbEntity
  8
Default
100
AcDbSpline
210
0.0
220
0.0
230
1.0
 70
    12
 71
     2
 72
     6
 73
     3
 74
     0
 42
0.0000000001
 43
0.0000000001
 40
-2.169258451074326
 40
-2.169258451074326
 40
-2.169258451074326
 40
0.0
 40
0.0
 40
0.0
 10
-2.16560699776727
 20
16.76222126280948
 30
0.0
 41
1.0
 10
-1.085580301221562
 20
16.65248539871748
 30
0.0
 41
0.9986768174115286
 10
0.0000058025185581
 20
16.65426547470156
 30
0.0
 41
1.0
  0
SPLINE
  5
135
330
1F
100
AcDbEntity
  8
Default
100
AcDbSpline
210
0.0
220
0.0
230
1.0
 70
    12
 71
     2
 72
     6
 73
     3
 74
     0
 42
0.0000000001
 43
0.0000000001
 40
0.0
 40
0.0
 40
0.0
 40
1.163316925166758
 40
1.163316925166758
 40
1.163316925166758
 10
-9.298308589652265
 20
40.16893048933422
 30
0.0
 41
1.0
 10
-8.896464963336252
 20
40.58946380277806
 30
0.0
 41
0.9999999985989616
 10
-8.494576817706673
 20
41.00995457096356
 30
0.0
 41
1.0
  0
SPLINE
  5
136
330
1F
100
AcDbEntity
  8
Default
100
AcDbSpline
210
0.0
220
0.0
230
1.0
 70
    12
 71
     2
 72
    10
 73
     7
 74
     0
 42
0.0000000001
 43
0.0000000001
 40
6.283120353693191
 40
6.283120353693191
 40
6.283120353693191
 40
6.283185307179586
 40
6.283185307179586
 40
7.853981633974483
 40
7.853981633974483
 40
9.42477796076938
 40
9.42477796076938
 40
9.42477796076938
 10
-8.846493708814478
 20
39.73708756221587
 30
0.0
 41
0.9999757783377694
 10
-8.84649998414087
 20
39.73708099626266
 30
0.0
 41
0.999987888668073
 10
-8.846506259861258
 20
39.73707443068358
 30
0.0
 41
1.0
 10
-9.06113641268528
 20
39.51253108771812
 30
0.0
 41
0.7071067811865475
 10
-9.287037577580804
 20
39.72845911704343
 30
0.0
 41
1.0
 10
-9.512938742476267
 20
39.94438714636875
 30
0.0
 41
0.7071067811865475
 10
-9.298308589652265
 20
40.16893048933422
 30
0.0
 41
1.0
  0
SPLINE
  5
137
330
1F
100
AcDbEntity
  8
Default
100
AcDbSpline
210
0.0
220
0.0
230
1.0
 70
    12
 71
     2
 72
     6
 73
     3
 74
     0
 42
0.0000000001
 43
0.0000000001
 40
0.0
 40
0.0
 40
0.0
 40
1.21074955253441
 40
1.21074955253441
 40
1.21074955253441
 10
-8.009986919199207
 20
40.61239943119368
 30
0.0
 41
1.0
 10
-8.428267691419244
 20
40.17476966039835
 30
0.0
 41
0.9999999980434585
 10
-8.846493708814478
 20
39.73708756221588
 30
0.0
 41
1.0
  0
SPLINE
  5
138
330
1F
100
AcDbEntity
  8
Default
100
AcDbSpline
210
0.0
220
0.0
230
1.0
 70
    12
 71
     2
 72
     6
 73
     3
 74
     0
 42
0.0000000001
 43
0.0000000001
 40
-2.237596064649673
 40
-2.237596064649673
 40
-2.237596064649673
 40
0.0
 40
0.0
 40
0.0
 10
0.0000058025185581
 20
16.42620838934191
 30
0.0
 41
1.0
 10
-1.120038787098367
 20
16.42835230282257
 30
0.0
 41
0.9983291216645981
 10
-2.232356104524172
 20
16.55970639268183
 30
0.0
 41
1.0
  0
SPLINE
  5
139
330
1F
100
AcDbEntity
  8
Default
100
AcDbSpline
210
0.0
220
0.0
230
1.0
 70
    12
 71
     2
 72
     6
 73
     3
 74
     0
 42
0.0000000001
 43
0.0000000001
 40
0.0
 40
0.0
 40
0.0
 40
2.237596064649673
 40
2.237596064649673
 40
2.237596064649673
 10
2.232367709561288
 20
16.55970639268183
 30
0.0
 41
1.0
 10
1.120050392135504
 20
16.42835230282257
 30
0.0
 41
0.9983291216645981
 10
0.0000058025185581
 20
16.42620838934191
 30
0.0
 41
1.0
  0
SPLINE
  5
13A
330
1F
100
AcDbEntity
  8
Default
100
AcDbSpline
210
0.0
220
0.0
230
1.0
 70
     8
 71
     3
 72
    23
 73
    19
 74
     0
 42
0.0000000001
 43
0.0000000001
 40
0.0
 40
0.0
 40
0.0
 40
0.0
 40
0.0814541214124737
 40
0.2012973732027084
 40
0.517258268836158
 40
1.405403047486077
 40
1.703201372210841
 40
2.032239949731685
 40
5.137306540924704
 40
8.84399984142866
 40
8.919479311977021
 40
9.217775219545464
 40
9.447532639739466
 40
9.763435440203228
 40
10.23236429377954
 40
10.63805615788362
 40
10.80143020480002
 40
11.40304171422706
 40
11.40304171422706
 40
11.40304171422706
 40
11.40304171422706
 10
11.09571496689711
 20
45.73782967135243
 30
0.0
 10
11.10888677601605
 20
45.76164836841349
 30
0.0
 10
11.13087947193662
 20
45.82527092128794
 30
0.0
 10
11.17100007447027
 20
45.99309021003467
 30
0.0
 10
11.22615616506585
 20
46.43157689067425
 30
0.0
 10
11.23416743652911
 20
46.93289119495398
 30
0.0
 10
11.22478297187945
 20
47.43760420235355
 30
0.0
 10
11.19043727632175
 20
48.68120460407866
 30
0.0
 10
11.13016237959414
 20
51.06058679255455
 30
0.0
 10
11.0687450279645
 20
53.35560439532222
 30
0.0
 10
11.03294176521075
 20
54.71525455215624
 30
0.0
 10
11.0138230145003
 20
54.91582873985323
 30
0.0
 10
10.96566210432184
 20
55.19311899437977
 30
0.0
 10
10.86725530417482
 20
55.51796623729521
 30
0.0
 10
10.66137285551008
 20
55.86329309976003
 30
0.0
 10
10.38866330313579
 20
56.08505541197653
 30
0.0
 10
10.04071211721578
 20
56.26196513360159
 30
0.0
 10
9.809683795041906
 20
56.36967301487118
 30
0.0
 10
9.629984710019471
 20
56.45880300552889
 30
0.0
  0
SPLINE
  5
13B
330
1F
100
AcDbEntity
  8
Default
100
AcDbSpline
210
0.0
220
0.0
230
1.0
 70
    12
 71
     2
 72
     6
 73
     3
 74
     0
 42
0.0000000001
 43
0.0000000001
 40
0.0
 40
0.0
 40
0.0
 40
0.0946354481923141
 40
0.0946354481923141
 40
0.0946354481923141
 10
2.984397388106686
 20
16.86195863740731
 30
0.0
 41
1.0
 10
2.981564825819278
 20
16.81468224847108
 30
0.0
 41
0.9986245915477411
 10
2.983698438466206
 20
16.76736916299747
 30
0.0
 41
1.0
  0
SPLINE
  5
13C
330
1F
100
AcDbEntity
  8
Default
100
AcDbSpline
210
0.0
220
0.0
230
1.0
 70
    24
 71
     2
 72
     6
 73
     3
 74
     0
 42
0.0000000001
 43
0.0000000001
 40
0.0
 40
0.0
 40
0.0
 40
5.968783170901183
 40
5.968783170901183
 40
5.968783170901183
 10
-2.984385782794504
 20
16.86195863740731
 30
0.0
 10
0.0000058026560907
 20
16.86195863740731
 30
0.0
 10
2.984397388106686
 20
16.86195863740731
 30
0.0
  0
SPLINE
  5
13D
330
1F
100
AcDbEntity
  8
Default
100
AcDbSpline
210
0.0
220
0.0
230
1.0
 70
    24
 71
     2
 72
     6
 73
     3
 74
     0
 42
0.0000000001
 43
0.0000000001
 40
0.0
 40
0.0
 40
0.0
 40
5.968714025165912
 40
5.968714025165912
 40
5.968714025165912
 10
-2.984351209926899
 20
17.11125001451826
 30
0.0
 10
0.0000058026560623
 20
17.11125001451826
 30
0.0
 10
2.984362815239024
 20
17.11125001451826
 30
0.0
  0
SPLINE
  5
13E
330
1F
100
AcDbEntity
  8
Default
100
AcDbSpline
210
0.0
220
0.0
230
1.0
 70
    12
 71
     2
 72
     6
 73
     3
 74
     0
 42
0.0000000001
 43
0.0000000001
 40
0.0
 40
0.0
 40
0.0
 40
0.087805145337338
 40
0.087805145337338
 40
0.087805145337338
 10
9.341990712312963
 20
0.0123988868920293
 30
0.0
 41
1.0
 10
9.39502570603759
 20
0.0206038501108074
 30
0.0
 41
0.7481728658079281
 10
9.39321858507202
 20
0.0742393448377356
 30
0.0
 41
1.0
  0
SPLINE
  5
13F
330
1F
100
AcDbEntity
  8
Default
100
AcDbSpline
210
0.0
220
0.0
230
1.0
 70
    12
 71
     2
 72
     8
 73
     5
 74
     0
 42
0.0000000001
 43
0.0000000001
 40
0.0
 40
0.0
 40
0.0
 40
0.0865273959107956
 40
0.0865273959107956
 40
0.1959595050328624
 40
0.1959595050328624
 40
0.1959595050328624
 10
8.821422160940983
 20
0.2862284105450925
 30
0.0
 41
1.0
 10
8.864075055154888
 20
0.2935328301135945
 30
0.0
 41
0.999649003387531
 10
8.907054969434398
 20
0.2985677976987233
 30
0.0
 41
1.0
 10
8.961389154594913
 20
0.3050633185050633
 30
0.0
 41
0.9998625323368967
 10
9.015908834741197
 20
0.3097537283329928
 30
0.0
 41
1.0
  0
SPLINE
  5
140
330
1F
100
AcDbEntity
  8
Default
100
AcDbSpline
210
0.0
220
0.0
230
1.0
 70
     8
 71
     3
 72
    25
 73
    21
 74
     0
 42
0.0000000001
 43
0.0000000001
 40
0.0
 40
0.0
 40
0.0
 40
0.0
 40
0.225676332051864
 40
0.2874627964663117
 40
0.4552122300980705
 40
0.7945999475505603
 40
1.24450300310216
 40
1.853065854363438
 40
7.166752973368984
 40
7.678788638541813
 40
8.236178505445821
 40
8.700477794391604
 40
9.239205473178972
 40
9.664488948235604
 40
9.873357892228968
 40
9.904072052146596
 40
9.934526712173962
 40
9.986623583265825
 40
10.04347866325304
 40
11.1086234205342
 40
11.1086234205342
 40
11.1086234205342
 40
11.1086234205342
 10
26.62048325204404
 20
17.25193510623571
 30
0.0
 10
26.55655143118588
 20
17.29192089398781
 30
0.0
 10
26.47601703178469
 20
17.34297603783588
 30
0.0
 10
26.34857898294916
 20
17.42680486963798
 30
0.0
 10
26.24233876280414
 20
17.58861417170822
 30
0.0
 10
26.1137249707084
 20
17.87874822941893
 30
0.0
 10
25.97918060878408
 20
18.32742377318208
 30
0.0
 10
25.56451231861087
 20
20.40950184627359
 30
0.0
 10
25.17100635411026
 20
22.51906022337668
 30
0.0
 10
24.7655338398659
 20
24.60734660181764
 30
0.0
 10
24.64398477807089
 20
25.10438993891732
 30
0.0
 10
24.45852516368996
 20
25.59114079964164
 30
0.0
 10
24.21098800680795
 20
26.00527975505389
 30
0.0
 10
23.87123514516605
 20
26.22612556712707
 30
0.0
 10
23.64278788274163
 20
26.23579877101689
 30
0.0
 10
23.55464949348914
 20
26.22300228656142
 30
0.0
 10
23.51708912731135
 20
26.21725157077452
 30
0.0
 10
23.47122384555018
 20
26.21046457671126
 30
0.0
 10
23.08414326089462
 20
26.15260358081615
 30
0.0
 10
22.71425222975915
 20
26.09731718631834
 30
0.0
 10
22.36310382410329
 20
26.04483806163428
 30
0.0
  0
SPLINE
  5
141
330
1F
100
AcDbEntity
  8
Default
100
AcDbSpline
210
0.0
220
0.0
230
1.0
 70
    12
 71
     2
 72
     8
 73
     5
 74
     0
 42
0.0000000001
 43
0.0000000001
 40
0.0
 40
0.0
 40
0.0
 40
0.0157281795497573
 40
0.0157281795497573
 40
0.0314563590995147
 40
0.0314563590995147
 40
0.0314563590995147
 10
2.16718043165946
 20
16.73317322627024
 30
0.0
 41
1.0
 10
2.167914713288634
 20
16.72490939965763
 30
0.0
 41
0.9236420745565544
 10
2.174283934211928
 20
16.71959310163886
 30
0.0
 41
1.0
 10
2.180653155135272
 20
16.71427680362012
 30
0.0
 41
0.9236420745565544
 10
2.188915135187074
 20
16.7150315786978
 30
0.0
 41
1.0
  0
SPLINE
  5
142
330
1F
100
AcDbEntity
  8
Default
100
AcDbSpline
210
0.0
220
0.0
230
1.0
 70
     8
 71
     3
 72
    12
 73
     8
 74
     0
 42
0.0000000001
 43
0.0000000001
 40
0.0
 40
0.0
 40
0.0
 40
0.0
 40
0.1373078126426722
 40
0.2781262804715172
 40
0.5867740024392379
 40
0.7110093329034793
 40
4.482733614579535
 40
4.482733614579535
 40
4.482733614579535
 40
4.482733614579535
 10
8.962934485645746
 20
18.2490099974555
 30
0.0
 10
8.969533024804036
 20
18.29431741031463
 30
0.0
 10
8.979820118059706
 20
18.38645563944014
 30
0.0
 10
8.990801111164274
 20
18.5818773573058
 30
0.0
 10
8.985013234738688
 20
18.77321570783691
 30
0.0
 10
8.879896596379865
 20
20.17078190151756
 30
0.0
 10
8.785074748156717
 20
21.46599054387269
 30
0.0
 10
8.690971960231934
 20
22.71969815137565
 30
0.0
  0
SPLINE
  5
143
330
1F
100
AcDbEntity
  8
Default
100
AcDbSpline
210
0.0
220
0.0
230
1.0
 70
     8
 71
     3
 72
    11
 73
     7
 74
     0
 42
0.0000000001
 43
0.0000000001
 40
0.0
 40
0.0
 40
0.0
 40
0.0
 40
3.587743490675677
 40
3.744000086238041
 40
3.880557559667364
 40
4.133108700178371
 40
4.133108700178371
 40
4.133108700178371
 40
4.133108700178371
 10
8.092260291228342
 20
22.34627134278414
 30
0.0
 10
8.17801388153805
 20
21.15345211641745
 30
0.0
 10
8.278059702205326
 20
19.90939167466136
 30
0.0
 10
8.366799699964645
 20
18.61895232017127
 30
0.0
 10
8.356815035149054
 20
18.43675913298276
 30
0.0
 10
8.343616108323715
 20
18.3080936159467
 30
0.0
 10
8.323328470482295
 20
18.2259393008902
 30
0.0
  0
SPLINE
  5
144
330
1F
100
AcDbEntity
  8
Default
100
AcDbSpline
210
0.0
220
0.0
230
1.0
 70
    12
 71
     2
 72
     8
 73
     5
 74
     0
 42
0.0000000001
 43
0.0000000001
 40
0.0
 40
0.0
 40
0.0
 40
0.0566914603222361
 40
0.0566914603222361
 40
0.1716138446307484
 40
0.1716138446307484
 40
0.1716138446307484
 10
9.015908835478001
 20
0.3097537283477436
 30
0.0
 41
1.0
 10
9.044148352458137
 20
0.3122106469415997
 30
0.0
 41
0.9999754047794314
 10
9.072419553822385
 20
0.3142712152294251
 30
0.0
 41
1.0
 10
9.12973117733182
 20
0.318473588498466
 30
0.0
 41
0.99988791196177
 10
9.187142929017853
 20
0.320958120390145
 30
0.0
 41
1.0
  0
SPLINE
  5
145
330
1F
100
AcDbEntity
  8
Default
100
AcDbSpline
210
0.0
220
0.0
230
1.0
 70
    12
 71
     2
 72
     6
 73
     3
 74
     0
 42
0.0000000001
 43
0.0000000001
 40
0.0
 40
0.0
 40
0.0
 40
0.0070224917865416
 40
0.0070224917865416
 40
0.0070224917865416
 10
8.782638840377672
 20
0.2780261162579905
 30
0.0
 41
1.0
 10
8.78603240304758
 20
0.2789283099677171
 30
0.0
 41
0.9999164634581956
 10
8.789448152309603
 20
0.2797424832071869
 30
0.0
 41
1.0
  0
SPLINE
  5
146
330
1F
100
AcDbEntity
  8
Default
100
AcDbSpline
210
0.0
220
0.0
230
1.0
 70
    12
 71
     2
 72
     6
 73
     3
 74
     0
 42
0.0000000001
 43
0.0000000001
 40
1.227185181501445
 40
1.227185181501445
 40
1.227185181501445
 40
1.472621556370215
 40
1.472621556370215
 40
1.472621556370215
 10
9.29280216363858
 20
0.3233373001006117
 30
0.0
 41
0.8535533905940124
 10
9.38408704969442
 20
0.3229889685765596
 30
0.0
 41
0.8535537194775102
 10
9.384087049694415
 20
0.3130820206691283
 30
0.0
 41
1.0
  0
SPLINE
  5
147
330
1F
100
AcDbEntity
  8
Default
100
AcDbSpline
210
0.0
220
0.0
230
1.0
 70
    12
 71
     2
 72
     6
 73
     3
 74
     0
 42
0.0000000001
 43
0.0000000001
 40
0.0
 40
0.0
 40
0.0
 40
0.1681425763085652
 40
0.1681425763085652
 40
0.1681425763085652
 10
2.960797784396846
 20
17.02636664519
 30
0.0
 41
1.0
 10
2.949765025473331
 20
16.94088518910322
 30
0.0
 41
0.9635236063237247
 10
2.984397388106686
 20
16.86195863740731
 30
0.0
 41
1.0
  0
SPLINE
  5
148
330
1F
100
AcDbEntity
  8
Default
100
AcDbSpline
210
0.0
220
0.0
230
1.0
 70
    12
 71
     2
 72
     6
 73
     3
 74
     0
 42
0.0000000001
 43
0.0000000001
 40
0.0
 40
0.0
 40
0.0
 40
0.0736943626177064
 40
0.0736943626177064
 40
0.0736943626177064
 10
8.781927534402428
 20
0.0730599744244671
 30
0.0
 41
1.0
 10
8.787894994385649
 20
0.0312923429479056
 30
0.0
 41
0.8203839743037172
 10
8.829147005207687
 20
0.0224369930986228
 30
0.0
 41
1.0
  0
SPLINE
  5
149
330
1F
100
AcDbEntity
  8
Default
100
AcDbSpline
210
0.0
220
0.0
230
1.0
 70
     8
 71
     3
 72
    14
 73
    10
 74
     0
 42
0.0000000001
 43
0.0000000001
 40
-0.8374295857247448
 40
-0.8374295857247448
 40
-0.8374295857247448
 40
-0.8374295857247448
 40
-0.7274220361456937
 40
-0.6372794404184438
 40
-0.4738384244214352
 40
-0.3645863331847782
 40
-0.2299449189314662
 40
-0.1161908339470222
 40
0.0
 40
0.0
 40
0.0
 40
0.0
 10
-8.888321221988349
 20
18.25242547242706
 30
0.0
 10
-8.925810022519158
 20
18.25337617826091
 30
0.0
 10
-8.990479954165096
 20
18.24921697247491
 30
0.0
 10
-9.108639828305627
 20
18.20120233356661
 30
0.0
 10
-9.159356620029428
 20
18.07461465527751
 30
0.0
 10
-9.090714228355296
 20
17.94791890006366
 30
0.0
 10
-9.0221572060874
 20
17.85557236681059
 30
0.0
 10
-8.92009652892699
 20
17.78064293247336
 30
0.0
 10
-8.849653623299105
 20
17.75510294828581
 30
0.0
 10
-8.811234294785265
 20
17.74584647103053
 30
0.0
  0
SPLINE
  5
14A
330
1F
100
AcDbEntity
  8
Default
100
AcDbSpline
210
0.0
220
0.0
230
1.0
 70
     8
 71
     3
 72
    13
 73
     9
 74
     0
 42
0.0000000001
 43
0.0000000001
 40
-8.861262125747075
 40
-8.861262125747075
 40
-8.861262125747075
 40
-8.861262125747075
 40
-5.677803037633782
 40
-4.243489098376452
 40
-2.419506828332375
 40
-1.093724828211938
 40
-0.2177712625166635
 40
0.0
 40
0.0
 40
0.0
 40
0.0
 10
0.0000058025185581
 20
17.70647783537207
 30
0.0
 10
-1.061194532728337
 20
17.70555094089954
 30
0.0
 10
-2.600281817684959
 20
17.75677486153812
 30
0.0
 10
-4.741833774054442
 20
17.91451014490933
 30
0.0
 10
-6.264210410877695
 20
18.04579508890129
 30
0.0
 10
-7.602265656385214
 20
18.14773402039722
 30
0.0
 10
-8.405724768663276
 20
18.21772795063779
 30
0.0
 10
-8.815703253435913
 20
18.25058390040111
 30
0.0
 10
-8.888321221988349
 20
18.25242547242706
 30
0.0
  0
SPLINE
  5
14B
330
1F
100
AcDbEntity
  8
Default
100
AcDbSpline
210
0.0
220
0.0
230
1.0
 70
     8
 71
     3
 72
    13
 73
     9
 74
     0
 42
0.0000000001
 43
0.0000000001
 40
0.0
 40
0.0
 40
0.0
 40
0.0
 40
0.2177712625166635
 40
1.093724828211938
 40
2.419506828332375
 40
4.243489098376452
 40
5.677803037633782
 40
8.861262125747075
 40
8.861262125747075
 40
8.861262125747075
 40
8.861262125747075
 10
8.888332827025465
 20
18.25242547242706
 30
0.0
 10
8.81571485847303
 20
18.25058390040111
 30
0.0
 10
8.405736373700393
 20
18.21772795063779
 30
0.0
 10
7.60227726142233
 20
18.14773402039722
 30
0.0
 10
6.264222015914811
 20
18.04579508890129
 30
0.0
 10
4.741845379091558
 20
17.91451014490933
 30
0.0
 10
2.600293422722075
 20
17.75677486153812
 30
0.0
 10
1.061206137765453
 20
17.70555094089954
 30
0.0
 10
0.0000058025185581
 20
17.70647783537207
 30
0.0
  0
SPLINE
  5
14C
330
1F
100
AcDbEntity
  8
Default
100
AcDbSpline
210
0.0
220
0.0
230
1.0
 70
     8
 71
     3
 72
    14
 73
    10
 74
     0
 42
0.0000000001
 43
0.0000000001
 40
0.0
 40
0.0
 40
0.0
 40
0.0
 40
0.1161908339470222
 40
0.2299449189314662
 40
0.3645863331847782
 40
0.4738384244214352
 40
0.6372794404184438
 40
0.7274220361456937
 40
0.8374295857247448
 40
0.8374295857247448
 40
0.8374295857247448
 40
0.8374295857247448
 10
8.811245899822381
 20
17.74584647103053
 30
0.0
 10
8.849665228336221
 20
17.75510294828581
 30
0.0
 10
8.920108133964106
 20
17.78064293247336
 30
0.0
 10
9.022168811124516
 20
17.85557236681059
 30
0.0
 10
9.090725833392412
 20
17.94791890006366
 30
0.0
 10
9.159368225066544
 20
18.07461465527751
 30
0.0
 10
9.108651433342743
 20
18.20120233356661
 30
0.0
 10
8.990491559202212
 20
18.24921697247491
 30
0.0
 10
8.925821627556275
 20
18.25337617826091
 30
0.0
 10
8.888332827025465
 20
18.25242547242706
 30
0.0
  0
SPLINE
  5
14D
330
1F
100
AcDbEntity
  8
Default
100
AcDbSpline
210
0.0
220
0.0
230
1.0
 70
     8
 71
     3
 72
    31
 73
    27
 74
     0
 42
0.0000000001
 43
0.0000000001
 40
0.0
 40
0.0
 40
0.0
 40
0.0
 40
2.364605507932291
 40
4.911953655743885
 40
5.635382817889567
 40
6.137546518342351
 40
6.380058275715212
 40
6.785074279102626
 40
8.23549045527215
 40
9.69747020167121
 40
10.55340259107851
 40
11.73348801649626
 40
15.14373505908171
 40
17.26311115025684
 40
18.40594879722737
 40
19.11693456868773
 40
20.68708250171337
 40
21.1160235528481
 40
21.49350672887176
 40
22.32884434826385
 40
23.19560550745802
 40
24.12696399065039
 40
24.66370108075716
 40
25.60763521064326
 40
27.65092259298961
 40
30.94196547504031
 40
30.94196547504031
 40
30.94196547504031
 40
30.94196547504031
 10
0.0000052619686812
 20
57.20872170100219
 30
0.0
 10
0.7884923457172022
 20
57.20830301060661
 30
0.0
 10
2.423314814486162
 20
57.04396625766682
 30
0.0
 10
4.244705759525857
 20
56.56316948806543
 30
0.0
 10
5.427626579912555
 20
56.13608452706345
 30
0.0
 10
5.883649279019778
 20
55.95829266296343
 30
0.0
 10
6.236040629692923
 20
55.80753936128363
 30
0.0
 10
6.855171720397038
 20
55.47814507103445
 30
0.0
 10
7.66710323565411
 20
54.69252586112273
 30
0.0
 10
8.1739794878618
 20
53.52192574774061
 30
0.0
 10
8.445873485401933
 20
52.39152470470653
 30
0.0
 10
8.738963757705676
 20
50.59658132281574
 30
0.0
 10
8.944005168118679
 20
48.37011082630433
 30
0.0
 10
9.073843906017714
 20
46.14860258311505
 30
0.0
 10
9.12352813878465
 20
44.82557619055852
 30
0.0
 10
9.149656713030595
 20
43.68433717170213
 30
0.0
 10
9.10812672378512
 20
42.7805991729776
 30
0.0
 10
9.007875738518237
 20
41.99434340241122
 30
0.0
 10
8.838093459605204
 20
41.47088908072945
 30
0.0
 10
8.455828262330783
 20
40.87753236523359
 30
0.0
 10
7.694487132229824
 20
40.39822627191081
 30
0.0
 10
6.93935107166709
 20
40.20488960203174
 30
0.0
 10
6.138585372759962
 20
40.11320998286342
 30
0.0
 10
4.96778297294486
 20
40.02483457921376
 30
0.0
 10
2.87519526917373
 20
39.96365956133995
 30
0.0
 10
1.097014463017786
 20
39.9748239783669
 30
0.0
 10
0.0000032142548321
 20
39.9744439593622
 30
0.0
  0
SPLINE
  5
14E
330
1F
100
AcDbEntity
  8
Default
100
AcDbSpline
210
0.0
220
0.0
230
1.0
 70
     8
 71
     3
 72
    32
 73
    28
 74
     0
 42
0.0000000001
 43
0.0000000001
 40
0.0
 40
0.0
 40
0.0
 40
0.0
 40
3.291041866247717
 40
5.321677655942721
 40
6.252293441543425
 40
6.808507508404804
 40
7.744687150548834
 40
8.614761098472162
 40
9.448533176809404
 40
9.826131586580717
 40
10.25506031634782
 40
10.90571382113481
 40
11.82502996480377
 40
12.53601570528745
 40
13.67885330155955
 40
15.79822930543286
 40
19.20847620201651
 40
20.398282665259
 40
21.24156156983125
 40
22.7063976347603
 40
24.14888018969998
 40
24.54904522483389
 40
24.79804002638903
 40
25.29361597617704
 40
26.030009820122
 40
28.5902760665256
 40
30.94196313195313
 40
30.94196313195313
 40
30.94196313195313
 40
30.94196313195313
 10
0.0000032142548321
 20
39.9744439593622
 30
0.0
 10
-1.097002703687849
 20
39.97483775367071
 30
0.0
 10
-2.87097230586437
 20
39.96365439720076
 30
0.0
 10
-4.954695234242251
 20
40.02390375971616
 30
0.0
 10
-6.124106836613294
 20
40.1129024747308
 30
0.0
 10
-6.926767212910761
 20
40.20117709612501
 30
0.0
 10
-7.695533654054827
 20
40.39822152729859
 30
0.0
 10
-8.45241823837
 20
40.87643556258153
 30
0.0
 10
-8.841885031753804
 20
41.47206017438877
 30
0.0
 10
-9.003579107069982
 20
41.99449187821534
 30
0.0
 10
-9.07583001167734
 20
42.47631221086039
 30
0.0
 10
-9.119122722827854
 20
43.14099401463245
 30
0.0
 10
-9.147753902948864
 20
43.90113154360073
 30
0.0
 10
-9.122341811965782
 20
44.82556583880022
 30
0.0
 10
-9.073692826160311
 20
46.14889293047831
 30
0.0
 10
-8.944373325304184
 20
48.36938152046712
 30
0.0
 10
-8.738493203755127
 20
50.60088476616643
 30
0.0
 10
-8.44532309432509
 20
52.39260969699775
 30
0.0
 10
-8.174147035029819
 20
53.52619224860028
 30
0.0
 10
-7.667349543187981
 20
54.68663540260073
 30
0.0
 10
-6.861918151898351
 20
55.47568695454751
 30
0.0
 10
-6.243765610168055
 20
55.80302955272222
 30
0.0
 10
-5.893865719348412
 20
55.95462450876985
 30
0.0
 10
-5.433563021661314
 20
56.13371245571827
 30
0.0
 10
-4.244868585284223
 20
56.56357689202295
 30
0.0
 10
-2.419046141193519
 20
57.04482029076397
 30
0.0
 10
-0.7841707576901058
 20
57.20832294910295
 30
0.0
 10
0.0000052619686812
 20
57.20872170100219
 30
0.0
  0
SPLINE
  5
14F
330
1F
100
AcDbEntity
  8
Default
100
AcDbSpline
210
0.0
220
0.0
230
1.0
 70
    12
 71
     2
 72
     6
 73
     3
 74
     0
 42
0.0000000001
 43
0.0000000001
 40
0.0
 40
0.0
 40
0.0
 40
0.0100305442270566
 40
0.0100305442270566
 40
0.0100305442270566
 10
8.81155637021476
 20
0.2844182606981889
 30
0.0
 41
1.0
 10
8.816483526399804
 20
0.2853546156305425
 30
0.0
 41
0.9999798957634295
 10
8.821422160945247
 20
0.2862284104911055
 30
0.0
 41
1.0
  0
SPLINE
  5
150
330
1F
100
AcDbEntity
  8
Default
100
AcDbSpline
210
0.0
220
0.0
230
1.0
 70
    12
 71
     2
 72
     6
 73
     3
 74
     0
 42
0.0000000001
 43
0.0000000001
 40
0.0
 40
0.0
 40
0.0
 40
0.1815636899419913
 40
0.1815636899419913
 40
0.1815636899419913
 10
30.57742772981499
 20
17.01655200212144
 30
0.0
 41
1.0
 10
30.58468253082525
 20
16.92605897939307
 30
0.0
 41
0.999974890482439
 10
30.59321912760214
 20
16.83567786512857
 30
0.0
 41
1.0
  0
SPLINE
  5
151
330
1F
100
AcDbEntity
  8
Default
100
AcDbSpline
210
0.0
220
0.0
230
1.0
 70
    12
 71
     3
 72
     8
 73
     4
 74
     0
 42
0.0000000001
 43
0.0000000001
 40
-1.0
 40
-1.0
 40
-1.0
 40
-1.0
 40
0.0
 40
0.0
 40
0.0
 40
0.0
 10
30.69391925377283
 20
17.04186601763296
 30
0.0
 41
1.0
 10
30.61492564932797
 20
17.03881694013761
 30
0.0
 41
1.0
 10
30.57669509091784
 20
17.0256511985033
 30
0.0
 41
1.0
 10
30.57742772981499
 20
17.01655200212144
 30
0.0
 41
1.0
  0
SPLINE
  5
152
330
1F
100
AcDbEntity
  8
Default
100
AcDbSpline
210
0.0
220
0.0
230
1.0
 70
    12
 71
     2
 72
     6
 73
     3
 74
     0
 42
0.0000000001
 43
0.0000000001
 40
0.0
 40
0.0
 40
0.0
 40
0.4298648845069515
 40
0.4298648845069515
 40
0.4298648845069515
 10
31.12336883949109
 20
17.06071389279579
 30
0.0
 41
1.0
 10
30.90869252420446
 20
17.05018539179536
 30
0.0
 41
0.9999867694373781
 10
30.69391925377283
 20
17.04186601763296
 30
0.0
 41
1.0
  0
SPLINE
  5
153
330
1F
100
AcDbEntity
  8
Default
100
AcDbSpline
210
0.0
220
0.0
230
1.0
 70
    12
 71
     3
 72
     8
 73
     4
 74
     0
 42
0.0000000001
 43
0.0000000001
 40
-1.0
 40
-1.0
 40
-1.0
 40
-1.0
 40
0.0
 40
0.0
 40
0.0
 40
0.0
 10
31.24309498204707
 20
17.04663761228882
 30
0.0
 41
1.0
 10
31.24237995745261
 20
17.05521554039153
 30
0.0
 41
1.0
 10
31.2031923704476
 20
17.0646139540886
 30
0.0
 41
1.0
 10
31.12336883949109
 20
17.06071389279579
 30
0.0
 41
1.0
  0
SPLINE
  5
154
330
1F
100
AcDbEntity
  8
Default
100
AcDbSpline
210
0.0
220
0.0
230
1.0
 70
    12
 71
     2
 72
     6
 73
     3
 74
     0
 42
0.0000000001
 43
0.0000000001
 40
0.0
 40
0.0
 40
0.0
 40
0.1611281282430116
 40
0.1611281282430116
 40
0.1611281282430116
 10
31.25727965336142
 20
16.88613625526705
 30
0.0
 41
1.0
 10
31.24965329313547
 20
16.96633973814593
 30
0.0
 41
0.9999778598463183
 10
31.24309498204707
 20
17.04663761228882
 30
0.0
 41
1.0
  0
SPLINE
  5
155
330
1F
100
AcDbEntity
  8
Default
100
AcDbSpline
210
0.0
220
0.0
230
1.0
 70
     8
 71
     3
 72
    25
 73
    21
 74
     0
 42
0.0000000001
 43
0.0000000001
 40
0.0
 40
0.0
 40
0.0
 40
0.0
 40
0.2569404371425227
 40
0.3755143624123486
 40
0.4963764790882619
 40
0.7660246917631095
 40
1.186325858599667
 40
1.61980149343223
 40
1.942655166559482
 40
2.336124716317286
 40
2.701716283884646
 40
3.679848277180691
 40
6.460949456332019
 40
7.87275282658717
 40
8.840530011301157
 40
10.09761166210939
 40
10.89912098527104
 40
11.15231333637175
 40
11.20232242882755
 40
11.20860264864851
 40
11.20860264864851
 40
11.20860264864851
 40
11.20860264864851
 10
8.035725152836449
 20
17.31101523172195
 30
0.0
 10
8.121357255339717
 20
17.31260252245221
 30
0.0
 10
8.246563099111995
 20
17.31410337752659
 30
0.0
 10
8.411911783819676
 20
17.31664113980099
 30
0.0
 10
8.581562493352862
 20
17.32770694080457
 30
0.0
 10
8.8470782751196
 20
17.38056828374572
 30
0.0
 10
9.195015974119428
 20
17.53096288083393
 30
0.0
 10
9.488522448429933
 20
17.79938956537367
 30
0.0
 10
9.681823677958278
 20
18.13534876987258
 30
0.0
 10
9.75986867135532
 20
18.49008931452376
 30
0.0
 10
9.84932885944255
 20
19.06123444096927
 30
0.0
 10
10.084661942965
 20
20.41657351154231
 30
0.0
 10
10.37551984346419
 20
22.11501227428842
 30
0.0
 10
10.66439616006534
 20
23.81109237636549
 30
0.0
 10
10.86781075829765
 20
25.00599508074684
 30
0.0
 10
11.03873213767883
 20
26.00027478695009
 30
0.0
 10
11.16341519506159
 20
26.76068388939544
 30
0.0
 10
11.2167250270079
 20
27.12508440443112
 30
0.0
 10
11.22954537808289
 20
27.22743878199711
 30
0.0
 10
11.23090215769707
 20
27.24616673557135
 30
0.0
 10
11.23099016147069
 20
27.24825829158495
 30
0.0
  0
LINE
  5
156
330
1F
100
AcDbEntity
  8
Default
100
AcDbLine
 10
8.014854903569812
 20
17.31062837735038
 30
0.0
 11
8.035725152836449
 21
17.31101523172195
 31
0.0
  0
LINE
  5
157
330
1F
100
AcDbEntity
  8
Default
100
AcDbLine
 10
-3.273466438009109
 20
16.63639737519487
 30
0.0
 11
-5.589645528849701
 21
16.66077351084427
 31
0.0
  0
SPLINE
  5
158
330
1F
100
AcDbEntity
  8
Default
100
AcDbSpline
210
0.0
220
0.0
230
1.0
 70
    24
 71
     2
 72
     6
 73
     3
 74
     0
 42
0.0000000001
 43
0.0000000001
 40
0.0
 40
0.0
 40
0.0
 40
0.1935072007122365
 40
0.1935072007122365
 40
0.1935072007122365
 10
-8.760751117521409
 20
0.2674282262325676
 30
0.0
 10
-8.771202551905048
 20
0.1712407701834735
 30
0.0
 10
-8.781653986288688
 20
0.0750533141343794
 30
0.0
  0
SPLINE
  5
159
330
1F
100
AcDbEntity
  8
Default
100
AcDbSpline
210
0.0
220
0.0
230
1.0
 70
    12
 71
     2
 72
     6
 73
     3
 74
     0
 42
0.0000000001
 43
0.0000000001
 40
0.0
 40
0.0
 40
0.0
 40
3.654049383226059
 40
3.654049383226059
 40
3.654049383226059
 10
-9.804769126157396
 20
61.20560903136433
 30
0.0
 41
1.0
 10
-9.355395404264458
 20
59.43471025249924
 30
0.0
 41
0.9999999992927662
 10
-8.906154888562469
 20
57.66377767728423
 30
0.0
 41
1.0
  0
SPLINE
  5
15A
330
1F
100
AcDbEntity
  8
Default
100
AcDbSpline
210
0.0
220
0.0
230
1.0
 70
    12
 71
     2
 72
     8
 73
     5
 74
     0
 42
0.0000000001
 43
0.0000000001
 40
-3.141592653589793
 40
-3.141592653589793
 40
-3.141592653589793
 40
-1.570796326794897
 40
-1.570796326794897
 40
0.0
 40
0.0
 40
0.0
 10
-10.40970725971954
 20
61.04848699011947
 30
0.0
 41
1.0
 10
-10.48343410217175
 20
61.33234390868508
 30
0.0
 41
0.7071067811865475
 10
-10.18096503539073
 20
61.41090492930752
 30
0.0
 41
1.0
 10
-9.878495968609666
 20
61.48946594992994
 30
0.0
 41
0.7071067811865475
 10
-9.804769126157396
 20
61.20560903136433
 30
0.0
 41
1.0
  0
SPLINE
  5
15B
330
1F
100
AcDbEntity
  8
Default
100
AcDbSpline
210
0.0
220
0.0
230
1.0
 70
    12
 71
     2
 72
     6
 73
     3
 74
     0
 42
0.0000000001
 43
0.0000000001
 40
0.3513254019723509
 40
0.3513254019723509
 40
0.3513254019723509
 40
4.273950401093918
 40
4.273950401093918
 40
4.273950401093918
 10
-9.445102245899726
 20
57.2463133947481
 30
0.0
 41
0.9999999999671727
 10
-9.927368356841455
 20
59.1474094260296
 30
0.0
 41
0.9999999998003243
 10
-10.40970725971954
 20
61.04848699011947
 30
0.0
 41
1.0
  0
SPLINE
  5
15C
330
1F
100
AcDbEntity
  8
Default
100
AcDbSpline
210
0.0
220
0.0
230
1.0
 70
    12
 71
     2
 72
     6
 73
     3
 74
     0
 42
0.0000000001
 43
0.0000000001
 40
0.0
 40
0.0
 40
0.0
 40
0.0736943626177064
 40
0.0736943626177064
 40
0.0736943626177064
 10
-8.781915929365312
 20
0.0730599744244671
 30
0.0
 41
1.0
 10
-8.787883389348536
 20
0.0312923429479056
 30
0.0
 41
0.8203839743037172
 10
-8.829135400170571
 20
0.0224369930986228
 30
0.0
 41
1.0
  0
ARC
  5
15D
330
1F
100
AcDbEntity
  8
Default
100
AcDbCircle
 10
-16.35460824832205
 20
16.66732868371354
 30
0.0
 40
19.31231326388356
100
AcDbArc
 50
359.4906569541056
 51
0.296801465481735
  0
SPLINE
  5
15E
330
1F
100
AcDbEntity
  8
Default
100
AcDbSpline
210
0.0
220
0.0
230
1.0
 70
    12
 71
     2
 72
    12
 73
     9
 74
     0
 42
0.0000000001
 43
0.0000000001
 40
-0.8832392966188353
 40
-0.8832392966188353
 40
-0.8832392966188353
 40
-0.7574486392288217
 40
-0.7574486392288217
 40
-0.5049657594858811
 40
-0.5049657594858811
 40
-0.2524828797429405
 40
-0.2524828797429405
 40
-0.0219017892552614
 40
-0.0219017892552614
 40
-0.0219017892552614
 10
3.582208609748529
 20
16.4909092756133
 30
0.0
 41
0.9618248396211013
 10
3.567313101563328
 20
16.4289652551746
 30
0.0
 41
0.9619606703233023
 10
3.529888764517807
 20
16.37740599966297
 30
0.0
 41
1.0
 10
3.451656094202223
 20
16.26962537997533
 30
0.0
 41
0.9236487057183772
 10
3.320099744221977
 20
16.2488903983056
 30
0.0
 41
1.0
 10
3.188543394241716
 20
16.22815541663587
 30
0.0
 41
0.9236487057183772
 10
3.080951703766345
 20
16.30664771451032
 30
0.0
 41
1.0
 10
2.983392682971576
 20
16.37782079197316
 30
0.0
 41
0.9302718476851716
 10
2.956941923493896
 20
16.49565001931962
 30
0.0
 41
0.9879027734576459
  0
ARC
  5
15F
330
1F
100
AcDbEntity
  8
Default
100
AcDbCircle
 10
16.35461985335917
 20
16.66732868371354
 30
0.0
 40
19.31231326388356
100
AcDbArc
 50
179.7031985345183
 51
180.5093430458943
  0
SPLINE
  5
160
330
1F
100
AcDbEntity
  8
Default
100
AcDbSpline
210
0.0
220
0.0
230
1.0
 70
    12
 71
     2
 72
    12
 73
     9
 74
     0
 42
0.0000000001
 43
0.0000000001
 40
-0.8832392966188353
 40
-0.8832392966188353
 40
-0.8832392966188353
 40
-0.7574486392288217
 40
-0.7574486392288217
 40
-0.5049657594858811
 40
-0.5049657594858811
 40
-0.2524828797429405
 40
-0.2524828797429405
 40
-0.0219017892552614
 40
-0.0219017892552614
 40
-0.0219017892552614
 10
-3.582197004711441
 20
16.4909092756133
 30
0.0
 41
0.9618248396211013
 10
-3.567301496526182
 20
16.4289652551746
 30
0.0
 41
0.9619606703233023
 10
-3.529877159480691
 20
16.37740599966297
 30
0.0
 41
1.0
 10
-3.451644489165114
 20
16.26962537997533
 30
0.0
 41
0.9236487057183772
 10
-3.320088139184861
 20
16.2488903983056
 30
0.0
 41
1.0
 10
-3.188531789204607
 20
16.22815541663587
 30
0.0
 41
0.9236487057183772
 10
-3.080940098729229
 20
16.30664771451032
 30
0.0
 41
1.0
 10
-2.983381077934456
 20
16.37782079197316
 30
0.0
 41
0.9302718476851716
 10
-2.95693031845678
 20
16.49565001931962
 30
0.0
 41
0.9879027734576459
  0
SPLINE
  5
161
330
1F
100
AcDbEntity
  8
Default
100
AcDbSpline
210
0.0
220
0.0
230
1.0
 70
     8
 71
     3
 72
    23
 73
    19
 74
     0
 42
0.0000000001
 43
0.0000000001
 40
0.0
 40
0.0
 40
0.0
 40
0.0
 40
0.6016112212411064
 40
0.7651517285122535
 40
1.162814379304571
 40
1.635503041923933
 40
1.967138085488069
 40
2.185282072618011
 40
2.50111650642436
 40
2.559039485083851
 40
6.265759787386938
 40
9.402176134657699
 40
9.699976590420055
 40
10.00176886240196
 40
10.88662058575995
 40
11.20286428711352
 40
11.32404580566024
 40
11.40304351153683
 40
11.40304351153683
 40
11.40304351153683
 40
11.40304351153683
 10
-9.630317158999674
 20
56.45880287883227
 30
0.0
 10
-9.810000478934285
 20
56.36964231501642
 30
0.0
 10
-10.04112312364862
 20
56.26199709932266
 30
0.0
 10
-10.38682737547066
 20
56.08622898777088
 30
0.0
 10
-10.65789745447864
 20
55.86577754592949
 30
0.0
 10
-10.86959893703181
 20
55.5190041895263
 30
0.0
 10
-10.96560440335122
 20
55.19030381766697
 30
0.0
 10
-11.01667815371309
 20
54.90651308723136
 30
0.0
 10
-11.03336558197685
 20
54.7093876501898
 30
0.0
 10
-11.07045850481393
 20
53.34981823310913
 30
0.0
 10
-11.12876995269534
 20
51.05009640466108
 30
0.0
 10
-11.19242258679003
 20
48.67070534290632
 30
0.0
 10
-11.22485445810736
 20
47.42576539205663
 30
0.0
 10
-11.23546106529943
 20
46.93116231614185
 30
0.0
 10
-11.22531429047638
 20
46.42961994312009
 30
0.0
 10
-11.17139392250152
 20
45.99163748539303
 30
0.0
 10
-11.13087255933146
 20
45.82412787082734
 30
0.0
 10
-11.10887567378194
 20
45.76089929675733
 30
0.0
 10
-11.09604715703551
 20
45.73782967135243
 30
0.0
  0
SPLINE
  5
162
330
1F
100
AcDbEntity
  8
Default
100
AcDbSpline
210
0.0
220
0.0
230
1.0
 70
    12
 71
     2
 72
     6
 73
     3
 74
     0
 42
0.0000000001
 43
0.0000000001
 40
0.0
 40
0.0
 40
0.0
 40
0.049839079307476
 40
0.049839079307476
 40
0.049839079307476
 10
-9.242955716951144
 20
0.3228097316351892
 30
0.0
 41
1.0
 10
-9.26786965813743
 20
0.3234022073947161
 30
0.0
 41
0.9999130070347984
 10
-9.292790558602746
 20
0.3233373001308166
 30
0.0
 41
1.0
  0
SPLINE
  5
163
330
1F
100
AcDbEntity
  8
Default
100
AcDbSpline
210
0.0
220
0.0
230
1.0
 70
    12
 71
     2
 72
     6
 73
     3
 74
     0
 42
0.0000000001
 43
0.0000000001
 40
1.227185181501445
 40
1.227185181501445
 40
1.227185181501445
 40
1.472621556370215
 40
1.472621556370215
 40
1.472621556370215
 10
-9.292790558601494
 20
0.3233373001006117
 30
0.0
 41
0.8535533905940124
 10
-9.384075444657302
 20
0.3229889685765596
 30
0.0
 41
0.8535537194775102
 10
-9.384075444657299
 20
0.3130820206691283
 30
0.0
 41
1.0
  0
SPLINE
  5
164
330
1F
100
AcDbEntity
  8
Default
100
AcDbSpline
210
0.0
220
0.0
230
1.0
 70
    24
 71
     2
 72
     6
 73
     3
 74
     0
 42
0.0000000001
 43
0.0000000001
 40
0.0
 40
0.0
 40
0.0
 40
5.967385271620284
 40
5.967385271620284
 40
5.967385271620284
 10
2.983698438191198
 20
16.76736916299747
 30
0.0
 10
0.0000058023810539
 20
16.76736916299747
 30
0.0
 10
-2.98368683342909
 20
16.76736916299747
 30
0.0
  0
POLYLINE
  5
165
330
1F
100
AcDbEntity
  8
Default
100
AcDb2dPolyline
 66
     1
 10
0.0
 20
0.0
 30
0.0
  0
VERTEX
  5
166
330
165
100
AcDbEntity
  8
Default
100
AcDbVertex
100
AcDb2dVertex
 10
10.42864762726674
 20
61.14702012124545
 30
0.0
  0
VERTEX
  5
167
330
165
100
AcDbEntity
  8
Default
100
AcDbVertex
100
AcDb2dVertex
 10
10.4097183215282
 20
61.04848699011947
 30
0.0
  0
SEQEND
  5
168
330
165
100
AcDbEntity
  8
Default
  0
SPLINE
  5
169
330
1F
100
AcDbEntity
  8
Default
100
AcDbSpline
210
0.0
220
0.0
230
1.0
 70
    12
 71
     2
 72
     8
 73
     5
 74
     0
 42
0.0000000001
 43
0.0000000001
 40
0.0547772198907966
 40
0.0547772198907966
 40
0.0547772198907966
 40
1.570796326794897
 40
1.570796326794897
 40
3.041946464467495
 40
3.041946464467495
 40
3.041946464467495
 10
9.838141220634299
 20
61.30333892488715
 30
0.0
 41
0.9802846623166819
 10
9.933605393916412
 20
61.58299763876555
 30
0.0
 41
0.7173206300336504
 10
10.21357157167557
 20
61.50253741119846
 30
0.0
 41
1.0
 10
10.48211954905077
 20
61.42535869073575
 30
0.0
 41
0.7256869704680409
 10
10.4286476272667
 20
61.14702012124547
 30
0.0
 41
0.9651969544960349
  0
POLYLINE
  5
16A
330
1F
100
AcDbEntity
  8
Default
100
AcDb2dPolyline
 66
     1
 10
0.0
 20
0.0
 30
0.0
  0
VERTEX
  5
16B
330
16A
100
AcDbEntity
  8
Default
100
AcDbVertex
100
AcDb2dVertex
 10
9.80478018796606
 20
61.20560903136433
 30
0.0
  0
VERTEX
  5
16C
330
16A
100
AcDbEntity
  8
Default
100
AcDbVertex
100
AcDb2dVertex
 10
9.83814122063427
 20
61.30333892488713
 30
0.0
  0
SEQEND
  5
16D
330
16A
100
AcDbEntity
  8
Default
  0
SPLINE
  5
16E
330
1F
100
AcDbEntity
  8
Default
100
AcDbSpline
210
0.0
220
0.0
230
1.0
 70
    12
 71
     2
 72
     8
 73
     5
 74
     0
 42
0.0000000001
 43
0.0000000001
 40
0.0
 40
0.0
 40
0.0
 40
0.0566914603222361
 40
0.0566914603222361
 40
0.1716138446307484
 40
0.1716138446307484
 40
0.1716138446307484
 10
-9.015897230440885
 20
0.3097537283477436
 30
0.0
 41
1.0
 10
-9.044136747421025
 20
0.3122106469415997
 30
0.0
 41
0.9999754047794314
 10
-9.07240794878527
 20
0.3142712152294251
 30
0.0
 41
1.0
 10
-9.129719572294679
 20
0.318473588498466
 30
0.0
 41
0.99988791196177
 10
-9.187131323980736
 20
0.320958120390145
 30
0.0
 41
1.0
  0
SPLINE
  5
16F
330
1F
100
AcDbEntity
  8
Default
100
AcDbSpline
210
0.0
220
0.0
230
1.0
 70
    12
 71
     2
 72
     6
 73
     3
 74
     0
 42
0.0000000001
 43
0.0000000001
 40
0.0
 40
0.0
 40
0.0
 40
0.6517731304108609
 40
0.6517731304108609
 40
0.6517731304108609
 10
-8.019946801607148
 20
17.71512495479679
 30
0.0
 41
1.0
 10
-7.756327425686917
 20
17.51312428949502
 30
0.0
 41
0.9721112670071763
 10
-7.429601934234313
 20
17.45354327424697
 30
0.0
 41
1.0
  0
POLYLINE
  5
170
330
1F
100
AcDbEntity
  8
Default
100
AcDb2dPolyline
 66
     1
 10
0.0
 20
0.0
 30
0.0
  0
VERTEX
  5
171
330
170
100
AcDbEntity
  8
Default
100
AcDbVertex
100
AcDb2dVertex
 10
7.610720521781616
 20
17.30657668076053
 30
0.0
  0
VERTEX
  5
172
330
170
100
AcDbEntity
  8
Default
100
AcDbVertex
100
AcDb2dVertex
 10
8.014854903569812
 20
17.31062837735038
 30
0.0
  0
SEQEND
  5
173
330
170
100
AcDbEntity
  8
Default
  0
POLYLINE
  5
174
330
1F
100
AcDbEntity
  8
Default
100
AcDb2dPolyline
 66
     1
 10
0.0
 20
0.0
 30
0.0
  0
VERTEX
  5
175
330
174
100
AcDbEntity
  8
Default
100
AcDbVertex
100
AcDb2dVertex
 10
-5.298446026022134
 20
17.63137635568809
 30
0.0
  0
VERTEX
  5
176
330
174
100
AcDbEntity
  8
Default
100
AcDbVertex
100
AcDb2dVertex
 10
-5.797951486697457
 20
17.69381620309991
 30
0.0
  0
VERTEX
  5
177
330
174
100
AcDbEntity
  8
Default
100
AcDbVertex
100
AcDb2dVertex
 10
-6.141499890498096
 20
17.71641353986729
 30
0.0
  0
SEQEND
  5
178
330
174
100
AcDbEntity
  8
Default
  0
SPLINE
  5
179
330
1F
100
AcDbEntity
  8
Default
100
AcDbSpline
210
0.0
220
0.0
230
1.0
 70
    12
 71
     2
 72
     8
 73
     5
 74
     0
 42
0.0000000001
 43
0.0000000001
 40
0.0
 40
0.0
 40
0.0
 40
0.0181757525986144
 40
0.0181757525986144
 40
0.0363515051972287
 40
0.0363515051972287
 40
0.0363515051972287
 10
-5.271517202833593
 20
17.65006921416125
 30
0.0
 41
1.0
 10
-5.273176155099884
 20
17.64031677523617
 30
0.0
 41
0.921082574087552
 10
-5.281103921525528
 20
17.63489297161685
 30
0.0
 41
1.0
 10
-5.289031687951196
 20
17.62946916799753
 30
0.0
 41
0.921082574087552
 10
-5.298446026022134
 20
17.63137635568809
 30
0.0
 41
1.0
  0
SPLINE
  5
17A
330
1F
100
AcDbEntity
  8
Default
100
AcDbSpline
210
0.0
220
0.0
230
1.0
 70
    24
 71
     2
 72
     6
 73
     3
 74
     0
 42
0.0000000001
 43
0.0000000001
 40
0.0
 40
0.0
 40
0.0
 40
0.0716016492920143
 40
0.0716016492920143
 40
0.0716016492920143
 10
-5.265230834201816
 20
17.72186075020124
 30
0.0
 10
-5.268374018517704
 20
17.68596498218125
 30
0.0
 10
-5.271517202833593
 20
17.65006921416125
 30
0.0
  0
SPLINE
  5
17B
330
1F
100
AcDbEntity
  8
Default
100
AcDbSpline
210
0.0
220
0.0
230
1.0
 70
    12
 71
     2
 72
     6
 73
     3
 74
     0
 42
0.0000000001
 43
0.0000000001
 40
0.0
 40
0.0
 40
0.0
 40
0.0239123701587087
 40
0.0239123701587087
 40
0.0239123701587087
 10
-5.250910567638641
 20
17.73942486122482
 30
0.0
 41
1.0
 10
-5.263974673313542
 20
17.73559423246203
 30
0.0
 41
0.8269503824030509
 10
-5.265230834201816
 20
17.72186075020124
 30
0.0
 41
1.0
  0
SPLINE
  5
17C
330
1F
100
AcDbEntity
  8
Default
100
AcDbSpline
210
0.0
220
0.0
230
1.0
 70
    12
 71
     2
 72
     6
 73
     3
 74
     0
 42
0.0000000001
 43
0.0000000001
 40
0.0
 40
0.0
 40
0.0
 40
0.0176125503554034
 40
0.0176125503554034
 40
0.0176125503554034
 10
-6.599712248261824
 20
17.84222555733199
 30
0.0
 41
1.0
 10
-6.60065969547095
 20
17.85170730810085
 30
0.0
 41
0.9033845678394041
 10
-6.608525132072145
 20
17.85691298649967
 30
0.0
 41
1.0
  0
SPLINE
  5
17D
330
1F
100
AcDbEntity
  8
Default
100
AcDbSpline
210
0.0
220
0.0
230
1.0
 70
    24
 71
     2
 72
     6
 73
     3
 74
     0
 42
0.0000000001
 43
0.0000000001
 40
0.0
 40
0.0
 40
0.0
 40
0.0818852206746358
 40
0.0818852206746358
 40
0.0818852206746358
 10
-6.592544665837238
 20
17.76036744273254
 30
0.0
 10
-6.596128457049531
 20
17.80129650003227
 30
0.0
 10
-6.599712248261824
 20
17.84222555733199
 30
0.0
  0
SPLINE
  5
17E
330
1F
100
AcDbEntity
  8
Default
100
AcDbSpline
210
0.0
220
0.0
230
1.0
 70
    12
 71
     2
 72
     6
 73
     3
 74
     0
 42
0.0000000001
 43
0.0000000001
 40
0.0
 40
0.0
 40
0.0
 40
0.0173201738194149
 40
0.0173201738194149
 40
0.0173201738194149
 10
-6.584248091074187
 20
17.74553587046434
 30
0.0
 41
1.0
 10
-6.591634104465376
 20
17.75102194657603
 30
0.0
 41
0.914170376228085
 10
-6.592544665837238
 20
17.76036744273254
 30
0.0
 41
1.0
  0
LINE
  5
17F
330
1F
100
AcDbEntity
  8
Default
100
AcDbLine
 10
39.00235620971745
 20
17.40547256816872
 30
0.0
 11
39.00200164321632
 21
17.72214453133665
 31
0.0
  0
SPLINE
  5
180
330
1F
100
AcDbEntity
  8
Default
100
AcDbSpline
210
0.0
220
0.0
230
1.0
 70
     8
 71
     3
 72
    11
 73
     7
 74
     0
 42
0.0000000001
 43
0.0000000001
 40
0.0
 40
0.0
 40
0.0
 40
0.0
 40
0.0593922039255206
 40
0.1171127626665703
 40
0.24135697363644
 40
0.5204527476717682
 40
0.5204527476717682
 40
0.5204527476717682
 40
0.5204527476717682
 10
39.32200635878218
 20
17.07899172879918
 30
0.0
 10
39.30253688354452
 20
17.07495952127971
 30
0.0
 10
39.26339971478677
 20
17.07267647529197
 30
0.0
 10
39.18363333303989
 20
17.08841082145712
 30
0.0
 10
39.05173101442671
 20
17.17576137787464
 30
0.0
 10
39.00250612406251
 20
17.31288348669361
 30
0.0
 10
39.00235620971745
 20
17.40547256816872
 30
0.0
  0
ARC
  5
181
330
1F
100
AcDbEntity
  8
Default
100
AcDbCircle
 10
39.2723563440519
 20
17.31872634753425
 30
0.0
 40
0.2448219993847798
100
AcDbArc
 50
281.7007704361189
 51
296.7755955130895
  0
SPLINE
  5
182
330
1F
100
AcDbEntity
  8
Default
100
AcDbSpline
210
0.0
220
0.0
230
1.0
 70
    24
 71
     2
 72
     6
 73
     3
 74
     0
 42
0.0000000001
 43
0.0000000001
 40
0.0
 40
0.0
 40
0.0
 40
0.2664064654396106
 40
0.2664064654396106
 40
0.2664064654396106
 10
6.417614688470849
 20
16.85668983718749
 30
0.0
 10
6.456450282861596
 20
16.98995788834247
 30
0.0
 10
6.495285877252343
 20
17.12322593949746
 30
0.0
  0
SPLINE
  5
183
330
1F
100
AcDbEntity
  8
Default
100
AcDbSpline
210
0.0
220
0.0
230
1.0
 70
     8
 71
     3
 72
    11
 73
     7
 74
     0
 42
0.0000000001
 43
0.0000000001
 40
0.0
 40
0.0
 40
0.0
 40
0.0
 40
0.043389342846067
 40
0.0871056934987271
 40
0.1821567820635263
 40
0.4110495498170174
 40
0.4110495498170174
 40
0.4110495498170174
 40
0.4110495498170174
 10
6.164494045546292
 20
16.55729335082424
 30
0.0
 10
6.17867644089273
 20
16.56023935047524
 30
0.0
 10
6.206414161733903
 20
16.56909704405348
 30
0.0
 10
6.260314342853746
 20
16.59771318675128
 30
0.0
 10
6.350947026297547
 20
16.68245486692201
 30
0.0
 10
6.395779876375457
 20
16.78408321120898
 30
0.0
 10
6.417614688470849
 20
16.85668983718749
 30
0.0
  0
LINE
  5
184
330
1F
100
AcDbEntity
  8
Default
100
AcDbLine
 10
5.863128884093499
 20
16.51854866749709
 30
0.0
 11
6.164494045546292
 21
16.55729335082424
 31
0.0
  0
SPLINE
  5
185
330
1F
100
AcDbEntity
  8
Default
100
AcDbSpline
210
0.0
220
0.0
230
1.0
 70
     8
 71
     3
 72
    14
 73
    10
 74
     0
 42
0.0000000001
 43
0.0000000001
 40
-7.0
 40
-7.0
 40
-7.0
 40
-7.0
 40
-6.0
 40
-5.0
 40
-4.0
 40
-3.0
 40
-2.0
 40
-0.9999999999999997
 40
0.0000000000000003
 40
0.0000000000000003
 40
0.0000000000000003
 40
0.0000000000000003
 10
5.532600308483552
 20
16.79588660297604
 30
0.0
 10
5.53901758003542
 20
16.77336273343329
 30
0.0
 10
5.553746073345451
 20
16.73030188577044
 30
0.0
 10
5.583085913026252
 20
16.66862543042264
 30
0.0
 10
5.620673972028726
 20
16.61152817878971
 30
0.0
 10
5.667973389470887
 20
16.56188334690607
 30
0.0
 10
5.727236306853058
 20
16.52641351724884
 30
0.0
 10
5.795085302856307
 20
16.51342072316132
 30
0.0
 10
5.840623111894843
 20
16.51521838509836
 30
0.0
 10
5.863128884093499
 20
16.51854866749709
 30
0.0
  0
LINE
  5
186
330
1F
100
AcDbEntity
  8
Default
100
AcDbLine
 10
5.29478350457299
 20
17.63093940009165
 30
0.0
 11
5.532600308483552
 21
16.79588660297604
 31
0.0
  0
SPLINE
  5
187
330
1F
100
AcDbEntity
  8
Default
100
AcDbSpline
210
0.0
220
0.0
230
1.0
 70
    12
 71
     2
 72
     6
 73
     3
 74
     0
 42
0.0000000001
 43
0.0000000001
 40
0.0
 40
0.0
 40
0.0
 40
0.039938064346221
 40
0.039938064346221
 40
0.039938064346221
 10
9.203048088502953
 20
0.3215951473465708
 30
0.0
 41
1.0
 10
9.223003243608494
 20
0.3223490535418713
 30
0.0
 41
0.9999730226390744
 10
9.242967320486628
 20
0.3228097315648171
 30
0.0
 41
1.0
  0
SPLINE
  5
188
330
1F
100
AcDbEntity
  8
Default
100
AcDbSpline
210
0.0
220
0.0
230
1.0
 70
    12
 71
     2
 72
     6
 73
     3
 74
     0
 42
0.0000000001
 43
0.0000000001
 40
0.0
 40
0.0
 40
0.0
 40
0.0946354481923141
 40
0.0946354481923141
 40
0.0946354481923141
 10
-2.98438578306957
 20
16.86195863740731
 30
0.0
 41
1.0
 10
-2.981553220782151
 20
16.81468224847108
 30
0.0
 41
0.9986245915477411
 10
-2.98368683342909
 20
16.76736916299747
 30
0.0
 41
1.0
  0
SPLINE
  5
189
330
1F
100
AcDbEntity
  8
Default
100
AcDbSpline
210
0.0
220
0.0
230
1.0
 70
    12
 71
     2
 72
     6
 73
     3
 74
     0
 42
0.0000000001
 43
0.0000000001
 40
0.0
 40
0.0
 40
0.0
 40
0.0070224917865416
 40
0.0070224917865416
 40
0.0070224917865416
 10
-8.782627235340556
 20
0.2780261162579905
 30
0.0
 41
1.0
 10
-8.78602079801057
 20
0.2789283099677171
 30
0.0
 41
0.9999164634581956
 10
-8.789436547272487
 20
0.2797424832071869
 30
0.0
 41
1.0
  0
SPLINE
  5
18A
330
1F
100
AcDbEntity
  8
Default
100
AcDbSpline
210
0.0
220
0.0
230
1.0
 70
    12
 71
     2
 72
     6
 73
     3
 74
     0
 42
0.0000000001
 43
0.0000000001
 40
0.0
 40
0.0
 40
0.0
 40
1.141019772778839
 40
1.141019772778839
 40
1.141019772778839
 10
25.5808902540428
 20
17.5474203647109
 30
0.0
 41
1.0
 10
25.02715375401591
 20
17.40903834888029
 30
0.0
 41
0.9993273631349842
 10
24.48504921700123
 20
17.23044281501824
 30
0.0
 41
1.0
  0
SPLINE
  5
18B
330
1F
100
AcDbEntity
  8
Default
100
AcDbSpline
210
0.0
220
0.0
230
1.0
 70
    12
 71
     2
 72
     6
 73
     3
 74
     0
 42
0.0000000001
 43
0.0000000001
 40
0.0
 40
0.0
 40
0.0
 40
0.0247437132115748
 40
0.0247437132115748
 40
0.0247437132115748
 10
8.7607588166033
 20
0.2677833140579082
 30
0.0
 41
1.0
 10
8.769665522229738
 20
0.2772481348649387
 30
0.0
 41
0.929428217816864
 10
8.78263884034402
 20
0.2780261163095048
 30
0.0
 41
1.0
  0
SPLINE
  5
18C
330
1F
100
AcDbEntity
  8
Default
100
AcDbSpline
210
0.0
220
0.0
230
1.0
 70
    24
 71
     2
 72
     6
 73
     3
 74
     0
 42
0.0000000001
 43
0.0000000001
 40
0.0
 40
0.0
 40
0.0
 40
0.0342481899204006
 40
0.0342481899204006
 40
0.0342481899204006
 10
-2.164181328659936
 20
16.76729086641062
 30
0.0
 10
-2.16567507764114
 20
16.75023204634043
 30
0.0
 10
-2.167168826622344
 20
16.73317322627024
 30
0.0
  0
SPLINE
  5
18D
330
1F
100
AcDbEntity
  8
Default
100
AcDbSpline
210
0.0
220
0.0
230
1.0
 70
     8
 71
     3
 72
     8
 73
     4
 74
     0
 42
0.0000000001
 43
0.0000000001
 40
0.0
 40
0.0
 40
0.0
 40
0.0
 40
1.0
 40
1.0
 40
1.0
 40
1.0
 10
-9.341979107275847
 20
0.0123988868920293
 30
0.0
 10
-9.23612611406736
 20
-0.0039774686965472
 30
0.0
 10
-8.968104589430936
 20
-0.0073947839383948
 30
0.0
 10
-8.829135400170571
 20
0.0224369930986228
 30
0.0
  0
SPLINE
  5
18E
330
1F
100
AcDbEntity
  8
Default
100
AcDbSpline
210
0.0
220
0.0
230
1.0
 70
     8
 71
     3
 72
    13
 73
     9
 74
     0
 42
0.0000000001
 43
0.0000000001
 40
0.0
 40
0.0
 40
0.0
 40
0.0
 40
5.854934555442714
 40
6.269726524622611
 40
6.632081989806712
 40
6.892421959202045
 40
6.982855724869562
 40
7.341876405429634
 40
7.341876405429634
 40
7.341876405429634
 40
7.341876405429634
 10
31.22175537802178
 20
16.2566449172167
 30
0.0
 10
33.16720437460316
 20
16.41152196087305
 30
0.0
 10
35.2527502866206
 20
16.55012584885219
 30
0.0
 10
37.4555608806732
 20
16.73596361059359
 30
0.0
 10
37.79762240315864
 20
16.79085833754849
 30
0.0
 10
38.03260528451244
 20
16.82440174852825
 30
0.0
 10
38.26439048762381
 20
16.87351224703026
 30
0.0
 10
38.41127452769757
 20
16.90169339613482
 30
0.0
 10
38.52851637432076
 20
16.9262145859431
 30
0.0
  0
SPLINE
  5
18F
330
1F
100
AcDbEntity
  8
Default
100
AcDbSpline
210
0.0
220
0.0
230
1.0
 70
     8
 71
     3
 72
    10
 73
     6
 74
     0
 42
0.0000000001
 43
0.0000000001
 40
0.0
 40
0.0
 40
0.0
 40
0.0
 40
0.1833191887653105
 40
0.4383738403833364
 40
1.549572870676277
 40
1.549572870676277
 40
1.549572870676277
 40
1.549572870676277
 10
-11.12117523441276
 20
27.08727711222424
 30
0.0
 10
-11.06063969262652
 20
27.07899895276016
 30
0.0
 10
-10.91514408795047
 20
27.06463715732097
 30
0.0
 10
-10.39935318807045
 20
27.03658781030002
 30
0.0
 10
-9.943924241305695
 20
27.02765361756472
 30
0.0
 10
-9.573923459261323
 20
27.01035937729446
 30
0.0
  0
SPLINE
  5
190
330
1F
100
AcDbEntity
  8
Default
100
AcDbSpline
210
0.0
220
0.0
230
1.0
 70
     8
 71
     3
 72
    10
 73
     6
 74
     0
 42
0.0000000001
 43
0.0000000001
 40
0.0
 40
0.0
 40
0.0
 40
0.0
 40
0.2154121773343171
 40
0.6159780757571736
 40
2.087205975174507
 40
2.087205975174507
 40
2.087205975174507
 40
2.087205975174507
 10
-3.407352179119243
 20
16.71349687303551
 30
0.0
 10
-3.476779813481699
 20
16.73183731874506
 30
0.0
 10
-3.678950607453316
 20
16.76851914977199
 30
0.0
 10
-4.367474702928803
 20
16.86823730322688
 30
0.0
 10
-4.987593012056266
 20
16.93852719028213
 30
0.0
 10
-5.473807150915832
 20
17.00228791294387
 30
0.0
  0
SPLINE
  5
191
330
1F
100
AcDbEntity
  8
Default
100
AcDbSpline
210
0.0
220
0.0
230
1.0
 70
    12
 71
     2
 72
     6
 73
     3
 74
     0
 42
0.0000000001
 43
0.0000000001
 40
0.0
 40
0.0
 40
0.0
 40
1.007732929697784
 40
1.007732929697784
 40
1.007732929697784
 10
-6.326923070141447
 20
16.66856111283441
 30
0.0
 41
1.0
 10
-6.830761717372272
 20
16.67385787671007
 30
0.0
 41
0.9999999298343382
 10
-7.334604191616791
 20
16.6787771549276
 30
0.0
 41
1.0
  0
SPLINE
  5
192
330
1F
100
AcDbEntity
  8
Default
100
AcDbSpline
210
0.0
220
0.0
230
1.0
 70
     8
 71
     3
 72
    25
 73
    21
 74
     0
 42
0.0000000001
 43
0.0000000001
 40
0.0
 40
0.0
 40
0.0
 40
0.0
 40
0.2569404371425227
 40
0.3755143624123486
 40
0.4963764790882619
 40
0.7660246917631095
 40
1.186325858599667
 40
1.61980149343223
 40
1.942655166559482
 40
2.336124716317286
 40
2.701716283884646
 40
3.679848277180691
 40
6.460949456332019
 40
7.87275282658717
 40
8.840530011301157
 40
10.09761166210939
 40
10.89912098527104
 40
11.15231333637175
 40
11.20232242882755
 40
11.20860264864851
 40
11.20860264864851
 40
11.20860264864851
 40
11.20860264864851
 10
-8.035713547799332
 20
17.31101523172195
 30
0.0
 10
-8.121345650302601
 20
17.31260252245221
 30
0.0
 10
-8.246551494074879
 20
17.31410337752659
 30
0.0
 10
-8.41190017878256
 20
17.31664113980099
 30
0.0
 10
-8.581550888315746
 20
17.32770694080457
 30
0.0
 10
-8.847066670082484
 20
17.38056828374572
 30
0.0
 10
-9.195004369082312
 20
17.53096288083393
 30
0.0
 10
-9.488510843392817
 20
17.79938956537367
 30
0.0
 10
-9.681812072921161
 20
18.13534876987258
 30
0.0
 10
-9.759857066318204
 20
18.49008931452376
 30
0.0
 10
-9.849317254405435
 20
19.06123444096927
 30
0.0
 10
-10.08465033792788
 20
20.41657351154231
 30
0.0
 10
-10.37550823842707
 20
22.11501227428842
 30
0.0
 10
-10.66438455502822
 20
23.81109237636549
 30
0.0
 10
-10.86779915326053
 20
25.00599508074684
 30
0.0
 10
-11.03872053264172
 20
26.00027478695009
 30
0.0
 10
-11.16340359002447
 20
26.76068388939544
 30
0.0
 10
-11.21671342197078
 20
27.12508440443112
 30
0.0
 10
-11.22953377304577
 20
27.22743878199711
 30
0.0
 10
-11.23089055265996
 20
27.24616673557135
 30
0.0
 10
-11.23097855643357
 20
27.24825829158495
 30
0.0
  0
LINE
  5
193
330
1F
100
AcDbEntity
  8
Default
100
AcDbLine
 10
-8.014843298532696
 20
17.31062837735038
 30
0.0
 11
-8.035713547799332
 21
17.31101523172195
 31
0.0
  0
SPLINE
  5
194
330
1F
100
AcDbEntity
  8
Default
100
AcDbSpline
210
0.0
220
0.0
230
1.0
 70
     8
 71
     3
 72
    12
 73
     8
 74
     0
 42
0.0000000001
 43
0.0000000001
 40
0.0
 40
0.0
 40
0.0
 40
0.0
 40
0.4651335185174335
 40
0.793242102531914
 40
1.335459591468316
 40
1.691142280171575
 40
1.967535870825327
 40
1.967535870825327
 40
1.967535870825327
 40
1.967535870825327
 10
-7.285566901776122
 20
55.01858014165268
 30
0.0
 10
-7.434492714530222
 20
55.06194054320727
 30
0.0
 10
-7.68892548714615
 20
55.13329081071012
 30
0.0
 10
-8.11222989215264
 20
55.27266797483205
 30
0.0
 10
-8.493240870940213
 20
55.41964023149561
 30
0.0
 10
-8.830899898205075
 20
55.62602931797537
 30
0.0
 10
-8.951414022222536
 20
55.8075871724333
 30
0.0
 10
-8.973598235748739
 20
55.89752216282935
 30
0.0
  0
POLYLINE
  5
195
330
1F
100
AcDbEntity
  8
Default
100
AcDb2dPolyline
 66
     1
 10
0.0
 20
0.0
 30
0.0
  0
VERTEX
  5
196
330
195
100
AcDbEntity
  8
Default
100
AcDbVertex
100
AcDb2dVertex
 10
-7.6107089167445
 20
17.30657668076053
 30
0.0
  0
VERTEX
  5
197
330
195
100
AcDbEntity
  8
Default
100
AcDbVertex
100
AcDb2dVertex
 10
-8.014843298532696
 20
17.31062837735038
 30
0.0
  0
SEQEND
  5
198
330
195
100
AcDbEntity
  8
Default
  0
SPLINE
  5
199
330
1F
100
AcDbEntity
  8
Default
100
AcDbSpline
210
0.0
220
0.0
230
1.0
 70
    12
 71
     2
 72
     6
 73
     3
 74
     0
 42
0.0000000001
 43
0.0000000001
 40
-3.813486716100105
 40
-3.813486716100105
 40
-3.813486716100105
 40
0.0
 40
0.0
 40
0.0
 10
0.0000058025185581
 20
17.7348258907455
 30
0.0
 41
1.0
 10
-1.907458995356095
 20
17.72863676868903
 30
0.0
 41
0.9994251345035697
 10
-3.810958000869732
 20
17.851724333805
 30
0.0
 41
1.0
  0
SPLINE
  5
19A
330
1F
100
AcDbEntity
  8
Default
100
AcDbSpline
210
0.0
220
0.0
230
1.0
 70
    12
 71
     2
 72
     6
 73
     3
 74
     0
 42
0.0000000001
 43
0.0000000001
 40
0.0
 40
0.0
 40
0.0
 40
3.813486716100105
 40
3.813486716100105
 40
3.813486716100105
 10
3.810969605906848
 20
17.851724333805
 30
0.0
 41
1.0
 10
1.907470600393209
 20
17.72863676868903
 30
0.0
 41
0.9994251345035697
 10
0.0000058025185581
 20
17.7348258907455
 30
0.0
 41
1.0
  0
SPLINE
  5
19B
330
1F
100
AcDbEntity
  8
Default
100
AcDbSpline
210
0.0
220
0.0
230
1.0
 70
     8
 71
     3
 72
    30
 73
    26
 74
     0
 42
0.0000000001
 43
0.0000000001
 40
0.0
 40
0.0
 40
0.0
 40
0.0
 40
0.3534919975642306
 40
0.4758606687717457
 40
0.7921614084063033
 40
1.486959174912311
 40
2.200515466848197
 40
2.884810661817372
 40
3.234791409544167
 40
3.555658681156235
 40
4.31054240332608
 40
10.37686140766666
 40
11.37523067076425
 40
11.88680996862254
 40
12.0648049917455
 40
12.13589134492643
 40
12.22074620701597
 40
12.35319452039107
 40
12.44808462445711
 40
12.59953636835503
 40
12.84666756430093
 40
13.01086205401493
 40
13.04107161222273
 40
13.06132239926706
 40
13.49124629195292
 40
13.49124629195292
 40
13.49124629195292
 40
13.49124629195292
 10
-8.047296660805387
 20
16.68612257574567
 30
0.0
 10
-8.16510407679084
 20
16.6883062733764
 30
0.0
 10
-8.323750463834358
 20
16.68852947275622
 30
0.0
 10
-8.58765660031463
 20
16.69932262983133
 30
0.0
 10
-8.962230354523058
 20
16.75541286642066
 30
0.0
 10
-9.505601649941866
 20
16.96497599612182
 30
0.0
 10
-10.03430668568853
 20
17.44089377176586
 30
0.0
 10
-10.29420464704765
 20
17.97332924667104
 30
0.0
 10
-10.37891950998687
 20
18.41822463907779
 30
0.0
 10
-10.45492423246526
 20
18.88692282283961
 30
0.0
 10
-10.85985459426138
 20
21.23333839434939
 30
0.0
 10
-11.29672707171562
 20
23.80260550704799
 30
0.0
 10
-11.7215192076012
 20
26.29219022403993
 30
0.0
 10
-11.80816967448061
 20
26.84812199196472
 30
0.0
 10
-11.8440264562928
 20
27.09913941000387
 30
0.0
 10
-11.85602488160669
 20
27.20979792844678
 30
0.0
 10
-11.85742663819889
 20
27.30637032654387
 30
0.0
 10
-11.82243331307575
 20
27.40720055799788
 30
0.0
 10
-11.74137795419972
 20
27.50546088564181
 30
0.0
 10
-11.59143912603531
 20
27.58538849501667
 30
0.0
 10
-11.39165215952613
 20
27.55565331474654
 30
0.0
 10
-11.2860889446232
 20
27.44482660583908
 30
0.0
 10
-11.25442943281439
 20
27.38094163072063
 30
0.0
 10
-11.18826642365786
 20
27.23511533964592
 30
0.0
 10
-11.12629532811923
 20
27.09844508505779
 30
0.0
 10
-11.06696338958824
 20
26.9679985044103
 30
0.0
  0
SPLINE
  5
19C
330
1F
100
AcDbEntity
  8
Default
100
AcDbSpline
210
0.0
220
0.0
230
1.0
 70
    12
 71
     2
 72
     6
 73
     3
 74
     0
 42
0.0000000001
 43
0.0000000001
 40
0.0
 40
0.0
 40
0.0
 40
2.748284039546211
 40
2.748284039546211
 40
2.748284039546211
 10
0.0000058025185581
 20
15.80120838937017
 30
0.0
 41
1.0
 10
1.376239993676736
 20
15.80478410895135
 30
0.0
 41
0.9977161890770233
 10
2.739434361306394
 20
15.99381968835657
 30
0.0
 41
1.0
  0
SPLINE
  5
19D
330
1F
100
AcDbEntity
  8
Default
100
AcDbSpline
210
0.0
220
0.0
230
1.0
 70
    12
 71
     2
 72
     6
 73
     3
 74
     0
 42
0.0000000001
 43
0.0000000001
 40
-2.748284039546211
 40
-2.748284039546211
 40
-2.748284039546211
 40
0.0
 40
0.0
 40
0.0
 10
-2.739422756269278
 20
15.99381968835657
 30
0.0
 41
1.0
 10
-1.376228388639603
 20
15.80478410895135
 30
0.0
 41
0.9977161890770233
 10
0.0000058025185581
 20
15.80120838937017
 30
0.0
 41
1.0
  0
SPLINE
  5
19E
330
1F
100
AcDbEntity
  8
Default
100
AcDbSpline
210
0.0
220
0.0
230
1.0
 70
    12
 71
     2
 72
     6
 73
     3
 74
     0
 42
0.0000000001
 43
0.0000000001
 40
0.0
 40
0.0
 40
0.0
 40
0.039938064346221
 40
0.039938064346221
 40
0.039938064346221
 10
-9.203036483465837
 20
0.3215951473465708
 30
0.0
 41
1.0
 10
-9.22299163857138
 20
0.3223490535418713
 30
0.0
 41
0.9999730226390744
 10
-9.242955715449511
 20
0.3228097315648171
 30
0.0
 41
1.0
  0
SPLINE
  5
19F
330
1F
100
AcDbEntity
  8
Default
100
AcDbSpline
210
0.0
220
0.0
230
1.0
 70
     8
 71
     3
 72
    11
 73
     7
 74
     0
 42
0.0000000001
 43
0.0000000001
 40
0.0
 40
0.0
 40
0.0
 40
0.0
 40
0.4305319194939327
 40
0.6761607843529747
 40
0.936694035910168
 40
1.187533833707546
 40
1.187533833707546
 40
1.187533833707546
 40
1.187533833707546
 10
23.53280118832879
 20
21.49198935763904
 30
0.0
 10
23.67271622930286
 20
21.52400373816947
 30
0.0
 10
23.89710993079751
 20
21.55067232116495
 30
0.0
 10
24.19996439125009
 20
21.62849913093586
 30
0.0
 10
24.43833475906126
 20
21.71181675175167
 30
0.0
 10
24.59080461663905
 20
21.78942903842479
 30
0.0
 10
24.66316912171595
 20
21.83107213096186
 30
0.0
  0
SPLINE
  5
1A0
330
1F
100
AcDbEntity
  8
Default
100
AcDbSpline
210
0.0
220
0.0
230
1.0
 70
    12
 71
     2
 72
     6
 73
     3
 74
     0
 42
0.0000000001
 43
0.0000000001
 40
0.0
 40
0.0
 40
0.0
 40
0.1494246053130951
 40
0.1494246053130951
 40
0.1494246053130951
 10
41.5297888534605
 20
17.50709595517073
 30
0.0
 41
1.0
 10
41.62224252825254
 20
17.50148670387944
 30
0.0
 41
0.7336471297361905
 10
41.63490586007339
 20
17.59324064499258
 30
0.0
 41
1.0
  0
SPLINE
  5
1A1
330
1F
100
AcDbEntity
  8
Default
100
AcDbSpline
210
0.0
220
0.0
230
1.0
 70
     8
 71
     3
 72
    11
 73
     7
 74
     0
 42
0.0000000001
 43
0.0000000001
 40
0.0
 40
0.0
 40
0.0
 40
0.0
 40
0.7410408828254953
 40
1.100203758147386
 40
1.449683809914282
 40
1.693771736817889
 40
1.693771736817889
 40
1.693771736817889
 40
1.693771736817889
 10
6.730749511465376
 20
55.50956118574933
 30
0.0
 10
6.96795125845108
 20
55.57849951683042
 30
0.0
 10
7.321360345867618
 20
55.67651402580142
 30
0.0
 10
7.78307139063844
 20
55.81939454033605
 30
0.0
 10
8.08079362276385
 20
55.93041824020409
 30
0.0
 10
8.260518886245563
 20
56.01381986265088
 30
0.0
 10
8.329798306918292
 20
56.05673869349258
 30
0.0
  0
SPLINE
  5
1A2
330
1F
100
AcDbEntity
  8
Default
100
AcDbSpline
210
0.0
220
0.0
230
1.0
 70
    12
 71
     2
 72
    10
 73
     7
 74
     0
 42
0.0000000001
 43
0.0000000001
 40
0.0
 40
0.0
 40
0.0
 40
0.4788205097622018
 40
0.4788205097622018
 40
0.9696943618856155
 40
0.9696943618856155
 40
0.9820271681433114
 40
0.9820271681433114
 40
0.9820271681433114
 10
22.42474340185851
 20
25.4221088293622
 30
0.0
 41
1.0
 10
22.12737623360247
 20
25.37764328216181
 30
0.0
 41
0.7206112449415953
 10
22.07147694313926
 20
25.67307463962101
 30
0.0
 41
1.0
 10
22.01337890189167
 20
25.98012653686838
 30
0.0
 41
0.7071067811865192
 10
22.32043079913905
 20
26.03822457811593
 30
0.0
 41
1.0
 10
22.32649048414402
 20
26.03937114595193
 30
0.0
 41
0.999805320735976
 10
22.33259068836009
 20
26.04027773774793
 30
0.0
 41
1.0
  0
SPLINE
  5
1A3
330
1F
100
AcDbEntity
  8
Default
100
AcDbSpline
210
0.0
220
0.0
230
1.0
 70
     8
 71
     3
 72
    21
 73
    17
 74
     0
 42
0.0000000001
 43
0.0000000001
 40
0.0
 40
0.0
 40
0.0
 40
0.0
 40
0.0665349446744058
 40
0.1649910259523991
 40
0.4349479459839425
 40
1.16407390492166
 40
1.344557613164416
 40
1.716814666684118
 40
2.500530244391534
 40
6.849166235313318
 40
7.142536959937101
 40
7.897127356275973
 40
8.73353383978226
 40
9.026799509077534
 40
9.143648345529225
 40
9.324979678413737
 40
9.324979678413737
 40
9.324979678413737
 40
9.324979678413737
 10
23.65612297532073
 20
25.60701506752208
 30
0.0
 10
23.67693058517722
 20
25.599036178421
 30
0.0
 10
23.72043704247784
 20
25.56423078136847
 30
0.0
 10
23.81243815216681
 20
25.45160712232921
 30
0.0
 10
23.98419622813731
 20
25.12652919025921
 30
0.0
 10
24.090615919382
 20
24.74552483650392
 30
0.0
 10
24.1833438281966
 20
24.32915874459802
 30
0.0
 10
24.26609620591807
 20
23.89109407222941
 30
0.0
 10
24.61367251618242
 20
22.08970258437708
 30
0.0
 10
24.95553157048448
 20
20.31348033686182
 30
0.0
 10
25.29489590440261
 20
18.54696628662654
 30
0.0
 10
25.43265239996254
 20
17.93506365274122
 30
0.0
 10
25.64271603938715
 20
17.33725139016492
 30
0.0
 10
25.89187824477131
 20
16.99950697956935
 30
0.0
 10
26.04505709539478
 20
16.87425158444138
 30
0.0
 10
26.13066187789013
 20
16.82330702755137
 30
0.0
 10
26.18113688122298
 20
16.79011950232619
 30
0.0
  0
ENDSEC
  0
SECTION
  2
OBJECTS
  0
DICTIONARY
  5
C
330
0
100
AcDbDictionary
281
     1
  3
ACAD_GROUP
350
D
  3
ACAD_LAYOUT
350
1A
  3
ACAD_MLEADERSTYLE
350
1A5
  3
ACAD_MLINESTYLE
350
17
  3
ACAD_PLOTSETTINGS
350
19
  3
ACAD_PLOTSTYLENAME
350
E
  3
ACAD_TABLESTYLE
350
1A4
  3
ACAD_VISUALSTYLE
350
2A
  0
DICTIONARY
  5
D
102
{ACAD_REACTORS
330
C
102
}
330
C
100
AcDbDictionary
281
     1
  0
DICTIONARY
  5
1A
102
{ACAD_REACTORS
330
C
102
}
330
C
100
AcDbDictionary
281
     1
  3
Layout1
350
1E
  3
Layout2
350
26
  3
Model
350
22
  0
DICTIONARY
  5
1A5
102
{ACAD_REACTORS
330
C
102
}
330
C
100
AcDbDictionary
281
     1
  0
DICTIONARY
  5
17
102
{ACAD_REACTORS
330
C
102
}
330
C
100
AcDbDictionary
281
     1
  3
Standard
350
18
  0
DICTIONARY
  5
19
102
{ACAD_REACTORS
330
C
102
}
330
C
100
AcDbDictionary
281
     1
  0
ACDBDICTIONARYWDFLT
  5
E
102
{ACAD_REACTORS
330
C
102
}
330
C
100
AcDbDictionary
281
     1
  3
Normal
350
F
100
AcDbDictionaryWithDefault
340
F
  0
DICTIONARY
  5
1A4
102
{ACAD_REACTORS
330
C
102
}
330
C
100
AcDbDictionary
281
     1
  0
DICTIONARY
  5
2A
102
{ACAD_REACTORS
330
C
102
}
330
C
100
AcDbDictionary
281
     1
  3
2dWireframe
350
2F
  3
3D Hidden
350
31
  3
3dWireframe
350
30
  3
Basic
350
32
  3
Brighten
350
36
  3
ColorChange
350
3A
  3
Conceptual
350
34
  3
Dim
350
35
  3
Facepattern
350
39
  3
Flat
350
2B
  3
FlatWithEdges
350
2C
  3
Gouraud
350
2D
  3
GouraudWithEdges
350
2E
  3
Linepattern
350
38
  3
Realistic
350
33
  3
Thicken
350
37
  0
LAYOUT
  5
1E
102
{ACAD_REACTORS
330
1A
102
}
330
1A
100
AcDbPlotSettings
  1

  2
none_device
  4

  6

 40
0.0
 41
0.0
 42
0.0
 43
0.0
 44
0.0
 45
0.0
 46
0.0
 47
0.0
 48
0.0
 49
0.0
140
0.0
141
0.0
142
1.0
143
1.0
 70
   688
 72
     0
 73
     0
 74
     5
  7

 75
    16
 76
     0
 77
     2
 78
   300
147
1.0
148
0.0
149
0.0
100
AcDbLayout
  1
Layout1
 70
     1
 71
     1
 10
0.0
 20
0.0
 11
12.0
 21
9.0
 12
0.0
 22
0.0
 32
0.0
 14
1.000000000000000E+20
 24
1.000000000000000E+20
 34
1.000000000000000E+20
 15
-1.000000000000000E+20
 25
-1.000000000000000E+20
 35
-1.000000000000000E+20
146
0.0
 13
0.0
 23
0.0
 33
0.0
 16
1.0
 26
0.0
 36
0.0
 17
0.0
 27
1.0
 37
0.0
 76
     0
330
1B
  0
LAYOUT
  5
26
102
{ACAD_REACTORS
330
1A
102
}
330
1A
100
AcDbPlotSettings
  1

  2
none_device
  4

  6

 40
0.0
 41
0.0
 42
0.0
 43
0.0
 44
0.0
 45
0.0
 46
0.0
 47
0.0
 48
0.0
 49
0.0
140
0.0
141
0.0
142
1.0
143
1.0
 70
   688
 72
     0
 73
     0
 74
     5
  7

 75
    16
 76
     0
 77
     2
 78
   300
147
1.0
148
0.0
149
0.0
100
AcDbLayout
  1
Layout2
 70
     1
 71
     2
 10
0.0
 20
0.0
 11
0.0
 21
0.0
 12
0.0
 22
0.0
 32
0.0
 14
0.0
 24
0.0
 34
0.0
 15
0.0
 25
0.0
 35
0.0
146
0.0
 13
0.0
 23
0.0
 33
0.0
 16
1.0
 26
0.0
 36
0.0
 17
0.0
 27
1.0
 37
0.0
 76
     0
330
23
  0
LAYOUT
  5
22
102
{ACAD_REACTORS
330
1A
102
}
330
1A
100
AcDbPlotSettings
  1

  2
none_device
  4

  6

 40
0.0
 41
0.0
 42
0.0
 43
0.0
 44
0.0
 45
0.0
 46
0.0
 47
0.0
 48
0.0
 49
0.0
140
0.0
141
0.0
142
1.0
143
1.0
 70
  1712
 72
     0
 73
     0
 74
     0
  7

 75
     0
 76
     0
 77
     2
 78
   300
147
1.0
148
0.0
149
0.0
100
AcDbLayout
  1
Model
 70
     1
 71
     0
 10
0.0
 20
0.0
 11
12.0
 21
9.0
 12
0.0
 22
0.0
 32
0.0
 14
-11.85507069329842
 24
-0.0021576644025792
 34
0.0
 15
41.97845089355998
 25
61.51311016827538
 35
0.0
146
0.0
 13
0.0
 23
0.0
 33
0.0
 16
1.0
 26
0.0
 36
0.0
 17
0.0
 27
1.0
 37
0.0
 76
     0
330
1F
331
29
  0
MLINESTYLE
  5
18
102
{ACAD_REACTORS
330
17
102
}
330
17
100
AcDbMlineStyle
  2
Standard
 70
     0
  3

 62
   256
 51
90.0
 52
90.0
 71
     2
 49
0.5
 62
   256
  6
BYLAYER
 49
-0.5
 62
   256
  6
BYLAYER
  0
ACDBPLACEHOLDER
  5
F
102
{ACAD_REACTORS
330
E
102
}
330
E
  0
VISUALSTYLE
  5
2F
102
{ACAD_REACTORS
330
2A
102
}
330
2A
100
AcDbVisualStyle
  2
2dWireframe
 70
     4
 71
     0
 72
     2
 73
     0
 90
        0
 40
-0.6
 41
-30.0
 62
     5
 63
     7
421
 16777215
 74
     1
 91
        4
 64
     7
 65
   257
 75
     1
175
     1
 42
1.0
 92
        0
 66
   257
 43
1.0
 76
     1
 77
     6
 78
     2
 67
     7
 79
     5
170
     0
171
     0
290
     0
174
     0
 93
        1
 44
0.0
173
     0
291
     0
 45
0.0
1001
ACAD
1000
AcDbSavedByObjectVersion
1070
     0
  0
VISUALSTYLE
  5
31
102
{ACAD_REACTORS
330
2A
102
}
330
2A
100
AcDbVisualStyle
  2
3D Hidden
 70
     6
 71
     1
 72
     2
 73
     2
 90
        0
 40
-0.6
 41
-30.0
 62
     5
 63
     7
421
 16777215
 74
     2
 91
        2
 64
     7
 65
   257
 75
     2
175
     1
 42
40.0
 92
        0
 66
   257
 43
1.0
 76
     1
 77
     6
 78
     2
 67
     7
 79
     3
170
     0
171
     0
290
     0
174
     0
 93
        1
 44
0.0
173
     0
291
     0
 45
0.0
1001
ACAD
1000
AcDbSavedByObjectVersion
1070
     0
  0
VISUALSTYLE
  5
30
102
{ACAD_REACTORS
330
2A
102
}
330
2A
100
AcDbVisualStyle
  2
3dWireframe
 70
     5
 71
     0
 72
     2
 73
     0
 90
        0
 40
-0.6
 41
-30.0
 62
     5
 63
     7
421
 16777215
 74
     1
 91
        4
 64
     7
 65
   257
 75
     1
175
     1
 42
1.0
 92
        0
 66
   257
 43
1.0
 76
     1
 77
     6
 78
     2
 67
     7
 79
     5
170
     0
171
     0
290
     0
174
     0
 93
        1
 44
0.0
173
     0
291
     0
 45
0.0
1001
ACAD
1000
AcDbSavedByObjectVersion
1070
     0
  0
VISUALSTYLE
  5
32
102
{ACAD_REACTORS
330
2A
102
}
330
2A
100
AcDbVisualStyle
  2
Basic
 70
     7
 71
     1
 72
     0
 73
     1
 90
        0
 40
-0.6
 41
-30.0
 62
     5
 63
     7
421
 16777215
 74
     0
 91
        4
 64
     7
 65
   257
 75
     1
175
     1
 42
1.0
 92
        8
 66
     7
 43
1.0
 76
     1
 77
     6
 78
     2
 67
     7
 79
     5
170
     0
171
     0
290
     0
174
     0
 93
        1
 44
0.0
173
     0
291
     1
 45
0.0
1001
ACAD
1000
AcDbSavedByObjectVersion
1070
     0
  0
VISUALSTYLE
  5
36
102
{ACAD_REACTORS
330
2A
102
}
330
2A
100
AcDbVisualStyle
  2
Brighten
 70
    12
 71
     2
 72
     2
 73
     0
 90
        0
 40
-0.6
 41
-30.0
 62
     5
 63
     7
421
 16777215
 74
     1
 91
        4
 64
     7
 65
   257
 75
     1
175
     1
 42
1.0
 92
        8
 66
     7
 43
1.0
 76
     1
 77
     6
 78
     2
 67
     7
 79
     5
170
     0
171
     0
290
     0
174
     0
 93
        1
 44
50.0
173
     0
291
     1
 45
0.0
1001
ACAD
1000
AcDbSavedByObjectVersion
1070
     0
  0
VISUALSTYLE
  5
3A
102
{ACAD_REACTORS
330
2A
102
}
330
2A
100
AcDbVisualStyle
  2
ColorChange
 70
    16
 71
     2
 72
     2
 73
     3
 90
        0
 40
-0.6
 41
-30.0
 62
     5
 63
     8
421
  8421504
 74
     1
 91
        4
 64
     7
 65
   257
 75
     1
175
     1
 42
1.0
 92
        8
 66
     8
424
  8421504
 43
1.0
 76
     1
 77
     6
 78
     2
 67
     7
 79
     5
170
     0
171
     0
290
     0
174
     0
 93
        1
 44
0.0
173
     0
291
     1
 45
0.0
1001
ACAD
1000
AcDbSavedByObjectVersion
1070
     0
  0
VISUALSTYLE
  5
34
102
{ACAD_REACTORS
330
2A
102
}
330
2A
100
AcDbVisualStyle
  2
Conceptual
 70
     9
 71
     3
 72
     2
 73
     0
 90
        0
 40
-0.6
 41
-30.0
 62
     5
 63
     7
421
 16777215
 74
     2
 91
        2
 64
     7
 65
   257
 75
     1
175
     1
 42
40.0
 92
        8
 66
     7
 43
1.0
 76
     1
 77
     6
 78
     2
 67
     7
 79
     3
170
     0
171
     0
290
     0
174
     0
 93
        1
 44
0.0
173
     0
291
     0
 45
0.0
1001
ACAD
1000
AcDbSavedByObjectVersion
1070
     0
  0
VISUALSTYLE
  5
35
102
{ACAD_REACTORS
330
2A
102
}
330
2A
100
AcDbVisualStyle
  2
Dim
 70
    11
 71
     2
 72
     2
 73
     0
 90
        0
 40
-0.6
 41
-30.0
 62
     5
 63
     7
421
 16777215
 74
     1
 91
        4
 64
     7
 65
   257
 75
     1
175
     1
 42
1.0
 92
        8
 66
     7
 43
1.0
 76
     1
 77
     6
 78
     2
 67
     7
 79
     5
170
     0
171
     0
290
     0
174
     0
 93
        1
 44
-50.0
173
     0
291
     1
 45
0.0
1001
ACAD
1000
AcDbSavedByObjectVersion
1070
     0
  0
VISUALSTYLE
  5
39
102
{ACAD_REACTORS
330
2A
102
}
330
2A
100
AcDbVisualStyle
  2
Facepattern
 70
    15
 71
     2
 72
     2
 73
     0
 90
        0
 40
-0.6
 41
-30.0
 62
     5
 63
     7
421
 16777215
 74
     1
 91
        4
 64
     7
 65
   257
 75
     1
175
     1
 42
1.0
 92
        8
 66
     7
 43
1.0
 76
     1
 77
     6
 78
     2
 67
     7
 79
     5
170
     0
171
     0
290
     0
174
     0
 93
        1
 44
0.0
173
     0
291
     1
 45
0.0
1001
ACAD
1000
AcDbSavedByObjectVersion
1070
     0
  0
VISUALSTYLE
  5
2B
102
{ACAD_REACTORS
330
2A
102
}
330
2A
100
AcDbVisualStyle
  2
Flat
 70
     0
 71
     2
 72
     1
 73
     1
 90
        2
 40
-0.6
 41
30.0
 62
     5
 63
     7
421
 16777215
 74
     0
 91
        4
 64
     7
 65
   257
 75
     1
175
     1
 42
1.0
 92
        8
 66
     7
 43
1.0
 76
     1
 77
     6
 78
     2
 67
     7
 79
     5
170
     0
171
     0
290
     0
174
     0
 93
       13
 44
0.0
173
     0
291
     1
 45
0.0
1001
ACAD
1000
AcDbSavedByObjectVersion
1070
     0
  0
VISUALSTYLE
  5
2C
102
{ACAD_REACTORS
330
2A
102
}
330
2A
100
AcDbVisualStyle
  2
FlatWithEdges
 70
     1
 71
     2
 72
     1
 73
     1
 90
        2
 40
-0.6
 41
30.0
 62
     5
 63
     7
421
 16777215
 74
     1
 91
        4
 64
     7
 65
   257
 75
     1
175
     1
 42
1.0
 92
        0
 66
   257
 43
1.0
 76
     1
 77
     6
 78
     2
 67
     7
 79
     5
170
     0
171
     0
290
     0
174
     0
 93
       13
 44
0.0
173
     0
291
     1
 45
0.0
1001
ACAD
1000
AcDbSavedByObjectVersion
1070
     0
  0
VISUALSTYLE
  5
2D
102
{ACAD_REACTORS
330
2A
102
}
330
2A
100
AcDbVisualStyle
  2
Gouraud
 70
     2
 71
     2
 72
     2
 73
     1
 90
        2
 40
-0.6
 41
30.0
 62
     5
 63
     7
421
 16777215
 74
     0
 91
        4
 64
     7
 65
   257
 75
     1
175
     1
 42
1.0
 92
        0
 66
     7
 43
1.0
 76
     1
 77
     6
 78
     2
 67
     7
 79
     5
170
     0
171
     0
290
     0
174
     0
 93
       13
 44
0.0
173
     0
291
     1
 45
0.0
1001
ACAD
1000
AcDbSavedByObjectVersion
1070
     0
  0
VISUALSTYLE
  5
2E
102
{ACAD_REACTORS
330
2A
102
}
330
2A
100
AcDbVisualStyle
  2
GouraudWithEdges
 70
     3
 71
     2
 72
     2
 73
     1
 90
        2
 40
-0.6
 41
30.0
 62
     5
 63
     7
421
 16777215
 74
     1
 91
        4
 64
     7
 65
   257
 75
     1
175
     1
 42
1.0
 92
        0
 66
   257
 43
1.0
 76
     1
 77
     6
 78
     2
 67
     7
 79
     5
170
     0
171
     0
290
     0
174
     0
 93
       13
 44
0.0
173
     0
291
     1
 45
0.0
1001
ACAD
1000
AcDbSavedByObjectVersion
1070
     0
  0
VISUALSTYLE
  5
38
102
{ACAD_REACTORS
330
2A
102
}
330
2A
100
AcDbVisualStyle
  2
Linepattern
 70
    14
 71
     2
 72
     2
 73
     0
 90
        0
 40
-0.6
 41
-30.0
 62
     5
 63
     7
421
 16777215
 74
     1
 91
        4
 64
     7
 65
   257
 75
     7
175
     7
 42
1.0
 92
        8
 66
     7
 43
1.0
 76
     1
 77
     6
 78
     2
 67
     7
 79
     5
170
     0
171
     0
290
     0
174
     0
 93
        1
 44
0.0
173
     0
291
     1
 45
0.0
1001
ACAD
1000
AcDbSavedByObjectVersion
1070
     0
  0
VISUALSTYLE
  5
33
102
{ACAD_REACTORS
330
2A
102
}
330
2A
100
AcDbVisualStyle
  2
Realistic
 70
     8
 71
     2
 72
     2
 73
     0
 90
        0
 40
-0.6
 41
-30.0
 62
     5
 63
     7
421
 16777215
 74
     1
 91
        0
 64
     7
 65
   257
 75
     1
175
     1
 42
1.0
 92
        8
 66
     8
424
  7895160
 43
1.0
 76
     1
 77
     6
 78
     2
 67
     7
 79
     5
170
     0
171
     0
290
     0
174
     0
 93
       13
 44
0.0
173
     0
291
     0
 45
0.0
1001
ACAD
1000
AcDbSavedByObjectVersion
1070
     0
  0
VISUALSTYLE
  5
37
102
{ACAD_REACTORS
330
2A
102
}
330
2A
100
AcDbVisualStyle
  2
Thicken
 70
    13
 71
     2
 72
     2
 73
     0
 90
        0
 40
-0.6
 41
-30.0
 62
     5
 63
     7
421
 16777215
 74
     1
 91
        4
 64
     7
 65
   257
 75
     1
175
     1
 42
1.0
 92
       12
 66
     7
 43
1.0
 76
     1
 77
     6
 78
     2
 67
     7
 79
     5
170
     0
171
     0
290
     0
174
     0
 93
        1
 44
0.0
173
     0
291
     1
 45
0.0
1001
ACAD
1000
AcDbSavedByObjectVersion
1070
     0
  0
ENDSEC
  0
EOF
